  0
SECTION
  2
HEADER
  9
$ACADVER
  1
AC1014
  9
$ACADMAINTVER
 70
     9
  9
$DWGCODEPAGE
  3
ANSI_1252
  9
$INSBASE
 10
9.673469590706194
 20
3.712373781739456
 30
0.0
  9
$EXTMIN
 10
-8.328727572933431
 20
-14.71998644019483
 30
-0.0000000349181948
  9
$EXTMAX
 10
27.67566709243215
 20
10.48472125500693
 30
0.0000000814935746
  9
$LIMMIN
 10
0.0
 20
0.0
  9
$LIMMAX
 10
17.0
 20
11.0
  9
$ORTHOMODE
 70
     1
  9
$REGENMODE
 70
     1
  9
$FILLMODE
 70
     1
  9
$QTEXTMODE
 70
     0
  9
$MIRRTEXT
 70
     1
  9
$DRAGMODE
 70
     2
  9
$LTSCALE
 40
2.0
  9
$OSMODE
 70
    55
  9
$ATTMODE
 70
     1
  9
$TEXTSIZE
 40
0.2
  9
$TRACEWID
 40
0.05
  9
$TEXTSTYLE
  7
STANDARD
  9
$CLAYER
  8
0
  9
$CELTYPE
  6
BYLAYER
  9
$CECOLOR
 62
   256
  9
$CELTSCALE
 40
1.0
  9
$DELOBJ
 70
     1
  9
$DISPSILH
 70
     0
  9
$DIMSCALE
 40
1.0
  9
$DIMASZ
 40
0.1875
  9
$DIMEXO
 40
0.0625
  9
$DIMDLI
 40
0.38
  9
$DIMRND
 40
0.0
  9
$DIMDLE
 40
0.0
  9
$DIMEXE
 40
0.18
  9
$DIMTP
 40
0.0
  9
$DIMTM
 40
0.0
  9
$DIMTXT
 40
0.125
  9
$DIMCEN
 40
0.09
  9
$DIMTSZ
 40
0.0
  9
$DIMTOL
 70
     0
  9
$DIMLIM
 70
     0
  9
$DIMTIH
 70
     1
  9
$DIMTOH
 70
     1
  9
$DIMSE1
 70
     0
  9
$DIMSE2
 70
     0
  9
$DIMTAD
 70
     0
  9
$DIMZIN
 70
     4
  9
$DIMBLK
  1
_FILLED
  9
$DIMASO
 70
     1
  9
$DIMSHO
 70
     1
  9
$DIMPOST
  1

  9
$DIMAPOST
  1

  9
$DIMALT
 70
     0
  9
$DIMALTD
 70
     2
  9
$DIMALTF
 40
25.4
  9
$DIMLFAC
 40
1.0
  9
$DIMTOFL
 70
     0
  9
$DIMTVP
 40
0.0
  9
$DIMTIX
 70
     0
  9
$DIMSOXD
 70
     0
  9
$DIMSAH
 70
     0
  9
$DIMBLK1
  1

  9
$DIMBLK2
  1

  9
$DIMSTYLE
  2
STANDARD
  9
$DIMCLRD
 70
     0
  9
$DIMCLRE
 70
     0
  9
$DIMCLRT
 70
     0
  9
$DIMTFAC
 40
1.0
  9
$DIMGAP
 40
0.09
  9
$DIMJUST
 70
     0
  9
$DIMSD1
 70
     0
  9
$DIMSD2
 70
     0
  9
$DIMTOLJ
 70
     1
  9
$DIMTZIN
 70
     4
  9
$DIMALTZ
 70
     0
  9
$DIMALTTZ
 70
     0
  9
$DIMFIT
 70
     3
  9
$DIMUPT
 70
     0
  9
$DIMUNIT
 70
     2
  9
$DIMDEC
 70
     2
  9
$DIMTDEC
 70
     2
  9
$DIMALTU
 70
     2
  9
$DIMALTTD
 70
     2
  9
$DIMTXSTY
  7
STANDARD
  9
$DIMAUNIT
 70
     0
  9
$LUNITS
 70
     2
  9
$LUPREC
 70
     4
  9
$SKETCHINC
 40
0.1
  9
$FILLETRAD
 40
0.0
  9
$AUNITS
 70
     0
  9
$AUPREC
 70
     0
  9
$MENU
  1
acad
  9
$ELEVATION
 40
0.0
  9
$PELEVATION
 40
0.0
  9
$THICKNESS
 40
0.0
  9
$LIMCHECK
 70
     0
  9
$BLIPMODE
 70
     0
  9
$CHAMFERA
 40
0.0
  9
$CHAMFERB
 40
0.0
  9
$CHAMFERC
 40
0.0
  9
$CHAMFERD
 40
0.0
  9
$SKPOLY
 70
     0
  9
$TDCREATE
 40
2453676.832069583
  9
$TDUPDATE
 40
2453685.548332708
  9
$TDINDWG
 40
0.0231465509
  9
$TDUSRTIMER
 40
0.0231465509
  9
$USRTIMER
 70
     1
  9
$ANGBASE
 50
0.0
  9
$ANGDIR
 70
     0
  9
$PDMODE
 70
     3
  9
$PDSIZE
 40
0.015625
  9
$PLINEWID
 40
0.0
  9
$COORDS
 70
     1
  9
$SPLFRAME
 70
     0
  9
$SPLINETYPE
 70
     6
  9
$SPLINESEGS
 70
     8
  9
$ATTDIA
 70
     0
  9
$ATTREQ
 70
     1
  9
$HANDLING
 70
 22529
  9
$HANDSEED
  5
4B5
  9
$SURFTAB1
 70
     6
  9
$SURFTAB2
 70
     6
  9
$SURFTYPE
 70
     6
  9
$SURFU
 70
     6
  9
$SURFV
 70
     6
  9
$UCSNAME
  2

  9
$UCSORG
 10
0.0
 20
0.0
 30
0.0
  9
$UCSXDIR
 10
1.0
 20
0.0
 30
0.0
  9
$UCSYDIR
 10
0.0
 20
1.0
 30
0.0
  9
$PUCSNAME
  2

  9
$PUCSORG
 10
0.0
 20
0.0
 30
0.0
  9
$PUCSXDIR
 10
1.0
 20
0.0
 30
0.0
  9
$PUCSYDIR
 10
0.0
 20
1.0
 30
0.0
  9
$USERI1
 70
     0
  9
$USERI2
 70
     0
  9
$USERI3
 70
     0
  9
$USERI4
 70
     0
  9
$USERI5
 70
     0
  9
$USERR1
 40
0.0
  9
$USERR2
 40
0.0
  9
$USERR3
 40
0.0
  9
$USERR4
 40
0.0
  9
$USERR5
 40
0.0
  9
$WORLDVIEW
 70
     1
  9
$SHADEDGE
 70
     3
  9
$SHADEDIF
 70
    70
  9
$TILEMODE
 70
     1
  9
$MAXACTVP
 70
    16
  9
$PINSBASE
 10
0.0
 20
0.0
 30
0.0
  9
$PLIMCHECK
 70
     0
  9
$PEXTMIN
 10
1.000000000000000E+20
 20
1.000000000000000E+20
 30
1.000000000000000E+20
  9
$PEXTMAX
 10
-1.000000000000000E+20
 20
-1.000000000000000E+20
 30
-1.000000000000000E+20
  9
$PLIMMIN
 10
0.0
 20
0.0
  9
$PLIMMAX
 10
12.0
 20
9.0
  9
$UNITMODE
 70
     0
  9
$VISRETAIN
 70
     0
  9
$PLINEGEN
 70
     1
  9
$PSLTSCALE
 70
     0
  9
$TREEDEPTH
 70
  3020
  9
$PICKSTYLE
 70
     1
  9
$CMLSTYLE
  2
STANDARD
  9
$CMLJUST
 70
     0
  9
$CMLSCALE
 40
1.0
  9
$PROXYGRAPHICS
 70
     0
  9
$MEASUREMENT
 70
     0
  0
ENDSEC
  0
SECTION
  2
CLASSES
  0
CLASS
  1
ACDBDICTIONARYWDFLT
  2
AcDbDictionaryWithDefault
  3
AutoCAD 2000
 90
        0
280
     0
281
     0
  0
CLASS
  1
ACDBPLACEHOLDER
  2
AcDbPlaceHolder
  3
AutoCAD 2000
 90
        0
280
     0
281
     0
  0
CLASS
  1
LAYOUT
  2
AcDbLayout
  3
AutoCAD 2000
 90
        0
280
     0
281
     0
  0
CLASS
  1
LWPOLYLINE
  2
AcDbPolyline
  3
AutoCAD 2000
 90
        0
280
     0
281
     1
  0
CLASS
  1
IMAGE
  2
AcDbRasterImage
  3
ISM
 90
      127
280
     0
281
     1
  0
CLASS
  1
OLE2FRAME
  2
AcDbOle2Frame
  3
AutoCAD 2000
 90
        0
280
     0
281
     1
  0
CLASS
  1
HATCH
  2
AcDbHatch
  3
AutoCAD 2000
 90
        0
280
     0
281
     1
  0
CLASS
  1
DICTIONARYVAR
  2
AcDbDictionaryVar
  3
AutoCAD 2000
 90
        0
280
     0
281
     0
  0
CLASS
  1
RASTERVARIABLES
  2
AcDbRasterVariables
  3
ISM
 90
        0
280
     0
281
     0
  0
CLASS
  1
IMAGEDEF
  2
AcDbRasterImageDef
  3
ISM
 90
        0
280
     0
281
     0
  0
CLASS
  1
IMAGEDEF_REACTOR
  2
AcDbRasterImageDefReactor
  3
ISM
 90
        1
280
     0
281
     0
  0
CLASS
  1
IDBUFFER
  2
AcDbIdBuffer
  3
AutoCAD 2000
 90
        0
280
     0
281
     0
  0
CLASS
  1
SPATIAL_FILTER
  2
AcDbSpatialFilter
  3
AutoCAD 2000
 90
        0
280
     0
281
     0
  0
CLASS
  1
XRECORD
  2
AcDbXrecord
  3
AutoCAD 2000
 90
        0
280
     0
281
     0
  0
CLASS
  1
SORTENTSTABLE
  2
AcDbSortentsTable
  3
AutoCAD 2000
 90
        0
280
     0
281
     0
  0
CLASS
  1
LAYER_INDEX
  2
AcDbLayerIndex
  3
AutoCAD 2000
 90
        0
280
     0
281
     0
  0
CLASS
  1
SPATIAL_INDEX
  2
AcDbSpatialIndex
  3
AutoCAD 2000
 90
        0
280
     0
281
     0
  0
CLASS
  1
OBJECT_PTR
  2
CAseDLPNTableRecord
  3
ASE-LPNTableRecord
 90
        1
280
     0
281
     0
  0
CLASS
  1
PLOTSETTINGS
  2
AcDbPlotSettings
  3
AutoCAD 2000
 90
        0
280
     0
281
     0
  0
CLASS
  1
VBA_PROJECT
  2
AcDbVbaProject
  3
acadvba
 90
        0
280
     0
281
     0
  0
CLASS
  1
WIPEOUT
  2
AcDbWipeout
  3
"WipeOut|Product Desc: Object Enabler for WipeOut entity^I^I^I^I^I^I|Company: Autodesk, Inc.^I^I^I^I^I^I|WEB Address: www.autodesk.com"
 90
      127
280
     0
281
     1
  0
CLASS
  1
WIPEOUTVARIABLES
  2
AcDbWipeoutVariables
  3
"WipeOut|Product Desc:     WipeOut Dbx Application|Company:          Autodesk, Inc.|WEB Address:      www.autodesk.com"
 90
        0
280
     0
281
     0
  0
CLASS
  1
RTEXT
  2
RText
  3
RText|AutoCAD Express Tool|expresstools@autodesk.com
 90
        0
280
     1
281
     1
  0
CLASS
  1
ARCALIGNEDTEXT
  2
AcDbArcAlignedText
  3
ATEXT|AutoCAD Express Tool|expresstools@autodesk.com
 90
        0
280
     1
281
     1
  0
CLASS
  1
TABLESTYLE
  2
AcDbTableStyle
  3
ObjectDBX Classes
 90
     2047
280
     0
281
     0
  0
CLASS
  1
ACAD_PROXY_OBJECT_WRAPPER
  2
AcDbProxyObjectWrapper
  3
AutoCAD 2000
 90
        0
280
     0
281
     0
  0
CLASS
  1
LONG_TRANSACTION
  2
AcDbLongTransaction
  3
AutoCAD 2000
 90
        0
280
     0
281
     0
  0
CLASS
  1
LWPOLYLINE
  2
AcDbPolyline
  3
AutoCAD 2000
 90
        0
280
     0
281
     1
  0
CLASS
  1
HATCH
  2
AcDbHatch
  3
AutoCAD 2000
 90
        0
280
     0
281
     1
  0
CLASS
  1
XRECORD
  2
AcDbXrecord
  3
AutoCAD 2000
 90
        0
280
     0
281
     0
  0
CLASS
  1
LONG_TRANSACTION
  2
AcDbLongTransaction
  3
AutoCAD 2000
 90
        0
280
     0
281
     0
  0
CLASS
  1
LWPOLYLINE
  2
AcDbPolyline
  3
AutoCAD 2000
 90
        0
280
     0
281
     1
  0
CLASS
  1
HATCH
  2
AcDbHatch
  3
AutoCAD 2000
 90
        0
280
     0
281
     1
  0
CLASS
  1
XRECORD
  2
AcDbXrecord
  3
AutoCAD 2000
 90
        0
280
     0
281
     0
  0
CLASS
  1
LONG_TRANSACTION
  2
AcDbLongTransaction
  3
AutoCAD 2000
 90
        0
280
     0
281
     0
  0
CLASS
  1
LWPOLYLINE
  2
AcDbPolyline
  3
AutoCAD 2000
 90
        0
280
     0
281
     1
  0
CLASS
  1
HATCH
  2
AcDbHatch
  3
AutoCAD 2000
 90
        0
280
     0
281
     1
  0
CLASS
  1
XRECORD
  2
AcDbXrecord
  3
AutoCAD 2000
 90
        0
280
     0
281
     0
  0
CLASS
  1
LONG_TRANSACTION
  2
AcDbLongTransaction
  3
AutoCAD 2000
 90
        0
280
     0
281
     0
  0
CLASS
  1
LWPOLYLINE
  2
AcDbPolyline
  3
AutoCAD 2000
 90
        0
280
     0
281
     1
  0
CLASS
  1
HATCH
  2
AcDbHatch
  3
AutoCAD 2000
 90
        0
280
     0
281
     1
  0
CLASS
  1
XRECORD
  2
AcDbXrecord
  3
AutoCAD 2000
 90
        0
280
     0
281
     0
  0
ENDSEC
  0
SECTION
  2
TABLES
  0
TABLE
  2
VPORT
  5
1E
330
0
100
AcDbSymbolTable
 70
     3
  0
VPORT
  5
491
330
1E
100
AcDbSymbolTableRecord
100
AcDbViewportTableRecord
  2
*ACTIVE
 70
     0
 10
0.0
 20
0.0
 11
1.0
 21
1.0
 12
9.673469749373655
 22
-2.117632593133322
 13
0.0
 23
0.0
 14
1.0
 24
1.0
 15
0.0
 25
0.0
 16
0.0
 26
0.0
 36
1.0
 17
0.0
 27
0.0
 37
0.0
 40
29.05803756093428
 41
1.786792452830188
 42
50.0
 43
0.0
 44
0.0
 50
0.0
 51
0.0
 71
     0
 72
   100
 73
     1
 74
     1
 75
     0
 76
     0
 77
     0
 78
     0
  0
ENDTAB
  0
TABLE
  2
LTYPE
  5
19
330
0
100
AcDbSymbolTable
 70
     2
  0
LTYPE
  5
1A
330
19
100
AcDbSymbolTableRecord
100
AcDbLinetypeTableRecord
  2
BYBLOCK
 70
     0
  3

 72
    65
 73
     0
 40
0.0
  0
LTYPE
  5
1B
330
19
100
AcDbSymbolTableRecord
100
AcDbLinetypeTableRecord
  2
BYLAYER
 70
     0
  3

 72
    65
 73
     0
 40
0.0
  0
LTYPE
  5
8
330
19
100
AcDbSymbolTableRecord
100
AcDbLinetypeTableRecord
  2
CONTINUOUS
 70
     0
  3
Solid line
 72
    65
 73
     0
 40
0.0
  0
LTYPE
  5
2F2
330
19
100
AcDbSymbolTableRecord
100
AcDbLinetypeTableRecord
  2
CENTER
 70
     0
  3
____ _ ____ _ ____ _ ____ _ ____ _ ____ _ ____
 72
    65
 73
     4
 40
0.6
 49
0.375
 74
     0
 49
-0.075
 74
     0
 49
0.075
 74
     0
 49
-0.075
 74
     0
  0
ENDTAB
  0
TABLE
  2
LAYER
  5
11
102
{ACAD_XDICTIONARY
360
12
102
}
330
0
100
AcDbSymbolTable
 70
     3
  0
LAYER
  5
6
330
11
100
AcDbSymbolTableRecord
100
AcDbLayerTableRecord
  2
0
 70
     0
 62
     7
  6
CONTINUOUS
  0
LAYER
  5
2F1
330
11
100
AcDbSymbolTableRecord
100
AcDbLayerTableRecord
  2
CENTER
 70
     0
 62
     1
  6
CENTER
1001
ACAECLAYERSTANDARD
1000

1000

  0
LAYER
  5
383
330
11
100
AcDbSymbolTableRecord
100
AcDbLayerTableRecord
  2
DEFPOINTS
 70
     0
 62
     7
  6
CONTINUOUS
  0
ENDTAB
  0
TABLE
  2
STYLE
  5
16
330
0
100
AcDbSymbolTable
 70
     1
  0
STYLE
  5
17
330
16
100
AcDbSymbolTableRecord
100
AcDbTextStyleTableRecord
  2
STANDARD
 70
     0
 40
0.0
 41
0.8
 50
0.0
 71
     0
 42
0.2
  3
txt
  4

  0
ENDTAB
  0
TABLE
  2
VIEW
  5
1C
330
0
100
AcDbSymbolTable
 70
     0
  0
ENDTAB
  0
TABLE
  2
UCS
  5
1D
330
0
100
AcDbSymbolTable
 70
     0
  0
ENDTAB
  0
TABLE
  2
APPID
  5
20
330
0
100
AcDbSymbolTable
 70
     4
  0
APPID
  5
15
330
20
100
AcDbSymbolTableRecord
100
AcDbRegAppTableRecord
  2
ACAD
 70
     0
  0
APPID
  5
2F3
330
20
100
AcDbSymbolTableRecord
100
AcDbRegAppTableRecord
  2
ACAECLAYERSTANDARD
 70
     0
  0
APPID
  5
346
330
20
100
AcDbSymbolTableRecord
100
AcDbRegAppTableRecord
  2
DCO15
 70
     0
  0
APPID
  5
34E
330
20
100
AcDbSymbolTableRecord
100
AcDbRegAppTableRecord
  2
ACAD_DSTYLE_DIMTEXT_FILL
 70
     0
  0
ENDTAB
  0
TABLE
  2
DIMSTYLE
  5
21
330
0
100
AcDbSymbolTable
 70
     1
  0
DIMSTYLE
105
22
330
21
100
AcDbSymbolTableRecord
100
AcDbDimStyleTableRecord
  2
STANDARD
 70
     0
  3

  4

  5
_FILLED
  6

  7

 40
1.0
 41
0.1875
 42
0.0625
 43
0.38
 44
0.18
 45
0.0
 46
0.0
 47
0.0
 48
0.0
140
0.125
141
0.09
142
0.0
143
25.4
144
1.0
145
0.0
146
1.0
147
0.09
 71
     0
 72
     0
 73
     1
 74
     1
 75
     0
 76
     0
 77
     0
 78
     4
170
     0
171
     2
172
     0
173
     0
174
     0
175
     0
176
     0
177
     0
178
     0
270
     2
271
     2
272
     2
273
     2
274
     2
340
17
275
     0
280
     0
281
     0
282
     0
283
     1
284
     4
285
     0
286
     0
287
     3
288
     0
  0
ENDTAB
  0
TABLE
  2
BLOCK_RECORD
  5
1
330
0
100
AcDbSymbolTable
 70
     1
  0
BLOCK_RECORD
  5
2
102
{ACAD_XDICTIONARY
360
3
102
}
330
1
100
AcDbSymbolTableRecord
100
AcDbBlockTableRecord
  2
*MODEL_SPACE
  0
BLOCK_RECORD
  5
D
102
{ACAD_XDICTIONARY
360
3CC
102
}
330
1
100
AcDbSymbolTableRecord
100
AcDbBlockTableRecord
  2
*PAPER_SPACE
  0
BLOCK_RECORD
  5
23
330
1
100
AcDbSymbolTableRecord
100
AcDbBlockTableRecord
  2
_FILLED
  0
ENDTAB
  0
ENDSEC
  0
SECTION
  2
BLOCKS
  0
BLOCK
  5
5
330
2
100
AcDbEntity
  8
0
100
AcDbBlockBegin
  2
*MODEL_SPACE
 70
     0
 10
0.0
 20
0.0
 30
0.0
  3
*MODEL_SPACE
  1

  0
ENDBLK
  5
9
330
2
100
AcDbEntity
  8
0
100
AcDbBlockEnd
  0
BLOCK
  5
E
330
D
100
AcDbEntity
 67
     1
  8
0
100
AcDbBlockBegin
  2
*PAPER_SPACE
 70
     0
 10
0.0
 20
0.0
 30
0.0
  3
*PAPER_SPACE
  1

  0
ENDBLK
  5
F
330
D
100
AcDbEntity
 67
     1
  8
0
100
AcDbBlockEnd
  0
BLOCK
  5
24
330
23
100
AcDbEntity
  8
0
100
AcDbBlockBegin
  2
_FILLED
 70
     0
 10
0.0
 20
0.0
 30
0.0
  3
_FILLED
  1

  0
SOLID
  5
25
330
23
100
AcDbEntity
  8
0
  6
BYBLOCK
 62
     0
100
AcDbTrace
 10
0.0
 20
0.0
 30
0.0
 11
-1.0
 21
0.1666666667
 31
0.0
 12
-1.0
 22
-0.1666666667
 32
0.0
 13
-1.0
 23
-0.1666666667
 33
0.0
  0
ENDBLK
  5
26
330
23
100
AcDbEntity
  8
0
  6
BYBLOCK
 62
     0
100
AcDbBlockEnd
  0
ENDSEC
  0
SECTION
  2
ENTITIES
  0
LINE
  5
32
330
2
100
AcDbEntity
  8
0
100
AcDbLine
 10
4.200666691306203
 20
-9.691250736596018
 30
0.0
 11
4.209312905706191
 21
-9.688824014996029
 31
0.0
  0
LWPOLYLINE
  5
33
330
2
100
AcDbEntity
  8
0
100
AcDbPolyline
 90
       61
 70
     0
 43
0.0
 10
17.23242455690618
 20
-10.16917091899607
 10
17.29546393930618
 20
-10.15178005179605
 10
17.35865195210618
 20
-10.13493071419607
 10
17.42195210410619
 20
-10.11846263259606
 10
17.50941887370618
 20
-10.09605762459607
 10
17.59682278890619
 20
-10.07362254939606
 10
17.67220289930619
 20
-10.05388263419605
 10
17.7476059729062
 20
-10.03360310299605
 10
17.77727710410619
 20
-10.02540900539607
 10
17.80683287210618
 20
-10.01688681499605
 10
17.8361196753062
 20
-10.00781971419606
 10
17.86498391050619
 20
-9.997990885396077
 10
17.89106549930619
 20
-9.988164000596057
 10
17.91706738730619
 20
-9.977658901396083
 10
17.9433954401062
 20
-9.966622037396078
 10
17.94993290890619
 20
-9.96382593499608
 10
17.95639176330618
 20
-9.960874358996065
 10
17.9626492833062
 20
-9.95763505019606
 10
17.96858274570618
 20
-9.953975752596065
 10
17.9740694321062
 20
-9.949764208596079
 10
17.97898662090619
 20
-9.944868158996072
 10
17.98321159050618
 20
-9.939155347796074
 10
17.98570269930618
 20
-9.934576107796075
 10
17.98763083690619
 20
-9.929707005396053
 10
17.9888428145062
 20
-9.924735379796075
 10
17.98918544170618
 20
-9.919848570196066
 10
17.9885055297062
 20
-9.915233917396065
 10
17.98691430090619
 20
-9.911402280596078
 10
17.98449837130618
 20
-9.907916598996067
 10
17.9814053425062
 20
-9.904742832596085
 10
17.97778281930618
 20
-9.901846941396073
 10
17.9737784049062
 20
-9.899194885396084
 10
17.96953970090618
 20
-9.896752624596061
 10
17.96521431210618
 20
-9.894486120596084
 10
17.95335822570618
 20
-9.888886590996079
 10
17.9417919777062
 20
-9.884173891796066
 10
17.93033032970618
 20
-9.880129654996054
 10
17.91878804170619
 20
-9.876535512596078
 10
17.89749933450619
 20
-9.870710080596055
 10
17.8756656033062
 20
-9.865524843796052
 10
17.85359933930618
 20
-9.860872627796069
 10
17.82722416810619
 20
-9.855868568596079
 10
17.80089244170619
 20
-9.851366573396077
 10
17.77453309290618
 20
-9.847258891796073
 10
17.7305372065062
 20
-9.841072781396078
 10
17.6863948945062
 20
-9.835548245396083
 10
17.6396383345062
 20
-9.830287733396076
 10
17.5928454609062
 20
-9.825525414996079
 10
17.54295440330619
 20
-9.820900386196072
 10
17.49302386250619
 20
-9.816663510996065
 10
17.4399202785062
 20
-9.812515458196074
 10
17.3867944753062
 20
-9.808682646996075
 10
17.2757936753062
 20
-9.801515269396062
 10
17.16089660810618
 20
-9.795065626196063
 10
17.04291589130619
 20
-9.789260645396055
 10
16.9224701601062
 20
-9.78403589819608
 10
16.80048419530618
 20
-9.779351662996063
 10
16.67976641930619
 20
-9.775237086996085
 10
16.5623363873062
 20
-9.77168472219607
 10
16.44869552170618
 20
-9.768637222996076
 10
16.33913131850619
 20
-9.76603876219606
  0
LINE
  5
34
330
2
100
AcDbEntity
  8
0
100
AcDbLine
 10
4.192029164906195
 20
-9.693627238996029
 30
0.0
 11
4.200666691306203
 21
-9.691250736596018
 31
0.0
  0
LINE
  5
35
330
2
100
AcDbEntity
  8
0
100
AcDbLine
 10
4.18340027210619
 20
-9.695953664596046
 30
0.0
 11
4.192029164906195
 21
-9.693627238996029
 31
0.0
  0
LINE
  5
36
330
2
100
AcDbEntity
  8
0
100
AcDbLine
 10
4.174779945706212
 20
-9.698230200596029
 30
0.0
 11
4.18340027210619
 21
-9.695953664596046
 31
0.0
  0
LINE
  5
37
330
2
100
AcDbEntity
  8
0
100
AcDbLine
 10
4.166168112106198
 20
-9.70045705659605
 30
0.0
 11
4.174779945706212
 21
-9.698230200596029
 31
0.0
  0
LINE
  5
38
330
2
100
AcDbEntity
  8
0
100
AcDbLine
 10
4.157564697706199
 20
-9.702634438996042
 30
0.0
 11
4.166168112106198
 21
-9.70045705659605
 31
0.0
  0
LINE
  5
39
330
2
100
AcDbEntity
  8
0
100
AcDbLine
 10
4.148969587306204
 20
-9.704762536596021
 30
0.0
 11
4.157564697706199
 21
-9.702634438996042
 31
0.0
  0
LINE
  5
3A
330
2
100
AcDbEntity
  8
0
100
AcDbLine
 10
4.140382656106204
 20
-9.70684153019603
 30
0.0
 11
4.148969587306204
 21
-9.704762536596021
 31
0.0
  0
LINE
  5
3B
330
2
100
AcDbEntity
  8
0
100
AcDbLine
 10
4.131803780906189
 20
-9.708871602196026
 30
0.0
 11
4.140382656106204
 21
-9.70684153019603
 31
0.0
  0
LINE
  5
3C
330
2
100
AcDbEntity
  8
0
100
AcDbLine
 10
4.123232820906203
 20
-9.710852922196025
 30
0.0
 11
4.131803780906189
 21
-9.708871602196026
 31
0.0
  0
LINE
  5
3D
330
2
100
AcDbEntity
  8
0
100
AcDbLine
 10
4.1146695585062
 20
-9.712785635796038
 30
0.0
 11
4.123232820906203
 21
-9.710852922196025
 31
0.0
  0
LINE
  5
3E
330
2
100
AcDbEntity
  8
0
100
AcDbLine
 10
4.106113782506191
 20
-9.714669894996049
 30
0.0
 11
4.1146695585062
 21
-9.712785635796038
 31
0.0
  0
LINE
  5
3F
330
2
100
AcDbEntity
  8
0
100
AcDbLine
 10
4.097565315306191
 20
-9.716505850196043
 30
0.0
 11
4.106113782506191
 21
-9.714669894996049
 31
0.0
  0
LINE
  5
40
330
2
100
AcDbEntity
  8
0
100
AcDbLine
 10
4.089023897706205
 20
-9.718293634196029
 30
0.0
 11
4.097565315306191
 21
-9.716505850196043
 31
0.0
  0
LINE
  5
41
330
2
100
AcDbEntity
  8
0
100
AcDbLine
 10
4.080489201706207
 20
-9.720033366996048
 30
0.0
 11
4.089023897706205
 21
-9.718293634196029
 31
0.0
  0
LINE
  5
42
330
2
100
AcDbEntity
  8
0
100
AcDbLine
 10
4.071960905706198
 20
-9.721725168596023
 30
0.0
 11
4.080489201706207
 21
-9.720033366996048
 31
0.0
  0
LINE
  5
43
330
2
100
AcDbEntity
  8
0
100
AcDbLine
 10
4.063438620906204
 20
-9.72336914619602
 30
0.0
 11
4.071960905706198
 21
-9.721725168596023
 31
0.0
  0
LINE
  5
44
330
2
100
AcDbEntity
  8
0
100
AcDbLine
 10
4.05492183370621
 20
-9.724965446996051
 30
0.0
 11
4.063438620906204
 21
-9.72336914619602
 31
0.0
  0
LWPOLYLINE
  5
45
330
2
100
AcDbEntity
  8
0
100
AcDbPolyline
 90
       35
 70
     0
 43
0.0
 10
11.7406534513062
 20
-9.713655728596066
 10
11.7136522897062
 20
-9.718583875796085
 10
11.68865630410618
 20
-9.72016382459607
 10
11.66556248010618
 20
-9.718656656596081
 10
11.6442678065062
 20
-9.714323450196062
 10
11.62466926570618
 20
-9.70742528539607
 10
11.60666384490619
 20
-9.698223243796078
 10
11.59014853130619
 20
-9.686978405396061
 10
11.5750203105062
 20
-9.673951846996075
 10
11.56117616650618
 20
-9.659404651796066
 10
11.5485130881062
 20
-9.643597898196063
 10
11.53483551050618
 20
-9.623500750996086
 10
11.52251189450618
 20
-9.60242906459608
 10
11.50510314250618
 20
-9.567297496596054
 10
11.49021854570619
 20
-9.53104740379608
 10
11.4773213729062
 20
-9.493945474196053
 10
11.46587489610618
 20
-9.456258395796069
 10
11.45534238090618
 20
-9.418252856596055
 10
11.4272854993062
 20
-9.30836930939607
 10
11.4018581825062
 20
-9.198122266196079
 10
11.37855986570619
 20
-9.087577830996067
 10
11.3568899809062
 20
-8.976802107796075
 10
11.33634796490619
 20
-8.865861202196086
 10
11.31643325290619
 20
-8.754821219796056
 10
11.29664527530618
 20
-8.643748264596084
 10
11.23284272810619
 20
-8.296297480596066
 10
11.1670452705062
 20
-7.948984155796054
 10
11.10091910890619
 20
-7.601621267796062
 10
11.02045921610619
 20
-7.170504922196087
 10
10.94229918250618
 20
-6.739000723796053
 10
10.86668143850619
 20
-6.307084754196083
 10
10.79384841930618
 20
-5.874733093396073
 10
10.72404255210619
 20
-5.441921822996064
 10
10.65750627210618
 20
-5.008627026196066
 10
10.59448200970618
 20
-4.57482478299606
  0
LINE
  5
46
330
2
100
AcDbEntity
  8
0
100
AcDbLine
 10
4.0464100129062
 20
-9.726514307796023
 30
0.0
 11
4.05492183370621
 21
-9.724965446996051
 31
0.0
  0
LINE
  5
47
330
2
100
AcDbEntity
  8
0
100
AcDbLine
 10
4.037902539306209
 20
-9.728015950996038
 30
0.0
 11
4.0464100129062
 21
-9.726514307796023
 31
0.0
  0
LINE
  5
48
330
2
100
AcDbEntity
  8
0
100
AcDbLine
 10
4.029398620906199
 20
-9.729470555796027
 30
0.0
 11
4.037902539306209
 21
-9.728015950996038
 31
0.0
  0
LINE
  5
49
330
2
100
AcDbEntity
  8
0
100
AcDbLine
 10
4.02089744810619
 20
-9.730878304596032
 30
0.0
 11
4.029398620906199
 21
-9.729470555796027
 31
0.0
  0
LINE
  5
4A
330
2
100
AcDbEntity
  8
0
100
AcDbLine
 10
4.01239801290621
 20
-9.732239344596038
 30
0.0
 11
4.02089744810619
 21
-9.730878304596032
 31
0.0
  0
LINE
  5
4B
330
2
100
AcDbEntity
  8
0
100
AcDbLine
 10
4.003899112106189
 20
-9.733553802196027
 30
0.0
 11
4.01239801290621
 21
-9.732239344596038
 31
0.0
  0
LINE
  5
4C
330
2
100
AcDbEntity
  8
0
100
AcDbLine
 10
3.995399446506191
 20
-9.734821803796037
 30
0.0
 11
4.003899112106189
 21
-9.733553802196027
 31
0.0
  0
LINE
  5
4D
330
2
100
AcDbEntity
  8
0
100
AcDbLine
 10
3.986897324906188
 20
-9.736043406996017
 30
0.0
 11
3.995399446506191
 21
-9.734821803796037
 31
0.0
  0
LINE
  5
4E
330
2
100
AcDbEntity
  8
0
100
AcDbLine
 10
3.9783909185062
 20
-9.737218646996026
 30
0.0
 11
3.986897324906188
 21
-9.736043406996017
 31
0.0
  0
LINE
  5
4F
330
2
100
AcDbEntity
  8
0
100
AcDbLine
 10
3.969877896106204
 20
-9.738347488596033
 30
0.0
 11
3.9783909185062
 21
-9.737218646996026
 31
0.0
  0
LINE
  5
50
330
2
100
AcDbEntity
  8
0
100
AcDbLine
 10
3.961355569706206
 20
-9.739429891796035
 30
0.0
 11
3.969877896106204
 21
-9.738347488596033
 31
0.0
  0
LINE
  5
51
330
2
100
AcDbEntity
  8
0
100
AcDbLine
 10
3.952820563306211
 20
-9.74046583899603
 30
0.0
 11
3.961355569706206
 21
-9.739429891796035
 31
0.0
  0
LINE
  5
52
330
2
100
AcDbEntity
  8
0
100
AcDbLine
 10
3.944268824106195
 20
-9.741455448596028
 30
0.0
 11
3.952820563306211
 21
-9.74046583899603
 31
0.0
  0
LINE
  5
53
330
2
100
AcDbEntity
  8
0
100
AcDbLine
 10
3.935695208106189
 20
-9.742399131796034
 30
0.0
 11
3.944268824106195
 21
-9.741455448596028
 31
0.0
  0
LINE
  5
54
330
2
100
AcDbEntity
  8
0
100
AcDbLine
 10
3.92709352170619
 20
-9.743298283796022
 30
0.0
 11
3.935695208106189
 21
-9.742399131796034
 31
0.0
  0
LINE
  5
55
330
2
100
AcDbEntity
  8
0
100
AcDbLine
 10
3.918455801706194
 20
-9.744154022996028
 30
0.0
 11
3.92709352170619
 21
-9.743298283796022
 31
0.0
  0
LINE
  5
56
330
2
100
AcDbEntity
  8
0
100
AcDbLine
 10
3.909772281706189
 20
-9.744966794196031
 30
0.0
 11
3.918455801706194
 21
-9.744154022996028
 31
0.0
  0
LINE
  5
57
330
2
100
AcDbEntity
  8
0
100
AcDbLine
 10
3.901030044906214
 20
-9.745736682196039
 30
0.0
 11
3.909772281706189
 21
-9.744966794196031
 31
0.0
  0
LINE
  5
58
330
2
100
AcDbEntity
  8
0
100
AcDbLine
 10
3.892212065706196
 20
-9.746463650196048
 30
0.0
 11
3.901030044906214
 21
-9.745736682196039
 31
0.0
  0
LWPOLYLINE
  5
59
330
2
100
AcDbEntity
  8
0
100
AcDbPolyline
 90
        3
 70
     0
 43
0.0
 10
3.878791382506193
 20
-9.747473578196022
 10
3.883295784106195
 20
-9.747147669396028
 10
3.892212065706189
 20
-9.746463650196048
  0
LWPOLYLINE
  5
5A
330
2
100
AcDbEntity
  8
0
100
AcDbPolyline
 90
       23
 70
     0
 43
0.0
 10
-1.689610678293803
 20
2.698070463403965
 10
-1.636478999893796
 20
2.713021945003973
 10
-1.582898185493803
 20
2.726314135403967
 10
-1.521630228693794
 20
2.739811130603968
 10
-1.460071108693796
 20
2.751897298603964
 10
-1.392105145493815
 20
2.763874639403965
 10
-1.323945875093812
 20
2.774704785003976
 10
-1.250102265493808
 20
2.785351781803981
 10
-1.176128788693802
 20
2.795052681003951
 10
-1.096859399893816
 20
2.804535393003973
 10
-1.017497862293794
 20
2.813215431403975
 10
-0.9331854798938081
 20
2.82167461860395
 10
-0.8488070926938178
 20
2.829447074603947
 10
-0.6705369550938088
 20
2.843935725803973
 10
-0.4829352430938059
 20
2.85686234020396
 10
-0.286337841493804
 20
2.868331572203956
 10
-0.0793302126938045
 20
2.878518530603955
 10
0.1466588577061998
 20
2.887857949803972
 10
0.4005877313061888
 20
2.896605060203981
 10
0.6853131457062034
 20
2.904704277803958
 10
1.002998110506183
 20
2.912078431403969
 10
1.354832188906186
 20
2.918569226603963
 10
1.742348033706207
 20
2.924008687403969
  0
LINE
  5
5B
330
2
100
AcDbEntity
  8
0
100
AcDbLine
 10
3.869664886506207
 20
-9.748094450196035
 30
0.0
 11
3.8787913825062
 21
-9.747473578196022
 31
0.0
  0
LWPOLYLINE
  5
5C
330
2
100
AcDbEntity
  8
0
100
AcDbPolyline
 90
        3
 70
     0
 43
0.0
 10
3.855573096106184
 20
-9.748946800596044
 10
3.860335584106195
 20
-9.748677811796042
 10
3.8696648865062
 20
-9.748094450196035
  0
LINE
  5
5D
330
2
100
AcDbEntity
  8
0
100
AcDbLine
 10
3.840719384106201
 20
-9.74968378459603
 30
0.0
 11
3.855573096106191
 21
-9.748946800596044
 31
0.0
  0
LWPOLYLINE
  5
5E
330
2
100
AcDbEntity
  8
0
100
AcDbPolyline
 90
        4
 70
     0
 43
0.0
 10
3.007745670506182
 20
-9.766058963796027
 10
3.239891382506186
 20
-9.761135987796038
 10
3.500442752106181
 20
-9.75615119579605
 10
3.797875582506208
 20
-9.751025832596027
  0
LWPOLYLINE
  5
5F
330
2
100
AcDbEntity
  8
0
100
AcDbPolyline
 90
        8
 70
     0
 43
0.0
 10
9.672693574506183
 20
-9.708225078996051
 10
8.660791320106199
 20
-9.711342338196047
 10
7.538744059306196
 20
-9.716545194196029
 10
6.448060008106182
 20
-9.723707946196029
 10
5.432817750506188
 20
-9.732308040596038
 10
4.543409304106205
 20
-9.741629595796027
 10
4.173993204906196
 20
-9.745259490196033
 10
3.804608262506206
 20
-9.750835192596028
  0
LWPOLYLINE
  5
60
330
2
100
AcDbEntity
  8
0
100
AcDbPolyline
 90
       10
 70
     0
 43
0.0
 10
9.673469592106187
 20
-10.13987829659605
 10
8.616720523306184
 20
-10.14041514299604
 10
7.56749326730619
 20
-10.14201785659604
 10
6.557123528106188
 20
-10.14458999739604
 10
5.633209584106197
 20
-10.14785555739602
 10
4.80643722730619
 20
-10.15155052859601
 10
4.057025406506198
 20
-10.15556307419602
 10
3.366222376106208
 20
-10.15985287899603
 10
2.722152161706191
 20
-10.16439497499602
 10
2.114453652906206
 20
-10.16919382779603
  0
LWPOLYLINE
  5
61
330
2
100
AcDbEntity
  8
0
100
AcDbPolyline
 90
       10
 70
     0
 43
0.0
 10
9.673408529706193
 20
-10.13987829659605
 10
10.73015760010619
 20
-10.14041193979606
 10
11.77938485930619
 20
-10.14201147419608
 10
12.78975460810619
 20
-10.14458055259605
 10
13.71366856170618
 20
-10.14784331259606
 10
14.54044092970619
 20
-10.15153577819607
 10
15.28985276170618
 20
-10.15554605339606
 10
15.9806558049062
 20
-10.15983376379607
 10
16.62472603370619
 20
-10.16437390779607
 10
17.23242455690618
 20
-10.16917091899607
  0
LWPOLYLINE
  5
62
330
2
100
AcDbEntity
  8
0
100
AcDbPolyline
 90
        8
 70
     0
 43
0.0
 10
9.674183238506202
 20
-9.708225077396051
 10
10.68608550250618
 20
-9.711339269396077
 10
11.80813277770619
 20
-9.716538723796062
 10
12.8988168529062
 20
-9.723698170196072
 10
13.9140591361062
 20
-9.732295189396054
 10
14.80346760970618
 20
-9.741614046996076
 10
15.1728837217062
 20
-9.745242822996075
 10
15.54226868010619
 20
-9.750817405396063
  0
LWPOLYLINE
  5
63
330
2
100
AcDbEntity
  8
0
100
AcDbPolyline
 90
        4
 70
     0
 43
0.0
 10
16.33913131850619
 20
-9.76603876219606
 10
16.10698559050618
 20
-9.761116490196073
 10
15.84643420650619
 20
-9.756132486996065
 10
15.54900136010618
 20
-9.75100802619606
  0
LINE
  5
64
330
2
100
AcDbEntity
  8
0
100
AcDbLine
 10
15.5061575553062
 20
-9.749666107796073
 30
0.0
 11
15.49130384010619
 21
-9.748929168596063
 31
0.0
  0
LINE
  5
65
330
2
100
AcDbEntity
  8
0
100
AcDbLine
 10
15.49130384010619
 20
-9.748929168596063
 30
0.0
 11
15.4865413505062
 21
-9.748660194196062
 31
0.0
  0
LINE
  5
66
330
2
100
AcDbEntity
  8
0
100
AcDbLine
 10
15.4865413505062
 20
-9.748660194196062
 30
0.0
 11
15.4772120465062
 21
-9.748076861396057
 31
0.0
  0
LINE
  5
67
330
2
100
AcDbEntity
  8
0
100
AcDbLine
 10
15.4772120465062
 20
-9.748076861396057
 30
0.0
 11
15.4680855505062
 21
-9.747456016596075
 31
0.0
  0
LINE
  5
68
330
2
100
AcDbEntity
  8
0
100
AcDbLine
 10
15.4680855505062
 20
-9.747456016596075
 30
0.0
 11
15.45910892490619
 21
-9.746793499796083
 31
0.0
  0
LINE
  5
69
330
2
100
AcDbEntity
  8
0
100
AcDbLine
 10
15.45910892490619
 20
-9.746793499796083
 30
0.0
 11
15.45024514250619
 21
-9.746088026196062
 31
0.0
  0
LINE
  5
6A
330
2
100
AcDbEntity
  8
0
100
AcDbLine
 10
15.45024514250619
 20
-9.746088026196062
 30
0.0
 11
15.44146752650619
 21
-9.745339614996069
 31
0.0
  0
LINE
  5
6B
330
2
100
AcDbEntity
  8
0
100
AcDbLine
 10
15.44146752650619
 20
-9.745339614996069
 30
0.0
 11
15.4327563953062
 21
-9.744548318996081
 31
0.0
  0
LINE
  5
6C
330
2
100
AcDbEntity
  8
0
100
AcDbLine
 10
15.4327563953062
 20
-9.744548318996081
 30
0.0
 11
15.42409720970619
 21
-9.743714110996066
 31
0.0
  0
LINE
  5
6D
330
2
100
AcDbEntity
  8
0
100
AcDbLine
 10
15.42409720970619
 20
-9.743714110996066
 30
0.0
 11
15.41547859370619
 21
-9.742836779796064
 31
0.0
  0
LINE
  5
6E
330
2
100
AcDbEntity
  8
0
100
AcDbLine
 10
15.41547859370619
 20
-9.742836779796064
 30
0.0
 11
15.4068917937062
 21
-9.741915589396072
 31
0.0
  0
LINE
  5
6F
330
2
100
AcDbEntity
  8
0
100
AcDbLine
 10
15.4068917937062
 20
-9.741915589396072
 30
0.0
 11
15.39832984970619
 21
-9.74094906939608
 31
0.0
  0
LINE
  5
70
330
2
100
AcDbEntity
  8
0
100
AcDbLine
 10
15.39832984970619
 20
-9.74094906939608
 30
0.0
 11
15.3897870113062
 21
-9.739936346196074
 31
0.0
  0
LINE
  5
71
330
2
100
AcDbEntity
  8
0
100
AcDbLine
 10
15.3897870113062
 20
-9.739936346196074
 30
0.0
 11
15.3812588305062
 21
-9.738877197396064
 31
0.0
  0
LINE
  5
72
330
2
100
AcDbEntity
  8
0
100
AcDbLine
 10
15.3812588305062
 20
-9.738877197396064
 30
0.0
 11
15.37274150410619
 21
-9.737771598996076
 31
0.0
  0
LINE
  5
73
330
2
100
AcDbEntity
  8
0
100
AcDbLine
 10
15.37274150410619
 20
-9.737771598996076
 30
0.0
 11
15.36423211370621
 21
-9.736619574996055
 31
0.0
  0
LWPOLYLINE
  5
74
330
2
100
AcDbEntity
  8
0
100
AcDbPolyline
 90
        3
 70
     0
 43
0.0
 10
15.3642321137062
 20
-9.736619574996055
 10
15.35572809130619
 20
-9.735421181396063
 10
15.35147744650618
 20
-9.734804594196063
  0
LWPOLYLINE
  5
75
330
2
100
AcDbEntity
  8
0
100
AcDbPolyline
 90
       60
 70
     0
 43
0.0
 10
9.673469592106187
 20
3.853442791403963
 10
9.620627660906194
 20
3.848219865003969
 10
9.568011008106196
 20
3.841021834603949
 10
9.516502136106197
 20
3.831967145003957
 10
9.465381052906195
 20
3.820942146603968
 10
9.4151064481062
 20
3.808041807403967
 10
9.365369555306187
 20
3.793199698603942
 10
9.316512691306201
 20
3.776522569003944
 10
9.268350668906208
 20
3.757935500203942
 10
9.221117993706201
 20
3.737508161003958
 10
9.174742388906196
 20
3.715203461803966
 10
9.128486896106181
 20
3.690597277803945
 10
9.083265196906182
 20
3.664137530603952
 10
9.037885312106197
 20
3.635052844203968
 10
8.993727300906186
 20
3.604144081003951
 10
8.949756460906201
 20
3.570604565803947
 10
8.907201387306201
 20
3.535285610603963
 10
8.865546665706204
 20
3.497713844203943
 10
8.825481017706181
 20
3.458450633003948
 10
8.787376073706184
 20
3.417882074603951
 10
8.751023496106199
 20
3.375738644203963
 10
8.718110182506194
 20
3.334124348203957
 10
8.686996560106194
 20
3.291146205803968
 10
8.660490966506188
 20
3.251084629803941
 10
8.635785123306192
 20
3.209892748203955
 10
8.616069140906205
 20
3.173318383403952
 10
8.59811705450619
 20
3.135849951403955
 10
8.583309371306199
 20
3.100511073003943
 10
8.57027347850618
 20
3.064483388203953
 10
8.558296884906184
 20
3.02523862180395
 10
8.548149860906192
 20
2.985475637803958
 10
8.538463512106204
 20
2.939780049003971
 10
8.530376168106187
 20
2.893773389803968
 10
8.516307480106206
 20
2.789798489003956
 10
8.504823715306201
 20
2.674353514603964
 10
8.494140755306204
 20
2.54802122500395
 10
8.483265697706201
 20
2.410515953003951
 10
8.472001992106186
 20
2.260957402603949
 10
8.460026004906183
 20
2.098256263403968
 10
8.446820120106195
 20
1.921080689003943
 10
8.431582856106189
 20
1.727708948203954
 10
8.413252812906193
 20
1.516146068203951
 10
8.39101770890619
 20
1.284324753003957
 10
8.364059889706197
 20
1.029956517803967
 10
8.331372195306187
 20
0.7504001210039491
 10
8.291761849706205
 20
0.4426644090039673
 10
8.243869862506187
 20
0.1027947642039493
 10
8.185716524906183
 20
-0.2756471525960507
 10
8.114603035306203
 20
-0.7004925461960312
 10
8.074117592106205
 20
-0.9275526533960345
 10
8.032007918506195
 20
-1.154317291796033
 10
7.946910222506204
 20
-1.588122784596052
 10
7.866666740906197
 20
-1.972129026196043
 10
7.791821040106185
 20
-2.311891750996025
 10
7.721332982506197
 20
-2.617960670996055
 10
7.655846992106205
 20
-2.891642622996059
 10
7.595532452906184
 20
-3.135396659796057
 10
7.538549025706203
 20
-3.358838883796053
 10
7.482150849706187
 20
-3.573811782996031
 10
7.423915566506195
 20
-3.78943805819604
  0
LINE
  5
76
330
2
100
AcDbEntity
  8
0
100
AcDbLine
 10
1.741034329706202
 20
2.762408681003975
 30
0.0
 11
1.70897512810621
 21
2.760277119403966
 31
0.0
  0
LINE
  5
77
330
2
100
AcDbEntity
  8
0
100
AcDbLine
 10
1.70897512810621
 20
2.760277119403966
 30
0.0
 11
1.680383096106204
 21
2.758427049003969
 31
0.0
  0
LINE
  5
78
330
2
100
AcDbEntity
  8
0
100
AcDbLine
 10
1.680383096106204
 20
2.758427049003969
 30
0.0
 11
1.645436616106202
 21
2.756221170603978
 31
0.0
  0
LINE
  5
79
330
2
100
AcDbEntity
  8
0
100
AcDbLine
 10
1.645436616106202
 20
2.756221170603978
 30
0.0
 11
1.598948910506187
 21
2.753365989803981
 31
0.0
  0
LINE
  5
7A
330
2
100
AcDbEntity
  8
0
100
AcDbLine
 10
1.598948910506187
 20
2.753365989803981
 30
0.0
 11
1.560038238506201
 21
2.751034130603969
 31
0.0
  0
LINE
  5
7B
330
2
100
AcDbEntity
  8
0
100
AcDbLine
 10
1.560038238506201
 20
2.751034130603969
 30
0.0
 11
1.513763056106206
 21
2.748317828203951
 31
0.0
  0
LINE
  5
7C
330
2
100
AcDbEntity
  8
0
100
AcDbLine
 10
1.513763056106206
 20
2.748317828203951
 30
0.0
 11
1.458422404906208
 21
2.745136367403958
 31
0.0
  0
LINE
  5
7D
330
2
100
AcDbEntity
  8
0
100
AcDbLine
 10
1.458422404906208
 20
2.745136367403958
 30
0.0
 11
1.391096555306212
 21
2.741344481003963
 31
0.0
  0
LINE
  5
7E
330
2
100
AcDbEntity
  8
0
100
AcDbLine
 10
1.391096555306212
 20
2.741344481003963
 30
0.0
 11
1.309203438506195
 21
2.736821023403948
 31
0.0
  0
LINE
  5
7F
330
2
100
AcDbEntity
  8
0
100
AcDbLine
 10
1.309203438506195
 20
2.736821023403948
 30
0.0
 11
1.210498580906211
 21
2.731461793003958
 31
0.0
  0
LWPOLYLINE
  5
80
330
2
100
AcDbEntity
  8
0
100
AcDbPolyline
 90
       55
 70
     0
 43
0.0
 10
0.7441889089061818
 20
2.706589386603965
 10
0.6377610465061992
 20
2.700843538603962
 10
0.5330039809061873
 20
2.695103812203981
 10
0.432652184106189
 20
2.689497945003964
 10
0.3375273985061824
 20
2.684054973803952
 10
0.2487097025062042
 20
2.678826005803969
 10
0.1659595217061849
 20
2.67379240100395
 10
0.088470043306188
 20
2.668906009003976
 10
0.0165167585061852
 20
2.664190719403976
 10
-0.0502283790937952
 20
2.65963302980397
 10
-0.1130363614938119
 20
2.655151389803975
 10
-0.1736063758937973
 20
2.650628410603971
 10
-0.232031236693814
 20
2.64606081540397
 10
-0.288715948693806
 20
2.641419124203949
 10
-0.3439814222938082
 20
2.636676861803962
 10
-0.3979121102938166
 20
2.631825786603954
 10
-0.4509797198938088
 20
2.626820815403974
 10
-0.5034555262938057
 20
2.621630927403955
 10
-0.5556967678938065
 20
2.616213588203962
 10
-0.608264665493806
 20
2.610499724203961
 10
-0.6615533774938172
 20
2.604431313003956
 10
-0.7168457438937992
 20
2.59784018820396
 10
-0.7724419598937971
 20
2.590910119403972
 10
-0.823014921493808
 20
2.584288421803975
 10
-0.8681018654937986
 20
2.578070786603959
 10
-0.9093107278937964
 20
2.572077634603957
 10
-0.9473755406937982
 20
2.566227617003974
 10
-0.9827744110937999
 20
2.560465037803979
 10
-1.015925617493792
 20
2.554734996203976
 10
-1.047203217493802
 20
2.548979697003957
 10
-1.076725153493811
 20
2.543180282603955
 10
-1.104799958293796
 20
2.537273735403957
 10
-1.131511910293795
 20
2.53123302340397
 10
-1.156894604693803
 20
2.525038279403972
 10
-1.181119390293815
 20
2.518628052203965
 10
-1.204175857493794
 20
2.511976450603967
 10
-1.226071060693811
 20
2.505045977003973
 10
-1.246827772693819
 20
2.497782333803982
 10
-1.266397337493799
 20
2.490141354603977
 10
-1.284724582293819
 20
2.482067197803971
 10
-1.301739905493803
 20
2.473489802603964
 10
-1.317325529493814
 20
2.464337170603968
 10
-1.331382814293817
 20
2.45448971620398
 10
-1.343767596693794
 20
2.443801404203966
 10
-1.349209956693812
 20
2.438152490603968
 10
-1.354232596693805
 20
2.432128175403974
 10
-1.35869067189381
 20
2.425806977003972
 10
-1.362576217493796
 20
2.419118735403955
 10
-1.365926401493794
 20
2.41180639140397
 10
-1.368516044693791
 20
2.404191194603967
 10
-1.370428307093817
 20
2.395631679403962
 10
-1.371408313493816
 20
2.38691385540396
 10
-1.371446171093793
 20
2.376870852203964
 10
-1.370455983893805
 20
2.366872697003955
 10
-1.370353815893793
 20
2.366188801003957
  0
LWPOLYLINE
  5
81
330
2
100
AcDbEntity
  8
0
100
AcDbPolyline
 90
        5
 70
     0
 43
0.0
 10
1.210498580906204
 20
2.731461793003958
 10
1.088045225706196
 20
2.724902612203962
 10
1.016247750506181
 20
2.721081959403974
 10
0.9361234785062038
 20
2.716825436203961
 10
0.7441889089061818
 20
2.706589386603965
  0
LWPOLYLINE
  5
82
330
2
100
AcDbEntity
  8
0
100
AcDbPolyline
 90
       58
 70
     0
 43
0.0
 10
9.673469592106187
 20
6.02377254660395
 10
9.704869459306195
 20
6.023360841003963
 10
9.7362531457062
 20
6.022126265003961
 10
9.767595227306202
 20
6.020069623403955
 10
9.799456347306204
 20
6.017130252203955
 10
9.831226259306191
 20
6.013341129003961
 10
9.862883323306192
 20
6.008704823403959
 10
9.89484675530619
 20
6.003141338603953
 10
9.9266482001062
 20
5.996713869803969
 10
9.958263958506194
 20
5.989426898603952
 10
9.990065723306202
 20
5.981176938603951
 10
10.02162891370619
 20
5.972056783403971
 10
10.05292966730618
 20
5.962072993003957
 10
10.08411076010619
 20
5.951171621803965
 10
10.11497865130618
 20
5.939412479403941
 10
10.1455095425062
 20
5.926804149803942
 10
10.17574089130619
 20
5.913327255403928
 10
10.20558674250619
 20
5.899016871403929
 10
10.23502386890618
 20
5.883883541803939
 10
10.26404641290619
 20
5.867928341803931
 10
10.2926140433062
 20
5.851172223403935
 10
10.32070432170618
 20
5.833627641003928
 10
10.3482467537062
 20
5.815340346603917
 10
10.37526983050619
 20
5.796293981803941
 10
10.40175223530619
 20
5.776502753003924
 10
10.42767436010618
 20
5.755979919403941
 10
10.45301422730619
 20
5.734742335403936
 10
10.47775163690619
 20
5.712805994603925
 10
10.5018043713062
 20
5.690247202603913
 10
10.5252189745062
 20
5.667026754603924
 10
10.54797671690619
 20
5.64316218500393
 10
10.57007051530618
 20
5.618658295403932
 10
10.59147069610619
 20
5.593546348203929
 10
10.61215993930619
 20
5.567845522603917
 10
10.6321135793062
 20
5.541585572203914
 10
10.65132384970618
 20
5.514777012203936
 10
10.6697750705062
 20
5.487440482603929
 10
10.68746718090619
 20
5.45957195780393
 10
10.70436923530618
 20
5.431217292203925
 10
10.72046727690619
 20
5.402398572203921
 10
10.7357008833062
 20
5.373230823403943
 10
10.75010973930619
 20
5.343646977003928
 10
10.76368192010619
 20
5.313670129003938
 10
10.7762965489062
 20
5.283594753003924
 10
10.78806797130619
 20
5.253179509803928
 10
10.79898655850618
 20
5.222447895403931
 10
10.8089604417062
 20
5.191690871403935
 10
10.81807922090618
 20
5.16066959300393
 10
10.82633551690619
 20
5.129407676203939
 10
10.83364248970619
 20
5.098291237803934
 10
10.8400943281062
 20
5.066986482603923
 10
10.8456859105062
 20
5.035517164203938
 10
10.8503723793062
 20
5.004202284203913
 10
10.8542065393062
 20
4.972771300203916
 10
10.8571853921062
 20
4.941246305003929
 10
10.85928708010618
 20
4.910008074603936
 10
10.86054880170618
 20
4.878726215403943
 10
10.86096959210618
 20
4.847427404203912
  0
LWPOLYLINE
  5
83
330
2
100
AcDbEntity
  8
0
100
AcDbPolyline
 90
       58
 70
     0
 43
0.0
 10
9.673469592106187
 20
3.671527625003946
 10
9.641338220906192
 20
3.671958161003956
 10
9.609224140906206
 20
3.673249207403969
 10
9.577154587306182
 20
3.675399925803972
 10
9.544942012906204
 20
3.678432217003958
 10
9.512824451306187
 20
3.682332241003948
 10
9.480824190506183
 20
3.68709736420395
 10
9.448782432106185
 20
3.692759217003967
 10
9.416905736106201
 20
3.699288901803967
 10
9.38521798250619
 20
3.706681925803948
 10
9.353495376106195
 20
3.715002020203954
 10
9.322012676906183
 20
3.724188085803959
 10
9.290793596906183
 20
3.734233633003967
 10
9.259736211306204
 20
3.745178063403969
 10
9.228992083306195
 20
3.756974002603968
 10
9.198584793706203
 20
3.769612989803945
 10
9.168434435306181
 20
3.783134325803942
 10
9.138670128106184
 20
3.797485569003967
 10
9.109315008106193
 20
3.81265625380395
 10
9.080359900906188
 20
3.828653962603951
 10
9.051860481706199
 20
3.845450058603958
 10
9.023839150506205
 20
3.863032138603969
 10
8.996373043306192
 20
3.881349754603959
 10
8.96942666570618
 20
3.900423679403971
 10
8.943021272106193
 20
3.920239754603969
 10
8.917183041706181
 20
3.940779343403974
 10
8.891926950506189
 20
3.962030681003952
 10
8.867273120106204
 20
3.983977817003975
 10
8.8432947233062
 20
4.006552938603945
 10
8.819954577706198
 20
4.029787333803952
 10
8.797271345706207
 20
4.053663482603965
 10
8.775247606506184
 20
4.078181730603958
 10
8.753917691306185
 20
4.103305930603951
 10
8.733298857706188
 20
4.129016892203949
 10
8.713437912106201
 20
4.155254610603961
 10
8.694318625706188
 20
4.182037588203954
 10
8.675956545706185
 20
4.209345249003959
 10
8.658383014506199
 20
4.237130532203948
 10
8.641594532906196
 20
4.265397085803968
 10
8.625604848106206
 20
4.29412302340394
 10
8.610495345706198
 20
4.323151092203957
 10
8.596202601706181
 20
4.352589866603963
 10
8.582738291306185
 20
4.382416577003951
 10
8.570227440106208
 20
4.412325463403945
 10
8.558550532906195
 20
4.442569621803968
 10
8.547716982506187
 20
4.473125929003956
 10
8.537812913706204
 20
4.503721346603967
 10
8.528755139306184
 20
4.534577890603955
 10
8.520550883306185
 20
4.565672298603956
 10
8.513275539306192
 20
4.596670044203975
 10
8.5068490033062
 20
4.627854663403965
 10
8.501276312106199
 20
4.659202658603945
 10
8.496590820906192
 20
4.690479769003971
 10
8.492755732906204
 20
4.72187288260396
 10
8.489774012906195
 20
4.753359991403968
 10
8.487661083306193
 20
4.784680765803969
 10
8.486392624106201
 20
4.816045540203973
 10
8.485969592106187
 20
4.847427404203941
  0
LWPOLYLINE
  5
84
330
2
100
AcDbEntity
  8
0
100
AcDbPolyline
 90
       57
 70
     0
 43
0.0
 10
18.33059139370618
 20
2.721108196203928
 10
18.50116739370619
 20
2.712041271403947
 10
18.60265027850618
 20
2.706616447403931
 10
18.7090781601062
 20
2.700870922603925
 10
18.81383524010618
 20
2.695131514603914
 10
18.91418705610618
 20
2.689525951403922
 10
19.00931185770619
 20
2.684083268203934
 10
19.0981295697062
 20
2.678854569003917
 10
19.18087976490619
 20
2.673821215403947
 10
19.25836925770619
 20
2.668935058603935
 10
19.33032255850619
 20
2.664219986603924
 10
19.3970677089062
 20
2.659662500203936
 10
19.45987570410619
 20
2.655181049003928
 10
19.52044573290618
 20
2.650658253803939
 10
19.5788706081062
 20
2.646090836203924
 10
19.63555533450619
 20
2.641449316203917
 10
19.69082082090619
 20
2.636707221803916
 10
19.7447515249062
 20
2.631856309803922
 10
19.7978191489062
 20
2.626851500203926
 10
19.85029497130619
 20
2.621661770603921
 10
19.9025362289062
 20
2.61624458980394
 10
19.9551041441062
 20
2.610530884203924
 10
20.00839287530618
 20
2.604462636203933
 10
20.06368526090619
 20
2.597871677803922
 10
20.11928149930619
 20
2.590941777003919
 10
20.16985448010618
 20
2.584320233003936
 10
20.2149414417062
 20
2.57810273540393
 10
20.2561503233062
 20
2.572109708203939
 10
20.2942151537062
 20
2.566259805803937
 10
20.3296140417062
 20
2.560497333803922
 10
20.3627652657062
 20
2.554767391403927
 10
20.39404288330618
 20
2.549012186603917
 10
20.42356483530619
 20
2.543212861803922
 10
20.45163965930618
 20
2.537306401003931
 10
20.47835162890618
 20
2.531265769003923
 10
20.50373434250619
 20
2.525071103403931
 10
20.5279591473062
 20
2.51866094980393
 10
20.55101563370618
 20
2.512009417003937
 10
20.5729108593062
 20
2.505079010603921
 10
20.59366759210618
 20
2.497815429803935
 10
20.61323718090619
 20
2.490174509803935
 10
20.63156445130619
 20
2.482100409003933
 10
20.6485798001062
 20
2.473523065003931
 10
20.66416545130619
 20
2.464370481003939
 10
20.67822276650619
 20
2.454523068203926
 10
20.6906075809062
 20
2.443834794603944
 10
20.69604995850619
 20
2.438185895403918
 10
20.70107261610619
 20
2.432161597803926
 10
20.70553071050619
 20
2.425840412203925
 10
20.70941627690618
 20
2.419152181803937
 10
20.71276648170618
 20
2.411839849003925
 10
20.71535614890618
 20
2.404224658603922
 10
20.71726843850618
 20
2.395665149803946
 10
20.71824846890618
 20
2.386947329003916
 10
20.71828635850619
 20
2.37690432580392
 10
20.7172962001062
 20
2.366906169003939
 10
20.71719403530619
 20
2.366222271403941
  0
LINE
  5
85
330
2
100
AcDbEntity
  8
0
100
AcDbLine
 10
18.19424026730619
 20
2.728377065003925
 30
0.0
 11
18.33059139370619
 21
2.721108196203928
 31
0.0
  0
LINE
  5
86
330
2
100
AcDbEntity
  8
0
100
AcDbLine
 10
18.0844507873062
 20
2.73429420740392
 30
0.0
 11
18.19424026730619
 21
2.728377065003925
 31
0.0
  0
LINE
  5
87
330
2
100
AcDbEntity
  8
0
100
AcDbLine
 10
17.99488783690621
 20
2.739196962603941
 30
0.0
 11
18.0844507873062
 21
2.73429420740392
 31
0.0
  0
LINE
  5
88
330
2
100
AcDbEntity
  8
0
100
AcDbLine
 10
17.92035371690619
 20
2.743353074603916
 30
0.0
 11
17.99488783690621
 21
2.739196962603941
 31
0.0
  0
LINE
  5
89
330
2
100
AcDbEntity
  8
0
100
AcDbLine
 10
17.85945542570619
 20
2.746817890603935
 30
0.0
 11
17.92035371690619
 21
2.743353074603916
 31
0.0
  0
LINE
  5
8A
330
2
100
AcDbEntity
  8
0
100
AcDbLine
 10
17.7868008145062
 20
2.751058719403928
 30
0.0
 11
17.85945542570619
 21
2.746817890603935
 31
0.0
  0
LINE
  5
8B
330
2
100
AcDbEntity
  8
0
100
AcDbLine
 10
17.73100133290621
 20
2.754418237803932
 30
0.0
 11
17.7868008145062
 21
2.751058719403928
 31
0.0
  0
LINE
  5
8C
330
2
100
AcDbEntity
  8
0
100
AcDbLine
 10
17.65667654730621
 20
2.759079090603947
 30
0.0
 11
17.73100133290621
 21
2.754418237803932
 31
0.0
  0
LWPOLYLINE
  5
8D
330
2
100
AcDbEntity
  8
0
100
AcDbPolyline
 90
        3
 70
     0
 43
0.0
 10
17.60580468970618
 20
2.762432721003946
 10
17.61764003370618
 20
2.761638177003916
 10
17.6566765473062
 20
2.759079090603947
  0
LINE
  5
8E
330
2
100
AcDbEntity
  8
0
100
AcDbLine
 10
15.35147744650618
 20
-9.734804594196063
 30
0.0
 11
15.34297777770619
 21
-9.733536619796055
 31
0.0
  0
LINE
  5
8F
330
2
100
AcDbEntity
  8
0
100
AcDbLine
 10
15.34297777770619
 20
-9.733536619796055
 30
0.0
 11
15.33447887370619
 21
-9.732222187796068
 31
0.0
  0
LINE
  5
90
330
2
100
AcDbEntity
  8
0
100
AcDbLine
 10
15.33447887370619
 20
-9.732222187796068
 30
0.0
 11
15.32597943370618
 21
-9.730861173396064
 31
0.0
  0
LINE
  5
91
330
2
100
AcDbEntity
  8
0
100
AcDbLine
 10
15.32597943370618
 20
-9.730861173396064
 30
0.0
 11
15.3174782561062
 21
-9.729453451796061
 31
0.0
  0
LINE
  5
92
330
2
100
AcDbEntity
  8
0
100
AcDbLine
 10
15.3174782561062
 20
-9.729453451796061
 30
0.0
 11
15.30897433450619
 21
-9.727998870996074
 31
0.0
  0
LINE
  5
93
330
2
100
AcDbEntity
  8
0
100
AcDbLine
 10
15.30897433450619
 20
-9.727998870996074
 30
0.0
 11
15.3004668561062
 21
-9.726497254996061
 31
0.0
  0
LWPOLYLINE
  5
94
330
2
100
AcDbEntity
  8
0
100
AcDbPolyline
 90
       35
 70
     0
 43
0.0
 10
7.606285732906201
 20
-9.713655728596037
 10
7.633286894506198
 20
-9.718583875796056
 10
7.658282880106185
 20
-9.720163824596042
 10
7.681376702506184
 20
-9.718656656596053
 10
7.702671377706195
 20
-9.714323450196033
 10
7.722269918506185
 20
-9.707425285396041
 10
7.740275337706208
 20
-9.69822324379605
 10
7.756790651306204
 20
-9.686978405396033
 10
7.771918873706198
 20
-9.673951846996047
 10
7.785763016106187
 20
-9.659404651796037
 10
7.798426096106197
 20
-9.643597898196034
 10
7.812103673706189
 20
-9.623500750996058
 10
7.824427289706193
 20
-9.602429064596051
 10
7.841836041706187
 20
-9.567297496596026
 10
7.856720638506203
 20
-9.531047403796051
 10
7.869617809706198
 20
-9.493945474196024
 10
7.881064288106188
 20
-9.456258395796041
 10
7.891596803306185
 20
-9.418252856596026
 10
7.919653684906194
 20
-9.308369309396042
 10
7.945081000106199
 20
-9.198122266196051
 10
7.96837931850618
 20
-9.087577830996039
 10
7.990049201706199
 20
-8.976802107796046
 10
8.010591217706206
 20
-8.865861202196057
 10
8.03050593130618
 20
-8.754821219796028
 10
8.050293908906184
 20
-8.643748264596055
 10
8.114096456106182
 20
-8.296297480596038
 10
8.179893913706195
 20
-7.948984155796026
 10
8.246020075306205
 20
-7.601621267796033
 10
8.326479968106184
 20
-7.170504922196059
 10
8.404640001706184
 20
-6.739000723796024
 10
8.480257745706182
 20
-6.307084754196054
 10
8.553090764906187
 20
-5.874733093396045
 10
8.622896630506204
 20
-5.441921822996036
 10
8.689432910506184
 20
-5.008627026196037
 10
8.75245717290619
 20
-4.574824782996032
  0
LINE
  5
95
330
2
100
AcDbEntity
  8
0
100
AcDbLine
 10
15.3004668561062
 20
-9.726497254996061
 30
0.0
 11
15.29195503050619
 21
-9.724948418196063
 31
0.0
  0
LINE
  5
96
330
2
100
AcDbEntity
  8
0
100
AcDbLine
 10
15.29195503050619
 20
-9.724948418196063
 30
0.0
 11
15.2834382385062
 21
-9.723352144596063
 31
0.0
  0
LINE
  5
97
330
2
100
AcDbEntity
  8
0
100
AcDbLine
 10
15.2834382385062
 20
-9.723352144596063
 30
0.0
 11
15.2749159473062
 21
-9.721708190996068
 31
0.0
  0
LINE
  5
98
330
2
100
AcDbEntity
  8
0
100
AcDbLine
 10
15.2749159473062
 20
-9.721708190996068
 30
0.0
 11
15.26638764650619
 21
-9.720016416596067
 31
0.0
  0
LINE
  5
99
330
2
100
AcDbEntity
  8
0
100
AcDbLine
 10
15.26638764650619
 20
-9.720016416596067
 30
0.0
 11
15.25785294570619
 21
-9.718276709396079
 31
0.0
  0
LINE
  5
9A
330
2
100
AcDbEntity
  8
0
100
AcDbLine
 10
15.25785294570619
 20
-9.718276709396079
 30
0.0
 11
15.24931152170621
 21
-9.716488950996065
 31
0.0
  0
LINE
  5
9B
330
2
100
AcDbEntity
  8
0
100
AcDbLine
 10
15.24931152170621
 20
-9.716488950996065
 30
0.0
 11
15.24076304970621
 21
-9.714653021396074
 31
0.0
  0
LINE
  5
9C
330
2
100
AcDbEntity
  8
0
100
AcDbLine
 10
15.24076304970621
 20
-9.714653021396074
 30
0.0
 11
15.2322072689062
 21
-9.712768789396065
 31
0.0
  0
LINE
  5
9D
330
2
100
AcDbEntity
  8
0
100
AcDbLine
 10
15.2322072689062
 20
-9.712768789396065
 30
0.0
 11
15.22364400010619
 21
-9.710836101396083
 31
0.0
  0
LINE
  5
9E
330
2
100
AcDbEntity
  8
0
100
AcDbLine
 10
15.22364400010619
 20
-9.710836101396083
 30
0.0
 11
15.21507303370621
 21
-9.708854808596086
 31
0.0
  0
LINE
  5
9F
330
2
100
AcDbEntity
  8
0
100
AcDbLine
 10
15.21507303370621
 20
-9.708854808596086
 30
0.0
 11
15.20649415370619
 21
-9.706824762196063
 31
0.0
  0
LINE
  5
A0
330
2
100
AcDbEntity
  8
0
100
AcDbLine
 10
15.20649415370619
 20
-9.706824762196063
 30
0.0
 11
15.19790721610619
 21
-9.704745792596057
 31
0.0
  0
LINE
  5
A1
330
2
100
AcDbEntity
  8
0
100
AcDbLine
 10
15.19790721610619
 20
-9.704745792596057
 30
0.0
 11
15.18931209770619
 21
-9.70261772219608
 31
0.0
  0
LINE
  5
A2
330
2
100
AcDbEntity
  8
0
100
AcDbLine
 10
15.18931209770619
 20
-9.70261772219608
 30
0.0
 11
15.1807086785062
 21
-9.700440365396062
 31
0.0
  0
LINE
  5
A3
330
2
100
AcDbEntity
  8
0
100
AcDbLine
 10
15.1807086785062
 20
-9.700440365396062
 30
0.0
 11
15.17209683850621
 21
-9.698213536596071
 31
0.0
  0
LINE
  5
A4
330
2
100
AcDbEntity
  8
0
100
AcDbLine
 10
15.17209683850621
 20
-9.698213536596071
 30
0.0
 11
15.1634765041062
 21
-9.695937026196062
 31
0.0
  0
LINE
  5
A5
330
2
100
AcDbEntity
  8
0
100
AcDbLine
 10
15.1634765041062
 20
-9.695937026196062
 30
0.0
 11
15.1548476049062
 21
-9.693610626196075
 31
0.0
  0
LWPOLYLINE
  5
A6
330
2
100
AcDbEntity
  8
0
100
AcDbPolyline
 90
       61
 70
     0
 43
0.0
 10
2.114453652906206
 20
-10.16919382779603
 10
2.051414217706195
 20
-10.15180315099603
 10
1.988226153706193
 20
-10.13495400539603
 10
1.924925952106207
 20
-10.11848611579601
 10
1.837459115306188
 20
-10.09608137339601
 10
1.750055131306197
 20
-10.07364656219603
 10
1.674674960106187
 20
-10.05390687579604
 10
1.599271825706182
 20
-10.03362757339603
 10
1.56960067050619
 20
-10.02543356539602
 10
1.540044875306193
 20
-10.01691146459602
 10
1.510758046506197
 20
-10.00784445339603
 10
1.481893780906204
 20
-9.998015710996028
 10
1.455812161706205
 20
-9.988188906196043
 10
1.429810241706206
 20
-9.977683885396047
 10
1.403482155306193
 20
-9.966647101396048
 10
1.396944678506201
 20
-9.963851019796024
 10
1.390485816106206
 20
-9.960899461396039
 10
1.384228286506186
 20
-9.957660173396035
 10
1.378294812906204
 20
-9.954000893396042
 10
1.372808112106184
 20
-9.949789365396028
 10
1.36789090890619
 20
-9.944893331796023
 10
1.3636659233062
 20
-9.939180531796026
 10
1.361174800106198
 20
-9.934601299796028
 10
1.359246648106193
 20
-9.929732203796035
 10
1.358034656106184
 20
-9.924760581396029
 10
1.357692012906198
 20
-9.91987377339602
 10
1.358371910506207
 20
-9.915259117396018
 10
1.359963128106187
 20
-9.911427477396031
 10
1.362379048106191
 20
-9.907941787796048
 10
1.3654720657062
 20
-9.904768011796036
 10
1.369094580906192
 20
-9.901872109396023
 10
1.373098987306207
 20
-9.899220040596034
 10
1.377337683306194
 20
-9.896777768596038
 10
1.381663065706192
 20
-9.894511250196032
 10
1.393519136106192
 20
-9.888911685396024
 10
1.405085369706199
 20
-9.884198949396036
 10
1.416547004906192
 20
-9.880154678996049
 10
1.428089281706206
 20
-9.876560502996042
 10
1.449377971306205
 20
-9.870735005396042
 10
1.471211688106194
 20
-9.865549702996034
 10
1.493277936106181
 20
-9.860897419796046
 10
1.519653092906196
 20
-9.855893280596021
 10
1.545984804906197
 20
-9.851391205396041
 10
1.572344142506182
 20
-9.84728344379603
 10
1.616340009706192
 20
-9.841097200596024
 10
1.660482304106182
 20
-9.835572530196017
 10
1.707238848106186
 20
-9.830311875796027
 10
1.754031708906182
 20
-9.825549416596047
 10
1.803922750506188
 20
-9.820924235796027
 10
1.853853278506193
 20
-9.816687210196036
 10
1.906956851306205
 20
-9.812538997396032
 10
1.960082643306208
 20
-9.808706024596048
 10
2.071083420906205
 20
-9.801538310996036
 10
2.185980468906194
 20
-9.795088317396036
 10
2.303961168106184
 20
-9.789282979796027
 10
2.424406883306204
 20
-9.784057867796022
 10
2.546392833706192
 20
-9.779373262996031
 10
2.667110596906184
 20
-9.775258320596023
 10
2.784540619306199
 20
-9.771705600596035
 10
2.898181475306188
 20
-9.768657757396042
 10
3.007745670506182
 20
-9.766058963796027
  0
LINE
  5
A7
330
2
100
AcDbEntity
  8
0
100
AcDbLine
 10
15.1548476049062
 20
-9.693610626196075
 30
0.0
 11
15.14621007050619
 21
-9.691234150996066
 31
0.0
  0
LINE
  5
A8
330
2
100
AcDbEntity
  8
0
100
AcDbLine
 10
15.14621007050619
 20
-9.691234150996066
 30
0.0
 11
15.1375638481062
 21
-9.68880745499608
 31
0.0
  0
LINE
  5
A9
330
2
100
AcDbEntity
  8
0
100
AcDbLine
 10
15.1375638481062
 20
-9.68880745499608
 30
0.0
 11
15.1289089217062
 21
-9.686330390996076
 31
0.0
  0
LINE
  5
AA
330
2
100
AcDbEntity
  8
0
100
AcDbLine
 10
15.1289089217062
 20
-9.686330390996076
 30
0.0
 11
15.12024528010619
 21
-9.68380281019607
 31
0.0
  0
LINE
  5
AB
330
2
100
AcDbEntity
  8
0
100
AcDbLine
 10
15.12024528010619
 20
-9.68380281019607
 30
0.0
 11
15.1115729105062
 21
-9.681224565396078
 31
0.0
  0
LINE
  5
AC
330
2
100
AcDbEntity
  8
0
100
AcDbLine
 10
15.1115729105062
 20
-9.681224565396078
 30
0.0
 11
15.10289180170619
 21
-9.67859550619606
 31
0.0
  0
LINE
  5
AD
330
2
100
AcDbEntity
  8
0
100
AcDbLine
 10
15.10289180170619
 20
-9.67859550619606
 30
0.0
 11
15.09420195690621
 21
-9.67591548379606
 31
0.0
  0
LINE
  5
AE
330
2
100
AcDbEntity
  8
0
100
AcDbLine
 10
15.09420195690621
 20
-9.67591548379606
 30
0.0
 11
15.08550340170621
 21
-9.673184336596065
 31
0.0
  0
LINE
  5
AF
330
2
100
AcDbEntity
  8
0
100
AcDbLine
 10
15.08550340170621
 20
-9.673184336596065
 30
0.0
 11
15.0767961553062
 21
-9.670401909396062
 31
0.0
  0
LWPOLYLINE
  5
B0
330
2
100
AcDbEntity
  8
0
100
AcDbPolyline
 90
        3
 70
     0
 43
0.0
 10
15.07679615530619
 20
-9.670401909396062
 10
15.06808023850618
 20
-9.667568043796066
 10
15.0637190337062
 20
-9.66613177339606
  0
LWPOLYLINE
  5
B1
330
2
100
AcDbEntity
  8
0
100
AcDbPolyline
 90
       60
 70
     0
 43
0.0
 10
9.67336612010618
 20
3.853442791403963
 10
9.726208067306203
 20
3.848220025003953
 10
9.778824740906202
 20
3.841022154603948
 10
9.830333641706204
 20
3.831967621803968
 10
9.88145475850618
 20
3.820942777003963
 10
9.931729401706206
 20
3.808042589803974
 10
9.981466339306194
 20
3.793200633003962
 10
10.03032325290618
 20
3.776523650603948
 10
10.07848533290618
 20
3.757936729003958
 10
10.12571806890619
 20
3.737509530603958
 10
10.1720937425062
 20
3.715204973803921
 10
10.21834931050619
 20
3.69059892900394
 10
10.2635710897062
 20
3.664139319403929
 10
10.30895106250619
 20
3.635054770603929
 10
10.35310916650618
 20
3.604146141803923
 10
10.39708010730618
 20
3.570606759403929
 10
10.43963528970618
 20
3.535287933803928
 10
10.48129012490619
 20
3.497716292203946
 10
10.5213558913062
 20
3.458453204203934
 10
10.5594609585062
 20
3.417884759403918
 10
10.5958136641062
 20
3.375741439403938
 10
10.62872710250619
 20
3.334127242603912
 10
10.65984085610619
 20
3.291149196203932
 10
10.68634657130618
 20
3.251087700203939
 10
10.71105253930619
 20
3.209895892203931
 10
10.73076863210619
 20
3.173321586603933
 10
10.74872083370618
 20
3.13585321060394
 10
10.76352862250618
 20
3.100514375403932
 10
10.77656462570618
 20
3.064486732203917
 10
10.78854133610619
 20
3.025242002603917
 10
10.79868848170619
 20
2.985479047403927
 10
10.80837496810619
 20
2.939783489003943
 10
10.81646245290619
 20
2.893776853803942
 10
10.8305314545062
 20
2.789801996203934
 10
10.8420155697062
 20
2.674357057003916
 10
10.8526989137062
 20
2.548024799403933
 10
10.86357438730618
 20
2.410519561003937
 10
10.87483854570618
 20
2.260961044203938
 10
10.88681502730619
 20
2.098259940203931
 10
10.9000214481062
 20
1.921084405803938
 10
10.9152592977062
 20
1.727712713003924
 10
10.93358998250619
 20
1.516149887403926
 10
10.95582578890619
 20
1.284328639403938
 10
10.98278437930619
 20
1.029960485803925
 10
11.01547292010619
 20
0.7504041882039445
 10
11.05508419850619
 20
0.4426685962039159
 10
11.10297721610618
 20
0.1027990970039383
 10
11.16113170090619
 20
-0.2756426437960755
 10
11.23224647690619
 20
-0.7004878213960666
 10
11.27273260970619
 20
-0.9275478069960598
 10
11.3148429697062
 20
-1.154312315796076
 10
11.39994198090619
 20
-1.588117552596074
 10
11.48018662570618
 20
-1.972123550996073
 10
11.55503335850619
 20
-2.311886048596065
 10
11.6255223425062
 20
-2.617954755796077
 10
11.6910091617062
 20
-2.891636507796064
 10
11.7513244401062
 20
-3.135390362196076
 10
11.80830854410618
 20
-3.358832413396058
 10
11.86470737290619
 20
-3.573805141396078
 10
11.92294330890618
 20
-3.789431240596073
  0
LINE
  5
B2
330
2
100
AcDbEntity
  8
0
100
AcDbLine
 10
15.06371903370621
 20
-9.66613177339606
 30
0.0
 11
15.0549901489062
 21
-9.663220456596079
 31
0.0
  0
LINE
  5
B3
330
2
100
AcDbEntity
  8
0
100
AcDbLine
 10
15.0549901489062
 20
-9.663220456596079
 30
0.0
 11
15.04625267370619
 21
-9.660257299796072
 31
0.0
  0
LINE
  5
B4
330
2
100
AcDbEntity
  8
0
100
AcDbLine
 10
15.04625267370619
 20
-9.660257299796072
 30
0.0
 11
15.03750665130619
 21
-9.657242136596053
 31
0.0
  0
LINE
  5
B5
330
2
100
AcDbEntity
  8
0
100
AcDbLine
 10
15.03750665130619
 20
-9.657242136596053
 30
0.0
 11
15.0287521297062
 21
-9.654174802196067
 31
0.0
  0
LINE
  5
B6
330
2
100
AcDbEntity
  8
0
100
AcDbLine
 10
15.0287521297062
 20
-9.654174802196067
 30
0.0
 11
15.01998915210621
 21
-9.65105513819607
 31
0.0
  0
LINE
  5
B7
330
2
100
AcDbEntity
  8
0
100
AcDbLine
 10
15.01998915210621
 20
-9.65105513819607
 30
0.0
 11
15.01121776810621
 21
-9.647882998996081
 31
0.0
  0
LINE
  5
B8
330
2
100
AcDbEntity
  8
0
100
AcDbLine
 10
15.01121776810621
 20
-9.647882998996081
 30
0.0
 11
15.0024380401062
 21
-9.644658226196057
 31
0.0
  0
LINE
  5
B9
330
2
100
AcDbEntity
  8
0
100
AcDbLine
 10
15.0024380401062
 20
-9.644658226196057
 30
0.0
 11
14.99365004330619
 21
-9.64138066299607
 31
0.0
  0
LINE
  5
BA
330
2
100
AcDbEntity
  8
0
100
AcDbLine
 10
14.99365004330619
 20
-9.64138066299607
 30
0.0
 11
14.98485384810619
 21
-9.638050152596079
 31
0.0
  0
LINE
  5
BB
330
2
100
AcDbEntity
  8
0
100
AcDbLine
 10
14.98485384810619
 20
-9.638050152596079
 30
0.0
 11
14.97604952330619
 21
-9.634666534996071
 31
0.0
  0
LINE
  5
BC
330
2
100
AcDbEntity
  8
0
100
AcDbLine
 10
14.97604952330619
 20
-9.634666534996071
 30
0.0
 11
14.96723713610621
 21
-9.631229654996062
 31
0.0
  0
LINE
  5
BD
330
2
100
AcDbEntity
  8
0
100
AcDbLine
 10
14.96723713610621
 20
-9.631229654996062
 30
0.0
 11
14.95841675530619
 21
-9.627739352596066
 31
0.0
  0
LINE
  5
BE
330
2
100
AcDbEntity
  8
0
100
AcDbLine
 10
14.95841675530619
 20
-9.627739352596066
 30
0.0
 11
14.9495884625062
 21
-9.62419546619607
 31
0.0
  0
LINE
  5
BF
330
2
100
AcDbEntity
  8
0
100
AcDbLine
 10
14.9495884625062
 20
-9.62419546619607
 30
0.0
 11
14.94075235050619
 21
-9.620597827796061
 31
0.0
  0
LINE
  5
C0
330
2
100
AcDbEntity
  8
0
100
AcDbLine
 10
14.94075235050619
 20
-9.620597827796061
 30
0.0
 11
14.93190850570619
 21
-9.616946270996052
 31
0.0
  0
LINE
  5
C1
330
2
100
AcDbEntity
  8
0
100
AcDbLine
 10
14.93190850570619
 20
-9.616946270996052
 30
0.0
 11
14.92305701610619
 21
-9.613240629396059
 31
0.0
  0
LWPOLYLINE
  5
C2
330
2
100
AcDbEntity
  8
0
100
AcDbPolyline
 90
       42
 70
     0
 43
0.0
 10
-0.4926036302938144
 20
-2.81738663899604
 10
-0.4688958542938054
 20
-2.82743905499602
 10
-0.4004685838937974
 20
-2.855738874196035
 10
-0.3304047662938103
 20
-2.883666035796025
 10
-0.258840407893814
 20
-2.911153538196046
 10
-0.185909211093815
 20
-2.938139213396041
 10
-0.1118113694938074
 20
-2.964540938196037
 10
-0.036701083093817
 20
-2.990298357396042
 10
0.0391653345062082
 20
-3.015321398996022
 10
0.1155753569061915
 20
-3.03954167419603
 10
0.1922959473062065
 20
-3.062890027796029
 10
0.2690314433062042
 20
-3.085285502996029
 10
0.3456265937061858
 20
-3.106694736596026
 10
0.421671832106199
 20
-3.12701996539603
 10
0.4970871121061862
 20
-3.146259754196037
 10
0.5713934481061927
 20
-3.164316408596036
 10
0.6445199681061809
 20
-3.181201730196036
 10
0.716056633706188
 20
-3.196853595796042
 10
0.7858314577061947
 20
-3.211272667796023
 10
0.8536426161061854
 20
-3.224457981396042
 10
0.9191770033062027
 20
-3.236395003796033
 10
0.9823961425061895
 20
-3.247126328596024
 10
1.043041704106201
 20
-3.256660696596028
 10
1.10101818410618
 20
-3.265040482196027
 10
1.15629496650618
 20
-3.272319917396018
 10
1.208785902506207
 20
-3.278548133396029
 10
1.258383628906187
 20
-3.283776928596026
 10
1.305261502506198
 20
-3.288088587796025
 10
1.349457091306192
 20
-3.291547669396024
 10
1.390765073706205
 20
-3.294204810196035
 10
1.429088844906203
 20
-3.296129578196044
 10
1.464065844906201
 20
-3.297392546196036
 10
1.494730363306189
 20
-3.29807857979604
 10
1.521637651306207
 20
-3.298329205396029
 10
1.545718649706202
 20
-3.298252768596043
 10
1.567885601706194
 20
-3.297911986196041
 10
1.587716609706205
 20
-3.297371075796021
 10
1.6051404817062
 20
-3.296698746196042
 10
1.6212639089062
 20
-3.295901213396049
 10
1.637234966506184
 20
-3.294933891796048
 10
1.654232094506198
 20
-3.293696886996016
 10
1.673469667306193
 20
-3.292017866196019
  0
LINE
  5
C3
330
2
100
AcDbEntity
  8
0
100
AcDbLine
 10
14.92305701610619
 20
-9.613240629396059
 30
0.0
 11
14.91419796650621
 21
-9.609480736596069
 31
0.0
  0
LINE
  5
C4
330
2
100
AcDbEntity
  8
0
100
AcDbLine
 10
14.91419796650621
 20
-9.609480736596069
 30
0.0
 11
14.90533143850618
 21
-9.605666426196066
 31
0.0
  0
LINE
  5
C5
330
2
100
AcDbEntity
  8
0
100
AcDbLine
 10
14.90533143850618
 20
-9.605666426196066
 30
0.0
 11
14.8964575137062
 21
-9.601797530196066
 31
0.0
  0
LINE
  5
C6
330
2
100
AcDbEntity
  8
0
100
AcDbLine
 10
14.8964575137062
 20
-9.601797530196066
 30
0.0
 11
14.88757629930621
 21
-9.597873872596053
 31
0.0
  0
LINE
  5
C7
330
2
100
AcDbEntity
  8
0
100
AcDbLine
 10
14.88757629930621
 20
-9.597873872596053
 30
0.0
 11
14.87868790410619
 21
-9.593895275796072
 31
0.0
  0
LINE
  5
C8
330
2
100
AcDbEntity
  8
0
100
AcDbLine
 10
14.87868790410619
 20
-9.593895275796072
 30
0.0
 11
14.86979243210618
 21
-9.589861568596077
 31
0.0
  0
LINE
  5
C9
330
2
100
AcDbEntity
  8
0
100
AcDbLine
 10
14.86979243210618
 20
-9.589861568596077
 30
0.0
 11
14.8608899825062
 21
-9.585772570196084
 31
0.0
  0
LINE
  5
CA
330
2
100
AcDbEntity
  8
0
100
AcDbLine
 10
14.8608899825062
 20
-9.585772570196084
 30
0.0
 11
14.85198065290621
 21
-9.581628109396078
 31
0.0
  0
LINE
  5
CB
330
2
100
AcDbEntity
  8
0
100
AcDbLine
 10
14.85198065290621
 20
-9.581628109396078
 30
0.0
 11
14.8430645345062
 21
-9.577428010196072
 31
0.0
  0
LINE
  5
CC
330
2
100
AcDbEntity
  8
0
100
AcDbLine
 10
14.8430645345062
 20
-9.577428010196072
 30
0.0
 11
14.83414172170621
 21
-9.573172096596081
 31
0.0
  0
LINE
  5
CD
330
2
100
AcDbEntity
  8
0
100
AcDbLine
 10
14.83414172170621
 20
-9.573172096596081
 30
0.0
 11
14.82521232970621
 21
-9.568860187796062
 31
0.0
  0
LINE
  5
CE
330
2
100
AcDbEntity
  8
0
100
AcDbLine
 10
14.82521232970621
 20
-9.568860187796062
 30
0.0
 11
14.81627647850618
 21
-9.564492099796055
 31
0.0
  0
LINE
  5
CF
330
2
100
AcDbEntity
  8
0
100
AcDbLine
 10
14.81627647850618
 20
-9.564492099796055
 30
0.0
 11
14.80733428810621
 21
-9.560067645396074
 31
0.0
  0
LINE
  5
D0
330
2
100
AcDbEntity
  8
0
100
AcDbLine
 10
14.80733428810621
 20
-9.560067645396074
 30
0.0
 11
14.7983858705062
 21
-9.555586640596075
 31
0.0
  0
LINE
  5
D1
330
2
100
AcDbEntity
  8
0
100
AcDbLine
 10
14.7983858705062
 20
-9.555586640596075
 30
0.0
 11
14.78943133930619
 21
-9.551048902996072
 31
0.0
  0
LWPOLYLINE
  5
D2
330
2
100
AcDbEntity
  8
0
100
AcDbPolyline
 90
       29
 70
     0
 43
0.0
 10
0.4330186593061854
 20
-9.771976032596043
 10
0.4711535617061884
 20
-9.791385624596031
 10
0.5095800561061879
 20
-9.80986696859604
 10
0.5482820593061888
 20
-9.827472192596033
 10
0.587243483306196
 20
-9.844253419796032
 10
0.6264482449061859
 20
-9.86026277659603
 10
0.665880257706192
 20
-9.875552387796048
 10
0.7055234369061907
 20
-9.89017437979605
 10
0.7453616961061869
 20
-9.904180875796029
 10
0.7853789505061855
 20
-9.917624003796035
 10
0.8255591153061914
 20
-9.930555886996032
 10
0.8658861057061812
 20
-9.943028651796041
 10
0.9063438337061882
 20
-9.955094422996026
 10
0.9469162161061888
 20
-9.966805326996038
 10
1.014434139306189
 20
-9.985590882196035
 10
1.082149897706187
 20
-10.00378122779604
 10
1.14999005130619
 20
-10.02161435899601
 10
1.217881155306201
 20
-10.03932826459605
 10
1.2857497713062
 20
-10.05716094139602
 10
1.351158971306205
 20
-10.07461594619603
 10
1.416548182506204
 20
-10.09210865019603
 10
1.481986704106191
 20
-10.10934468859604
 10
1.547543833706185
 20
-10.12602970299603
 10
1.613288873706181
 20
-10.14186933019603
 10
1.660362798506184
 20
-10.15249391739603
 10
1.707592920106208
 20
-10.16243099099604
 10
1.755004427306204
 20
-10.17157355259602
 10
1.802622510506182
 20
-10.17981460219603
 10
1.850472361706181
 20
-10.18704713659603
  0
LINE
  5
D3
330
2
100
AcDbEntity
  8
0
100
AcDbLine
 10
14.78943133930619
 20
-9.551048902996072
 30
0.0
 11
14.7804708001062
 21
-9.546454250196077
 31
0.0
  0
LINE
  5
D4
330
2
100
AcDbEntity
  8
0
100
AcDbLine
 10
14.7804708001062
 20
-9.546454250196077
 30
0.0
 11
14.77150436490621
 21
-9.541802502996077
 31
0.0
  0
LWPOLYLINE
  5
D5
330
2
100
AcDbEntity
  8
0
100
AcDbPolyline
 90
       23
 70
     0
 43
0.0
 10
21.0364498929062
 20
2.698104901803944
 10
20.98331816810619
 20
2.713056221803938
 10
20.92973731370619
 20
2.726348249003919
 10
20.86846931530618
 20
2.739845058603933
 10
20.80691016010618
 20
2.751931041003942
 10
20.7389441601062
 20
2.763908177003926
 10
20.67078485610619
 20
2.77473811460392
 10
20.59694121450618
 20
2.785384887403935
 10
20.5229677089062
 20
2.795085562603944
 10
20.44369828970619
 20
2.804568034603946
 10
20.36433672650619
 20
2.813247833003927
 10
20.2800243185062
 20
2.821706764203938
 10
20.19564590730618
 20
2.829478964203914
 10
20.0173757265062
 20
2.843967074603924
 10
19.82977397610619
 20
2.856893121003921
 10
19.63317653930619
 20
2.868361756203924
 10
19.42616888010618
 20
2.878548089003928
 10
19.20017978090618
 20
2.887886821803917
 10
18.94625088170619
 20
2.896633164203919
 10
18.6615254417062
 20
2.904731519403938
 10
18.34384045450619
 20
2.912104708203926
 10
17.99200635530618
 20
2.918594437803946
 10
17.60449049610619
 20
2.924032724203939
  0
LINE
  5
D6
330
2
100
AcDbEntity
  8
0
100
AcDbLine
 10
14.77150436490621
 20
-9.541802502996077
 30
0.0
 11
14.76253214570619
 21
-9.537093491796056
 31
0.0
  0
LINE
  5
D7
330
2
100
AcDbEntity
  8
0
100
AcDbLine
 10
14.76253214570619
 20
-9.537093491796056
 30
0.0
 11
14.75355428170619
 21
-9.532327034196057
 31
0.0
  0
LINE
  5
D8
330
2
100
AcDbEntity
  8
0
100
AcDbLine
 10
14.75355428170619
 20
-9.532327034196057
 30
0.0
 11
14.74457091530619
 21
-9.527502946196065
 31
0.0
  0
LINE
  5
D9
330
2
100
AcDbEntity
  8
0
100
AcDbLine
 10
14.74457091530619
 20
-9.527502946196065
 30
0.0
 11
14.73558218730619
 21
-9.522621045396064
 31
0.0
  0
LINE
  5
DA
330
2
100
AcDbEntity
  8
0
100
AcDbLine
 10
14.73558218730619
 20
-9.522621045396064
 30
0.0
 11
14.7265882353062
 21
-9.517681147796068
 31
0.0
  0
LINE
  5
DB
330
2
100
AcDbEntity
  8
0
100
AcDbLine
 10
14.7265882353062
 20
-9.517681147796068
 30
0.0
 11
14.71758919690621
 21
-9.512683072596061
 31
0.0
  0
LINE
  5
DC
330
2
100
AcDbEntity
  8
0
100
AcDbLine
 10
14.71758919690621
 20
-9.512683072596061
 30
0.0
 11
14.7085852049062
 21
-9.507626635796057
 31
0.0
  0
LINE
  5
DD
330
2
100
AcDbEntity
  8
0
100
AcDbLine
 10
14.7085852049062
 20
-9.507626635796057
 30
0.0
 11
14.6995763889062
 21
-9.50251165659607
 31
0.0
  0
LINE
  5
DE
330
2
100
AcDbEntity
  8
0
100
AcDbLine
 10
14.6995763889062
 20
-9.50251165659607
 30
0.0
 11
14.6905628785062
 21
-9.497337952596083
 31
0.0
  0
LINE
  5
DF
330
2
100
AcDbEntity
  8
0
100
AcDbLine
 10
14.6905628785062
 20
-9.497337952596083
 30
0.0
 11
14.6815448081062
 21
-9.492105341396054
 31
0.0
  0
LINE
  5
E0
330
2
100
AcDbEntity
  8
0
100
AcDbLine
 10
14.6815448081062
 20
-9.492105341396054
 30
0.0
 11
14.6725223377062
 21
-9.486813627796053
 31
0.0
  0
LINE
  5
E1
330
2
100
AcDbEntity
  8
0
100
AcDbLine
 10
14.6725223377062
 20
-9.486813627796053
 30
0.0
 11
14.66349562730619
 21
-9.481462614996061
 31
0.0
  0
LINE
  5
E2
330
2
100
AcDbEntity
  8
0
100
AcDbLine
 10
14.66349562730619
 20
-9.481462614996061
 30
0.0
 11
14.65446483370619
 21
-9.476052110996064
 31
0.0
  0
LINE
  5
E3
330
2
100
AcDbEntity
  8
0
100
AcDbLine
 10
14.65446483370619
 20
-9.476052110996064
 30
0.0
 11
14.6454301121062
 21
-9.470581922196075
 31
0.0
  0
LINE
  5
E4
330
2
100
AcDbEntity
  8
0
100
AcDbLine
 10
14.6454301121062
 20
-9.470581922196075
 30
0.0
 11
14.63639161610618
 21
-9.465051851796076
 31
0.0
  0
LINE
  5
E5
330
2
100
AcDbEntity
  8
0
100
AcDbLine
 10
14.63639161610618
 20
-9.465051851796076
 30
0.0
 11
14.62734949450621
 21
-9.45946170779608
 31
0.0
  0
LINE
  5
E6
330
2
100
AcDbEntity
  8
0
100
AcDbLine
 10
14.62734949450621
 20
-9.45946170779608
 30
0.0
 11
14.6183038977062
 21
-9.453811298196072
 31
0.0
  0
LINE
  5
E7
330
2
100
AcDbEntity
  8
0
100
AcDbLine
 10
14.6183038977062
 20
-9.453811298196072
 30
0.0
 11
14.6092549745062
 21
-9.448100430996063
 31
0.0
  0
LINE
  5
E8
330
2
100
AcDbEntity
  8
0
100
AcDbLine
 10
14.6092549745062
 20
-9.448100430996063
 30
0.0
 11
14.6002028833062
 21
-9.442328914196068
 31
0.0
  0
LINE
  5
E9
330
2
100
AcDbEntity
  8
0
100
AcDbLine
 10
14.6002028833062
 20
-9.442328914196068
 30
0.0
 11
14.5911478049062
 21
-9.436496555796068
 31
0.0
  0
LINE
  5
EA
330
2
100
AcDbEntity
  8
0
100
AcDbLine
 10
14.5911478049062
 20
-9.436496555796068
 30
0.0
 11
14.5820899121062
 21
-9.430603149396077
 31
0.0
  0
LINE
  5
EB
330
2
100
AcDbEntity
  8
0
100
AcDbLine
 10
14.5820899121062
 20
-9.430603149396077
 30
0.0
 11
14.57302938730621
 21
-9.424648490196076
 31
0.0
  0
LINE
  5
EC
330
2
100
AcDbEntity
  8
0
100
AcDbLine
 10
14.57302938730621
 20
-9.424648490196076
 30
0.0
 11
14.56396641130619
 21
-9.418632368596078
 31
0.0
  0
LINE
  5
ED
330
2
100
AcDbEntity
  8
0
100
AcDbLine
 10
14.56396641130619
 20
-9.418632368596078
 30
0.0
 11
14.5549011713062
 21
-9.412554578196065
 31
0.0
  0
LINE
  5
EE
330
2
100
AcDbEntity
  8
0
100
AcDbLine
 10
14.5549011713062
 20
-9.412554578196065
 30
0.0
 11
14.54583386090619
 21
-9.406414912596076
 31
0.0
  0
LINE
  5
EF
330
2
100
AcDbEntity
  8
0
100
AcDbLine
 10
14.54583386090619
 20
-9.406414912596076
 30
0.0
 11
14.53676467370619
 21
-9.400213160596067
 31
0.0
  0
LINE
  5
F0
330
2
100
AcDbEntity
  8
0
100
AcDbLine
 10
14.53676467370619
 20
-9.400213160596067
 30
0.0
 11
14.5276938049062
 21
-9.393949104596075
 31
0.0
  0
LINE
  5
F1
330
2
100
AcDbEntity
  8
0
100
AcDbLine
 10
14.5276938049062
 20
-9.393949104596075
 30
0.0
 11
14.51862143370619
 21
-9.387622512596081
 31
0.0
  0
LINE
  5
F2
330
2
100
AcDbEntity
  8
0
100
AcDbLine
 10
14.51862143370619
 20
-9.387622512596081
 30
0.0
 11
14.50954775210619
 21
-9.381233150996067
 31
0.0
  0
LINE
  5
F3
330
2
100
AcDbEntity
  8
0
100
AcDbLine
 10
14.50954775210619
 20
-9.381233150996067
 30
0.0
 11
14.50047294730621
 21
-9.374780786196069
 31
0.0
  0
LINE
  5
F4
330
2
100
AcDbEntity
  8
0
100
AcDbLine
 10
14.50047294730621
 20
-9.374780786196069
 30
0.0
 11
14.49139720170621
 21
-9.368265187796069
 31
0.0
  0
LINE
  5
F5
330
2
100
AcDbEntity
  8
0
100
AcDbLine
 10
14.49139720170621
 20
-9.368265187796069
 30
0.0
 11
14.4823206753062
 21
-9.361686120596075
 31
0.0
  0
LWPOLYLINE
  5
F6
330
2
100
AcDbEntity
  8
0
100
AcDbPolyline
 90
        3
 70
     0
 43
0.0
 10
14.48232067530619
 20
-9.361686120596075
 10
14.47324352490619
 20
-9.355043346196069
 10
14.46870476650619
 20
-9.351697997396072
  0
LINE
  5
F7
330
2
100
AcDbEntity
  8
0
100
AcDbLine
 10
14.46870476650619
 20
-9.351697997396072
 30
0.0
 11
14.4596269873062
 21
-9.344959227796053
 31
0.0
  0
LINE
  5
F8
330
2
100
AcDbEntity
  8
0
100
AcDbLine
 10
14.4596269873062
 20
-9.344959227796053
 30
0.0
 11
14.45054899690621
 21
-9.338156170196057
 31
0.0
  0
LINE
  5
F9
330
2
100
AcDbEntity
  8
0
100
AcDbLine
 10
14.45054899690621
 20
-9.338156170196057
 30
0.0
 11
14.44147096810619
 21
-9.331288597396067
 31
0.0
  0
LINE
  5
FA
330
2
100
AcDbEntity
  8
0
100
AcDbLine
 10
14.44147096810619
 20
-9.331288597396067
 30
0.0
 11
14.43239307530618
 21
-9.324356278996063
 31
0.0
  0
LINE
  5
FB
330
2
100
AcDbEntity
  8
0
100
AcDbLine
 10
14.43239307530618
 20
-9.324356278996063
 30
0.0
 11
14.4233154993062
 21
-9.317358987796083
 31
0.0
  0
LINE
  5
FC
330
2
100
AcDbEntity
  8
0
100
AcDbLine
 10
14.4233154993062
 20
-9.317358987796083
 30
0.0
 11
14.4142384241062
 21
-9.310296499796052
 31
0.0
  0
LINE
  5
FD
330
2
100
AcDbEntity
  8
0
100
AcDbLine
 10
14.4142384241062
 20
-9.310296499796052
 30
0.0
 11
14.40516203370621
 21
-9.303168589396065
 31
0.0
  0
LINE
  5
FE
330
2
100
AcDbEntity
  8
0
100
AcDbLine
 10
14.40516203370621
 20
-9.303168589396065
 30
0.0
 11
14.3960865201062
 21
-9.295975035796075
 31
0.0
  0
LINE
  5
FF
330
2
100
AcDbEntity
  8
0
100
AcDbLine
 10
14.3960865201062
 20
-9.295975035796075
 30
0.0
 11
14.38701207690619
 21
-9.288715618196064
 31
0.0
  0
LINE
  5
100
330
2
100
AcDbEntity
  8
0
100
AcDbLine
 10
14.38701207690619
 20
-9.288715618196064
 30
0.0
 11
14.37793892650621
 21
-9.28139010779607
 31
0.0
  0
LINE
  5
101
330
2
100
AcDbEntity
  8
0
100
AcDbLine
 10
14.37793892650621
 20
-9.28139010779607
 30
0.0
 11
14.36886742890619
 21
-9.273998243796071
 31
0.0
  0
LINE
  5
102
330
2
100
AcDbEntity
  8
0
100
AcDbLine
 10
14.36886742890619
 20
-9.273998243796071
 30
0.0
 11
14.3597979889062
 21
-9.266539750996074
 31
0.0
  0
LINE
  5
103
330
2
100
AcDbEntity
  8
0
100
AcDbLine
 10
14.3597979889062
 20
-9.266539750996074
 30
0.0
 11
14.35073100970618
 21
-9.259014360596054
 31
0.0
  0
LINE
  5
104
330
2
100
AcDbEntity
  8
0
100
AcDbLine
 10
14.35073100970618
 20
-9.259014360596054
 30
0.0
 11
14.34166690410621
 21
-9.251421800596077
 31
0.0
  0
LINE
  5
105
330
2
100
AcDbEntity
  8
0
100
AcDbLine
 10
14.34166690410621
 20
-9.251421800596077
 30
0.0
 11
14.33260608650619
 21
-9.243761803796061
 31
0.0
  0
LINE
  5
106
330
2
100
AcDbEntity
  8
0
100
AcDbLine
 10
14.33260608650619
 20
-9.243761803796061
 30
0.0
 11
14.3235489729062
 21
-9.236034104596072
 31
0.0
  0
LINE
  5
107
330
2
100
AcDbEntity
  8
0
100
AcDbLine
 10
14.3235489729062
 20
-9.236034104596072
 30
0.0
 11
14.31449598090621
 21
-9.228238438996086
 31
0.0
  0
LINE
  5
108
330
2
100
AcDbEntity
  8
0
100
AcDbLine
 10
14.31449598090621
 20
-9.228238438996086
 30
0.0
 11
14.30544743370621
 21
-9.220374560596056
 31
0.0
  0
LINE
  5
109
330
2
100
AcDbEntity
  8
0
100
AcDbLine
 10
14.30544743370621
 20
-9.220374560596056
 30
0.0
 11
14.2964034993062
 21
-9.212442238996075
 31
0.0
  0
LINE
  5
10A
330
2
100
AcDbEntity
  8
0
100
AcDbLine
 10
14.2964034993062
 20
-9.212442238996075
 30
0.0
 11
14.28736432650621
 21
-9.204441250196069
 31
0.0
  0
LINE
  5
10B
330
2
100
AcDbEntity
  8
0
100
AcDbLine
 10
14.28736432650621
 20
-9.204441250196069
 30
0.0
 11
14.2783300529062
 21
-9.196371373396075
 31
0.0
  0
LINE
  5
10C
330
2
100
AcDbEntity
  8
0
100
AcDbLine
 10
14.2783300529062
 20
-9.196371373396075
 30
0.0
 11
14.26930080010621
 21
-9.188232381396076
 31
0.0
  0
LINE
  5
10D
330
2
100
AcDbEntity
  8
0
100
AcDbLine
 10
14.26930080010621
 20
-9.188232381396076
 30
0.0
 11
14.26027664490619
 21
-9.180024014996078
 31
0.0
  0
LINE
  5
10E
330
2
100
AcDbEntity
  8
0
100
AcDbLine
 10
14.26027664490619
 20
-9.180024014996078
 30
0.0
 11
14.25125767370619
 21
-9.17174601499606
 31
0.0
  0
LINE
  5
10F
330
2
100
AcDbEntity
  8
0
100
AcDbLine
 10
14.25125767370619
 20
-9.17174601499606
 30
0.0
 11
14.2422441217062
 21
-9.163398142996086
 31
0.0
  0
LINE
  5
110
330
2
100
AcDbEntity
  8
0
100
AcDbLine
 10
14.2422441217062
 20
-9.163398142996086
 30
0.0
 11
14.23323628650619
 21
-9.154980178196083
 31
0.0
  0
LINE
  5
111
330
2
100
AcDbEntity
  8
0
100
AcDbLine
 10
14.23323628650619
 20
-9.154980178196083
 30
0.0
 11
14.22423445290619
 21
-9.14649189819606
 31
0.0
  0
LINE
  5
112
330
2
100
AcDbEntity
  8
0
100
AcDbLine
 10
14.22423445290619
 20
-9.14649189819606
 30
0.0
 11
14.2152389009062
 21
-9.137933085396085
 31
0.0
  0
LINE
  5
113
330
2
100
AcDbEntity
  8
0
100
AcDbLine
 10
14.2152389009062
 20
-9.137933085396085
 30
0.0
 11
14.20624990090619
 21
-9.129303528596054
 31
0.0
  0
LINE
  5
114
330
2
100
AcDbEntity
  8
0
100
AcDbLine
 10
14.20624990090619
 20
-9.129303528596054
 30
0.0
 11
14.1972677185062
 21
-9.120603021396064
 31
0.0
  0
LINE
  5
115
330
2
100
AcDbEntity
  8
0
100
AcDbLine
 10
14.1972677185062
 20
-9.120603021396064
 30
0.0
 11
14.1882926177062
 21
-9.11183135899607
 31
0.0
  0
LINE
  5
116
330
2
100
AcDbEntity
  8
0
100
AcDbLine
 10
14.1882926177062
 20
-9.11183135899607
 30
0.0
 11
14.17932485610621
 21
-9.102988347796056
 31
0.0
  0
LWPOLYLINE
  5
117
330
2
100
AcDbEntity
  8
0
100
AcDbPolyline
 90
        3
 70
     0
 43
0.0
 10
14.1793248561062
 20
-9.102988347796056
 10
14.17036468970619
 20
-9.094073794196063
 10
14.16588753290619
 20
-9.089589630996059
  0
LWPOLYLINE
  5
118
330
2
100
AcDbEntity
  8
0
100
AcDbPolyline
 90
       30
 70
     0
 43
0.0
 10
24.28185610890619
 20
8.34765008580392
 10
24.1835392193062
 20
8.404868882603935
 10
24.08290915370619
 20
8.455548954603941
 10
23.9802376849062
 20
8.500453673003946
 10
23.87579658730618
 20
8.54034641220393
 10
23.76985763370618
 20
8.575990540203932
 10
23.6102501777062
 20
8.622748236203946
 10
23.44882710730618
 20
8.664314813803926
 10
23.28648019050618
 20
8.70319513060393
 10
22.57944626410619
 20
8.86823507140393
 10
21.87173032010619
 20
9.029156871403912
 10
21.16325687210618
 20
9.185273039403924
 10
20.45395043050618
 20
9.335896085803923
 10
19.74373550730618
 20
9.480338521003929
 10
19.03253661770619
 20
9.617912853803929
 10
18.3202782705062
 20
9.74793159620394
 10
17.60688498090618
 20
9.869707257003923
 10
16.8922812593062
 20
9.982552345003924
 10
16.2966478833062
 20
10.06915358500394
 10
15.70008054570618
 20
10.14869843780392
 10
15.1025357489062
 20
10.22079074660392
 10
14.50396999530619
 20
10.28503435300392
 10
13.90433978250618
 20
10.34103309860391
 10
13.30360161450619
 20
10.38839082500392
 10
12.70171199210619
 20
10.42671137380391
 10
12.09862741610618
 20
10.45559858660392
 10
11.49430438570618
 20
10.47465630660393
 10
10.88869940490619
 20
10.48348837380392
 10
10.2817689729062
 20
10.48169863140394
 10
9.673469592106187
 20
10.46889092100396
  0
LINE
  5
119
330
2
100
AcDbEntity
  8
0
100
AcDbLine
 10
14.1658875329062
 20
-9.089589630996059
 30
0.0
 11
14.1569392273062
 21
-9.080567411796053
 31
0.0
  0
LINE
  5
11A
330
2
100
AcDbEntity
  8
0
100
AcDbLine
 10
14.1569392273062
 20
-9.080567411796053
 30
0.0
 11
14.1479991345062
 21
-9.071473189396058
 31
0.0
  0
LINE
  5
11B
330
2
100
AcDbEntity
  8
0
100
AcDbLine
 10
14.1479991345062
 20
-9.071473189396058
 30
0.0
 11
14.13906749770621
 21
-9.06230678139606
 31
0.0
  0
LINE
  5
11C
330
2
100
AcDbEntity
  8
0
100
AcDbLine
 10
14.13906749770621
 20
-9.06230678139606
 30
0.0
 11
14.1301445473062
 21
-9.053068014996071
 31
0.0
  0
LINE
  5
11D
330
2
100
AcDbEntity
  8
0
100
AcDbLine
 10
14.1301445473062
 20
-9.053068014996071
 30
0.0
 11
14.12123047210619
 21
-9.04375674139608
 31
0.0
  0
LINE
  5
11E
330
2
100
AcDbEntity
  8
0
100
AcDbLine
 10
14.12123047210619
 20
-9.04375674139608
 30
0.0
 11
14.11232541930619
 21
-9.034372837396077
 31
0.0
  0
LINE
  5
11F
330
2
100
AcDbEntity
  8
0
100
AcDbLine
 10
14.11232541930619
 20
-9.034372837396077
 30
0.0
 11
14.10342952970621
 21
-9.02491618939608
 31
0.0
  0
LINE
  5
120
330
2
100
AcDbEntity
  8
0
100
AcDbLine
 10
14.10342952970621
 20
-9.02491618939608
 30
0.0
 11
14.0945429425062
 21
-9.01538668059608
 31
0.0
  0
LINE
  5
121
330
2
100
AcDbEntity
  8
0
100
AcDbLine
 10
14.0945429425062
 20
-9.01538668059608
 30
0.0
 11
14.0856657953062
 21
-9.005784205396068
 31
0.0
  0
LINE
  5
122
330
2
100
AcDbEntity
  8
0
100
AcDbLine
 10
14.0856657953062
 20
-9.005784205396068
 30
0.0
 11
14.0767982225062
 21
-8.996108656596064
 31
0.0
  0
LINE
  5
123
330
2
100
AcDbEntity
  8
0
100
AcDbLine
 10
14.0767982225062
 20
-8.996108656596064
 30
0.0
 11
14.06794035530621
 21
-8.986359934996059
 31
0.0
  0
LINE
  5
124
330
2
100
AcDbEntity
  8
0
100
AcDbLine
 10
14.06794035530621
 20
-8.986359934996059
 30
0.0
 11
14.05909232810621
 21
-8.976537941396074
 31
0.0
  0
LINE
  5
125
330
2
100
AcDbEntity
  8
0
100
AcDbLine
 10
14.05909232810621
 20
-8.976537941396074
 30
0.0
 11
14.0502542737062
 21
-8.966642586196073
 31
0.0
  0
LINE
  5
126
330
2
100
AcDbEntity
  8
0
100
AcDbLine
 10
14.0502542737062
 20
-8.966642586196073
 30
0.0
 11
14.04142632490619
 21
-8.956673778196076
 31
0.0
  0
LINE
  5
127
330
2
100
AcDbEntity
  8
0
100
AcDbLine
 10
14.04142632490619
 20
-8.956673778196076
 30
0.0
 11
14.03260863690619
 21
-8.946631437396078
 31
0.0
  0
LINE
  5
128
330
2
100
AcDbEntity
  8
0
100
AcDbLine
 10
14.03260863690619
 20
-8.946631437396078
 30
0.0
 11
14.0238016465062
 21
-8.936515483796071
 31
0.0
  0
LINE
  5
129
330
2
100
AcDbEntity
  8
0
100
AcDbLine
 10
14.0238016465062
 20
-8.936515483796071
 30
0.0
 11
14.01500596170621
 21
-8.926325824596077
 31
0.0
  0
LINE
  5
12A
330
2
100
AcDbEntity
  8
0
100
AcDbLine
 10
14.01500596170621
 20
-8.926325824596077
 30
0.0
 11
14.00622192010619
 21
-8.916062366996087
 31
0.0
  0
LINE
  5
12B
330
2
100
AcDbEntity
  8
0
100
AcDbLine
 10
14.00622192010619
 20
-8.916062366996087
 30
0.0
 11
13.9974496289062
 21
-8.905725032596066
 31
0.0
  0
LINE
  5
12C
330
2
100
AcDbEntity
  8
0
100
AcDbLine
 10
13.9974496289062
 20
-8.905725032596066
 30
0.0
 11
13.9886891905062
 21
-8.895313746196066
 31
0.0
  0
LINE
  5
12D
330
2
100
AcDbEntity
  8
0
100
AcDbLine
 10
13.9886891905062
 20
-8.895313746196066
 30
0.0
 11
13.97994071530619
 21
-8.88482843899608
 31
0.0
  0
LINE
  5
12E
330
2
100
AcDbEntity
  8
0
100
AcDbLine
 10
13.97994071530619
 20
-8.88482843899608
 30
0.0
 11
13.97120431530618
 21
-8.874269045396076
 31
0.0
  0
LINE
  5
12F
330
2
100
AcDbEntity
  8
0
100
AcDbLine
 10
13.97120431530618
 20
-8.874269045396076
 30
0.0
 11
13.96248011210619
 21
-8.863635502996075
 31
0.0
  0
LINE
  5
130
330
2
100
AcDbEntity
  8
0
100
AcDbLine
 10
13.96248011210619
 20
-8.863635502996075
 30
0.0
 11
13.9537682273062
 21
-8.852927755796073
 31
0.0
  0
LINE
  5
131
330
2
100
AcDbEntity
  8
0
100
AcDbLine
 10
13.9537682273062
 20
-8.852927755796073
 30
0.0
 11
13.94506879210619
 21
-8.842145752596067
 31
0.0
  0
LINE
  5
132
330
2
100
AcDbEntity
  8
0
100
AcDbLine
 10
13.94506879210619
 20
-8.842145752596067
 30
0.0
 11
13.93638193770619
 21
-8.83128944539608
 31
0.0
  0
LINE
  5
133
330
2
100
AcDbEntity
  8
0
100
AcDbLine
 10
13.93638193770619
 20
-8.83128944539608
 30
0.0
 11
13.92770780010619
 21
-8.820358790996081
 31
0.0
  0
LINE
  5
134
330
2
100
AcDbEntity
  8
0
100
AcDbLine
 10
13.92770780010619
 20
-8.820358790996081
 30
0.0
 11
13.91904652330621
 21
-8.809353755796067
 31
0.0
  0
LINE
  5
135
330
2
100
AcDbEntity
  8
0
100
AcDbLine
 10
13.91904652330621
 20
-8.809353755796067
 30
0.0
 11
13.91039824970619
 21
-8.798274306196063
 31
0.0
  0
LINE
  5
136
330
2
100
AcDbEntity
  8
0
100
AcDbLine
 10
13.91039824970619
 20
-8.798274306196063
 30
0.0
 11
13.90176312010618
 21
-8.787120427796068
 31
0.0
  0
LINE
  5
137
330
2
100
AcDbEntity
  8
0
100
AcDbLine
 10
13.90176312010618
 20
-8.787120427796068
 30
0.0
 11
13.89314126570619
 21
-8.775892139796056
 31
0.0
  0
LINE
  5
138
330
2
100
AcDbEntity
  8
0
100
AcDbLine
 10
13.89314126570619
 20
-8.775892139796056
 30
0.0
 11
13.8845328145062
 21
-8.764589467796056
 31
0.0
  0
LINE
  5
139
330
2
100
AcDbEntity
  8
0
100
AcDbLine
 10
13.8845328145062
 20
-8.764589467796056
 30
0.0
 11
13.8759378993062
 21
-8.753212450196073
 31
0.0
  0
LINE
  5
13A
330
2
100
AcDbEntity
  8
0
100
AcDbLine
 10
13.8759378993062
 20
-8.753212450196073
 30
0.0
 11
13.86735665450618
 21
-8.741761123796052
 31
0.0
  0
LINE
  5
13B
330
2
100
AcDbEntity
  8
0
100
AcDbLine
 10
13.86735665450618
 20
-8.741761123796052
 30
0.0
 11
13.85878921610621
 21
-8.730235539796083
 31
0.0
  0
LINE
  5
13C
330
2
100
AcDbEntity
  8
0
100
AcDbLine
 10
13.85878921610621
 20
-8.730235539796083
 30
0.0
 11
13.85023572490619
 21
-8.718635752596085
 31
0.0
  0
LINE
  5
13D
330
2
100
AcDbEntity
  8
0
100
AcDbLine
 10
13.85023572490619
 20
-8.718635752596085
 30
0.0
 11
13.8416963233062
 21
-8.706961824596064
 31
0.0
  0
LINE
  5
13E
330
2
100
AcDbEntity
  8
0
100
AcDbLine
 10
13.8416963233062
 20
-8.706961824596064
 30
0.0
 11
13.83317115210619
 21
-8.695213827796081
 31
0.0
  0
LINE
  5
13F
330
2
100
AcDbEntity
  8
0
100
AcDbLine
 10
13.83317115210619
 20
-8.695213827796081
 30
0.0
 11
13.82466035690621
 21
-8.683391840596087
 31
0.0
  0
LINE
  5
140
330
2
100
AcDbEntity
  8
0
100
AcDbLine
 10
13.82466035690621
 20
-8.683391840596087
 30
0.0
 11
13.81616408490621
 21
-8.67149594779606
 31
0.0
  0
LINE
  5
141
330
2
100
AcDbEntity
  8
0
100
AcDbLine
 10
13.81616408490621
 20
-8.67149594779606
 30
0.0
 11
13.8076824833062
 21
-8.659526245396065
 31
0.0
  0
LINE
  5
142
330
2
100
AcDbEntity
  8
0
100
AcDbLine
 10
13.8076824833062
 20
-8.659526245396065
 30
0.0
 11
13.79921573930619
 21
-8.647482859796085
 31
0.0
  0
LINE
  5
143
330
2
100
AcDbEntity
  8
0
100
AcDbLine
 10
13.79921573930619
 20
-8.647482859796085
 30
0.0
 11
13.79076410090619
 21
-8.635365963796076
 31
0.0
  0
LINE
  5
144
330
2
100
AcDbEntity
  8
0
100
AcDbLine
 10
13.79076410090619
 20
-8.635365963796076
 30
0.0
 11
13.78232782250621
 21
-8.623175746196082
 31
0.0
  0
LINE
  5
145
330
2
100
AcDbEntity
  8
0
100
AcDbLine
 10
13.78232782250621
 20
-8.623175746196082
 30
0.0
 11
13.77390722090618
 21
-8.61091248059607
 31
0.0
  0
LINE
  5
146
330
2
100
AcDbEntity
  8
0
100
AcDbLine
 10
13.77390722090618
 20
-8.61091248059607
 30
0.0
 11
13.76550263210621
 21
-8.598576474196065
 31
0.0
  0
LINE
  5
147
330
2
100
AcDbEntity
  8
0
100
AcDbLine
 10
13.76550263210621
 20
-8.598576474196065
 30
0.0
 11
13.75711438570619
 21
-8.586168045396064
 31
0.0
  0
LINE
  5
148
330
2
100
AcDbEntity
  8
0
100
AcDbLine
 10
13.75711438570619
 20
-8.586168045396064
 30
0.0
 11
13.74874270250621
 21
-8.573687501396065
 31
0.0
  0
LINE
  5
149
330
2
100
AcDbEntity
  8
0
100
AcDbLine
 10
13.74874270250621
 20
-8.573687501396065
 30
0.0
 11
13.74038768170618
 21
-8.561135138196064
 31
0.0
  0
LINE
  5
14A
330
2
100
AcDbEntity
  8
0
100
AcDbLine
 10
13.74038768170618
 20
-8.561135138196064
 30
0.0
 11
13.73204941930621
 21
-8.548511256596057
 31
0.0
  0
LINE
  5
14B
330
2
100
AcDbEntity
  8
0
100
AcDbLine
 10
13.73204941930621
 20
-8.548511256596057
 30
0.0
 11
13.72372800490621
 21
-8.53581616699607
 31
0.0
  0
LINE
  5
14C
330
2
100
AcDbEntity
  8
0
100
AcDbLine
 10
13.72372800490621
 20
-8.53581616699607
 30
0.0
 11
13.71542352330619
 21
-8.523050181396072
 31
0.0
  0
LINE
  5
14D
330
2
100
AcDbEntity
  8
0
100
AcDbLine
 10
13.71542352330619
 20
-8.523050181396072
 30
0.0
 11
13.70713608650619
 21
-8.510213635796063
 31
0.0
  0
LINE
  5
14E
330
2
100
AcDbEntity
  8
0
100
AcDbLine
 10
13.70713608650619
 20
-8.510213635796063
 30
0.0
 11
13.69886588810619
 21
-8.497306909396073
 31
0.0
  0
LINE
  5
14F
330
2
100
AcDbEntity
  8
0
100
AcDbLine
 10
13.69886588810619
 20
-8.497306909396073
 30
0.0
 11
13.69061313290621
 21
-8.484330394196078
 31
0.0
  0
LINE
  5
150
330
2
100
AcDbEntity
  8
0
100
AcDbLine
 10
13.69061313290621
 20
-8.484330394196078
 30
0.0
 11
13.68237802730619
 21
-8.471284491796055
 31
0.0
  0
LINE
  5
151
330
2
100
AcDbEntity
  8
0
100
AcDbLine
 10
13.68237802730619
 20
-8.471284491796055
 30
0.0
 11
13.67416077130619
 21
-8.458169614996066
 31
0.0
  0
LINE
  5
152
330
2
100
AcDbEntity
  8
0
100
AcDbLine
 10
13.67416077130619
 20
-8.458169614996066
 30
0.0
 11
13.66596156330619
 21
-8.44498617979606
 31
0.0
  0
LINE
  5
153
330
2
100
AcDbEntity
  8
0
100
AcDbLine
 10
13.66596156330619
 20
-8.44498617979606
 30
0.0
 11
13.65778060330621
 21
-8.431734610196073
 31
0.0
  0
LINE
  5
154
330
2
100
AcDbEntity
  8
0
100
AcDbLine
 10
13.65778060330621
 20
-8.431734610196073
 30
0.0
 11
13.6496180801062
 21
-8.418415339796084
 31
0.0
  0
LINE
  5
155
330
2
100
AcDbEntity
  8
0
100
AcDbLine
 10
13.6496180801062
 20
-8.418415339796084
 30
0.0
 11
13.64147418890619
 21
-8.405028810196071
 31
0.0
  0
LINE
  5
156
330
2
100
AcDbEntity
  8
0
100
AcDbLine
 10
13.64147418890619
 20
-8.405028810196071
 30
0.0
 11
13.63334911690621
 21
-8.391575469396073
 31
0.0
  0
LINE
  5
157
330
2
100
AcDbEntity
  8
0
100
AcDbLine
 10
13.63334911690621
 20
-8.391575469396073
 30
0.0
 11
13.6252430497062
 21
-8.37805577339607
 31
0.0
  0
LINE
  5
158
330
2
100
AcDbEntity
  8
0
100
AcDbLine
 10
13.6252430497062
 20
-8.37805577339607
 30
0.0
 11
13.61715615210619
 21
-8.364470195796073
 31
0.0
  0
LINE
  5
159
330
2
100
AcDbEntity
  8
0
100
AcDbLine
 10
13.61715615210619
 20
-8.364470195796073
 30
0.0
 11
13.60908855050619
 21
-8.350819230996066
 31
0.0
  0
LINE
  5
15A
330
2
100
AcDbEntity
  8
0
100
AcDbLine
 10
13.60908855050619
 20
-8.350819230996066
 30
0.0
 11
13.6010403985062
 21
-8.337103378196061
 31
0.0
  0
LINE
  5
15B
330
2
100
AcDbEntity
  8
0
100
AcDbLine
 10
13.6010403985062
 20
-8.337103378196061
 30
0.0
 11
13.5930116913062
 21
-8.323323158996075
 31
0.0
  0
LINE
  5
15C
330
2
100
AcDbEntity
  8
0
100
AcDbLine
 10
13.5930116913062
 20
-8.323323158996075
 30
0.0
 11
13.58500265930619
 21
-8.309479083796063
 31
0.0
  0
LINE
  5
15D
330
2
100
AcDbEntity
  8
0
100
AcDbLine
 10
13.58500265930619
 20
-8.309479083796063
 30
0.0
 11
13.57701337130621
 21
-8.295571686996069
 31
0.0
  0
LINE
  5
15E
330
2
100
AcDbEntity
  8
0
100
AcDbLine
 10
13.57701337130621
 20
-8.295571686996069
 30
0.0
 11
13.5690439361062
 21
-8.281601501396053
 31
0.0
  0
LINE
  5
15F
330
2
100
AcDbEntity
  8
0
100
AcDbLine
 10
13.5690439361062
 20
-8.281601501396053
 30
0.0
 11
13.56109445130619
 21
-8.26756906459606
 31
0.0
  0
LINE
  5
160
330
2
100
AcDbEntity
  8
0
100
AcDbLine
 10
13.56109445130619
 20
-8.26756906459606
 30
0.0
 11
13.55316495530619
 21
-8.253474838996069
 31
0.0
  0
LINE
  5
161
330
2
100
AcDbEntity
  8
0
100
AcDbLine
 10
13.55316495530619
 20
-8.253474838996069
 30
0.0
 11
13.54525545770619
 21
-8.23931924059606
 31
0.0
  0
LINE
  5
162
330
2
100
AcDbEntity
  8
0
100
AcDbLine
 10
13.54525545770619
 20
-8.23931924059606
 30
0.0
 11
13.5373659649062
 21
-8.225102701396068
 31
0.0
  0
LINE
  5
163
330
2
100
AcDbEntity
  8
0
100
AcDbLine
 10
13.5373659649062
 20
-8.225102701396068
 30
0.0
 11
13.52949647850619
 21
-8.210825685396073
 31
0.0
  0
LINE
  5
164
330
2
100
AcDbEntity
  8
0
100
AcDbLine
 10
13.52949647850619
 20
-8.210825685396073
 30
0.0
 11
13.52164699530619
 21
-8.196488691796062
 31
0.0
  0
LINE
  5
165
330
2
100
AcDbEntity
  8
0
100
AcDbLine
 10
13.52164699530619
 20
-8.196488691796062
 30
0.0
 11
13.51381752010619
 21
-8.182092222996075
 31
0.0
  0
LINE
  5
166
330
2
100
AcDbEntity
  8
0
100
AcDbLine
 10
13.51381752010619
 20
-8.182092222996075
 30
0.0
 11
13.5060080561062
 21
-8.167636803796071
 31
0.0
  0
LINE
  5
167
330
2
100
AcDbEntity
  8
0
100
AcDbLine
 10
13.5060080561062
 20
-8.167636803796071
 30
0.0
 11
13.49821861610619
 21
-8.153122965396065
 31
0.0
  0
LINE
  5
168
330
2
100
AcDbEntity
  8
0
100
AcDbLine
 10
13.49821861610619
 20
-8.153122965396065
 30
0.0
 11
13.49044921450619
 21
-8.138551261396074
 31
0.0
  0
LINE
  5
169
330
2
100
AcDbEntity
  8
0
100
AcDbLine
 10
13.49044921450619
 20
-8.138551261396074
 30
0.0
 11
13.4826998721062
 21
-8.12392225499606
 31
0.0
  0
LINE
  5
16A
330
2
100
AcDbEntity
  8
0
100
AcDbLine
 10
13.4826998721062
 20
-8.12392225499606
 30
0.0
 11
13.47497061610619
 21
-8.109236531796071
 31
0.0
  0
LINE
  5
16B
330
2
100
AcDbEntity
  8
0
100
AcDbLine
 10
13.47497061610619
 20
-8.109236531796071
 30
0.0
 11
13.4672614769062
 21
-8.094494694996072
 31
0.0
  0
LINE
  5
16C
330
2
100
AcDbEntity
  8
0
100
AcDbLine
 10
13.4672614769062
 20
-8.094494694996072
 30
0.0
 11
13.45957248810621
 21
-8.079697365396057
 31
0.0
  0
LINE
  5
16D
330
2
100
AcDbEntity
  8
0
100
AcDbLine
 10
13.45957248810621
 20
-8.079697365396057
 30
0.0
 11
13.4519036753062
 21
-8.06484517659608
 31
0.0
  0
LINE
  5
16E
330
2
100
AcDbEntity
  8
0
100
AcDbLine
 10
13.4519036753062
 20
-8.06484517659608
 30
0.0
 11
13.44425504010619
 21
-8.049938773396078
 31
0.0
  0
LWPOLYLINE
  5
16F
330
2
100
AcDbEntity
  8
0
100
AcDbPolyline
 90
        3
 70
     0
 43
0.0
 10
13.44425504010618
 20
-8.049938773396078
 10
13.43662657130619
 20
-8.03497881979608
 10
13.43281989610619
 20
-8.027478978196072
  0
LINE
  5
171
330
2
100
AcDbEntity
  8
0
100
AcDbLine
 10
-4.261038364693803
 20
7.751491418603976
 30
0.0
 11
-4.175970931093814
 21
6.809777940203971
 31
0.0
  0
LWPOLYLINE
  5
172
330
2
100
AcDbEntity
  8
0
100
AcDbPolyline
 90
       16
 70
     0
 43
0.0
 10
21.24870671050618
 20
2.498388173803945
 10
21.24622456650618
 20
2.501840965803936
 10
21.2438697201062
 20
2.505398433003946
 10
21.24164920330619
 20
2.509051994603922
 10
21.2395700449062
 20
2.512793073003919
 10
21.23763927050621
 20
2.516613085803939
 10
21.23586391050619
 20
2.520503457003925
 10
21.23425099210618
 20
2.524455605803936
 10
21.2328075441062
 20
2.528460953003943
 10
21.23154059690619
 20
2.532510917803946
 10
21.23038001290618
 20
2.536888180203945
 10
21.2293927153062
 20
2.54130191780392
 10
21.22854157290618
 20
2.545747285803926
 10
21.22778944650619
 20
2.550219437803932
 10
21.22709920170618
 20
2.554713530603933
 10
21.22575582090618
 20
2.563748156203914
  0
LWPOLYLINE
  5
173
330
2
100
AcDbEntity
  8
0
100
AcDbPolyline
 90
       74
 70
     0
 43
0.0
 10
20.37617625450619
 20
0.352296250603942
 10
20.41259698250618
 20
0.2891113946039212
 10
20.46638252490621
 20
0.1982475514039237
 10
20.52297101610619
 20
0.1057161818039134
 10
20.5833622913062
 20
0.0096186410039394
 10
20.64822925610619
 20
-0.0915419349960729
 10
20.7182998977062
 20
-0.1996523861960639
 10
20.79405692330618
 20
-0.3168426293960778
 10
20.83336947050619
 20
-0.3784743205960837
 10
20.87220436010619
 20
-0.4404081541960779
 10
20.90802041930618
 20
-0.4988713797960856
 10
20.9430512145062
 20
-0.5578081637960537
 10
20.97284990570619
 20
-0.6097787461960849
 10
21.00171485130619
 20
-0.6622731093960539
 10
21.0259928881062
 20
-0.7085643957960741
 10
21.0492776881062
 20
-0.7553625685960839
 10
21.06895557130619
 20
-0.7972815621960621
 10
21.08762046410618
 20
-0.8396607157960858
 10
21.1033481169062
 20
-0.8779455237960718
 10
21.11808468170619
 20
-0.9166219461960594
 10
21.13081456010618
 20
-0.9529004293960525
 10
21.14257402730618
 20
-0.9895049621960794
 10
21.1528293249062
 20
-1.024636782996068
 10
21.16213224490619
 20
-1.060032410196086
 10
21.17009680810619
 20
-1.094076835796059
 10
21.1771290817062
 20
-1.128325816596074
 10
21.1829762689062
 20
-1.161379611796078
 10
21.1879134577062
 20
-1.194581354196074
 10
21.1917920289062
 20
-1.226724658196062
 10
21.19478479530619
 20
-1.258962365396072
 10
21.19682375050618
 20
-1.290263134996067
 10
21.19800340010618
 20
-1.321607936596066
 10
21.19831609450619
 20
-1.352127954196063
 10
21.1977978321062
 20
-1.382645077396077
 10
21.19648514730619
 20
-1.412407688596076
 10
21.19437291370619
 20
-1.442124168596066
 10
21.19156750890618
 20
-1.47080742139606
 10
21.18801354250618
 20
-1.499407437396072
 10
21.17931336650619
 20
-1.552845730196068
 10
21.16831024010619
 20
-1.604367266196064
 10
21.15500030570618
 20
-1.654692301396053
 10
21.13951892330618
 20
-1.703707286996078
 10
21.12196252330619
 20
-1.751466957396061
 10
21.1024099777062
 20
-1.798060672596065
 10
21.08095112490619
 20
-1.843528699796067
 10
21.05766409930621
 20
-1.887920139796065
 10
21.03263208170619
 20
-1.931260989396079
 10
21.0059222465062
 20
-1.973595213396052
 10
20.97760835210618
 20
-2.014946030996057
 10
20.94774966410619
 20
-2.055350539796066
 10
20.9164108065062
 20
-2.094830790996084
 10
20.8836462689062
 20
-2.133416032596059
 10
20.84950611050618
 20
-2.171134331796068
 10
20.81405376490619
 20
-2.207994778196066
 10
20.77740590090618
 20
-2.243950430996065
 10
20.73965125770618
 20
-2.278984989396079
 10
20.70082918250619
 20
-2.313130126996057
 10
20.6609318865062
 20
-2.346452354196074
 10
20.6199988257062
 20
-2.378971254996073
 10
20.5781369217062
 20
-2.410654950996061
 10
20.5350772145062
 20
-2.441745394196075
 10
20.4904985505062
 20
-2.472497875796065
 10
20.44412412810618
 20
-2.503110694996067
 10
20.39592566570618
 20
-2.533592907796062
 10
20.34602686250619
 20
-2.563858213396073
 10
20.29444896010619
 20
-2.593888699796067
 10
20.24128918090619
 20
-2.623624086996059
 10
20.18650827850618
 20
-2.653081979796084
 10
20.12980169290619
 20
-2.682416011796064
 10
20.07100835370619
 20
-2.71169230939607
 10
20.0101298753062
 20
-2.74088711259607
 10
19.9472410465062
 20
-2.769942222996078
 10
19.88242078250618
 20
-2.798801030996074
 10
19.8394595585062
 20
-2.817355827796077
  0
LINE
  5
174
330
2
100
AcDbEntity
  8
0
100
AcDbLine
 10
13.4328198961062
 20
-8.027478978196072
 30
0.0
 11
13.42522166890621
 21
-8.012440003796072
 31
0.0
  0
LINE
  5
175
330
2
100
AcDbEntity
  8
0
100
AcDbLine
 10
13.42522166890621
 20
-8.012440003796072
 30
0.0
 11
13.41764360810621
 21
-7.99734925339608
 31
0.0
  0
LINE
  5
176
330
2
100
AcDbEntity
  8
0
100
AcDbLine
 10
13.41764360810621
 20
-7.99734925339608
 30
0.0
 11
13.4100857361062
 21
-7.982207477396073
 31
0.0
  0
LINE
  5
177
330
2
100
AcDbEntity
  8
0
100
AcDbLine
 10
13.4100857361062
 20
-7.982207477396073
 30
0.0
 11
13.40254808170619
 21
-7.967015454996058
 31
0.0
  0
LINE
  5
178
330
2
100
AcDbEntity
  8
0
100
AcDbLine
 10
13.40254808170619
 20
-7.967015454996058
 30
0.0
 11
13.39503069130621
 21
-7.951773990996073
 31
0.0
  0
LINE
  5
179
330
2
100
AcDbEntity
  8
0
100
AcDbLine
 10
13.39503069130621
 20
-7.951773990996073
 30
0.0
 11
13.3875336321062
 21
-7.936483915796074
 31
0.0
  0
LINE
  5
17A
330
2
100
AcDbEntity
  8
0
100
AcDbLine
 10
13.3875336321062
 20
-7.936483915796074
 30
0.0
 11
13.38005698570621
 21
-7.921146112596076
 31
0.0
  0
LINE
  5
17B
330
2
100
AcDbEntity
  8
0
100
AcDbLine
 10
13.38005698570621
 20
-7.921146112596076
 30
0.0
 11
13.37260089610621
 21
-7.905761629396081
 31
0.0
  0
LINE
  5
17C
330
2
100
AcDbEntity
  8
0
100
AcDbLine
 10
13.37260089610621
 20
-7.905761629396081
 30
0.0
 11
13.3651655665062
 21
-7.890331646996074
 31
0.0
  0
LINE
  5
17D
330
2
100
AcDbEntity
  8
0
100
AcDbLine
 10
13.3651655665062
 20
-7.890331646996074
 30
0.0
 11
13.35775186410621
 21
-7.874858229396082
 31
0.0
  0
LINE
  5
17E
330
2
100
AcDbEntity
  8
0
100
AcDbLine
 10
13.35775186410621
 20
-7.874858229396082
 30
0.0
 11
13.3503612241062
 21
-7.859344274196061
 31
0.0
  0
LINE
  5
17F
330
2
100
AcDbEntity
  8
0
100
AcDbLine
 10
13.3503612241062
 20
-7.859344274196061
 30
0.0
 11
13.34299488330621
 21
-7.843792566996071
 31
0.0
  0
LINE
  5
180
330
2
100
AcDbEntity
  8
0
100
AcDbLine
 10
13.34299488330621
 20
-7.843792566996071
 30
0.0
 11
13.33565385610621
 21
-7.828205826196054
 31
0.0
  0
LINE
  5
181
330
2
100
AcDbEntity
  8
0
100
AcDbLine
 10
13.33565385610621
 20
-7.828205826196054
 30
0.0
 11
13.32833900330619
 21
-7.812586776596063
 31
0.0
  0
LWPOLYLINE
  5
182
330
2
100
AcDbEntity
  8
0
100
AcDbPolyline
 90
        3
 70
     0
 43
0.0
 10
13.32833900330618
 20
-7.812586776596063
 10
13.3210511089062
 20
-7.796938213396074
 10
13.31378296810618
 20
-7.781272686996075
  0
LWPOLYLINE
  5
183
330
2
100
AcDbEntity
  8
0
100
AcDbPolyline
 90
        9
 70
     0
 43
0.0
 10
13.31378296810618
 20
-7.781272686996075
 10
13.29327212970619
 20
-7.736197555796067
 10
13.2729552849062
 20
-7.691034459796085
 10
13.25899341770619
 20
-7.659725960596077
 10
13.24511856170619
 20
-7.628378872596059
 10
13.2313379553062
 20
-7.596990274196073
 10
13.21712324330619
 20
-7.564328229396053
 10
13.2030095345062
 20
-7.531622366996074
 10
13.18898825130619
 20
-7.498876842196082
  0
LWPOLYLINE
  5
184
330
2
100
AcDbEntity
  8
0
100
AcDbPolyline
 90
       18
 70
     0
 43
0.0
 10
13.1888546929062
 20
-7.498874744596079
 10
13.16284788650619
 20
-7.437112318996085
 10
13.11167959370618
 20
-7.312813790996059
 10
13.03670894570618
 20
-7.124630133396081
 10
12.96319426570619
 20
-6.934233208596069
 10
12.89107233930619
 20
-6.743301459796057
 10
12.81916926570619
 20
-6.550289102996075
 10
12.7480676929062
 20
-6.356981808596074
 10
12.67699063050619
 20
-6.161087155796067
 10
12.6068851553062
 20
-5.964841085396059
 10
12.51333968970618
 20
-5.697439082196083
 10
12.42199636330619
 20
-5.429275341396063
 10
12.33303716970618
 20
-5.160311682196052
 10
12.24570759050618
 20
-4.887641162196061
 10
12.16100526730619
 20
-4.614142264596083
 10
12.07893633930618
 20
-4.339842672596077
 10
11.9995733057062
 20
-4.065004053396066
 10
11.9228514577062
 20
-3.789421344596078
  0
LWPOLYLINE
  5
185
330
2
100
AcDbEntity
  8
0
100
AcDbPolyline
 90
       61
 70
     0
 43
0.0
 10
-1.369714382293807
 20
2.362412610603954
 10
-1.367621875093817
 20
2.353111077803973
 10
-1.364908227093792
 20
2.343968956203966
 10
-1.360019327893809
 20
2.33086511140398
 10
-1.354263463893801
 20
2.318116540203973
 10
-1.346515780693806
 20
2.30328590820396
 10
-1.338039339093796
 20
2.288858309803956
 10
-1.327167699093791
 20
2.272012564203961
 10
-1.315696108693799
 20
2.255568898603954
 10
-1.301417183893818
 20
2.236350730603973
 10
-1.286658371093807
 20
2.217498252203952
 10
-1.268662628693817
 20
2.195448063403958
 10
-1.250305803093795
 20
2.173697428203965
 10
-1.228279364693804
 20
2.14824756260397
 10
-1.206020977493807
 20
2.123000301803969
 10
-1.153411071893799
 20
2.064147743403978
 10
-1.092951663893813
 20
1.996349786603971
 10
-1.059704894293815
 20
1.958439292203948
 10
-1.026806598293802
 20
1.920225831403982
 10
-0.992683307093813
 20
1.879636287403982
 10
-0.9591522206937952
 20
1.838556156203949
 10
-0.9268415806938037
 20
1.797575586603969
 10
-0.8953308670938042
 20
1.755976986603982
 10
-0.8667650638938084
 20
1.716551929003955
 10
-0.8391226222938144
 20
1.67647438820397
 10
-0.8151236398938124
 20
1.639769029803957
 10
-0.7921078414938166
 20
1.602440117803965
 10
-0.7724227422937986
 20
1.568400909803969
 10
-0.7537623326938104
 20
1.533789988203963
 10
-0.7379443662938172
 20
1.502106428203958
 10
-0.7231853038938141
 20
1.469916665003964
 10
-0.7108715102937993
 20
1.440387449003949
 10
-0.6996479182938061
 20
1.410427745003957
 10
-0.6905071822937999
 20
1.38284400740396
 10
-0.682486263893793
 20
1.35491456740398
 10
-0.6762505838938182
 20
1.329148170603971
 10
-0.6711608926938198
 20
1.303132732203962
 10
-0.6675145582938172
 20
1.278471905003968
 10
-0.6650258894938191
 20
1.253667260203954
 10
-0.6637482606938079
 20
1.229329615403955
 10
-0.6636313534937984
 20
1.204959354603957
 10
-0.6646864222938121
 20
1.180492930603961
 10
-0.6668769166938091
 20
1.156101377003963
 10
-0.6703305006938081
 20
1.13066447300396
 10
-0.6748804158937958
 20
1.105399949803953
 10
-0.6808835726938014
 20
1.078473450603965
 10
-0.687924396693802
 20
1.051798945003966
 10
-0.6967585870937967
 20
1.022663922603967
 10
-0.7065612622938034
 20
0.9938394554039717
 10
-0.7188011950938176
 20
0.9611586922039663
 10
-0.7319281598938119
 20
0.9288234346039558
 10
-0.7484387902938181
 20
0.8907670154039664
 10
-0.7656842094937986
 20
0.8530366906039574
 10
-0.7868489566938024
 20
0.8084621994039622
 10
-0.8085476990937934
 20
0.76414571620397
 10
-0.8324821678938008
 20
0.716421337003979
 10
-0.8568249710938005
 20
0.6689039898039511
 10
-0.9074314654938007
 20
0.5727882778039799
 10
-0.9594448574937928
 20
0.4769765530039792
 10
-1.012373574293803
 20
0.3821129770039562
 10
-1.029329931093798
 20
0.3522638138039582
  0
LINE
  5
186
330
2
100
AcDbEntity
  8
0
100
AcDbLine
 10
-0.6720306078938095
 20
1.308072580203955
 30
0.0
 11
0.7175638417061876
 21
-9.941470018196028
 31
0.0
  0
LINE
  5
187
330
2
100
AcDbEntity
  8
0
100
AcDbLine
 10
10.02625583370619
 20
1.842769809003968
 30
0.0
 11
10.05270701450619
 21
1.580516687403942
 31
0.0
  0
LWPOLYLINE
  5
188
330
2
100
AcDbEntity
  8
0
100
AcDbPolyline
 90
       19
 70
     0
 43
0.0
 10
10.12371015530618
 20
0.6171675002039621
 10
10.12000421290619
 20
0.675308129003966
 10
10.11628912650618
 20
0.7330328682039493
 10
10.11256116490619
 20
0.7903149466039423
 10
10.1088166705062
 20
0.8471269274039485
 10
10.10505204010618
 20
0.9034425914039587
 10
10.1012637169062
 20
0.9592369290039499
 10
10.09744818570618
 20
1.014486116203968
 10
10.09360197130618
 20
1.069167473003957
 10
10.0897216385062
 20
1.123259436203952
 10
10.08580378410619
 20
1.176741521003961
 10
10.0818450385062
 20
1.229594293803941
 10
10.07784205930619
 20
1.28179933700396
 10
10.0737915345062
 20
1.333339217003967
 10
10.0696901713062
 20
1.384197455403963
 10
10.06553470570619
 20
1.434358495403969
 10
10.06132188490619
 20
1.483807669803965
 10
10.0570484801062
 20
1.532531177003946
 10
10.05271127210619
 20
1.580516045803975
  0
LINE
  5
189
330
2
100
AcDbEntity
  8
0
100
AcDbLine
 10
10.16893862570621
 20
-0.1039890517960629
 30
0.0
 11
10.16114637610619
 21
0.0186240426039461
 31
0.0
  0
LINE
  5
18A
330
2
100
AcDbEntity
  8
0
100
AcDbLine
 10
10.13111001770619
 20
0.4997390170039609
 30
0.0
 11
10.12371015530619
 21
0.6171675002039621
 31
0.0
  0
LINE
  5
18B
330
2
100
AcDbEntity
  8
0
100
AcDbLine
 10
10.16114637610619
 20
0.0186240426039461
 30
0.0
 11
10.15350369450619
 21
0.1402457850039269
 31
0.0
  0
LWPOLYLINE
  5
18C
330
2
100
AcDbEntity
  8
0
100
AcDbPolyline
 90
        3
 70
     0
 43
0.0
 10
10.15350369450618
 20
0.1402457850039269
 10
10.1422393777062
 20
0.3211281082039505
 10
10.13111001770619
 20
0.4997390170039609
  0
LWPOLYLINE
  5
18D
330
2
100
AcDbEntity
  8
0
100
AcDbPolyline
 90
       44
 70
     0
 43
0.0
 10
-1.8802595550938
 20
2.554678514603963
 10
-1.878916199893808
 20
2.563713145003973
 10
-1.878188804693792
 20
2.568243988203974
 10
-1.877526607893798
 20
2.571982689003974
 10
-1.876793516693794
 20
2.575712829803975
 10
-1.875977614293816
 20
2.579424109803952
 10
-1.875066985493816
 20
2.583106229803959
 10
-1.874049710293803
 20
2.58674888740397
 10
-1.872913876693814
 20
2.590341780203957
 10
-1.871647564693802
 20
2.593874610603975
 10
-1.870238860693802
 20
2.59733707460397
 10
-1.868675846293797
 20
2.60071887300397
 10
-1.866946606293794
 20
2.604009703403974
 10
-1.864959239893806
 20
2.607333740203969
 10
-1.862791783893811
 20
2.610550876203959
 10
-1.860457614293807
 20
2.613664188203969
 10
-1.857970113493792
 20
2.616676757803972
 10
-1.855342660693793
 20
2.619591663403966
 10
-1.852588635093809
 20
2.622411985003978
 10
-1.84972141749381
 20
2.625140802603951
 10
-1.846754385493795
 20
2.627781196203969
 10
-1.843700921493791
 20
2.630336245803974
 10
-1.840574403093796
 20
2.632809031403965
 10
-1.837388212693809
 20
2.63520263140397
 10
-1.834155727893801
 20
2.637520127403959
 10
-1.829003283093811
 20
2.641017980203955
 10
-1.823774819093813
 20
2.644347156203949
 10
-1.818475713493796
 20
2.64751956420396
 10
-1.813111340693808
 20
2.650547113003952
 10
-1.80768707669381
 20
2.653441714603971
 10
-1.802208295893791
 20
2.656215274603951
 10
-1.796680374293799
 20
2.658879703403968
 10
-1.791108687893796
 20
2.661446911403956
 10
-1.7854986110938
 20
2.663928807403962
 10
-1.7798555214938
 20
2.666337298603949
 10
-1.774184791893816
 20
2.668684297003963
 10
-1.763797615893793
 20
2.672830068203964
 10
-1.753343612693811
 20
2.676821157803956
 10
-1.742829825493799
 20
2.680667404203958
 10
-1.732263300693801
 20
2.68437865060396
 10
-1.721651079893803
 20
2.68796473860398
 10
-1.711000207893818
 20
2.69143550980398
 10
-1.700317726293803
 20
2.694800804203978
 10
-1.689610678293803
 20
2.698070463403965
  0
LWPOLYLINE
  5
18E
330
2
100
AcDbEntity
  8
0
100
AcDbPolyline
 90
       50
 70
     0
 43
0.0
 10
-2.900696403093803
 20
-0.0484009077960508
 10
-2.906056345493794
 20
-0.0806055205960519
 10
-2.910309527893815
 20
-0.1129847493960341
 10
-2.913612548693805
 20
-0.1454961317960368
 10
-2.916122009493818
 20
-0.1780972053960426
 10
-2.917994507093794
 20
-0.2107455077960338
 10
-2.919795105493818
 20
-0.257570002196033
 10
-2.9205571214938
 20
-0.3043940853960265
 10
-2.920229350293794
 20
-0.3512075429960504
 10
-2.9187605902938
 20
-0.3980001653960272
 10
-2.916285750293809
 20
-0.4420380437960461
 10
-2.912697300693793
 20
-0.4860096101960352
 10
-2.907939177493801
 20
-0.5298760885960263
 10
-2.901955321493801
 20
-0.5735987093960233
 10
-2.894689665493814
 20
-0.6171387013960299
 10
-2.886121643093815
 20
-0.6603155013960276
 10
-2.876203455893801
 20
-0.7032122853960204
 10
-2.864914251093807
 20
-0.7457690197960432
 10
-2.852233180693815
 20
-0.7879256741960461
 10
-2.838139393493804
 20
-0.8296222213960362
 10
-2.822612039893812
 20
-0.8707986277960202
 10
-2.806817591893803
 20
-0.9087173349960409
 10
-2.789807619093807
 20
-0.9461132789960373
 10
-2.77163385429381
 20
-0.9829692053960314
 10
-2.752348027093802
 20
-1.019267862996045
 10
-2.732001865493799
 20
-1.054991995796044
 10
-2.710647100693819
 20
-1.090124350996049
 10
-2.688335463893793
 20
-1.124647674196026
 10
-2.660240756693809
 20
-1.165431301396026
 10
-2.630899321493814
 20
-1.205309938196037
 10
-2.600379422293798
 20
-1.244288462996038
 10
-2.568749326293811
 20
-1.282371754196034
 10
-2.536077295893818
 20
-1.319564690196031
 10
-2.50243159509381
 20
-1.355872146196034
 10
-2.466549348693803
 20
-1.392628909396037
 10
-2.429749284693798
 20
-1.428459509396034
 10
-2.392089012693816
 20
-1.463386488596043
 10
-2.353626137493819
 20
-1.497432382996024
 10
-2.314418268693799
 20
-1.530619733396051
 10
-2.274523011093805
 20
-1.562971077396028
 10
-2.223710785493807
 20
-1.602312390996033
 10
-2.171980638293803
 20
-1.640426966996031
 10
-2.119400873493816
 20
-1.677361928596027
 10
-2.066039787093814
 20
-1.713164402196028
 10
-2.011965681493819
 20
-1.747881515796038
 10
-1.954359910293817
 20
-1.783294549396018
 10
-1.896091774293807
 20
-1.817600690196044
 10
-1.837212929493801
 20
-1.850842874196032
 10
-1.77777503669381
 20
-1.883064045396039
 10
-1.717829750293816
 20
-1.914307141396037
  0
LWPOLYLINE
  5
18F
330
2
100
AcDbEntity
  8
0
100
AcDbPolyline
 90
       31
 70
     0
 43
0.0
 10
-2.900696436693806
 20
-0.0484010565960347
 10
-2.874356123093804
 20
0.08584568260396
 10
-2.8464538798938
 20
0.219780669803967
 10
-2.816854287893818
 20
0.3533522682039489
 10
-2.787664039893797
 20
0.4772787546039723
 10
-2.756768209493799
 20
0.6007894650039561
 10
-2.724048395093802
 20
0.7238280330039544
 10
-2.695966409493792
 20
0.8236673274039532
 10
-2.666544001493804
 20
0.9231192490039603
 10
-2.635729692693814
 20
1.022147132203954
 10
-2.597100252693792
 20
1.139660657003972
 10
-2.556425883093794
 20
1.256481287403957
 10
-2.520815214293804
 20
1.353682389803978
 10
-2.483746631893808
 20
1.450336586603967
 10
-2.447328092693794
 20
1.541148441003954
 10
-2.409467646293819
 20
1.63136820420398
 10
-2.371670063893816
 20
1.717332293803977
 10
-2.332337686293811
 20
1.802605026603956
 10
-2.293129483093792
 20
1.883544764203961
 10
-2.252300870293794
 20
1.96367892100396
 10
-2.211656683093792
 20
2.039411269803977
 10
-2.169300855893794
 20
2.114199737003971
 10
-2.141419307093798
 20
2.161209149803951
 10
-2.112756703893808
 20
2.207746090603976
 10
-2.083274510293819
 20
2.253767583403956
 10
-2.054400207893792
 20
2.297073261803959
 10
-2.024707123093804
 20
2.339822165803965
 10
-1.994154689493797
 20
2.381963941803959
 10
-1.964253251093794
 20
2.421443135403976
 10
-1.933502311893818
 20
2.460261457003966
 10
-1.901866892693817
 20
2.498353119403972
  0
LWPOLYLINE
  5
190
330
2
100
AcDbEntity
  8
0
100
AcDbPolyline
 90
       30
 70
     0
 43
0.0
 10
-4.934916924693794
 20
8.347650085803948
 10
-4.836600035093795
 20
8.404868882603963
 10
-4.735969969493794
 20
8.455548954603969
 10
-4.633298500693797
 20
8.500453673003974
 10
-4.528857403093809
 20
8.540346412203959
 10
-4.422918449493806
 20
8.57599054020396
 10
-4.263310995093803
 20
8.622748236203975
 10
-4.101887923093812
 20
8.664314813803954
 10
-3.939541006293808
 20
8.703195130603958
 10
-3.232507081493793
 20
8.868235071403958
 10
-2.524791137493792
 20
9.029156871403969
 10
-1.816317687893814
 20
9.18527303940398
 10
-1.107011246293808
 20
9.335896085803952
 10
-0.3967963246938098
 20
9.480338521003957
 10
0.3144025665062031
 20
9.617912853803957
 10
1.026660913706194
 20
9.747931596203969
 10
1.740054203306186
 20
9.869707257003952
 10
2.4546579249062
 20
9.982552345003981
 10
3.050291300906195
 20
10.06915358500397
 10
3.646858638506188
 20
10.14869843780395
 10
4.244403433706196
 20
10.22079074660395
 10
4.842969188906181
 20
10.28503435300395
 10
5.442599400106189
 20
10.34103309860394
 10
6.043337568106181
 20
10.38839082500395
 10
6.645227192106204
 20
10.42671137380394
 10
7.248311768106191
 20
10.45559858660395
 10
7.852634796906187
 20
10.47465630660396
 10
8.458239779306182
 20
10.48348837380395
 10
9.065170211306195
 20
10.48169863140397
 10
9.673469592106187
 20
10.46889092100396
  0
LWPOLYLINE
  5
191
330
2
100
AcDbEntity
  8
0
100
AcDbPolyline
 90
       50
 70
     0
 43
0.0
 10
9.909292902506194
 20
2.524612714603975
 10
9.905653956906206
 20
2.53710958180396
 10
9.902034112106207
 20
2.549170089003965
 10
9.898310862506207
 20
2.561199044203945
 10
9.894608734506192
 20
2.57279135620395
 10
9.890798515306187
 20
2.584348591403951
 10
9.887011923306204
 20
2.595469327403961
 10
9.883112590506186
 20
2.606551026603952
 10
9.879239464106206
 20
2.617196818603943
 10
9.875248721706185
 20
2.627799073003941
 10
9.8712869249062
 20
2.637966546603948
 10
9.867202496106187
 20
2.648085370603965
 10
9.86314986410619
 20
2.657771165803964
 10
9.858969459306194
 20
2.667402492203947
 10
9.854823776106201
 20
2.676603266603947
 10
9.850545113706203
 20
2.685742943403951
 10
9.846304105706195
 20
2.694455383403962
 10
9.841924910506207
 20
2.703099173803948
 10
9.83758623050619
 20
2.711320001003954
 10
9.833104262506196
 20
2.719463573803963
 10
9.828665468906194
 20
2.727189559403953
 10
9.824078534506185
 20
2.734828495403959
 10
9.819537065706185
 20
2.742056450603953
 10
9.814843044906183
 20
2.749186244203954
 10
9.810196192106189
 20
2.755913025003948
 10
9.805393070506198
 20
2.762529092203962
 10
9.800637936106198
 20
2.768751586603954
 10
9.795723843306205
 20
2.774849281003966
 10
9.790857302506196
 20
2.780564381803955
 10
9.785830553706205
 20
2.786139033003948
 10
9.78084921930619
 20
2.791343581803957
 10
9.775708352106192
 20
2.796390545003944
 10
9.770608540906181
 20
2.801081276203959
 10
9.765352356906191
 20
2.805596009003963
 10
9.760130086506194
 20
2.80976943620395
 10
9.754757651306192
 20
2.813747601003953
 10
9.749408670506198
 20
2.817399914603967
 10
9.743919292906184
 20
2.82083750180395
 10
9.738439171306197
 20
2.823964437803951
 10
9.732832315306183
 20
2.82685788420396
 10
9.727216585706202
 20
2.829454642603948
 10
9.721491729706201
 20
2.831800929003961
 10
9.715736123306186
 20
2.833862129003946
 10
9.709892540906196
 20
2.83565882820396
 10
9.703993112106189
 20
2.837178601003941
 10
9.698029772906181
 20
2.838423781803967
 10
9.691983278506199
 20
2.839395868203965
 10
9.685898024106194
 20
2.840088047403966
 10
9.679689556906197
 20
2.840506917803949
 10
9.673469736106198
 20
2.840644869803966
  0
LWPOLYLINE
  5
192
330
2
100
AcDbEntity
  8
0
100
AcDbPolyline
 90
       13
 70
     0
 43
0.0
 10
9.940828852906207
 20
2.398979285803946
 10
9.938464571306184
 20
2.409604437803963
 10
9.936057577706208
 20
2.420220029803957
 10
9.933601163306207
 20
2.430824242603947
 10
9.931282228906184
 20
2.440615949803955
 10
9.928919996906188
 20
2.450397341803963
 10
9.926519134506207
 20
2.460169385003965
 10
9.924265809706184
 20
2.469200047403958
 10
9.921973374506194
 20
2.478220802603956
 10
9.9196317793062
 20
2.48722891300396
 10
9.917419108906187
 20
2.495529756203964
 10
9.915153404906192
 20
2.50381629060395
 10
9.909292902506194
 20
2.524612714603975
  0
LINE
  5
193
330
2
100
AcDbEntity
  8
0
100
AcDbLine
 10
10.59774843210619
 20
-4.580742995796086
 30
0.0
 11
10.57427360170619
 21
-4.400142056596067
 31
0.0
  0
LWPOLYLINE
  5
194
330
2
100
AcDbEntity
  8
0
100
AcDbPolyline
 90
       56
 70
     0
 43
0.0
 10
10.57427360170618
 20
-4.400142056596067
 10
10.56268000330618
 20
-4.309847091796072
 10
10.55124097290618
 20
-4.219591336596081
 10
10.53995789930618
 20
-4.129406920596082
 10
10.52883206410618
 20
-4.039325046996069
 10
10.51786464650618
 20
-3.949376003796075
 10
10.50705671850619
 20
-3.85958918139606
 10
10.4964092529062
 20
-3.76999308219608
 10
10.4859231249062
 20
-3.680615334996062
 10
10.47559911050618
 20
-3.591482712596061
 10
10.46543789130618
 20
-3.502621139796062
 10
10.45544005930619
 20
-3.414055712596066
 10
10.44560611050619
 20
-3.325810707796065
 10
10.43593645770619
 20
-3.237909597396068
 10
10.42643142410619
 20
-3.150375062996076
 10
10.4170912481062
 20
-3.063229005396081
 10
10.40791608810619
 20
-2.976493107796059
 10
10.39890600970619
 20
-2.890192917396078
 10
10.39006099690618
 20
-2.804355358996062
 10
10.38138096170618
 20
-2.719006342996081
 10
10.3728657361062
 20
-2.634170755796063
 10
10.3645150833062
 20
-2.549872483796079
 10
10.3563287009062
 20
-2.466134426196063
 10
10.34830621130618
 20
-2.382978520596068
 10
10.34044717610618
 20
-2.300425749396069
 10
10.33275108970619
 20
-2.218496173396076
 10
10.32521738570619
 20
-2.137208933396053
 10
10.31784545290619
 20
-2.056583299796059
 10
10.3106347057062
 20
-1.976644128596078
 10
10.3035845345062
 20
-1.897417632596059
 10
10.2966942625062
 20
-1.818928739796078
 10
10.28996316170619
 20
-1.741201110996072
 10
10.28339043690618
 20
-1.66425716859608
 10
10.27697524490619
 20
-1.588118118996064
 10
10.2707166817062
 20
-1.51280397819606
 10
10.26461379690619
 20
-1.438333598996067
 10
10.25866558570618
 20
-1.36472469179607
 10
10.25287099850618
 20
-1.291993851796078
 10
10.24722893130618
 20
-1.220156586196068
 10
10.24173734250618
 20
-1.149218888596081
 10
10.23639013770619
 20
-1.079144117396069
 10
10.2311799169062
 20
-1.009884394196078
 10
10.2260995297062
 20
-0.9413940053960772
 10
10.22114201930619
 20
-0.8736294069960734
 10
10.21630061290619
 20
-0.8065492053960525
 10
10.21156872010618
 20
-0.740114128596062
 10
10.2069399217062
 20
-0.6742869845960655
 10
10.2024079633062
 20
-0.6090326341960833
 10
10.19796675370619
 20
-0.5443179541960746
 10
10.19361035690619
 20
-0.4801118005960774
 10
10.18933298570618
 20
-0.4163849701960629
 10
10.1851289953062
 20
-0.353110157396074
 10
10.1809928817062
 20
-0.2902619221960805
 10
10.1769192721062
 20
-0.2278146357960651
 10
10.17290290090619
 20
-0.1657349477960821
 10
10.1689386257062
 20
-0.1039890517960629
  0
LWPOLYLINE
  5
195
330
2
100
AcDbEntity
  8
0
100
AcDbPolyline
 90
       17
 70
     0
 43
0.0
 10
10.0262361633062
 20
1.842765999403965
 10
10.0216304449062
 20
1.883308135403964
 10
10.01694334730618
 20
1.923115791403958
 10
10.01217141610618
 20
1.962180863403958
 10
10.00731119690618
 20
2.000495365803956
 10
10.00235922410618
 20
2.038051441003958
 10
9.997312025706207
 20
2.074841340203946
 10
9.992166121706191
 20
2.110857433003971
 10
9.986918017706187
 20
2.146092196203952
 10
9.981564204906192
 20
2.180538213803956
 10
9.976101147306195
 20
2.214188133803943
 10
9.970525297706188
 20
2.247034725803942
 10
9.96483309770619
 20
2.279070873003959
 10
9.959020968106187
 20
2.310289549803954
 10
9.953085305706196
 20
2.340684285803959
 10
9.947022484906199
 20
2.370249426603962
 10
9.940828852906207
 20
2.398979285803946
  0
LWPOLYLINE
  5
196
330
2
100
AcDbEntity
  8
0
100
AcDbPolyline
 90
       58
 70
     0
 43
0.0
 10
8.485969592106187
 20
4.847427404203941
 10
8.486374112106204
 20
4.878115618603956
 10
8.48758707850618
 20
4.908787853803957
 10
8.489607592106182
 20
4.939418962603966
 10
8.492469832106195
 20
4.97031852420396
 10
8.496153699306205
 20
5.001129557803963
 10
8.500656425706182
 20
5.031831273003959
 10
8.506034188906198
 20
5.062718117803953
 10
8.512240272106197
 20
5.093449705003948
 10
8.519269939306184
 20
5.124003599403962
 10
8.52723622890619
 20
5.15478983620396
 10
8.536038051306206
 20
5.18534767300396
 10
8.545668520106204
 20
5.215654602603947
 10
8.556261342506189
 20
5.246075839403957
 10
8.56768825610618
 20
5.276193813803971
 10
8.579940148906189
 20
5.305985815403957
 10
8.593197721706189
 20
5.335842081003946
 10
8.607282849706194
 20
5.365317061803963
 10
8.622184046506191
 20
5.394388068203952
 10
8.638028979306199
 20
5.423278705003966
 10
8.65467877770618
 20
5.451713159403951
 10
8.672119731306196
 20
5.479669337003954
 10
8.690388300906192
 20
5.507199157803952
 10
8.709422937706193
 20
5.534205001003968
 10
8.729208040106186
 20
5.560665977003949
 10
8.749783824106202
 20
5.586630229803958
 10
8.771081024106194
 20
5.612006119403943
 10
8.793082244906202
 20
5.636774081003963
 10
8.815759288106193
 20
5.660903901803962
 10
8.839103480106189
 20
5.684388903403956
 10
8.863095976106194
 20
5.70721118980397
 10
8.8877648449062
 20
5.729394349803968
 10
8.913045251306186
 20
5.750878015403955
 10
8.938916889706206
 20
5.771645884203948
 10
8.965345064106202
 20
5.791671503403975
 10
8.992322131306195
 20
5.810951325803969
 10
9.019826668906205
 20
5.829470879403956
 10
9.047872684906195
 20
5.847237861803947
 10
9.076403491306194
 20
5.864215463403965
 10
9.105396553706185
 20
5.880390999403957
 10
9.134863313706205
 20
5.895769303403952
 10
9.164747350506189
 20
5.910320161003951
 10
9.195025198506186
 20
5.924032753003942
 10
9.22569368490619
 20
5.936904815403963
 10
9.256708761706192
 20
5.948917773803955
 10
9.288046180906206
 20
5.960062730603951
 10
9.319646398506193
 20
5.970320229803959
 10
9.351519401706184
 20
5.979695877803962
 10
9.383640540906185
 20
5.988182777003956
 10
9.415716145706198
 20
5.995715140203955
 10
9.447986740906202
 20
6.002361849003946
 10
9.480427515306189
 20
6.008118116203959
 10
9.512665057706186
 20
6.012932281003955
 10
9.5450220017062
 20
6.016867468203955
 10
9.577475467306186
 20
6.019920908203957
 10
9.609438360106196
 20
6.022060125803946
 10
9.641445393706192
 20
6.023344295403958
 10
9.673469592106187
 20
6.02377254660395
  0
LWPOLYLINE
  5
197
330
2
100
AcDbEntity
  8
0
100
AcDbPolyline
 90
       58
 70
     0
 43
0.0
 10
10.86096959210618
 20
4.847427404203912
 10
10.86055816010619
 20
4.816478538603931
 10
10.85932447050618
 20
4.785546066603941
 10
10.85726942570619
 20
4.75465580100392
 10
10.8543718113062
 20
4.723622682603931
 10
10.85064531530619
 20
4.692679581803915
 10
10.84609274090618
 20
4.661847559403938
 10
10.8406765249062
 20
4.630932653803924
 10
10.83443017610619
 20
4.600174276203929
 10
10.82735844810619
 20
4.569594949803942
 10
10.8193693329062
 20
4.538863257003939
 10
10.81054715530618
 20
4.508360298603932
 10
10.8008987729062
 20
4.47810849540393
 10
10.7903109201062
 20
4.447799892203917
 10
10.7788945009062
 20
4.417793460203924
 10
10.7666585393062
 20
4.388111701803936
 10
10.75343642570618
 20
4.358395709803929
 10
10.73939378730619
 20
4.329058465003939
 10
10.72454195530619
 20
4.300122393003945
 10
10.7087504929062
 20
4.271359239403935
 10
10.69216051850619
 20
4.243049076203917
 10
10.67478556810618
 20
4.215213759403937
 10
10.65656567050618
 20
4.187767042603937
 10
10.63758365130618
 20
4.160841741803935
 10
10.6178549873062
 20
4.134458609003942
 10
10.59732008490618
 20
4.108545753003923
 10
10.57606603210618
 20
4.083219383403942
 10
10.5541101489062
 20
4.058498985003936
 10
10.53148258250618
 20
4.034416793003927
 10
10.50819001930619
 20
4.010977185003937
 10
10.4842512257062
 20
3.988197970603934
 10
10.45964616650618
 20
3.966062546603936
 10
10.43443187530618
 20
3.944623642603929
 10
10.40862856010619
 20
3.923897449003945
 10
10.38226202410618
 20
3.903903829803923
 10
10.35534824330619
 20
3.884653177003926
 10
10.32790856330618
 20
3.866159853803921
 10
10.29991781930618
 20
3.848409223403919
 10
10.27144331530618
 20
3.831445428203934
 10
10.24250752010618
 20
3.815281045803928
 10
10.2131226209062
 20
3.799923074603938
 10
10.18332192330618
 20
3.785388349803938
 10
10.1531287601062
 20
3.771687551403928
 10
10.1226115185062
 20
3.758849205803969
 10
10.09175015050618
 20
3.74686169700395
 10
10.06056858730619
 20
3.735733721003967
 10
10.02912520970619
 20
3.725484333803947
 10
9.997410507306199
 20
3.716108028203976
 10
9.9654487761062
 20
3.707611541803956
 10
9.933422388906194
 20
3.700036348203965
 10
9.901200142506183
 20
3.69334377540396
 10
9.868806734506193
 20
3.687538540203959
 10
9.836379251306198
 20
3.682640473003957
 10
9.803829524906205
 20
3.678631097003957
 10
9.771180768106205
 20
3.675513199403965
 10
9.738647393706202
 20
3.673299583403959
 10
9.706067521706188
 20
3.671970762603947
 10
9.673469592106187
 20
3.671527625003946
  0
LINE
  5
198
330
2
100
AcDbEntity
  8
0
100
AcDbLine
 10
9.200965718506189
 20
0.2610467514039527
 30
0.0
 11
9.204699806506205
 21
0.3211281082039505
 31
0.0
  0
LINE
  5
199
330
2
100
AcDbEntity
  8
0
100
AcDbLine
 10
9.204699806506205
 20
0.3211281082039505
 30
0.0
 11
9.215829164906189
 21
0.4997390170039609
 31
0.0
  0
LINE
  5
19A
330
2
100
AcDbEntity
  8
0
100
AcDbLine
 10
9.189630486506196
 20
0.0795464938039601
 30
0.0
 11
9.200965718506189
 21
0.2610467514039527
 31
0.0
  0
LWPOLYLINE
  5
19B
330
2
100
AcDbEntity
  8
0
100
AcDbPolyline
 90
       20
 70
     0
 43
0.0
 10
9.215829164906182
 20
0.4997390170039609
 10
9.223229028906189
 20
0.6171675002039621
 10
9.226934971306206
 20
0.675308129003966
 10
9.230650057706185
 20
0.7330328682039493
 10
9.234378019306205
 20
0.7903149466039423
 10
9.238122513706201
 20
0.8471269274039485
 10
9.241887142506186
 20
0.9034425914039587
 10
9.245675465706199
 20
0.9592369290039499
 10
9.249490998506189
 20
1.014486116203968
 10
9.253337211306188
 20
1.069167473003957
 10
9.257217545706197
 20
1.123259436203952
 10
9.261135400106184
 20
1.176741521003961
 10
9.2650941457062
 20
1.229594293803941
 10
9.269097124906181
 20
1.28179933700396
 10
9.273147649706203
 20
1.333339217003967
 10
9.277249011306196
 20
1.384197455403963
 10
9.281404478506203
 20
1.434358495403969
 10
9.285617299306181
 20
1.483807669803965
 10
9.289890704106198
 20
1.532531177003946
 10
9.294227910506208
 20
1.580516045803975
  0
LINE
  5
19C
330
2
100
AcDbEntity
  8
0
100
AcDbLine
 10
9.320683350506193
 20
1.842769809003968
 30
0.0
 11
9.294232169706198
 21
1.580516687403942
 31
0.0
  0
LWPOLYLINE
  5
19D
330
2
100
AcDbEntity
  8
0
100
AcDbPolyline
 90
       17
 70
     0
 43
0.0
 10
9.320703020906194
 20
1.842765999403965
 10
9.325308739306194
 20
1.883308135403964
 10
9.329995836906192
 20
1.923115791403958
 10
9.334767768106189
 20
1.962180863403958
 10
9.339627987306187
 20
2.000495365803956
 10
9.344579960106187
 20
2.038051441003958
 10
9.349627158506194
 20
2.074841340203946
 10
9.354773062506183
 20
2.110857433003971
 10
9.360021166506186
 20
2.146092196203952
 10
9.365374977706181
 20
2.180538213803956
 10
9.370838036906206
 20
2.214188133803943
 10
9.376413886506185
 20
2.247034725803942
 10
9.382106086506183
 20
2.279070873003959
 10
9.387918216106186
 20
2.310289549803954
 10
9.393853878506206
 20
2.340684285803959
 10
9.399916699306203
 20
2.370249426603962
 10
9.406110331306194
 20
2.398979285803946
  0
LWPOLYLINE
  5
19E
330
2
100
AcDbEntity
  8
0
100
AcDbPolyline
 90
       59
 70
     0
 43
0.0
 10
8.749190750506187
 20
-4.580742995796057
 10
8.772665582506192
 20
-4.400142056596038
 10
8.78425918090619
 20
-4.309847091796044
 10
8.795698211306188
 20
-4.219591336596053
 10
8.806981284906186
 20
-4.129406920596053
 10
8.818107120106191
 20
-4.03932504699604
 10
8.82907453770619
 20
-3.949376003796047
 10
8.839882465706182
 20
-3.859589181396032
 10
8.850529931306198
 20
-3.769993082196052
 10
8.861016059306194
 20
-3.680615334996033
 10
8.871340073706193
 20
-3.591482712596032
 10
8.881501291306193
 20
-3.502621139796033
 10
8.891499124906204
 20
-3.414055712596038
 10
8.901333073706183
 20
-3.325810707796037
 10
8.911002726506183
 20
-3.23790959739604
 10
8.920507760106204
 20
-3.150375062996047
 10
8.929847936106199
 20
-3.063229005396053
 10
8.939023096106183
 20
-2.976493107796031
 10
8.948033174506207
 20
-2.890192917396049
 10
8.956878185706187
 20
-2.804355358996033
 10
8.965558222506189
 20
-2.719006342996053
 10
8.974073448106196
 20
-2.634170755796034
 10
8.9824240993062
 20
-2.54987248379605
 10
8.990610483306198
 20
-2.466134426196035
 10
8.998632972906193
 20
-2.38297852059604
 10
9.006492008106192
 20
-2.30042574939604
 10
9.014188094506181
 20
-2.218496173396047
 10
9.021721798506206
 20
-2.137208933396024
 10
9.029093731306204
 20
-2.056583299796031
 10
9.036304478506195
 20
-1.976644128596049
 10
9.043354649706202
 20
-1.897417632596031
 10
9.050244920106194
 20
-1.818928739796049
 10
9.056976022506205
 20
-1.741201110996044
 10
9.063548745706185
 20
-1.664257168596051
 10
9.069963939306205
 20
-1.588118118996035
 10
9.076222502506197
 20
-1.512803978196032
 10
9.082325387306184
 20
-1.438333598996038
 10
9.088273598506191
 20
-1.364724691796041
 10
9.094068185706191
 20
-1.29199385179605
 10
9.099710251306191
 20
-1.22015658619604
 10
9.10520184170619
 20
-1.149218888596053
 10
9.110549044906207
 20
-1.07914411739604
 10
9.115759267306202
 20
-1.009884394196049
 10
9.120839654506198
 20
-0.9413940053960487
 10
9.125797164906202
 20
-0.873629406996045
 10
9.130638571306207
 20
-0.8065492053960241
 10
9.135370462506188
 20
-0.7401141285960336
 10
9.139999262506194
 20
-0.6742869845960371
 10
9.144531220906202
 20
-0.6090326341960548
 10
9.148972430506205
 20
-0.5443179541960462
 10
9.153328827306182
 20
-0.480111800596049
 10
9.157606198506186
 20
-0.4163849701960345
 10
9.161810188906201
 20
-0.3531101573960456
 10
9.165946302506199
 20
-0.2902619221960521
 10
9.170019912106198
 20
-0.2278146357960367
 10
9.174036281706207
 20
-0.1657349477960537
 10
9.178000558506198
 20
-0.1039890517960345
 10
9.181917764906188
 20
-0.0425456629960337
 10
9.189630486506189
 20
0.0795464938039601
  0
LWPOLYLINE
  5
19F
330
2
100
AcDbEntity
  8
0
100
AcDbPolyline
 90
       12
 70
     0
 43
0.0
 10
9.406110331306194
 20
2.398979285803946
 10
9.408474612906189
 20
2.409604437803963
 10
9.410881606506194
 20
2.420220029803957
 10
9.413338020906195
 20
2.430824242603947
 10
9.415656955306189
 20
2.440615949803955
 10
9.418019187306185
 20
2.450397341803963
 10
9.420420049706194
 20
2.460169385003965
 10
9.422673374506189
 20
2.469200047403958
 10
9.424965809706208
 20
2.478220802603956
 10
9.427307404906201
 20
2.48722891300396
 10
9.429520075306186
 20
2.495529756203964
 10
9.431785779306181
 20
2.50381629060395
  0
LWPOLYLINE
  5
1A0
330
2
100
AcDbEntity
  8
0
100
AcDbPolyline
 90
       51
 70
     0
 43
0.0
 10
9.431785779306181
 20
2.50381629060395
 10
9.437646281706207
 20
2.524612714603975
 10
9.441285227306195
 20
2.53710958180396
 10
9.444905070506194
 20
2.549170089003965
 10
9.448628321706195
 20
2.561199044203945
 10
9.452330449706181
 20
2.57279135620395
 10
9.456140667306186
 20
2.584348591403951
 10
9.459927260906198
 20
2.595469327403961
 10
9.463826592106187
 20
2.606551026603952
 10
9.467699718506196
 20
2.617196818603943
 10
9.471690462506188
 20
2.627799073003941
 10
9.475652259306201
 20
2.637966546603948
 10
9.479736688106186
 20
2.648085370603965
 10
9.483789320106183
 20
2.657771165803964
 10
9.487969723306207
 20
2.667402492203947
 10
9.492115408106201
 20
2.676603266603947
 10
9.496394070506198
 20
2.685742943403951
 10
9.500635078506206
 20
2.694455383403962
 10
9.505014273706194
 20
2.703099173803948
 10
9.509352953706184
 20
2.711320001003954
 10
9.513834921706205
 20
2.719463573803963
 10
9.518273715306207
 20
2.727189559403953
 10
9.522860649706188
 20
2.734828495403959
 10
9.527402116906188
 20
2.742056450603953
 10
9.53209613930619
 20
2.749186244203954
 10
9.536742992106184
 20
2.755913025003948
 10
9.541546113706203
 20
2.762529092203962
 10
9.546301248106203
 20
2.768751586603954
 10
9.551215340906196
 20
2.774849281003966
 10
9.556081881706205
 20
2.780564381803955
 10
9.561108630506197
 20
2.786139033003948
 10
9.566089964906183
 20
2.791343581803957
 10
9.571230832106181
 20
2.796390545003944
 10
9.576330643306192
 20
2.801081276203959
 10
9.581586827306182
 20
2.805596009003963
 10
9.586809097706208
 20
2.80976943620395
 10
9.592181532906181
 20
2.813747601003953
 10
9.597530513706203
 20
2.817399914603967
 10
9.603019891306189
 20
2.82083750180395
 10
9.608500012906205
 20
2.823964437803951
 10
9.614106868906191
 20
2.82685788420396
 10
9.6197225985062
 20
2.829454642603948
 10
9.6254474545062
 20
2.831800929003961
 10
9.631203059306187
 20
2.833862129003946
 10
9.637046643306206
 20
2.83565882820396
 10
9.642946072106184
 20
2.837178601003941
 10
9.648909411306192
 20
2.838423781803967
 10
9.654955904106202
 20
2.839395868203965
 10
9.661041158506208
 20
2.840088047403966
 10
9.667249627306205
 20
2.840506917803949
 10
9.673469448106203
 20
2.840644869803966
  0
LWPOLYLINE
  5
1A1
330
2
100
AcDbEntity
  8
0
100
AcDbPolyline
 90
       74
 70
     0
 43
0.0
 10
-1.029329931093798
 20
0.3522638138039582
 10
-1.065750467093806
 20
0.2890788474039567
 10
-1.119535734293805
 20
0.1982148426039742
 10
-1.176123945493799
 20
0.1056833002039781
 10
-1.236514931093807
 20
0.0095855754039604
 10
-1.3013815886938
 20
-0.0915751957960396
 10
-1.371451902293813
 20
-0.1996858597960198
 10
-1.447208572693796
 20
-0.3168763333960243
 10
-1.486520932693792
 20
-0.37850814299604
 10
-1.525355635093802
 20
-0.4404420933960438
 10
-1.561171516693804
 20
-0.4989054277960321
 10
-1.596202132693804
 20
-0.5578423189960376
 10
-1.626000667093819
 20
-0.6098129909960193
 10
-1.654865452693798
 20
-0.662307442196024
 10
-1.679143350293799
 20
-0.7085988021960219
 10
-1.702428007893814
 20
-0.7553970453960375
 10
-1.722105763093793
 20
-0.797316098196049
 10
-1.740770527893801
 20
-0.839695309396049
 10
-1.756498065493815
 20
-0.877980165396039
 10
-1.771234513493794
 20
-0.9166566309960302
 10
-1.783964281493808
 20
-0.9529351525960265
 10
-1.795723638293793
 20
-0.989539722196028
 10
-1.80597882869381
 20
-1.024671573396048
 10
-1.815281641493811
 20
-1.06006722939604
 10
-1.823246100693808
 20
-1.094111678996043
 10
-1.830278270293803
 20
-1.128360680596031
 10
-1.836125358293799
 20
-1.161414493396037
 10
-1.841062446293818
 20
-1.194616250196034
 10
-1.844940919893815
 20
-1.226759566996051
 10
-1.847933588693791
 20
-1.258997283796034
 10
-1.849972449493805
 20
-1.290298058196029
 10
-1.851152004693801
 20
-1.321642864596029
 10
-1.851464606293802
 20
-1.352162882196026
 10
-1.850946251093802
 20
-1.382680003796039
 10
-1.84963347669381
 20
-1.412442610196038
 10
-1.847521151893801
 20
-1.442159085396028
 10
-1.844715660693793
 20
-1.47084233019602
 10
-1.841161607893809
 20
-1.499442333396032
 10
-1.832461270293805
 20
-1.552880600596026
 10
-1.821457987093793
 20
-1.604402104596019
 10
-1.808147899093796
 20
-1.654727098196033
 10
-1.792666369493815
 20
-1.703742037396025
 10
-1.775109825493814
 20
-1.751501653396033
 10
-1.755557139093809
 20
-1.798095310996032
 10
-1.734098147093817
 20
-1.843563272596028
 10
-1.710810987093793
 20
-1.887954642196049
 10
-1.685778838293799
 20
-1.931295416596029
 10
-1.659068875093794
 20
-1.973629558996023
 10
-1.630754855893798
 20
-2.014980290196021
 10
-1.600896044693797
 20
-2.055384709396022
 10
-1.569557067093796
 20
-2.094864866196033
 10
-1.536792412693813
 20
-2.133450006996028
 10
-1.502652139093811
 20
-2.171168203796028
 10
-1.467199681493809
 20
-2.208028542996018
 10
-1.430551708693798
 20
-2.243984083796036
 10
-1.392796959893814
 20
-2.27901852859604
 10
-1.353974780693818
 20
-2.313163546196037
 10
-1.314077383893817
 20
-2.346485654996044
 10
-1.273144225493808
 20
-2.379004430996033
 10
-1.231282225493799
 20
-2.410688000596039
 10
-1.188222423893819
 20
-2.441778312596042
 10
-1.143643667093812
 20
-2.472530658196021
 10
-1.097269151893812
 20
-2.503143338196039
 10
-1.049070596693809
 20
-2.533625403796051
 10
-0.9991717022938075
 20
-2.563890558996021
 10
-0.9475937086938017
 20
-2.593920888596031
 10
-0.8944338382937928
 20
-2.623656115796038
 10
-0.8396528478938023
 20
-2.65311384219602
 10
-0.7829461726938121
 20
-2.682447701396043
 10
-0.7241527438937965
 20
-2.711723821396034
 10
-0.6632741774938041
 20
-2.740918438996047
 10
-0.6003852606937983
 20
-2.76997336059604
 10
-0.5355649102938003
 20
-2.798831971796047
 10
-0.4926036302938144
 20
-2.81738663899604
  0
LWPOLYLINE
  5
1A2
330
2
100
AcDbEntity
  8
0
100
AcDbPolyline
 90
       15
 70
     0
 43
0.0
 10
-1.901866892693817
 20
2.49835309220397
 10
-1.899384758293791
 20
2.501805892203961
 10
-1.897029923093811
 20
2.505363365803972
 10
-1.894809417493803
 20
2.509016935403977
 10
-1.89273026869381
 20
2.512758018603975
 10
-1.890799507093817
 20
2.516578039403967
 10
-1.889024158293807
 20
2.520468415403982
 10
-1.887411252693794
 20
2.524420569003964
 10
-1.885967817493792
 20
2.528425919403971
 10
-1.884700881493813
 20
2.532475889003976
 10
-1.883540310293795
 20
2.536853154603974
 10
-1.882553027093791
 20
2.541266895403978
 10
-1.881701897493798
 20
2.545712265003956
 10
-1.880949783893811
 20
2.550184420203962
 10
-1.8802595550938
 20
2.554678514603963
  0
LWPOLYLINE
  5
1A3
330
2
100
AcDbEntity
  8
0
100
AcDbPolyline
 90
       31
 70
     0
 43
0.0
 10
22.24754397290618
 20
-0.0483629477960648
 10
22.2212032545062
 20
0.0858837114039233
 10
22.19330060490619
 20
0.2198186138039233
 10
22.16370060810618
 20
0.3533901226039262
 10
22.13450998410618
 20
0.4773165194039138
 10
22.10361377930618
 20
0.6008271370039182
 10
22.07089359210618
 20
0.7238656058039368
 10
22.04281130410618
 20
0.8237048154039285
 10
22.01338859530619
 20
0.9231566474039283
 10
21.98257398570618
 20
1.022184437803943
 10
21.94394419050618
 20
1.139697844203922
 10
21.90326946570618
 20
1.256518351403926
 10
21.8676585025062
 20
1.353719346603938
 10
21.83058962730618
 20
1.450373431403917
 10
21.7941708129062
 20
1.541185173803924
 10
21.7563100913062
 20
1.63140482340394
 10
21.7185122497062
 20
1.717368797803928
 10
21.67917961290618
 20
1.802641412203925
 10
21.6399711665062
 20
1.88358103140392
 10
21.59914230890618
 20
1.963715063403938
 10
21.55849789290618
 20
2.039447290603945
 10
21.51614183850619
 20
2.114235628203928
 10
21.48826014730619
 20
2.16124495620393
 10
21.45959740330618
 20
2.207781810603918
 10
21.43011507050619
 20
2.253803213803919
 10
21.40124063690618
 20
2.297108805803915
 10
21.37154742250618
 20
2.339857618603943
 10
21.34099486250619
 20
2.381999301803929
 10
21.3110933025062
 20
2.421478405803938
 10
21.28034224650619
 20
2.46029663300392
 10
21.24870671050618
 20
2.498388201003919
  0
LWPOLYLINE
  5
1A4
330
2
100
AcDbEntity
  8
0
100
AcDbPolyline
 90
       50
 70
     0
 43
0.0
 10
22.24754394090618
 20
-0.0483627989960525
 10
22.25290397930618
 20
-0.0805673957960522
 10
22.25715726090618
 20
-0.1129466117960618
 10
22.26046038090618
 20
-0.1454579829960636
 10
22.2629699393062
 20
-0.1780590501960688
 10
22.26484253610618
 20
-0.2107073477960597
 10
22.26664327690619
 20
-0.2575318357960583
 10
22.26740543370618
 20
-0.30435591579608
 10
22.26707780490619
 20
-0.3511693749960756
 10
22.26560918730618
 20
-0.3979620021960528
 10
22.2631344801062
 20
-0.4419998885960723
 10
22.25954616330619
 20
-0.4859714645960623
 10
22.25478817450619
 20
-0.5298379589960547
 10
22.2488044497062
 20
-0.5735605973960816
 10
22.24153892650619
 20
-0.6171006101960615
 10
22.2329710353062
 20
-0.6602774373960614
 10
22.2230529777062
 20
-0.703174250196085
 10
22.21176390250619
 20
-0.7457310197960539
 10
22.19908296010618
 20
-0.78788771259606
 10
22.18498929930618
 20
-0.8295843013960535
 10
22.16946206890619
 20
-0.8707607557960699
 10
22.15366773610619
 20
-0.9086795109960661
 10
22.13665787690618
 20
-0.9460755061960668
 10
22.11848422410619
 20
-0.9829314885960656
 10
22.09919850570619
 20
-1.019230203796055
 10
22.0788524529062
 20
-1.054954398996059
 10
22.0574977953062
 20
-1.09008681819607
 10
22.03518626410618
 20
-1.124610210196081
 10
22.00709167850618
 20
-1.165393920596059
 10
21.97775036490619
 20
-1.205272646996078
 10
21.94723058410619
 20
-1.244251264596087
 10
21.91560060330619
 20
-1.282334651796062
 10
21.8829286849062
 20
-1.319527686996067
 10
21.8492830945062
 20
-1.355835245396079
 10
21.8134009585062
 20
-1.392592115796063
 10
21.77660100490618
 20
-1.428422829396069
 10
21.73894083850618
 20
-1.463349922196087
 10
21.70047806730619
 20
-1.497395933396077
 10
21.66127029770618
 20
-1.530583402196057
 10
21.62137513930619
 20
-1.562934866196073
 10
21.5705630321062
 20
-1.602276334996062
 10
21.51883300170618
 20
-1.640391066196073
 10
21.4662533473062
 20
-1.677326187796055
 10
21.41289236970618
 20
-1.713128822996068
 10
21.35881836970619
 20
-1.747846101396064
 10
21.3012127041062
 20
-1.783259309396058
 10
21.2429446721062
 20
-1.817565626196071
 10
21.1840659297062
 20
-1.850807989396074
 10
21.12462813290619
 20
-1.883029339796067
 10
21.06468294250618
 20
-1.914272618196079
  0
LWPOLYLINE
  5
1A5
330
2
100
AcDbEntity
  8
0
100
AcDbPolyline
 90
       43
 70
     0
 43
0.0
 10
21.22575582090618
 20
2.563748156203914
 10
21.22502841130619
 20
2.568278997803915
 10
21.2243662033062
 20
2.572017695403914
 10
21.22363310090619
 20
2.575747834603916
 10
21.22281718730619
 20
2.57945911300392
 10
21.22190654730619
 20
2.583141229803928
 10
21.2208892609062
 20
2.586783884203939
 10
21.21975341610618
 20
2.590376773803924
 10
21.2184870945062
 20
2.593909599403943
 10
21.2170783793062
 20
2.597372060203937
 10
21.21551535530619
 20
2.600753852203936
 10
21.21378610410619
 20
2.604044677803912
 10
21.2117987297062
 20
2.607368709803935
 10
21.2096312625062
 20
2.610585839403924
 10
21.2072970849062
 20
2.613699143403934
 10
21.20480957450618
 20
2.616711705003936
 10
21.20218211210618
 20
2.619626602603929
 10
21.1994280785062
 20
2.622446916203941
 10
21.1965608513062
 20
2.625175725803941
 10
21.19359381290618
 20
2.62781611140393
 10
21.19054033930618
 20
2.630371151403934
 10
21.18741381450618
 20
2.632843927403925
 10
21.1842276161062
 20
2.635237517803929
 10
21.18099512490619
 20
2.637555002603946
 10
21.1758426689062
 20
2.64105283940394
 10
21.1706141953062
 20
2.644382001003933
 10
21.16531508010618
 20
2.647554393003915
 10
21.15995069770619
 20
2.650581925803933
 10
21.15452642570619
 20
2.653476509803923
 10
21.1490476353062
 20
2.65625005380393
 10
21.14351970570618
 20
2.658914466603945
 10
21.1379480113062
 20
2.661481657003932
 10
21.13233792810618
 20
2.663963535403937
 10
21.12669483050618
 20
2.666372010603922
 10
21.12102409450619
 20
2.668718989803934
 10
21.1106369057062
 20
2.672864730603933
 10
21.10018288970619
 20
2.676855788203923
 10
21.0896690929062
 20
2.680702004203922
 10
21.0791025569062
 20
2.684413218603921
 10
21.0684903249062
 20
2.687999274603939
 10
21.05783944170619
 20
2.691470012203936
 10
21.0471569489062
 20
2.694835274603931
 10
21.0364498929062
 20
2.698104901803944
  0
LINE
  5
1A6
330
2
100
AcDbEntity
  8
0
100
AcDbLine
 10
23.60797469450619
 20
7.751491676203968
 30
0.0
 11
23.52291011530618
 21
6.809777940203943
 31
0.0
  0
LWPOLYLINE
  5
1A9
330
2
100
AcDbEntity
  8
0
100
AcDbPolyline
 90
       61
 70
     0
 43
0.0
 10
20.71655461290621
 20
2.362446079403937
 10
20.71446213450619
 20
2.353144540203928
 10
20.71174851370619
 20
2.34400240900392
 10
20.70685965290619
 20
2.330898549803933
 10
20.70110382890618
 20
2.318149961003925
 10
20.69335619050619
 20
2.303319305003938
 10
20.68487979210618
 20
2.288891682603932
 10
20.67400820330618
 20
2.272045903403935
 10
20.6625366641062
 20
2.255602202603924
 10
20.64825779690619
 20
2.23638399140394
 10
20.63349904010618
 20
2.217531468203944
 10
20.6155033649062
 20
2.195481226603916
 10
20.59714660490618
 20
2.173730535403919
 10
20.5751202449062
 20
2.148280601003918
 10
20.55286193290618
 20
2.123033274603912
 10
20.50025220650618
 20
2.064180556203936
 10
20.43979300330619
 20
1.996382417003914
 10
20.4065463489062
 20
1.958471821803939
 10
20.3736481681062
 20
1.920258260203937
 10
20.33952500170619
 20
1.879668612203929
 10
20.30599403850618
 20
1.838588380203916
 10
20.2736835233062
 20
1.797607713003927
 10
20.24217293450618
 20
1.756009017003933
 10
20.2136072529062
 20
1.716583873003926
 10
20.18596493290619
 20
1.676506247403935
 10
20.16196606090619
 20
1.639800817003944
 10
20.13895037450621
 20
1.602471834603917
 10
20.11926537930619
 20
1.568432567403917
 10
20.10060507370619
 20
1.533821589803935
 10
20.0847872033062
 20
1.502137981803926
 10
20.07002824010618
 20
1.469948173803928
 10
20.0577145345062
 20
1.440418921003939
 10
20.04649103370618
 20
1.410459183403915
 10
20.03735038090618
 20
1.382875417003944
 10
20.02932954730618
 20
1.354945953003934
 10
20.02309394570619
 20
1.329179537003923
 10
20.0180043329062
 20
1.303164084203942
 10
20.0143580737062
 20
1.278503245803946
 10
20.01186948010618
 20
1.253698593003932
 10
20.0105919249062
 20
1.229360943403932
 10
20.0104750913062
 20
1.204990682603934
 10
20.01153023530619
 20
1.180524261803938
 10
20.01372080330619
 20
1.156132716203941
 10
20.0171744641062
 20
1.130695821803939
 10
20.02172445770619
 20
1.105431311403933
 10
20.02772769450618
 20
1.078504831403947
 10
20.03476859850619
 20
1.051830346603921
 10
20.04360287850619
 20
1.022695351403925
 10
20.0534056417062
 20
0.9938709146039315
 10
20.0656456721062
 20
0.961190188203929
 10
20.0787727361062
 20
0.9288549690039218
 10
20.09528348170618
 20
0.8907986010039365
 10
20.11252901450621
 20
0.853068329003932
 10
20.13369389770619
 20
0.808493901803942
 10
20.15539277450619
 20
0.7641774842039269
 10
20.17932738730618
 20
0.7164531770039133
 10
20.20367033450619
 20
0.66893590340392
 10
20.25427712010619
 20
0.5728203450039331
 10
20.30629080170618
 20
0.477008778603917
 10
20.35921980650619
 20
0.3821453626039357
 10
20.37617625450619
 20
0.352296250603942
  0
LWPOLYLINE
  5
1AA
330
2
100
AcDbEntity
  8
0
100
AcDbPolyline
 90
       18
 70
     0
 43
0.0
 10
6.158015424106196
 20
-7.498885398996023
 10
6.184022043306185
 20
-7.437122894996022
 10
6.235189960106197
 20
-7.312824210196041
 10
6.310160036906182
 20
-7.124640326996043
 10
6.383674140906208
 20
-6.934243179796041
 10
6.45579548810619
 20
-6.74331121179604
 10
6.527697976106196
 20
-6.550298635796039
 10
6.598798963306194
 20
-6.356991126996021
 10
6.669875432106181
 20
-6.161096258196025
 10
6.739980313706183
 20
-5.964849974996027
 10
6.833524968106189
 20
-5.697447688596028
 10
6.924867481706201
 20
-5.429283670996042
 10
7.013825860906194
 20
-5.160319741396037
 10
7.101154612906185
 20
-4.887648957396024
 10
7.185856107306193
 20
-4.614149803796024
 10
7.267924203306193
 20
-4.339849962196026
 10
7.347286404906185
 20
-4.065011102996024
 10
7.424007417706206
 20
-3.789428162196017
  0
LWPOLYLINE
  5
1AB
330
2
100
AcDbEntity
  8
0
100
AcDbPolyline
 90
        9
 70
     0
 43
0.0
 10
6.033088004906204
 20
-7.78128371899605
 10
6.053598705706207
 20
-7.736208525396037
 10
6.073915414506188
 20
-7.691045370196022
 10
6.08787718730619
 20
-7.659736827796038
 10
6.101751948906183
 20
-7.628389698196016
 10
6.115532459306194
 20
-7.597001058196028
 10
6.129747072106198
 20
-7.564338970196033
 10
6.1438606817062
 20
-7.53163306459605
 10
6.157881865706201
 20
-7.498887496596026
  0
LINE
  5
1AC
330
2
100
AcDbEntity
  8
0
100
AcDbLine
 10
6.018532065706189
 20
-7.812597853396042
 30
0.0
 11
6.033088004906211
 21
-7.78128371899605
 31
0.0
  0
LINE
  5
1AD
330
2
100
AcDbEntity
  8
0
100
AcDbLine
 10
6.007549990506198
 20
-7.836014517396037
 30
0.0
 11
6.018532065706189
 21
-7.812597853396042
 31
0.0
  0
LINE
  5
1AE
330
2
100
AcDbEntity
  8
0
100
AcDbLine
 10
5.99650998570619
 20
-7.859355416596017
 30
0.0
 11
6.007549990506198
 21
-7.836014517396037
 31
0.0
  0
LINE
  5
1AF
330
2
100
AcDbEntity
  8
0
100
AcDbLine
 10
5.985415361706209
 20
-7.882611362196044
 30
0.0
 11
5.99650998570619
 21
-7.859355416596017
 31
0.0
  0
LINE
  5
1B0
330
2
100
AcDbEntity
  8
0
100
AcDbLine
 10
5.974270454506189
 20
-7.905772840596043
 30
0.0
 11
5.985415361706209
 21
-7.882611362196044
 31
0.0
  0
LINE
  5
1B1
330
2
100
AcDbEntity
  8
0
100
AcDbLine
 10
5.963078670506213
 20
-7.92883216379603
 30
0.0
 11
5.974270454506189
 21
-7.905772840596043
 31
0.0
  0
LINE
  5
1B2
330
2
100
AcDbEntity
  8
0
100
AcDbLine
 10
5.951840798506204
 20
-7.95178526939604
 30
0.0
 11
5.963078670506213
 21
-7.92883216379603
 31
0.0
  0
LINE
  5
1B3
330
2
100
AcDbEntity
  8
0
100
AcDbLine
 10
5.940557180906189
 20
-7.974629010196039
 30
0.0
 11
5.951840798506204
 21
-7.95178526939604
 31
0.0
  0
LINE
  5
1B4
330
2
100
AcDbEntity
  8
0
100
AcDbLine
 10
5.929228019306215
 20
-7.997360600596024
 30
0.0
 11
5.940557180906189
 21
-7.974629010196039
 31
0.0
  0
LINE
  5
1B5
330
2
100
AcDbEntity
  8
0
100
AcDbLine
 10
5.917853433706206
 20
-8.019977390996032
 30
0.0
 11
5.929228019306215
 21
-7.997360600596024
 31
0.0
  0
LINE
  5
1B6
330
2
100
AcDbEntity
  8
0
100
AcDbLine
 10
5.906433480106194
 20
-8.042476864596025
 30
0.0
 11
5.917853433706206
 21
-8.019977390996032
 31
0.0
  0
LINE
  5
1B7
330
2
100
AcDbEntity
  8
0
100
AcDbLine
 10
5.894968158506209
 20
-8.064856627796032
 30
0.0
 11
5.906433480106194
 21
-8.042476864596025
 31
0.0
  0
LINE
  5
1B8
330
2
100
AcDbEntity
  8
0
100
AcDbLine
 10
5.883457438506191
 20
-8.087114413396037
 30
0.0
 11
5.894968158506209
 21
-8.064856627796032
 31
0.0
  0
LINE
  5
1B9
330
2
100
AcDbEntity
  8
0
100
AcDbLine
 10
5.871901350506199
 20
-8.109248053396029
 30
0.0
 11
5.883457438506191
 21
-8.087114413396037
 31
0.0
  0
LINE
  5
1BA
330
2
100
AcDbEntity
  8
0
100
AcDbLine
 10
5.860300000106214
 20
-8.131255440596035
 30
0.0
 11
5.871901350506199
 21
-8.109248053396029
 31
0.0
  0
LINE
  5
1BB
330
2
100
AcDbEntity
  8
0
100
AcDbLine
 10
5.848653484906215
 20
-8.153134557396029
 30
0.0
 11
5.860300000106214
 21
-8.131255440596035
 31
0.0
  0
LINE
  5
1BC
330
2
100
AcDbEntity
  8
0
100
AcDbLine
 10
5.836961880106208
 20
-8.174883475796022
 30
0.0
 11
5.848653484906215
 21
-8.153134557396029
 31
0.0
  0
LINE
  5
1BD
330
2
100
AcDbEntity
  8
0
100
AcDbLine
 10
5.825225235306199
 20
-8.196500354196032
 30
0.0
 11
5.836961880106208
 21
-8.174883475796022
 31
0.0
  0
LINE
  5
1BE
330
2
100
AcDbEntity
  8
0
100
AcDbLine
 10
5.813443576106188
 20
-8.217983421396027
 30
0.0
 11
5.825225235306199
 21
-8.196500354196032
 31
0.0
  0
LINE
  5
1BF
330
2
100
AcDbEntity
  8
0
100
AcDbLine
 10
5.801616904106204
 20
-8.239330974996036
 30
0.0
 11
5.813443576106188
 21
-8.217983421396027
 31
0.0
  0
LINE
  5
1C0
330
2
100
AcDbEntity
  8
0
100
AcDbLine
 10
5.789745220906191
 20
-8.260541419796041
 30
0.0
 11
5.801616904106204
 21
-8.239330974996036
 31
0.0
  0
LINE
  5
1C1
330
2
100
AcDbEntity
  8
0
100
AcDbLine
 10
5.777828553706207
 20
-8.281613307796035
 30
0.0
 11
5.789745220906191
 21
-8.260541419796041
 31
0.0
  0
LINE
  5
1C2
330
2
100
AcDbEntity
  8
0
100
AcDbLine
 10
5.765867012906205
 20
-8.302545110996035
 30
0.0
 11
5.777828553706207
 21
-8.281613307796035
 31
0.0
  0
LINE
  5
1C3
330
2
100
AcDbEntity
  8
0
100
AcDbLine
 10
5.753860924906213
 20
-8.323335037396034
 30
0.0
 11
5.765867012906205
 21
-8.302545110996035
 31
0.0
  0
LINE
  5
1C4
330
2
100
AcDbEntity
  8
0
100
AcDbLine
 10
5.741810657706203
 20
-8.343981299796027
 30
0.0
 11
5.753860924906213
 21
-8.323335037396034
 31
0.0
  0
LINE
  5
1C5
330
2
100
AcDbEntity
  8
0
100
AcDbLine
 10
5.729716588906207
 20
-8.364482149396039
 30
0.0
 11
5.741810657706203
 21
-8.343981299796027
 31
0.0
  0
LINE
  5
1C6
330
2
100
AcDbEntity
  8
0
100
AcDbLine
 10
5.7175791073062
 20
-8.384835875796042
 30
0.0
 11
5.729716588906207
 21
-8.364482149396039
 31
0.0
  0
LINE
  5
1C7
330
2
100
AcDbEntity
  8
0
100
AcDbLine
 10
5.705398675306192
 20
-8.405040835796043
 30
0.0
 11
5.7175791073062
 21
-8.384835875796042
 31
0.0
  0
LINE
  5
1C8
330
2
100
AcDbEntity
  8
0
100
AcDbLine
 10
5.693175899306204
 20
-8.425095472596026
 30
0.0
 11
5.705398675306192
 21
-8.405040835796043
 31
0.0
  0
LINE
  5
1C9
330
2
100
AcDbEntity
  8
0
100
AcDbLine
 10
5.680911420906205
 20
-8.444998278996038
 30
0.0
 11
5.693175899306204
 21
-8.425095472596026
 31
0.0
  0
LINE
  5
1CA
330
2
100
AcDbEntity
  8
0
100
AcDbLine
 10
5.668605889706192
 20
-8.464747787796042
 30
0.0
 11
5.680911420906205
 21
-8.444998278996038
 31
0.0
  0
LINE
  5
1CB
330
2
100
AcDbEntity
  8
0
100
AcDbLine
 10
5.656259971306191
 20
-8.484342568596034
 30
0.0
 11
5.668605889706192
 21
-8.464747787796042
 31
0.0
  0
LINE
  5
1CC
330
2
100
AcDbEntity
  8
0
100
AcDbLine
 10
5.643874342506201
 20
-8.50378123259604
 30
0.0
 11
5.656259971306191
 21
-8.484342568596034
 31
0.0
  0
LINE
  5
1CD
330
2
100
AcDbEntity
  8
0
100
AcDbLine
 10
5.631449697706194
 20
-8.523062432596034
 30
0.0
 11
5.643874342506201
 21
-8.50378123259604
 31
0.0
  0
LINE
  5
1CE
330
2
100
AcDbEntity
  8
0
100
AcDbLine
 10
5.618986678506196
 20
-8.542184882196025
 30
0.0
 11
5.631449697706194
 21
-8.523062432596034
 31
0.0
  0
LINE
  5
1CF
330
2
100
AcDbEntity
  8
0
100
AcDbLine
 10
5.606485654506208
 20
-8.561147464596032
 30
0.0
 11
5.618986678506196
 21
-8.542184882196025
 31
0.0
  0
LINE
  5
1D0
330
2
100
AcDbEntity
  8
0
100
AcDbLine
 10
5.593946926506198
 20
-8.579949133396027
 30
0.0
 11
5.606485654506208
 21
-8.561147464596032
 31
0.0
  0
LINE
  5
1D1
330
2
100
AcDbEntity
  8
0
100
AcDbLine
 10
5.581370819306194
 20
-8.598588875796039
 30
0.0
 11
5.593946926506198
 21
-8.579949133396027
 31
0.0
  0
LINE
  5
1D2
330
2
100
AcDbEntity
  8
0
100
AcDbLine
 10
5.56875796490619
 20
-8.61706566459604
 30
0.0
 11
5.581370819306194
 21
-8.598588875796039
 31
0.0
  0
LINE
  5
1D3
330
2
100
AcDbEntity
  8
0
100
AcDbLine
 10
5.556109460906192
 20
-8.635378442196028
 30
0.0
 11
5.56875796490619
 21
-8.61706566459604
 31
0.0
  0
LINE
  5
1D4
330
2
100
AcDbEntity
  8
0
100
AcDbLine
 10
5.547657859306191
 20
-8.647495363796039
 30
0.0
 11
5.556109460906192
 21
-8.635378442196028
 31
0.0
  0
LINE
  5
1D5
330
2
100
AcDbEntity
  8
0
100
AcDbLine
 10
5.539191152106191
 20
-8.65953877499605
 30
0.0
 11
5.547657859306191
 21
-8.647495363796039
 31
0.0
  0
LINE
  5
1D6
330
2
100
AcDbEntity
  8
0
100
AcDbLine
 10
5.530709585706212
 20
-8.671508502996047
 30
0.0
 11
5.539191152106191
 21
-8.65953877499605
 31
0.0
  0
LINE
  5
1D7
330
2
100
AcDbEntity
  8
0
100
AcDbLine
 10
5.522213348906213
 20
-8.683404421396048
 30
0.0
 11
5.530709585706212
 21
-8.671508502996047
 31
0.0
  0
LINE
  5
1D8
330
2
100
AcDbEntity
  8
0
100
AcDbLine
 10
5.513702590506206
 20
-8.695226435796044
 30
0.0
 11
5.522213348906213
 21
-8.683404421396048
 31
0.0
  0
LINE
  5
1D9
330
2
100
AcDbEntity
  8
0
100
AcDbLine
 10
5.505177456106203
 20
-8.706974458196029
 30
0.0
 11
5.513702590506206
 21
-8.695226435796044
 31
0.0
  0
LINE
  5
1DA
330
2
100
AcDbEntity
  8
0
100
AcDbLine
 10
5.496638088106188
 20
-8.718648410196024
 30
0.0
 11
5.505177456106203
 21
-8.706974458196029
 31
0.0
  0
LINE
  5
1DB
330
2
100
AcDbEntity
  8
0
100
AcDbLine
 10
5.488084633706201
 20
-8.730248224596024
 30
0.0
 11
5.496638088106188
 21
-8.718648410196024
 31
0.0
  0
LINE
  5
1DC
330
2
100
AcDbEntity
  8
0
100
AcDbLine
 10
5.479517230506196
 20
-8.741773834196024
 30
0.0
 11
5.488084633706201
 21
-8.730248224596024
 31
0.0
  0
LINE
  5
1DD
330
2
100
AcDbEntity
  8
0
100
AcDbLine
 10
5.470936019306215
 20
-8.753225186196047
 30
0.0
 11
5.479517230506196
 21
-8.741773834196024
 31
0.0
  0
LINE
  5
1DE
330
2
100
AcDbEntity
  8
0
100
AcDbLine
 10
5.462341139306211
 20
-8.764602230996032
 30
0.0
 11
5.470936019306215
 21
-8.753225186196047
 31
0.0
  0
LINE
  5
1DF
330
2
100
AcDbEntity
  8
0
100
AcDbLine
 10
5.453732721706195
 20
-8.775904928596034
 30
0.0
 11
5.462341139306211
 21
-8.764602230996032
 31
0.0
  0
LINE
  5
1E0
330
2
100
AcDbEntity
  8
0
100
AcDbLine
 10
5.445110900906207
 20
-8.78713324219602
 30
0.0
 11
5.453732721706195
 21
-8.775904928596034
 31
0.0
  0
LINE
  5
1E1
330
2
100
AcDbEntity
  8
0
100
AcDbLine
 10
5.436475806506201
 20
-8.798287146196045
 30
0.0
 11
5.445110900906207
 21
-8.78713324219602
 31
0.0
  0
LINE
  5
1E2
330
2
100
AcDbEntity
  8
0
100
AcDbLine
 10
5.427827566506188
 20
-8.809366622996023
 30
0.0
 11
5.436475806506201
 21
-8.798287146196045
 31
0.0
  0
LINE
  5
1E3
330
2
100
AcDbEntity
  8
0
100
AcDbLine
 10
5.419166321706207
 20
-8.82037168539604
 30
0.0
 11
5.427827566506188
 21
-8.809366622996023
 31
0.0
  0
LINE
  5
1E4
330
2
100
AcDbEntity
  8
0
100
AcDbLine
 10
5.410492219306213
 20
-8.831302363796041
 30
0.0
 11
5.419166321706207
 21
-8.82037168539604
 31
0.0
  0
LINE
  5
1E5
330
2
100
AcDbEntity
  8
0
100
AcDbLine
 10
5.40180539690619
 20
-8.84215869819603
 30
0.0
 11
5.410492219306213
 21
-8.831302363796041
 31
0.0
  0
LINE
  5
1E6
330
2
100
AcDbEntity
  8
0
100
AcDbLine
 10
5.393105993706207
 20
-8.852940728596038
 30
0.0
 11
5.40180539690619
 21
-8.84215869819603
 31
0.0
  0
LINE
  5
1E7
330
2
100
AcDbEntity
  8
0
100
AcDbLine
 10
5.384394140906188
 20
-8.863648501396042
 30
0.0
 11
5.393105993706207
 21
-8.852940728596038
 31
0.0
  0
LINE
  5
1E8
330
2
100
AcDbEntity
  8
0
100
AcDbLine
 10
5.375669969706201
 20
-8.874282069396016
 30
0.0
 11
5.384394140906188
 21
-8.863648501396042
 31
0.0
  0
LINE
  5
1E9
330
2
100
AcDbEntity
  8
0
100
AcDbLine
 10
5.3669336017062
 20
-8.884841490196023
 30
0.0
 11
5.375669969706201
 21
-8.874282069396016
 31
0.0
  0
LINE
  5
1EA
330
2
100
AcDbEntity
  8
0
100
AcDbLine
 10
5.358185158506195
 20
-8.89532682459604
 30
0.0
 11
5.3669336017062
 21
-8.884841490196023
 31
0.0
  0
LINE
  5
1EB
330
2
100
AcDbEntity
  8
0
100
AcDbLine
 10
5.349424752106195
 20
-8.905738136596042
 30
0.0
 11
5.358185158506195
 21
-8.89532682459604
 31
0.0
  0
LINE
  5
1EC
330
2
100
AcDbEntity
  8
0
100
AcDbLine
 10
5.340652491306208
 20
-8.916075499796036
 30
0.0
 11
5.349424752106195
 21
-8.905738136596042
 31
0.0
  0
LINE
  5
1ED
330
2
100
AcDbEntity
  8
0
100
AcDbLine
 10
5.331868481706187
 20
-8.926338982996028
 30
0.0
 11
5.340652491306208
 21
-8.916075499796036
 31
0.0
  0
LINE
  5
1EE
330
2
100
AcDbEntity
  8
0
100
AcDbLine
 10
5.323072828906198
 20
-8.936528667796025
 30
0.0
 11
5.331868481706187
 21
-8.926338982996028
 31
0.0
  0
LINE
  5
1EF
330
2
100
AcDbEntity
  8
0
100
AcDbLine
 10
5.314265867306211
 20
-8.946644648596034
 30
0.0
 11
5.323072828906198
 21
-8.936528667796025
 31
0.0
  0
LINE
  5
1F0
330
2
100
AcDbEntity
  8
0
100
AcDbLine
 10
5.305448211306192
 20
-8.956687016596035
 30
0.0
 11
5.314265867306211
 21
-8.946644648596034
 31
0.0
  0
LINE
  5
1F1
330
2
100
AcDbEntity
  8
0
100
AcDbLine
 10
5.296620292906204
 20
-8.966655850196033
 30
0.0
 11
5.305448211306192
 21
-8.956687016596035
 31
0.0
  0
LINE
  5
1F2
330
2
100
AcDbEntity
  8
0
100
AcDbLine
 10
5.287782267306205
 20
-8.976551232596037
 30
0.0
 11
5.296620292906204
 21
-8.966655850196033
 31
0.0
  0
LINE
  5
1F3
330
2
100
AcDbEntity
  8
0
100
AcDbLine
 10
5.278934270506205
 20
-8.986373253396024
 30
0.0
 11
5.287782267306205
 21
-8.976551232596037
 31
0.0
  0
LINE
  5
1F4
330
2
100
AcDbEntity
  8
0
100
AcDbLine
 10
5.270076433706215
 20
-8.996122002196031
 30
0.0
 11
5.278934270506205
 21
-8.986373253396024
 31
0.0
  0
LINE
  5
1F5
330
2
100
AcDbEntity
  8
0
100
AcDbLine
 10
5.261208888106189
 20
-9.005797578196037
 30
0.0
 11
5.270076433706215
 21
-8.996122002196031
 31
0.0
  0
LINE
  5
1F6
330
2
100
AcDbEntity
  8
0
100
AcDbLine
 10
5.252331769706195
 20
-9.015400080596052
 30
0.0
 11
5.261208888106189
 21
-9.005797578196037
 31
0.0
  0
LINE
  5
1F7
330
2
100
AcDbEntity
  8
0
100
AcDbLine
 10
5.243445212906188
 20
-9.024929614996025
 30
0.0
 11
5.252331769706195
 21
-9.015400080596052
 31
0.0
  0
LINE
  5
1F8
330
2
100
AcDbEntity
  8
0
100
AcDbLine
 10
5.234549352106206
 20
-9.034386291796025
 30
0.0
 11
5.243445212906188
 21
-9.024929614996025
 31
0.0
  0
LINE
  5
1F9
330
2
100
AcDbEntity
  8
0
100
AcDbLine
 10
5.225644328106206
 20
-9.04377022139603
 30
0.0
 11
5.234549352106206
 21
-9.034386291796025
 31
0.0
  0
LINE
  5
1FA
330
2
100
AcDbEntity
  8
0
100
AcDbLine
 10
5.216730281706198
 20
-9.053081522196023
 30
0.0
 11
5.225644328106206
 21
-9.04377022139603
 31
0.0
  0
LINE
  5
1FB
330
2
100
AcDbEntity
  8
0
100
AcDbLine
 10
5.207807358506194
 20
-9.062320315796043
 30
0.0
 11
5.216730281706198
 21
-9.053081522196023
 31
0.0
  0
LINE
  5
1FC
330
2
100
AcDbEntity
  8
0
100
AcDbLine
 10
5.19887574890621
 20
-9.071486749396044
 30
0.0
 11
5.207807358506194
 21
-9.062320315796043
 31
0.0
  0
LINE
  5
1FD
330
2
100
AcDbEntity
  8
0
100
AcDbLine
 10
5.18993568490621
 20
-9.080581000596041
 30
0.0
 11
5.19887574890621
 21
-9.071486749396044
 31
0.0
  0
LINE
  5
1FE
330
2
100
AcDbEntity
  8
0
100
AcDbLine
 10
5.180987404906211
 20
-9.089603245396048
 30
0.0
 11
5.18993568490621
 21
-9.080581000596041
 31
0.0
  0
LINE
  5
1FF
330
2
100
AcDbEntity
  8
0
100
AcDbLine
 10
5.172031156906207
 20
-9.098553667796025
 30
0.0
 11
5.180987404906211
 21
-9.089603245396048
 31
0.0
  0
LINE
  5
200
330
2
100
AcDbEntity
  8
0
100
AcDbLine
 10
5.16306718890619
 20
-9.107432454996043
 30
0.0
 11
5.172031156906207
 21
-9.098553667796025
 31
0.0
  0
LINE
  5
201
330
2
100
AcDbEntity
  8
0
100
AcDbLine
 10
5.154095752106208
 20
-9.116239794196033
 30
0.0
 11
5.16306718890619
 21
-9.107432454996043
 31
0.0
  0
LINE
  5
202
330
2
100
AcDbEntity
  8
0
100
AcDbLine
 10
5.145117104106198
 20
-9.124975880596039
 30
0.0
 11
5.154095752106208
 21
-9.116239794196033
 31
0.0
  0
LINE
  5
203
330
2
100
AcDbEntity
  8
0
100
AcDbLine
 10
5.13613150570621
 20
-9.13364091419605
 30
0.0
 11
5.145117104106198
 21
-9.124975880596039
 31
0.0
  0
LINE
  5
204
330
2
100
AcDbEntity
  8
0
100
AcDbLine
 10
5.127139222506208
 20
-9.142235099796025
 30
0.0
 11
5.13613150570621
 21
-9.13364091419605
 31
0.0
  0
LINE
  5
205
330
2
100
AcDbEntity
  8
0
100
AcDbLine
 10
5.118140521706187
 20
-9.150758646996038
 30
0.0
 11
5.127139222506208
 21
-9.142235099796025
 31
0.0
  0
LINE
  5
206
330
2
100
AcDbEntity
  8
0
100
AcDbLine
 10
5.109135678506198
 20
-9.159211768596023
 30
0.0
 11
5.118140521706187
 21
-9.150758646996038
 31
0.0
  0
LINE
  5
207
330
2
100
AcDbEntity
  8
0
100
AcDbLine
 10
5.100124972906208
 20
-9.167594686996025
 30
0.0
 11
5.109135678506198
 21
-9.159211768596023
 31
0.0
  0
LINE
  5
208
330
2
100
AcDbEntity
  8
0
100
AcDbLine
 10
5.091108699306211
 20
-9.175907622996035
 30
0.0
 11
5.100124972906208
 21
-9.167594686996025
 31
0.0
  0
LINE
  5
209
330
2
100
AcDbEntity
  8
0
100
AcDbLine
 10
5.082087144106203
 20
-9.184150802196043
 30
0.0
 11
5.091108699306211
 21
-9.175907622996035
 31
0.0
  0
LINE
  5
20A
330
2
100
AcDbEntity
  8
0
100
AcDbLine
 10
5.073060456106198
 20
-9.192324474196041
 30
0.0
 11
5.082087144106203
 21
-9.184150802196043
 31
0.0
  0
LINE
  5
20B
330
2
100
AcDbEntity
  8
0
100
AcDbLine
 10
5.064028705706199
 20
-9.200428906196052
 30
0.0
 11
5.073060456106198
 21
-9.192324474196041
 31
0.0
  0
LINE
  5
20C
330
2
100
AcDbEntity
  8
0
100
AcDbLine
 10
5.054991990506188
 20
-9.208464338196037
 30
0.0
 11
5.064028705706199
 21
-9.200428906196052
 31
0.0
  0
LINE
  5
20D
330
2
100
AcDbEntity
  8
0
100
AcDbLine
 10
5.045950441706203
 20
-9.216430992596016
 30
0.0
 11
5.054991990506188
 21
-9.208464338196037
 31
0.0
  0
LINE
  5
20E
330
2
100
AcDbEntity
  8
0
100
AcDbLine
 10
5.0369042065062
 20
-9.224329093396036
 30
0.0
 11
5.045950441706203
 21
-9.216430992596016
 31
0.0
  0
LINE
  5
20F
330
2
100
AcDbEntity
  8
0
100
AcDbLine
 10
5.027853433706191
 20
-9.23215886299603
 30
0.0
 11
5.0369042065062
 21
-9.224329093396036
 31
0.0
  0
LINE
  5
210
330
2
100
AcDbEntity
  8
0
100
AcDbLine
 10
5.018798353706195
 20
-9.239920539796045
 30
0.0
 11
5.027853433706191
 21
-9.23215886299603
 31
0.0
  0
LINE
  5
211
330
2
100
AcDbEntity
  8
0
100
AcDbLine
 10
5.009739358506188
 20
-9.247614381396019
 30
0.0
 11
5.018798353706195
 21
-9.239920539796045
 31
0.0
  0
LINE
  5
212
330
2
100
AcDbEntity
  8
0
100
AcDbLine
 10
5.000676867306204
 20
-9.255240654996029
 30
0.0
 11
5.009739358506188
 21
-9.247614381396019
 31
0.0
  0
LINE
  5
213
330
2
100
AcDbEntity
  8
0
100
AcDbLine
 10
4.991611297706192
 20
-9.262799624596041
 30
0.0
 11
5.000676867306204
 21
-9.255240654996029
 31
0.0
  0
LINE
  5
214
330
2
100
AcDbEntity
  8
0
100
AcDbLine
 10
4.982543059306188
 20
-9.270291558996049
 30
0.0
 11
4.991611297706192
 21
-9.262799624596041
 31
0.0
  0
LINE
  5
215
330
2
100
AcDbEntity
  8
0
100
AcDbLine
 10
4.973472561706195
 20
-9.277716731796019
 30
0.0
 11
4.982543059306188
 21
-9.270291558996049
 31
0.0
  0
LINE
  5
216
330
2
100
AcDbEntity
  8
0
100
AcDbLine
 10
4.964400211306191
 20
-9.285075411796029
 30
0.0
 11
4.973472561706195
 21
-9.277716731796019
 31
0.0
  0
LINE
  5
217
330
2
100
AcDbEntity
  8
0
100
AcDbLine
 10
4.955326400106208
 20
-9.292367872596045
 30
0.0
 11
4.964400211306191
 21
-9.285075411796029
 31
0.0
  0
LINE
  5
218
330
2
100
AcDbEntity
  8
0
100
AcDbLine
 10
4.946251419306214
 20
-9.299594358996031
 30
0.0
 11
4.955326400106208
 21
-9.292367872596045
 31
0.0
  0
LINE
  5
219
330
2
100
AcDbEntity
  8
0
100
AcDbLine
 10
4.937175465706197
 20
-9.306755090196034
 30
0.0
 11
4.946251419306214
 21
-9.299594358996031
 31
0.0
  0
LINE
  5
21A
330
2
100
AcDbEntity
  8
0
100
AcDbLine
 10
4.928098729706199
 20
-9.313850290196043
 30
0.0
 11
4.937175465706197
 21
-9.306755090196034
 31
0.0
  0
LINE
  5
21B
330
2
100
AcDbEntity
  8
0
100
AcDbLine
 10
4.91902140330621
 20
-9.32088017819602
 30
0.0
 11
4.928098729706199
 21
-9.313850290196043
 31
0.0
  0
LINE
  5
21C
330
2
100
AcDbEntity
  8
0
100
AcDbLine
 10
4.909943667306187
 20
-9.32784498299604
 30
0.0
 11
4.91902140330621
 21
-9.32088017819602
 31
0.0
  0
LINE
  5
21D
330
2
100
AcDbEntity
  8
0
100
AcDbLine
 10
4.900865705706202
 20
-9.334744926996037
 30
0.0
 11
4.909943667306187
 21
-9.32784498299604
 31
0.0
  0
LINE
  5
21E
330
2
100
AcDbEntity
  8
0
100
AcDbLine
 10
4.891787694506213
 20
-9.34158024059603
 30
0.0
 11
4.900865705706202
 21
-9.334744926996037
 31
0.0
  0
LINE
  5
21F
330
2
100
AcDbEntity
  8
0
100
AcDbLine
 10
4.882709808106206
 20
-9.348351152596038
 30
0.0
 11
4.891787694506213
 21
-9.34158024059603
 31
0.0
  0
LINE
  5
220
330
2
100
AcDbEntity
  8
0
100
AcDbLine
 10
4.873632217706195
 20
-9.35505789339605
 30
0.0
 11
4.882709808106206
 21
-9.348351152596038
 31
0.0
  0
LINE
  5
221
330
2
100
AcDbEntity
  8
0
100
AcDbLine
 10
4.864555088106193
 20
-9.361700693396031
 30
0.0
 11
4.873632217706195
 21
-9.35505789339605
 31
0.0
  0
LINE
  5
222
330
2
100
AcDbEntity
  8
0
100
AcDbLine
 10
4.855478580906215
 20
-9.368279789396027
 30
0.0
 11
4.864555088106193
 21
-9.361700693396031
 31
0.0
  0
LINE
  5
223
330
2
100
AcDbEntity
  8
0
100
AcDbLine
 10
4.846402856106188
 20
-9.374795416596029
 30
0.0
 11
4.855478580906215
 21
-9.368279789396027
 31
0.0
  0
LINE
  5
224
330
2
100
AcDbEntity
  8
0
100
AcDbLine
 10
4.83732807050621
 20
-9.381247806996029
 30
0.0
 11
4.846402856106188
 21
-9.374795416596029
 31
0.0
  0
LINE
  5
225
330
2
100
AcDbEntity
  8
0
100
AcDbLine
 10
4.828254406506211
 20
-9.387637197396017
 30
0.0
 11
4.83732807050621
 21
-9.381247806996029
 31
0.0
  0
LINE
  5
226
330
2
100
AcDbEntity
  8
0
100
AcDbLine
 10
4.819182056106207
 20
-9.393963816596041
 30
0.0
 11
4.828254406506211
 21
-9.387637197396017
 31
0.0
  0
LINE
  5
227
330
2
100
AcDbEntity
  8
0
100
AcDbLine
 10
4.810111204906213
 20
-9.400227899796036
 30
0.0
 11
4.819182056106207
 21
-9.393963816596041
 31
0.0
  0
LINE
  5
228
330
2
100
AcDbEntity
  8
0
100
AcDbLine
 10
4.801042038506189
 20
-9.406429678996047
 30
0.0
 11
4.810111204906213
 21
-9.400227899796036
 31
0.0
  0
LINE
  5
229
330
2
100
AcDbEntity
  8
0
100
AcDbLine
 10
4.791974745706205
 20
-9.412569373396038
 30
0.0
 11
4.801042038506189
 21
-9.406429678996047
 31
0.0
  0
LINE
  5
22A
330
2
100
AcDbEntity
  8
0
100
AcDbLine
 10
4.782909524906195
 20
-9.418647189396025
 30
0.0
 11
4.791974745706205
 21
-9.412569373396038
 31
0.0
  0
LINE
  5
22B
330
2
100
AcDbEntity
  8
0
100
AcDbLine
 10
4.7738465665062
 20
-9.424663339796026
 30
0.0
 11
4.782909524906195
 21
-9.418647189396025
 31
0.0
  0
LINE
  5
22C
330
2
100
AcDbEntity
  8
0
100
AcDbLine
 10
4.76478605930621
 20
-9.430618026196029
 30
0.0
 11
4.7738465665062
 21
-9.424663339796026
 31
0.0
  0
LINE
  5
22D
330
2
100
AcDbEntity
  8
0
100
AcDbLine
 10
4.75572818570621
 20
-9.436511459796051
 30
0.0
 11
4.76478605930621
 21
-9.430618026196029
 31
0.0
  0
LINE
  5
22E
330
2
100
AcDbEntity
  8
0
100
AcDbLine
 10
4.746673124906187
 20
-9.442343846996024
 30
0.0
 11
4.75572818570621
 21
-9.436511459796051
 31
0.0
  0
LINE
  5
22F
330
2
100
AcDbEntity
  8
0
100
AcDbLine
 10
4.737621051306213
 20
-9.448115389396022
 30
0.0
 11
4.746673124906187
 21
-9.442343846996024
 31
0.0
  0
LINE
  5
230
330
2
100
AcDbEntity
  8
0
100
AcDbLine
 10
4.728572144106188
 20
-9.453826285396033
 30
0.0
 11
4.737621051306213
 21
-9.448115389396022
 31
0.0
  0
LINE
  5
231
330
2
100
AcDbEntity
  8
0
100
AcDbLine
 10
4.71952656490621
 20
-9.459476722196043
 30
0.0
 11
4.728572144106188
 21
-9.453826285396033
 31
0.0
  0
LINE
  5
232
330
2
100
AcDbEntity
  8
0
100
AcDbLine
 10
4.710484460906208
 20
-9.465066893396041
 30
0.0
 11
4.71952656490621
 21
-9.459476722196043
 31
0.0
  0
LINE
  5
233
330
2
100
AcDbEntity
  8
0
100
AcDbLine
 10
4.701445980906193
 20
-9.470596990996043
 30
0.0
 11
4.710484460906208
 21
-9.465066893396041
 31
0.0
  0
LINE
  5
234
330
2
100
AcDbEntity
  8
0
100
AcDbLine
 10
4.692411275306206
 20
-9.476067206996034
 30
0.0
 11
4.701445980906193
 21
-9.470596990996043
 31
0.0
  0
LINE
  5
235
330
2
100
AcDbEntity
  8
0
100
AcDbLine
 10
4.683380497706203
 20
-9.481477738196034
 30
0.0
 11
4.692411275306206
 21
-9.476067206996034
 31
0.0
  0
LINE
  5
236
330
2
100
AcDbEntity
  8
0
100
AcDbLine
 10
4.674353803306196
 20
-9.486828778196027
 30
0.0
 11
4.683380497706203
 21
-9.481477738196034
 31
0.0
  0
LINE
  5
237
330
2
100
AcDbEntity
  8
0
100
AcDbLine
 10
4.6653313505062
 20
-9.492120518996031
 30
0.0
 11
4.674353803306196
 21
-9.486828778196027
 31
0.0
  0
LINE
  5
238
330
2
100
AcDbEntity
  8
0
100
AcDbLine
 10
4.656313296106198
 20
-9.497353158996034
 30
0.0
 11
4.6653313505062
 21
-9.492120518996031
 31
0.0
  0
LINE
  5
239
330
2
100
AcDbEntity
  8
0
100
AcDbLine
 10
4.647299800106203
 20
-9.502526888596023
 30
0.0
 11
4.656313296106198
 21
-9.497353158996034
 31
0.0
  0
LINE
  5
23A
330
2
100
AcDbEntity
  8
0
100
AcDbLine
 10
4.6382910001062
 20
-9.507641894996041
 30
0.0
 11
4.647299800106203
 21
-9.502526888596023
 31
0.0
  0
LINE
  5
23B
330
2
100
AcDbEntity
  8
0
100
AcDbLine
 10
4.629287022506197
 20
-9.512698358996019
 30
0.0
 11
4.6382910001062
 21
-9.507641894996041
 31
0.0
  0
LINE
  5
23C
330
2
100
AcDbEntity
  8
0
100
AcDbLine
 10
4.620288000106206
 20
-9.517696462996028
 30
0.0
 11
4.629287022506197
 21
-9.512698358996019
 31
0.0
  0
LINE
  5
23D
330
2
100
AcDbEntity
  8
0
100
AcDbLine
 10
4.611294064106211
 20
-9.522636386196026
 30
0.0
 11
4.620288000106206
 21
-9.517696462996028
 31
0.0
  0
LINE
  5
23E
330
2
100
AcDbEntity
  8
0
100
AcDbLine
 10
4.602305350506192
 20
-9.527518314196029
 30
0.0
 11
4.611294064106211
 21
-9.522636386196026
 31
0.0
  0
LINE
  5
23F
330
2
100
AcDbEntity
  8
0
100
AcDbLine
 10
4.593321998506191
 20
-9.532342429396024
 30
0.0
 11
4.602305350506192
 21
-9.527518314196029
 31
0.0
  0
LINE
  5
240
330
2
100
AcDbEntity
  8
0
100
AcDbLine
 10
4.58434414890619
 20
-9.537108915796025
 30
0.0
 11
4.593321998506191
 21
-9.532342429396024
 31
0.0
  0
LINE
  5
241
330
2
100
AcDbEntity
  8
0
100
AcDbLine
 10
4.575371944106201
 20
-9.541817954196048
 30
0.0
 11
4.58434414890619
 21
-9.537108915796025
 31
0.0
  0
LINE
  5
242
330
2
100
AcDbEntity
  8
0
100
AcDbLine
 10
4.566405521706208
 20
-9.546469726996051
 30
0.0
 11
4.575371944106201
 21
-9.541817954196048
 31
0.0
  0
LINE
  5
243
330
2
100
AcDbEntity
  8
0
100
AcDbLine
 10
4.557444998506191
 20
-9.551064408596047
 30
0.0
 11
4.566405521706208
 21
-9.546469726996051
 31
0.0
  0
LINE
  5
244
330
2
100
AcDbEntity
  8
0
100
AcDbLine
 10
4.548490480106188
 20
-9.555602173396025
 30
0.0
 11
4.557444998506191
 21
-9.551064408596047
 31
0.0
  0
LINE
  5
245
330
2
100
AcDbEntity
  8
0
100
AcDbLine
 10
4.539542076906208
 20
-9.560083203796025
 30
0.0
 11
4.548490480106188
 21
-9.555602173396025
 31
0.0
  0
LINE
  5
246
330
2
100
AcDbEntity
  8
0
100
AcDbLine
 10
4.530599897706203
 20
-9.564507685396037
 30
0.0
 11
4.539542076906208
 21
-9.560083203796025
 31
0.0
  0
LINE
  5
247
330
2
100
AcDbEntity
  8
0
100
AcDbLine
 10
4.521664060906211
 20
-9.568875802196018
 30
0.0
 11
4.530599897706203
 21
-9.564507685396037
 31
0.0
  0
LINE
  5
248
330
2
100
AcDbEntity
  8
0
100
AcDbLine
 10
4.512734681706213
 20
-9.57318773819604
 30
0.0
 11
4.521664060906211
 21
-9.568875802196018
 31
0.0
  0
LINE
  5
249
330
2
100
AcDbEntity
  8
0
100
AcDbLine
 10
4.503811881706191
 20
-9.577443677396033
 30
0.0
 11
4.512734681706213
 21
-9.57318773819604
 31
0.0
  0
LINE
  5
24A
330
2
100
AcDbEntity
  8
0
100
AcDbLine
 10
4.494895777706211
 20
-9.58164380379604
 30
0.0
 11
4.503811881706191
 21
-9.577443677396033
 31
0.0
  0
LINE
  5
24B
330
2
100
AcDbEntity
  8
0
100
AcDbLine
 10
4.485986459306197
 20
-9.585788291796049
 30
0.0
 11
4.494895777706211
 21
-9.58164380379604
 31
0.0
  0
LINE
  5
24C
330
2
100
AcDbEntity
  8
0
100
AcDbLine
 10
4.477084022506211
 20
-9.589877315796044
 30
0.0
 11
4.485986459306197
 21
-9.585788291796049
 31
0.0
  0
LINE
  5
24D
330
2
100
AcDbEntity
  8
0
100
AcDbLine
 10
4.468188561706206
 20
-9.593911051796041
 30
0.0
 11
4.477084022506211
 21
-9.589877315796044
 31
0.0
  0
LINE
  5
24E
330
2
100
AcDbEntity
  8
0
100
AcDbLine
 10
4.45930017930619
 20
-9.597889674196025
 30
0.0
 11
4.468188561706206
 21
-9.593911051796041
 31
0.0
  0
LINE
  5
24F
330
2
100
AcDbEntity
  8
0
100
AcDbLine
 10
4.450418977706199
 20
-9.601813358996039
 30
0.0
 11
4.45930017930619
 21
-9.597889674196025
 31
0.0
  0
LINE
  5
250
330
2
100
AcDbEntity
  8
0
100
AcDbLine
 10
4.441545064106215
 20
-9.605682282196042
 30
0.0
 11
4.450418977706199
 21
-9.601813358996039
 31
0.0
  0
LINE
  5
251
330
2
100
AcDbEntity
  8
0
100
AcDbLine
 10
4.432678547306188
 20
-9.609496619796047
 30
0.0
 11
4.441545064106215
 21
-9.605682282196042
 31
0.0
  0
LWPOLYLINE
  5
252
330
2
100
AcDbEntity
  8
0
100
AcDbPolyline
 90
       42
 70
     0
 43
0.0
 10
19.8394595585062
 20
-2.817355827796077
 10
19.8157518145062
 20
-2.827408317396063
 10
19.74732462890619
 20
-2.855708342996067
 10
19.67726089610619
 20
-2.883635715796074
 10
19.6056966225062
 20
-2.911123435796085
 10
19.53276550730618
 20
-2.93810933339607
 10
19.4586677441062
 20
-2.964511282196056
 10
19.38355753610619
 20
-2.99026893019608
 10
19.3076911937062
 20
-3.015292200596078
 10
19.23128124490619
 20
-3.039512707796077
 10
19.15456072650619
 20
-3.062861293396068
 10
19.07782529770619
 20
-3.085257000596087
 10
19.00123021290619
 20
-3.106666467796074
 10
18.92518503530618
 20
-3.126991925396069
 10
18.8497698145062
 20
-3.146231942996067
 10
18.7754635329062
 20
-3.164288822996084
 10
18.70233706410618
 20
-3.181174366996074
 10
18.63080044650618
 20
-3.19682644859607
 10
18.56102566570618
 20
-3.211245733396069
 10
18.49321454570619
 20
-3.224431251796076
 10
18.42768019530618
 20
-3.236368470996083
 10
18.36446108970619
 20
-3.247099987796062
 10
18.30381555530618
 20
-3.256634539796053
 10
18.24583910250618
 20
-3.265014501396066
 10
18.19056234090618
 20
-3.27229410459607
 10
18.13807142410618
 20
-3.278522478996066
 10
18.0884737137062
 20
-3.283751424596076
 10
18.04159585290619
 20
-3.288063226196086
 10
17.9974002753062
 20
-3.291522442196068
 10
17.95609230090619
 20
-3.294179707796061
 10
17.91776853610619
 20
-3.29610459099608
 10
17.88279153930619
 20
-3.29736766619608
 10
17.85212702250618
 20
-3.298053792596064
 10
17.82521973450619
 20
-3.29830449979606
 10
17.80113873770619
 20
-3.29822813659608
 10
17.7789717841062
 20
-3.297887421396083
 10
17.75914077450619
 20
-3.297346570196069
 10
17.74171690090619
 20
-3.296674293396065
 10
17.72559347050619
 20
-3.295876808596077
 10
17.70962240970618
 20
-3.29490953659608
 10
17.69262527850619
 20
-3.29367258299608
 10
17.6733877009062
 20
-3.291993621396059
  0
LINE
  5
253
330
2
100
AcDbEntity
  8
0
100
AcDbLine
 10
4.423819508906213
 20
-9.61325653979604
 30
0.0
 11
4.432678547306188
 21
-9.609496619796047
 31
0.0
  0
LINE
  5
254
330
2
100
AcDbEntity
  8
0
100
AcDbLine
 10
4.414968030506209
 20
-9.616962206996035
 30
0.0
 11
4.423819508906213
 21
-9.61325653979604
 31
0.0
  0
LINE
  5
255
330
2
100
AcDbEntity
  8
0
100
AcDbLine
 10
4.406124196906212
 20
-9.620613790996046
 30
0.0
 11
4.414968030506209
 21
-9.616962206996035
 31
0.0
  0
LINE
  5
256
330
2
100
AcDbEntity
  8
0
100
AcDbLine
 10
4.397288096106201
 20
-9.624211456596029
 30
0.0
 11
4.406124196906212
 21
-9.620613790996046
 31
0.0
  0
LINE
  5
257
330
2
100
AcDbEntity
  8
0
100
AcDbLine
 10
4.388459812906212
 20
-9.627755370196027
 30
0.0
 11
4.397288096106201
 21
-9.624211456596029
 31
0.0
  0
LINE
  5
258
330
2
100
AcDbEntity
  8
0
100
AcDbLine
 10
4.379639443306196
 20
-9.631245698196025
 30
0.0
 11
4.388459812906212
 21
-9.627755370196027
 31
0.0
  0
LINE
  5
259
330
2
100
AcDbEntity
  8
0
100
AcDbLine
 10
4.370827067306187
 20
-9.634682605396037
 30
0.0
 11
4.379639443306196
 21
-9.631245698196025
 31
0.0
  0
LINE
  5
25A
330
2
100
AcDbEntity
  8
0
100
AcDbLine
 10
4.362022752106192
 20
-9.638066248596018
 30
0.0
 11
4.370827067306187
 21
-9.634682605396037
 31
0.0
  0
LINE
  5
25B
330
2
100
AcDbEntity
  8
0
100
AcDbLine
 10
4.353226568106215
 20
-9.64139678619604
 30
0.0
 11
4.362022752106192
 21
-9.638066248596018
 31
0.0
  0
LINE
  5
25C
330
2
100
AcDbEntity
  8
0
100
AcDbLine
 10
4.344438580906206
 20
-9.644674376596029
 30
0.0
 11
4.353226568106215
 21
-9.64139678619604
 31
0.0
  0
LINE
  5
25D
330
2
100
AcDbEntity
  8
0
100
AcDbLine
 10
4.3356588625062
 20
-9.647899174996027
 30
0.0
 11
4.344438580906206
 21
-9.644674376596029
 31
0.0
  0
LINE
  5
25E
330
2
100
AcDbEntity
  8
0
100
AcDbLine
 10
4.326887486506201
 20
-9.651071342996019
 30
0.0
 11
4.3356588625062
 21
-9.647899174996027
 31
0.0
  0
LINE
  5
25F
330
2
100
AcDbEntity
  8
0
100
AcDbLine
 10
4.318124520106188
 20
-9.654191032596017
 30
0.0
 11
4.326887486506201
 21
-9.651071342996019
 31
0.0
  0
LINE
  5
260
330
2
100
AcDbEntity
  8
0
100
AcDbLine
 10
4.309370006506192
 20
-9.657258394196034
 30
0.0
 11
4.318124520106188
 21
-9.654191032596017
 31
0.0
  0
LINE
  5
261
330
2
100
AcDbEntity
  8
0
100
AcDbLine
 10
4.300623995306189
 20
-9.660273582996026
 30
0.0
 11
4.309370006506192
 21
-9.657258394196034
 31
0.0
  0
LINE
  5
262
330
2
100
AcDbEntity
  8
0
100
AcDbLine
 10
4.291886528106211
 20
-9.663236766996035
 30
0.0
 11
4.300623995306189
 21
-9.660273582996026
 31
0.0
  0
LINE
  5
263
330
2
100
AcDbEntity
  8
0
100
AcDbLine
 10
4.283157652906204
 20
-9.666148109396019
 30
0.0
 11
4.291886528106211
 21
-9.663236766996035
 31
0.0
  0
LINE
  5
264
330
2
100
AcDbEntity
  8
0
100
AcDbLine
 10
4.274437414506202
 20
-9.669007778196018
 30
0.0
 11
4.283157652906204
 21
-9.666148109396019
 31
0.0
  0
LINE
  5
265
330
2
100
AcDbEntity
  8
0
100
AcDbLine
 10
4.265725840106206
 20
-9.671815931796047
 30
0.0
 11
4.274437414506202
 21
-9.669007778196018
 31
0.0
  0
LINE
  5
266
330
2
100
AcDbEntity
  8
0
100
AcDbLine
 10
4.257022944106189
 20
-9.674572725396032
 30
0.0
 11
4.265725840106206
 21
-9.671815931796047
 31
0.0
  0
LINE
  5
267
330
2
100
AcDbEntity
  8
0
100
AcDbLine
 10
4.24832874890621
 20
-9.677278317396044
 30
0.0
 11
4.257022944106189
 21
-9.674572725396032
 31
0.0
  0
LINE
  5
268
330
2
100
AcDbEntity
  8
0
100
AcDbLine
 10
4.239643278506214
 20
-9.67993286459604
 30
0.0
 11
4.24832874890621
 21
-9.677278317396044
 31
0.0
  0
LINE
  5
269
330
2
100
AcDbEntity
  8
0
100
AcDbLine
 10
4.230966547306202
 20
-9.682536525396031
 30
0.0
 11
4.239643278506214
 21
-9.67993286459604
 31
0.0
  0
LINE
  5
26A
330
2
100
AcDbEntity
  8
0
100
AcDbLine
 10
4.222298552106202
 20
-9.68508944539603
 30
0.0
 11
4.230966547306202
 21
-9.682536525396031
 31
0.0
  0
LWPOLYLINE
  5
26B
330
2
100
AcDbEntity
  8
0
100
AcDbPolyline
 90
        3
 70
     0
 43
0.0
 10
4.209312905706184
 20
-9.688824014996029
 10
4.213639276906206
 20
-9.68759177499605
 10
4.222298552106195
 20
-9.68508944539603
  0
LWPOLYLINE
  5
26D
330
2
100
AcDbEntity
  8
0
100
AcDbPolyline
 90
       29
 70
     0
 43
0.0
 10
18.91385834730618
 20
-9.771948027796057
 10
18.87572350410619
 20
-9.791357734996054
 10
18.83729706410619
 20
-9.809839195796072
 10
18.7985951153062
 20
-9.827444536596075
 10
18.75963374090619
 20
-9.844225882196056
 10
18.72042902890618
 20
-9.860235357396064
 10
18.6809970625062
 20
-9.875525088596063
 10
18.64135392810618
 20
-9.890147200596075
 10
18.60151571050619
 20
-9.904153818196064
 10
18.56149849610619
 20
-9.91759706619608
 10
18.52131837130619
 20
-9.930529070996058
 10
18.4809914193062
 20
-9.943001958996077
 10
18.4405337281062
 20
-9.955067853396073
 10
18.3999613809062
 20
-9.966778878996066
 10
18.33244351530618
 20
-9.985564638996052
 10
18.26472781130618
 20
-10.00375519099607
 10
18.19688771210619
 20
-10.02158852699607
 10
18.12899666090618
 20
-10.03930263899606
 10
18.06112810090619
 20
-10.05713552059607
 10
17.99571895210618
 20
-10.07459072379607
 10
17.93032979370619
 20
-10.09208362619607
 10
17.86489132490618
 20
-10.10931986299606
 10
17.79933424490619
 20
-10.12600507579607
 10
17.7335892545062
 20
-10.14184490139605
 10
17.6865153601062
 20
-10.15246963099606
 10
17.6392852689062
 20
-10.16240684859606
 10
17.59187379050618
 20
-10.17154955419606
 10
17.5442557313062
 20
-10.17979074779607
 10
17.49640590410618
 20
-10.18702342779606
  0
LINE
  5
26E
330
2
100
AcDbEntity
  8
0
100
AcDbLine
 10
-8.326530407893805
 20
6.811139749803956
 30
0.0
 11
-8.215263294293798
 21
8.082928685803963
 31
0.0
  0
LWPOLYLINE
  5
272
330
2
100
AcDbEntity
  8
0
100
AcDbPolyline
 90
        5
 70
     0
 43
0.0
 10
-4.954982291093813
 20
8.325740826603961
 10
-4.959013799893796
 20
8.323692533803964
 10
-4.976510121493816
 20
8.316771908203961
 10
-4.994846990293808
 20
8.312555805803967
 10
-5.013608889493809
 20
8.311139749803956
  0
LWPOLYLINE
  5
275
330
2
100
AcDbEntity
  8
0
100
AcDbPolyline
 90
        5
 70
     0
 43
0.0
 10
-4.175970931093814
 20
6.809777940203971
 10
-4.072961468693819
 20
5.693258044203972
 10
-3.863354638293799
 20
3.39573345540397
 10
-3.643969076693792
 20
0.9635556538039651
 10
-3.556301617493801
 20
-0.0170486261960292
  0
LWPOLYLINE
  5
27C
330
2
100
AcDbEntity
  8
0
100
AcDbPolyline
 90
        3
 70
     0
 43
0.0
 10
16.30850687050619
 20
-11.79546585979606
 10
16.28712435210618
 20
-11.79691432219605
 10
16.18918736010618
 20
-11.80060566939606
  0
LINE
  5
27D
330
2
100
AcDbEntity
  8
0
100
AcDbLine
 10
8.403168576106203
 20
-12.20448525019604
 30
0.0
 11
10.9437705633062
 21
-12.20448525019607
 31
0.0
  0
LWPOLYLINE
  5
27E
330
2
100
AcDbEntity
  8
0
100
AcDbPolyline
 90
        3
 70
     0
 43
0.0
 10
3.038432313706181
 20
-11.79546585979603
 10
3.059814832106184
 20
-11.79691432219603
 10
3.157751822506185
 20
-11.80060566939603
  0
LWPOLYLINE
  5
27F
330
2
100
AcDbEntity
  8
0
100
AcDbPolyline
 90
        5
 70
     0
 43
0.0
 10
3.147946025706204
 20
-11.80023607899603
 10
3.168496486506199
 20
-11.80303607899604
 10
3.204580748906181
 20
-11.81105868699602
 10
3.2435691121062
 20
-11.82412526139602
 10
3.283995566506206
 20
-11.84305557819602
  0
LINE
  5
280
330
2
100
AcDbEntity
  8
0
100
AcDbLine
 10
3.283995566506213
 20
-11.84305557819602
 30
0.0
 11
3.324192684906201
 21
-11.86830776379603
 31
0.0
  0
LWPOLYLINE
  5
281
330
2
100
AcDbEntity
  8
0
100
AcDbPolyline
 90
        6
 70
     0
 43
0.0
 10
3.324192684906194
 20
-11.86830776379603
 10
3.362197740906196
 20
-11.89967693499603
 10
3.396326166506185
 20
-11.93645615259605
 10
3.425790710506191
 20
-11.97837258459604
 10
3.4496128705062
 20
-12.02472105499605
 10
3.464209611306188
 20
-12.06494183739603
  0
LWPOLYLINE
  5
282
330
2
100
AcDbEntity
  8
0
100
AcDbPolyline
 90
       11
 70
     0
 43
0.0
 10
-3.556331795093797
 20
-0.0166449365960233
 10
-3.533339945493793
 20
-0.1905640293960431
 10
-3.483184927893802
 20
-0.4002659029960256
 10
-3.406660030293807
 20
-0.6079449237960404
 10
-3.301750254293807
 20
-0.8136472757960433
 10
-3.17065342709381
 20
-1.011235182996031
 10
-3.018694199893815
 20
-1.194958733396035
 10
-2.850405830293794
 20
-1.363176461396037
 10
-2.667186287893798
 20
-1.517897674196021
 10
-2.469439323093808
 20
-1.661128949396029
 10
-2.257274358293813
 20
-1.794458405396042
  0
LWPOLYLINE
  5
283
330
2
100
AcDbEntity
  8
0
100
AcDbPolyline
 90
        6
 70
     0
 43
0.0
 10
-1.434986715093799
 20
-1.655962774996041
 10
-1.309610067093814
 20
-3.054990979796045
 10
-1.168792441493792
 20
-4.602807054996034
 10
-1.025582731093805
 20
-6.049430776596025
 10
-0.8672402798937923
 20
-7.393118584596024
 10
-0.7652103678938147
 20
-8.121278434196042
  0
LINE
  5
286
330
2
100
AcDbEntity
  8
0
100
AcDbLine
 10
7.939770246506192
 20
-11.90009217819603
 30
0.0
 11
7.979597140906214
 21
-11.89208488539604
 31
0.0
  0
LINE
  5
287
330
2
100
AcDbEntity
  8
0
100
AcDbLine
 10
16.18918736010619
 20
-11.80060566939606
 30
0.0
 11
16.0210820929062
 21
-11.80595953819606
 31
0.0
  0
LWPOLYLINE
  5
288
330
2
100
AcDbEntity
  8
0
100
AcDbPolyline
 90
       26
 70
     0
 43
0.0
 10
15.96766573290619
 20
-11.63566551579607
 10
16.13773825130619
 20
-11.63028812379606
 10
16.3017189665062
 20
-11.62456605179606
 10
16.45384840810618
 20
-11.61859363739607
 10
16.5942953873062
 20
-11.61227377499606
 10
16.72321841290619
 20
-11.60549384859605
 10
16.84144963530619
 20
-11.59806371899607
 10
16.95034029770619
 20
-11.58971035739607
 10
17.05052929130619
 20
-11.58019683259608
 10
17.14295815690618
 20
-11.56925885019607
 10
17.23060404490618
 20
-11.55631758139607
 10
17.3183123201062
 20
-11.54016445659606
 10
17.41138578730618
 20
-11.51876310299606
 10
17.51340913930619
 20
-11.48940400699605
 10
17.62411798250619
 20
-11.44953554139606
 10
17.74144296810618
 20
-11.39689282779606
 10
17.86460414090618
 20
-11.32843543899606
 10
17.9867475121062
 20
-11.24474755899605
 10
18.0994627217062
 20
-11.15024241659607
 10
18.19812020490618
 20
-11.04997750619607
 10
18.27924544650619
 20
-10.95130059419606
 10
18.3518786513062
 20
-10.84587685659606
 10
18.4204012929062
 20
-10.72460439739607
 10
18.4799168737062
 20
-10.59091814939607
 10
18.52870640970619
 20
-10.44231176219607
 10
18.55317518890618
 20
-10.33691231419608
  0
LINE
  5
289
330
2
100
AcDbEntity
  8
0
100
AcDbLine
 10
16.0210820929062
 20
-11.80595953819606
 30
0.0
 11
15.79250861930621
 21
-11.81268010939608
 31
0.0
  0
LINE
  5
28A
330
2
100
AcDbEntity
  8
0
100
AcDbLine
 10
15.83619620810621
 20
-11.63950046619608
 30
0.0
 11
15.9673809249062
 21
-11.63566671739606
 31
0.0
  0
LINE
  5
28B
330
2
100
AcDbEntity
  8
0
100
AcDbLine
 10
15.79250861930621
 20
-11.81268010939608
 30
0.0
 11
15.5158687761062
 21
-11.82038840539606
 31
0.0
  0
LINE
  5
28C
330
2
100
AcDbEntity
  8
0
100
AcDbLine
 10
15.64960489610619
 20
-11.64470693179608
 30
0.0
 11
15.83619620810621
 21
-11.63950046619608
 31
0.0
  0
LINE
  5
28D
330
2
100
AcDbEntity
  8
0
100
AcDbLine
 10
15.45711162570621
 20
-11.64988794139607
 30
0.0
 11
15.64960489610619
 21
-11.64470693179608
 31
0.0
  0
LWPOLYLINE
  5
28E
330
2
100
AcDbEntity
  8
0
100
AcDbPolyline
 90
        5
 70
     0
 43
0.0
 10
15.5158687761062
 20
-11.82038840539606
 10
15.20735730090618
 20
-11.82854237819607
 10
14.8834820705062
 20
-11.83650858939607
 10
14.56244278730619
 20
-11.84359083259606
 10
14.26496348490618
 20
-11.84920542139606
  0
LINE
  5
28F
330
2
100
AcDbEntity
  8
0
100
AcDbLine
 10
15.2681550609062
 20
-11.65477856219605
 30
0.0
 11
15.45711162570621
 21
-11.64988794139607
 31
0.0
  0
LINE
  5
290
330
2
100
AcDbEntity
  8
0
100
AcDbLine
 10
15.09199882890619
 20
-11.65915775259607
 30
0.0
 11
15.2681550609062
 21
-11.65477856219605
 31
0.0
  0
LINE
  5
291
330
2
100
AcDbEntity
  8
0
100
AcDbLine
 10
14.8679940945062
 20
-11.66446766459607
 30
0.0
 11
15.09199882890619
 21
-11.65915775259607
 31
0.0
  0
LINE
  5
292
330
2
100
AcDbEntity
  8
0
100
AcDbLine
 10
14.5977695697062
 20
-11.67047835259607
 30
0.0
 11
14.8679940945062
 21
-11.66446766459607
 31
0.0
  0
LINE
  5
293
330
2
100
AcDbEntity
  8
0
100
AcDbLine
 10
14.55084496810619
 20
-11.67147801339605
 30
0.0
 11
14.5977695697062
 21
-11.67047835259607
 31
0.0
  0
LINE
  5
294
330
2
100
AcDbEntity
  8
0
100
AcDbLine
 10
14.48911432170619
 20
-11.67277408059608
 30
0.0
 11
14.55084496810619
 21
-11.67147801339605
 31
0.0
  0
LINE
  5
295
330
2
100
AcDbEntity
  8
0
100
AcDbLine
 10
14.42085366730621
 20
-11.67418344539608
 30
0.0
 11
14.48911432170619
 21
-11.67277408059608
 31
0.0
  0
LINE
  5
296
330
2
100
AcDbEntity
  8
0
100
AcDbLine
 10
14.29195881610619
 20
-11.67677667739606
 30
0.0
 11
14.42085366730621
 21
-11.67418344539608
 31
0.0
  0
LINE
  5
297
330
2
100
AcDbEntity
  8
0
100
AcDbLine
 10
14.08894845930618
 20
-11.68067653659606
 30
0.0
 11
14.29195881610619
 21
-11.67677667739606
 31
0.0
  0
LINE
  5
298
330
2
100
AcDbEntity
  8
0
100
AcDbLine
 10
13.92755987370621
 20
-11.68360887419608
 30
0.0
 11
14.08894845930618
 21
-11.68067653659606
 31
0.0
  0
LINE
  5
299
330
2
100
AcDbEntity
  8
0
100
AcDbLine
 10
13.75119359690621
 20
-11.68663657499605
 30
0.0
 11
13.92755987370621
 21
-11.68360887419608
 31
0.0
  0
LINE
  5
29A
330
2
100
AcDbEntity
  8
0
100
AcDbLine
 10
13.6093246593062
 20
-11.68893501499606
 30
0.0
 11
13.75119359690621
 21
-11.68663657499605
 31
0.0
  0
LINE
  5
29B
330
2
100
AcDbEntity
  8
0
100
AcDbLine
 10
14.26496348490619
 20
-11.84920542139606
 30
0.0
 11
14.0119799393062
 21
-11.85307433179606
 31
0.0
  0
LINE
  5
29C
330
2
100
AcDbEntity
  8
0
100
AcDbLine
 10
13.4572969985062
 20
-11.69126183259608
 30
0.0
 11
13.6093246593062
 21
-11.68893501499606
 31
0.0
  0
LINE
  5
29D
330
2
100
AcDbEntity
  8
0
100
AcDbLine
 10
13.34761865130619
 20
-11.69285319419607
 30
0.0
 11
13.4572969985062
 21
-11.69126183259608
 31
0.0
  0
LINE
  5
29E
330
2
100
AcDbEntity
  8
0
100
AcDbLine
 10
13.23074043530619
 20
-11.69446939579607
 30
0.0
 11
13.34761865130619
 21
-11.69285319419607
 31
0.0
  0
LINE
  5
29F
330
2
100
AcDbEntity
  8
0
100
AcDbLine
 10
13.11172876330619
 20
-11.69603192859607
 30
0.0
 11
13.23074043530619
 21
-11.69446939579607
 31
0.0
  0
LINE
  5
2A0
330
2
100
AcDbEntity
  8
0
100
AcDbLine
 10
12.9407847169062
 20
-11.69813230139608
 30
0.0
 11
13.11172876330619
 21
-11.69603192859607
 31
0.0
  0
LWPOLYLINE
  5
2A1
330
2
100
AcDbEntity
  8
0
100
AcDbPolyline
 90
        4
 70
     0
 43
0.0
 10
14.0119799393062
 20
-11.85307433179606
 10
13.5117614865062
 20
-11.85889137659607
 10
13.01140350890619
 20
-11.86358369339608
 10
12.51092934890619
 20
-11.86757835099605
  0
LINE
  5
2A2
330
2
100
AcDbEntity
  8
0
100
AcDbLine
 10
12.7807877633062
 20
-11.69994826779607
 30
0.0
 11
12.9407847169062
 21
-11.69813230139608
 31
0.0
  0
LINE
  5
2A3
330
2
100
AcDbEntity
  8
0
100
AcDbLine
 10
12.62965825130619
 20
-11.70153439419606
 30
0.0
 11
12.7807877633062
 21
-11.69994826779607
 31
0.0
  0
LINE
  5
2A4
330
2
100
AcDbEntity
  8
0
100
AcDbLine
 10
12.44365018410619
 20
-11.70331908539607
 30
0.0
 11
12.62965825130619
 21
-11.70153439419606
 31
0.0
  0
LWPOLYLINE
  5
2A5
330
2
100
AcDbEntity
  8
0
100
AcDbPolyline
 90
        4
 70
     0
 43
0.0
 10
9.567841801706208
 20
-11.70379026299603
 10
9.6081619473062
 20
-11.70342166139603
 10
9.642251912106189
 20
-11.70324273019603
 10
9.673505990506185
 20
-11.70319131259604
  0
LINE
  5
2A6
330
2
100
AcDbEntity
  8
0
100
AcDbLine
 10
12.21165654090621
 20
-11.70529297019608
 30
0.0
 11
12.44365018410619
 21
-11.70331908539607
 31
0.0
  0
LWPOLYLINE
  5
2A7
330
2
100
AcDbEntity
  8
0
100
AcDbPolyline
 90
        4
 70
     0
 43
0.0
 10
9.333002539306193
 20
-11.70613453339602
 10
9.403649480106196
 20
-11.70559919739604
 10
9.46569655370618
 20
-11.70501939259604
 10
9.567841801706208
 20
-11.70379026299603
  0
LINE
  5
2A8
330
2
100
AcDbEntity
  8
0
100
AcDbLine
 10
11.97910043050621
 20
-11.70699640699605
 30
0.0
 11
12.21165654090621
 21
-11.70529297019608
 31
0.0
  0
LINE
  5
2A9
330
2
100
AcDbEntity
  8
0
100
AcDbLine
 10
12.51092934890619
 20
-11.86757835099605
 30
0.0
 11
12.01033716330619
 21
-11.87082854939607
 31
0.0
  0
LINE
  5
2AA
330
2
100
AcDbEntity
  8
0
100
AcDbLine
 10
11.69356384970618
 20
-11.70869677979608
 30
0.0
 11
11.97910043050621
 21
-11.70699640699605
 31
0.0
  0
LINE
  5
2AB
330
2
100
AcDbEntity
  8
0
100
AcDbLine
 10
11.66354676970619
 20
-11.70884762299606
 30
0.0
 11
11.69356384970618
 21
-11.70869677979608
 31
0.0
  0
LINE
  5
2AC
330
2
100
AcDbEntity
  8
0
100
AcDbLine
 10
11.6400779489062
 20
-11.70896159099608
 30
0.0
 11
11.66354676970619
 21
-11.70884762299606
 31
0.0
  0
LWPOLYLINE
  5
2AD
330
2
100
AcDbEntity
  8
0
100
AcDbPolyline
 90
        4
 70
     0
 43
0.0
 10
12.01033716330619
 20
-11.87082854939607
 10
11.72242411850618
 20
-11.87216823099608
 10
11.48930917290619
 20
-11.87277218939608
 10
11.38669973610618
 20
-11.87272719419605
  0
LWPOLYLINE
  5
2AE
330
2
100
AcDbEntity
  8
0
100
AcDbPolyline
 90
        5
 70
     0
 43
0.0
 10
8.730523107306197
 20
-11.70966071099603
 10
8.817937235306203
 20
-11.70930318139603
 10
8.924054193706183
 20
-11.70878881179605
 10
9.046664843306189
 20
-11.70808205819604
 10
9.333002539306193
 20
-11.70613453339602
  0
LINE
  5
2AF
330
2
100
AcDbEntity
  8
0
100
AcDbLine
 10
11.48134244650621
 20
-11.70964452539608
 30
0.0
 11
11.6400779489062
 21
-11.70896159099608
 31
0.0
  0
LINE
  5
2B0
330
2
100
AcDbEntity
  8
0
100
AcDbLine
 10
11.44889403690618
 20
-11.70976498139607
 30
0.0
 11
11.47948477450621
 21
-11.70965169339605
 31
0.0
  0
LINE
  5
2B1
330
2
100
AcDbEntity
  8
0
100
AcDbLine
 10
11.4354047729062
 20
-11.70981170299607
 30
0.0
 11
11.44889403690618
 21
-11.70976498139607
 31
0.0
  0
LINE
  5
2B2
330
2
100
AcDbEntity
  8
0
100
AcDbLine
 10
11.4195338529062
 20
-11.70986413979606
 30
0.0
 11
11.4354047729062
 21
-11.70981170299607
 31
0.0
  0
LINE
  5
2B3
330
2
100
AcDbEntity
  8
0
100
AcDbLine
 10
11.40019818730619
 20
-11.70992434139607
 30
0.0
 11
11.4195338529062
 21
-11.70986413979606
 31
0.0
  0
LINE
  5
2B4
330
2
100
AcDbEntity
  8
0
100
AcDbLine
 10
8.595226784106195
 20
-11.71008542779604
 30
0.0
 11
8.730523107306204
 21
-11.70966071099603
 31
0.0
  0
LINE
  5
2B5
330
2
100
AcDbEntity
  8
0
100
AcDbLine
 10
11.2824458929062
 20
-11.71020593179606
 30
0.0
 11
11.40019818730619
 21
-11.70992434139607
 31
0.0
  0
LINE
  5
2B6
330
2
100
AcDbEntity
  8
0
100
AcDbLine
 10
8.457979502506198
 20
-11.71034316539605
 30
0.0
 11
8.595226784106195
 21
-11.71008542779604
 31
0.0
  0
LINE
  5
2B7
330
2
100
AcDbEntity
  8
0
100
AcDbLine
 10
11.1980144609062
 20
-11.71032210779607
 30
0.0
 11
11.2824458929062
 21
-11.71020593179606
 31
0.0
  0
LINE
  5
2B8
330
2
100
AcDbEntity
  8
0
100
AcDbLine
 10
11.0483243809062
 20
-11.71042392859608
 30
0.0
 11
11.1980144609062
 21
-11.71032210779607
 31
0.0
  0
LINE
  5
2B9
330
2
100
AcDbEntity
  8
0
100
AcDbLine
 10
8.308649665706191
 20
-11.71042573979603
 30
0.0
 11
8.457979502506198
 21
-11.71034316539605
 31
0.0
  0
LINE
  5
2BA
330
2
100
AcDbEntity
  8
0
100
AcDbLine
 10
10.91384001610621
 20
-11.71037117819607
 30
0.0
 11
11.0483243809062
 21
-11.71042392859608
 31
0.0
  0
LINE
  5
2BB
330
2
100
AcDbEntity
  8
0
100
AcDbLine
 10
8.152907587306209
 20
-11.71032614779603
 30
0.0
 11
8.308649665706191
 21
-11.71042573979603
 31
0.0
  0
LWPOLYLINE
  5
2BC
330
2
100
AcDbEntity
  8
0
100
AcDbPolyline
 90
        4
 70
     0
 43
0.0
 10
9.673505988906185
 20
-11.70319113659603
 10
9.704188536106187
 20
-11.70324107579604
 10
9.737673249706205
 20
-11.70341385339604
 10
9.777135432106206
 20
-11.70376898619603
  0
LINE
  5
2BD
330
2
100
AcDbEntity
  8
0
100
AcDbLine
 10
10.79280786250621
 20
-11.71018100859608
 30
0.0
 11
10.91384001610621
 21
-11.71037117819607
 31
0.0
  0
LINE
  5
2BE
330
2
100
AcDbEntity
  8
0
100
AcDbLine
 10
7.866588368106199
 20
-11.70964834299603
 30
0.0
 11
8.1511648785062
 21
-11.71032436059603
 31
0.0
  0
LWPOLYLINE
  5
2BF
330
2
100
AcDbEntity
  8
0
100
AcDbPolyline
 90
        6
 70
     0
 43
0.0
 10
10.28291639850618
 20
-11.70797222459607
 10
10.40350675850618
 20
-11.70868540539608
 10
10.51174666250619
 20
-11.70922540859608
 10
10.60084756490619
 20
-11.70960165979606
 10
10.67556811850619
 20
-11.70986643899608
 10
10.7928078625062
 20
-11.71018100859608
  0
LWPOLYLINE
  5
2C0
330
2
100
AcDbEntity
  8
0
100
AcDbPolyline
 90
        5
 70
     0
 43
0.0
 10
9.777135432106206
 20
-11.70376898619603
 10
9.876968742506193
 20
-11.70497283099602
 10
9.937437958506194
 20
-11.70555044059604
 10
10.00617694250618
 20
-11.70607930139605
 10
10.28291639850618
 20
-11.70797222459607
  0
LINE
  5
2C1
330
2
100
AcDbEntity
  8
0
100
AcDbLine
 10
5.965253470506191
 20
-11.69236669339603
 30
0.0
 11
7.866704267306211
 21
-11.70964879099604
 31
0.0
  0
LINE
  5
2C2
330
2
100
AcDbEntity
  8
0
100
AcDbLine
 10
5.081975699306191
 20
-11.84920542139603
 30
0.0
 11
5.334959244906208
 21
-11.85307433179603
 31
0.0
  0
LINE
  5
2C3
330
2
100
AcDbEntity
  8
0
100
AcDbLine
 10
5.759259864106191
 20
-11.68927490619601
 30
0.0
 11
5.965253470506191
 21
-11.69236669339603
 31
0.0
  0
LINE
  5
2C4
330
2
100
AcDbEntity
  8
0
100
AcDbLine
 10
5.562506683306203
 20
-11.68608033499604
 30
0.0
 11
5.759259864106191
 21
-11.68927490619601
 31
0.0
  0
LINE
  5
2C5
330
2
100
AcDbEntity
  8
0
100
AcDbLine
 10
5.358919568106195
 20
-11.68252819099602
 30
0.0
 11
5.562506683306203
 21
-11.68608033499604
 31
0.0
  0
LINE
  5
2C6
330
2
100
AcDbEntity
  8
0
100
AcDbLine
 10
5.176030089706195
 20
-11.67912984059601
 30
0.0
 11
5.358919568106195
 21
-11.68252819099602
 31
0.0
  0
LINE
  5
2C7
330
2
100
AcDbEntity
  8
0
100
AcDbLine
 10
4.948905904106204
 20
-11.67464906299603
 30
0.0
 11
5.176030089706195
 21
-11.67912984059601
 31
0.0
  0
LINE
  5
2C8
330
2
100
AcDbEntity
  8
0
100
AcDbLine
 10
4.751901235306213
 20
-11.67053689819603
 30
0.0
 11
4.948905904106204
 21
-11.67464906299603
 31
0.0
  0
LINE
  5
2C9
330
2
100
AcDbEntity
  8
0
100
AcDbLine
 10
4.606343523306215
 20
-11.66735558779602
 30
0.0
 11
4.751901235306213
 21
-11.67053689819603
 31
0.0
  0
LINE
  5
2CA
330
2
100
AcDbEntity
  8
0
100
AcDbLine
 10
4.488440393706191
 20
-11.66468623099602
 30
0.0
 11
4.606343523306215
 21
-11.66735558779602
 31
0.0
  0
LINE
  5
2CB
330
2
100
AcDbEntity
  8
0
100
AcDbLine
 10
4.2714200465062
 20
-11.65955835579602
 30
0.0
 11
4.488440393706191
 21
-11.66468623099602
 31
0.0
  0
LINE
  5
2CC
330
2
100
AcDbEntity
  8
0
100
AcDbLine
 10
4.0779087169062
 20
-11.65475636219603
 30
0.0
 11
4.2714200465062
 21
-11.65955835579602
 31
0.0
  0
LWPOLYLINE
  5
2CD
330
2
100
AcDbEntity
  8
0
100
AcDbPolyline
 90
        5
 70
     0
 43
0.0
 10
3.831070408106199
 20
-11.82038840539603
 10
4.139581883306192
 20
-11.82854237819604
 10
4.463457112106198
 20
-11.83650858939601
 10
4.784496395306206
 20
-11.84359083259603
 10
5.081975699306184
 20
-11.84920542139603
  0
LINE
  5
2CE
330
2
100
AcDbEntity
  8
0
100
AcDbLine
 10
3.868828771306205
 20
-11.64933237499603
 30
0.0
 11
4.0779087169062
 21
-11.65475636219603
 31
0.0
  0
LINE
  5
2CF
330
2
100
AcDbEntity
  8
0
100
AcDbLine
 10
3.656752753706207
 20
-11.64358976219604
 30
0.0
 11
3.868828771306205
 21
-11.64933237499603
 31
0.0
  0
LINE
  5
2D0
330
2
100
AcDbEntity
  8
0
100
AcDbLine
 10
3.554430564906205
 20
-11.81268010939602
 30
0.0
 11
3.831070408106207
 21
-11.82038840539603
 31
0.0
  0
LINE
  5
2D1
330
2
100
AcDbEntity
  8
0
100
AcDbLine
 10
3.46756343050621
 20
-11.63827057499604
 30
0.0
 11
3.656752753706207
 21
-11.64358976219604
 31
0.0
  0
LINE
  5
2D2
330
2
100
AcDbEntity
  8
0
100
AcDbLine
 10
3.325857091306211
 20
-11.80595953819603
 30
0.0
 11
3.554430564906205
 21
-11.81268010939602
 31
0.0
  0
LINE
  5
2D3
330
2
100
AcDbEntity
  8
0
100
AcDbLine
 10
3.157751822506192
 20
-11.80060566939603
 30
0.0
 11
3.325857091306211
 21
-11.80595953819603
 31
0.0
  0
LINE
  5
2D4
330
2
100
AcDbEntity
  8
0
100
AcDbLine
 10
11.40716893770619
 20
-11.90009217819606
 30
0.0
 11
11.3673420433062
 21
-11.89208488539607
 31
0.0
  0
LWPOLYLINE
  5
2D5
330
2
100
AcDbEntity
  8
0
100
AcDbPolyline
 90
       11
 70
     0
 43
0.0
 10
7.741936924906184
 20
-11.70912549819603
 10
7.750488705706203
 20
-11.71102229019605
 10
7.761742129706192
 20
-11.71406736699604
 10
7.774483064106192
 20
-11.71826359099604
 10
7.788125873706206
 20
-11.72368698459602
 10
7.802149848106182
 20
-11.73034058299605
 10
7.816220147306182
 20
-11.73822289659604
 10
7.830050484906195
 20
-11.74729270619603
 10
7.84337875690619
 20
-11.75745764539605
 10
7.855968619306196
 20
-11.76857131579605
 10
7.860389412906187
 20
-11.77287715579602
  0
LINE
  5
2D6
330
2
100
AcDbEntity
  8
0
100
AcDbLine
 10
11.37154365450619
 20
-11.88788327419605
 30
0.0
 11
11.41290611370619
 21
-11.90262085499607
 31
0.0
  0
LWPOLYLINE
  5
2D8
330
2
100
AcDbEntity
  8
0
100
AcDbPolyline
 90
        6
 70
     0
 43
0.0
 10
0.6741134945062015
 20
-10.14607780379604
 10
0.7063315073062029
 20
-10.26631391579603
 10
0.7447976449061855
 20
-10.37247885179603
 10
0.7915019009061837
 20
-10.47479858939603
 10
0.8460584049061878
 20
-10.57275482619603
 10
0.8847576113061847
 20
-10.63078680379602
  0
LWPOLYLINE
  5
2D9
330
2
100
AcDbEntity
  8
0
100
AcDbPolyline
 90
       26
 70
     0
 43
0.0
 10
0.7937646625061916
 20
-10.33691552219603
 10
0.818422148906194
 20
-10.44301019419604
 10
0.8671761953062002
 20
-10.59131497339602
 10
0.9266025009061991
 20
-10.72473227099602
 10
0.9950125905062066
 20
-10.84580050299602
 10
1.067537720106201
 20
-10.95109348859604
 10
1.148471552106201
 20
-11.04958957179603
 10
1.246897100906181
 20
-11.14970600859602
 10
1.359400657706203
 20
-11.24414696699604
 10
1.481454083306203
 20
-11.32789177019604
 10
1.604641481706181
 20
-11.39646657979604
 10
1.722058083306194
 20
-11.44922914779603
 10
1.8328741633062
 20
-11.48919341659602
 10
1.935017630506195
 20
-11.51862578299603
 10
2.028187884906202
 20
-11.54007439259602
 10
2.115962904106197
 20
-11.55625628859603
 10
2.203657598506197
 20
-11.56921612539604
 10
2.296134673706205
 20
-11.58016767579603
 10
2.396375742506194
 20
-11.58969134939603
 10
2.505313339306184
 20
-11.59805152059603
 10
2.623573665706203
 20
-11.60548542459604
 10
2.752510278506207
 20
-11.61226729979604
 10
2.892962809706205
 20
-11.61858827419602
 10
3.045101782506208
 20
-11.62456168059604
 10
3.209115513706194
 20
-11.63028529499602
 10
3.379273448106204
 20
-11.63566551579604
  0
LINE
  5
2DA
330
2
100
AcDbEntity
  8
0
100
AcDbLine
 10
0.6570418689061981
 20
-10.06870551899602
 30
0.0
 11
0.6740890465062038
 21
-10.14603766939602
 31
0.0
  0
LWPOLYLINE
  5
2DB
330
2
100
AcDbEntity
  8
0
100
AcDbPolyline
 90
       20
 70
     0
 43
0.0
 10
-0.7652102126938019
 20
-8.121319923796036
 10
-0.7374626750938092
 20
-8.270451437396033
 10
-0.6949968814938075
 20
-8.431521152596033
 10
-0.6405354414937961
 20
-8.588052552596039
 10
-0.5750711102938056
 20
-8.738192794196024
 10
-0.5000144638938196
 20
-8.880189818196029
 10
-0.417151694293807
 20
-9.012517347796048
 10
-0.3285513534937934
 20
-9.133991293396022
 10
-0.2366692814938176
 20
-9.24358716379605
 10
-0.1442059150938064
 20
-9.34061945979603
 10
-0.0536316910938126
 20
-9.425089464596041
 10
0.0341250065062013
 20
-9.498456821396032
 10
0.1191818449061941
 20
-9.562629944596025
 10
0.2018360513062021
 20
-9.619172746196042
 10
0.2820200577062053
 20
-9.669078566996049
 10
0.3592930881061989
 20
-9.71296325979604
 10
0.4332434305061952
 20
-9.751398610196034
 10
0.5034760113061907
 20
-9.78491431899603
 10
0.5697117729062029
 20
-9.814044992596038
 10
0.6034788593061933
 20
-9.827790696596039
  0
LINE
  5
2DE
330
2
100
AcDbEntity
  8
0
100
AcDbLine
 10
11.41290611370619
 20
-11.90262085499607
 30
0.0
 11
11.46986391690621
 21
-11.93417176699607
 31
0.0
  0
LINE
  5
2DF
330
2
100
AcDbEntity
  8
0
100
AcDbLine
 10
8.214197744106208
 20
-12.12668548859603
 30
0.0
 11
7.860389526506203
 21
-11.77287727259603
 31
0.0
  0
LINE
  5
2E2
330
2
100
AcDbEntity
  8
0
100
AcDbLine
 10
11.5320289153062
 20
-11.98670219099607
 30
0.0
 11
11.40716893770619
 21
-11.90009217819606
 31
0.0
  0
LWPOLYLINE
  5
2E3
330
2
100
AcDbEntity
  8
0
100
AcDbPolyline
 90
        3
 70
     0
 43
0.0
 10
11.4698639169062
 20
-11.93417176699607
 10
11.52381105290618
 20
-11.97833461819608
 10
11.57027843050619
 20
-12.03409904059607
  0
LINE
  5
2E5
330
2
100
AcDbEntity
  8
0
100
AcDbLine
 10
3.039222435306193
 20
-11.76422569499602
 30
0.0
 11
3.038298659306214
 21
-11.79546191259602
 31
0.0
  0
LWPOLYLINE
  5
2E6
330
2
100
AcDbEntity
  8
0
100
AcDbPolyline
 90
        8
 70
     0
 43
0.0
 10
-2.044576444693802
 20
-1.911845440596025
 10
-1.958637620693792
 20
-1.954236651796051
 10
-1.86380408309381
 20
-1.997804114196028
 10
-1.763256633493796
 20
-2.042574994196044
 10
-1.656403667093798
 20
-2.08991011419603
 10
-1.540808751893791
 20
-2.141230859796038
 10
-1.413725382293819
 20
-2.197947813396027
 10
-1.385258836693793
 20
-2.21085641979603
  0
LINE
  5
2E7
330
2
100
AcDbEntity
  8
0
100
AcDbLine
 10
-2.257274358293805
 20
-1.794458405396042
 30
0.0
 11
-2.04430707029379
 21
-1.911945629396043
 31
0.0
  0
LWPOLYLINE
  5
2E8
330
2
100
AcDbEntity
  8
0
100
AcDbPolyline
 90
       18
 70
     0
 43
0.0
 10
-1.444799963093799
 20
2.304034121003965
 10
-1.444935756693809
 20
2.304192317803952
 10
-1.444156958293802
 20
2.303256394603963
 10
-1.441909593493818
 20
2.300458975403969
 10
-1.43833223829381
 20
2.295799329003969
 10
-1.433581422293798
 20
2.289272556203982
 10
-1.427846815893815
 20
2.280898756203967
 10
-1.421471924693804
 20
2.270936679403959
 10
-1.414777710293805
 20
2.259682493803964
 10
-1.407845260693818
 20
2.24708212260397
 10
-1.400649190293819
 20
2.232851090603972
 10
-1.393216587093803
 20
2.216726138603959
 10
-1.385651844693796
 20
2.198538559403957
 10
-1.378049793493801
 20
2.178032093803963
 10
-1.370488993493808
 20
2.154785866603972
 10
-1.363053961493818
 20
2.128169885803956
 10
-1.355841062293819
 20
2.097165247403964
 10
-1.350926937493795
 20
2.071570293803958
  0
LINE
  5
2EB
330
2
100
AcDbEntity
  8
0
100
AcDbLine
 10
11.6068772593062
 20
-12.10193171259608
 30
0.0
 11
11.5320289153062
 21
-11.98670219099607
 31
0.0
  0
LINE
  5
2ED
330
2
100
AcDbEntity
  8
0
100
AcDbLine
 10
11.5702784305062
 20
-12.03409904059607
 30
0.0
 11
11.6068772593062
 21
-12.10193171259608
 31
0.0
  0
LINE
  5
2EF
330
2
100
AcDbEntity
  8
0
100
AcDbLine
 10
11.6122685249062
 20
-12.11574800379607
 30
0.0
 11
11.6068772593062
 21
-12.10193171259608
 31
0.0
  0
LINE
  5
2F0
330
2
100
AcDbEntity
  8
CENTER
 62
     1
 48
4.0
100
AcDbLine
 10
9.673469592106194
 20
8.328185870600478
 30
0.0
 11
9.673469592106194
 21
1.28339289712234
 31
0.0
  0
LINE
  5
2F4
330
2
100
AcDbEntity
  8
0
100
AcDbLine
 10
10.85718526730619
 20
4.902833177003927
 30
0.0
 11
10.86096959210619
 21
4.809012735403925
 31
0.0
  0
LINE
  5
2F7
330
2
100
AcDbEntity
  8
0
100
AcDbLine
 10
7.73467065930621
 20
-12.11574800379604
 30
0.0
 11
7.740111032106206
 21
-12.10181291579603
 31
0.0
  0
LINE
  5
2F9
330
2
100
AcDbEntity
  8
0
100
AcDbLine
 10
7.740111032106206
 20
-12.10181291579603
 30
0.0
 11
7.753406452906212
 21
-12.07314929979604
 31
0.0
  0
LINE
  5
2FA
330
2
100
AcDbEntity
  8
0
100
AcDbLine
 10
7.740111032106206
 20
-12.10181291579603
 30
0.0
 11
7.81491026890621
 21
-11.98670219099604
 31
0.0
  0
LINE
  5
2FB
330
2
100
AcDbEntity
  8
0
100
AcDbLine
 10
7.753406452906212
 20
-12.07314929979604
 30
0.0
 11
7.796893662506199
 21
-12.00708125179603
 31
0.0
  0
LINE
  5
305
330
2
100
AcDbEntity
  8
0
100
AcDbLine
 10
16.3086405249062
 20
-11.79546191259608
 30
0.0
 11
16.30771674890619
 21
-11.76422569499608
 31
0.0
  0
LINE
  5
307
330
2
100
AcDbEntity
  8
0
100
AcDbLine
 10
7.796893662506199
 20
-12.00708125179603
 30
0.0
 11
7.850797096106198
 21
-11.95359307259603
 31
0.0
  0
LWPOLYLINE
  5
308
330
2
100
AcDbEntity
  8
0
100
AcDbPolyline
 90
       11
 70
     0
 43
0.0
 10
21.39124685770619
 20
-1.911945317396074
 10
21.60499777290618
 20
-1.793998155796074
 10
21.81698279850619
 20
-1.660722094996074
 10
22.0141814369062
 20
-1.517852835796063
 10
22.19690976010619
 20
-1.363573011796077
 10
22.36504222250619
 20
-1.195611024596061
 10
22.5173345137062
 20
-1.011592856596067
 10
22.64881619210618
 20
-0.8133896293960702
 10
22.7532954497062
 20
-0.6086016789960667
 10
22.8293354321062
 20
-0.4031728245960693
 10
22.87972295530619
 20
-0.1936299685960563
  0
LWPOLYLINE
  5
309
330
2
100
AcDbEntity
  8
0
100
AcDbPolyline
 90
        8
 70
     0
 43
0.0
 10
20.73219801930619
 20
-2.210856419796087
 10
20.76066456650619
 20
-2.197947813396083
 10
20.88774793610619
 20
-2.141230859796067
 10
21.0033428513062
 20
-2.089910114196086
 10
21.11019581770619
 20
-2.042574994196073
 10
21.21074326730618
 20
-1.997804114196085
 10
21.30557680490619
 20
-1.95423665179608
 10
21.3915156273062
 20
-1.911845440596053
  0
LINE
  5
30B
330
2
100
AcDbEntity
  8
0
100
AcDbLine
 10
27.17537224330619
 20
6.811139749803928
 30
0.0
 11
-7.828433059093804
 21
6.811139749803956
 31
0.0
  0
LINE
  5
30E
330
2
100
AcDbEntity
  8
0
100
AcDbLine
 10
7.81491026890621
 20
-11.98670219099604
 30
0.0
 11
7.939770246506192
 21
-11.90009217819603
 31
0.0
  0
LINE
  5
30F
330
2
100
AcDbEntity
  8
0
100
AcDbLine
 10
7.850797096106198
 20
-11.95359307259603
 30
0.0
 11
7.910388294506198
 21
-11.91415848059604
 31
0.0
  0
LINE
  5
311
330
2
100
AcDbEntity
  8
0
100
AcDbLine
 10
-7.966214619093811
 20
8.311139749803956
 30
0.0
 11
27.3131538033062
 21
8.311139749803928
 31
0.0
  0
LWPOLYLINE
  5
314
330
2
100
AcDbEntity
  8
0
100
AcDbPolyline
 90
        9
 70
     0
 43
0.0
 10
19.66917275530619
 20
-4.061594603796052
 10
19.8818407505062
 20
-2.755866429396078
 10
19.99199136970619
 20
-2.083416334996073
 10
20.1050814241062
 20
-1.399758790996074
 10
20.22107284170619
 20
-0.7062642421960704
 10
20.3397792993062
 20
-0.0040608469960688
 10
20.4610433841062
 20
0.7057316826039397
 10
20.58467468170618
 20
1.42195727780394
 10
20.6978528225062
 20
2.071610893803935
  0
LWPOLYLINE
  5
315
330
2
100
AcDbEntity
  8
0
100
AcDbPolyline
 90
       17
 70
     0
 43
0.0
 10
20.6978661217062
 20
2.071570293803929
 10
20.70278024650619
 20
2.097165247403935
 10
20.70999314570619
 20
2.128169885803927
 10
20.71742817770618
 20
2.154785866603944
 10
20.7249889777062
 20
2.178032093803935
 10
20.7325910273062
 20
2.198538559403928
 10
20.7401557713062
 20
2.216726138603931
 10
20.74758837450619
 20
2.232851090603944
 10
20.75478444490619
 20
2.247082122603941
 10
20.76171689450621
 20
2.259682493803936
 10
20.7684111089062
 20
2.270936679403931
 10
20.77478600010619
 20
2.280898756203939
 10
20.7805206049062
 20
2.289272556203926
 10
20.78527142250618
 20
2.295799329003941
 10
20.78884877770619
 20
2.300458975403941
 10
20.7910961409062
 20
2.303256394603934
 10
20.7916337489062
 20
2.303905519403926
  0
LWPOLYLINE
  5
316
330
2
100
AcDbEntity
  8
0
100
AcDbPolyline
 90
       13
 70
     0
 43
0.0
 10
18.55318179850618
 20
-10.33690389979607
 10
18.61391796010619
 20
-10.02304906459606
 10
18.69906308170618
 20
-9.580062982996068
 10
18.7879684801062
 20
-9.112993875796078
 10
18.8798663345062
 20
-8.624369246996067
 10
18.97414828810619
 20
-8.115715434196076
 10
19.07019997290618
 20
-7.588414368596076
 10
19.16744490890619
 20
-7.043545539796085
 10
19.26551626570619
 20
-6.481672504596062
 10
19.36436306890618
 20
-5.902889334996061
 10
19.46439541930618
 20
-5.306374304596076
 10
19.56594063530619
 20
-4.692197512596081
 10
19.66917275530619
 20
-4.061594603796052
  0
LINE
  5
318
330
2
100
AcDbEntity
  8
0
100
AcDbLine
 10
15.88272957290619
 20
-12.06494183419606
 30
0.0
 11
15.9085297073062
 21
-12.00094097179608
 31
0.0
  0
LINE
  5
319
330
2
100
AcDbEntity
  8
0
100
AcDbLine
 10
11.48654965610621
 20
-11.77287727259606
 30
0.0
 11
11.1327414401062
 21
-12.12668548859606
 31
0.0
  0
LWPOLYLINE
  5
31A
330
2
100
AcDbEntity
  8
0
100
AcDbPolyline
 90
       12
 70
     0
 43
0.0
 10
11.48654976970618
 20
-11.77287715739608
 10
11.48996642250619
 20
-11.76952956699607
 10
11.5023556929062
 20
-11.75845333979607
 10
11.51562883530618
 20
-11.74819035259606
 10
11.52950685610619
 20
-11.73896299259605
 10
11.5436682689062
 20
-11.73092262939606
 10
11.5577561185062
 20
-11.72414932379605
 10
11.5713557777062
 20
-11.71866454939608
 10
11.58390384010618
 20
-11.71445646939606
 10
11.59486444010619
 20
-11.71141487419607
 10
11.60424758570619
 20
-11.70926393819605
 10
11.60498136490619
 20
-11.70912558939606
  0
LWPOLYLINE
  5
31B
330
2
100
AcDbEntity
  8
0
100
AcDbPolyline
 90
        3
 70
     0
 43
0.0
 10
7.910388294506191
 20
-11.91415848059604
 10
7.970228480106186
 20
-11.88870692539605
 10
7.975017412906197
 20
-11.88750515899603
  0
LWPOLYLINE
  5
31C
330
2
100
AcDbEntity
  8
0
100
AcDbPolyline
 90
        5
 70
     0
 43
0.0
 10
24.36055406410619
 20
8.311139749803928
 10
24.34179212650619
 20
8.312555807403938
 10
24.32345522090619
 20
8.316771916203933
 10
24.3059588689062
 20
8.323692549803936
 10
24.30190091530619
 20
8.325754889003931
  0
LWPOLYLINE
  5
31F
330
2
100
AcDbEntity
  8
0
100
AcDbPolyline
 90
        6
 70
     0
 43
0.0
 10
20.11214955210618
 20
-8.121278434196071
 10
20.21417946410619
 20
-7.393118584596052
 10
20.3725219153062
 20
-6.049430776596082
 10
20.51573162410619
 20
-4.602807054996063
 10
20.65654925130619
 20
-3.054990979796073
 10
20.7819258977062
 20
-1.655962774996069
  0
LWPOLYLINE
  5
321
330
2
100
AcDbEntity
  8
0
100
AcDbPolyline
 90
        4
 70
     0
 43
0.0
 10
15.9085297073062
 20
-12.00094097179608
 10
15.94094405290618
 20
-11.94891342299605
 10
15.9797953153062
 20
-11.90442477499608
 10
16.02319152970619
 20
-11.86798767259607
  0
LWPOLYLINE
  5
326
330
2
100
AcDbEntity
  8
0
100
AcDbPolyline
 90
        5
 70
     0
 43
0.0
 10
22.9032407681062
 20
-0.0170489957960598
 10
22.99090826090619
 20
0.9635556538039367
 10
23.2102938225062
 20
3.395733457003913
 10
23.41990065290619
 20
5.693258044203943
 10
23.52291011530618
 20
6.809777940203943
  0
LINE
  5
329
330
2
100
AcDbEntity
  8
0
100
AcDbLine
 10
22.87972295530619
 20
-0.1936299685960563
 30
0.0
 11
22.90327460810619
 21
-0.016634448596065
 31
0.0
  0
LWPOLYLINE
  5
32A
330
2
100
AcDbEntity
  8
0
100
AcDbPolyline
 90
        6
 70
     0
 43
0.0
 10
18.46213009930619
 20
-10.63087150619607
 10
18.50120029450619
 20
-10.57223118459607
 10
18.5557507025062
 20
-10.47417853019608
 10
18.60243548330618
 20
-10.37175929179606
 10
18.64086837450619
 20
-10.26549062459606
 10
18.6728257025062
 20
-10.14607776219607
  0
LINE
  5
32B
330
2
100
AcDbEntity
  8
0
100
AcDbLine
 10
16.0231915297062
 20
-11.86798767259607
 30
0.0
 11
16.0692569121062
 21
-11.83970433339608
 31
0.0
  0
LWPOLYLINE
  5
32C
330
2
100
AcDbEntity
  8
0
100
AcDbPolyline
 90
       20
 70
     0
 43
0.0
 10
18.74347941290619
 20
-9.827782725396062
 10
18.7771161601062
 20
-9.814091994196061
 10
18.84337195050619
 20
-9.784956051796072
 10
18.9136307425062
 20
-9.751430946196066
 10
18.98760709610618
 20
-9.712984422996058
 10
19.0649037009062
 20
-9.669087728596068
 10
19.14511534250618
 20
-9.619164787796066
 10
19.2278084641062
 20
-9.562593259796059
 10
19.31291025930619
 20
-9.498380634196067
 10
19.40071172810618
 20
-9.424965338196059
 10
19.49132513930618
 20
-9.340441752596078
 10
19.58382649450618
 20
-9.243343773396063
 10
19.67574282410618
 20
-9.133669373396074
 10
19.7643677281062
 20
-9.012108646996082
 10
19.84724113930619
 20
-8.879691477396065
 10
19.92229408330618
 20
-8.737603710996054
 10
19.98774070890618
 20
-8.587372714196064
 10
20.04217088010619
 20
-8.430751779796068
 10
20.08459248170618
 20
-8.269594755796063
 10
20.1121494001062
 20
-8.121319901396063
  0
LINE
  5
333
330
2
100
AcDbEntity
  8
0
100
AcDbLine
 10
27.17537224330619
 20
6.811139749803928
 30
0.0
 11
27.17537224330619
 21
6.809777940203943
 31
0.0
  0
LINE
  5
334
330
2
100
AcDbEntity
  8
0
100
AcDbLine
 10
27.56220247690621
 20
8.082928685803935
 30
0.0
 11
27.67346959210619
 21
6.811139749803928
 31
0.0
  0
ARC
  5
335
330
2
100
AcDbEntity
  8
0
100
AcDbCircle
 10
-4.873743239893769
 20
7.694420882604006
 30
0.0
 40
0.6153570576
100
AcDbArc
 50
5.321474211399983
 51
89.99999999999998
  0
ARC
  5
336
330
2
100
AcDbEntity
  8
0
100
AcDbCircle
 10
24.2206797409062
 20
7.694422996204011
 30
0.0
 40
0.6153570576
100
AcDbArc
 50
90.00017364599997
 51
174.6786994345999
  0
ARC
  5
337
330
2
100
AcDbEntity
  8
0
100
AcDbCircle
 10
4.302398035306175
 20
-11.81386025019604
 30
0.0
 40
0.875
100
AcDbArc
 50
196.6838486157
 51
270.0
  0
ARC
  5
338
330
2
100
AcDbEntity
  8
0
100
AcDbCircle
 10
12.43352176970621
 20
-11.81386025019604
 30
0.0
 40
0.875
100
AcDbArc
 50
199.8508429392999
 51
269.9991072707999
  0
ARC
  5
339
330
2
100
AcDbEntity
  8
0
100
AcDbCircle
 10
15.04454114890621
 20
-11.81386025019604
 30
0.0
 40
0.875
100
AcDbArc
 50
270.0
 51
343.3161513842999
  0
ARC
  5
33A
330
2
100
AcDbEntity
  8
0
100
AcDbCircle
 10
6.913403780906214
 20
-11.81386025019604
 30
0.0
 40
0.875
100
AcDbArc
 50
270.0008927291999
 51
340.1491570606999
  0
ARC
  5
33B
330
2
100
AcDbEntity
  8
0
100
AcDbCircle
 10
-7.966214535893776
 20
8.061139749803956
 30
0.0
 40
0.25
100
AcDbArc
 50
90.00001915410001
 51
175.0
  0
ARC
  5
33C
330
2
100
AcDbEntity
  8
0
100
AcDbCircle
 10
27.31315372010622
 20
8.061139749803956
 30
0.0
 40
0.25
100
AcDbArc
 50
4.999999999999994
 51
89.99998084589996
  0
ARC
  5
33D
330
2
100
AcDbEntity
  8
0
100
AcDbCircle
 10
10.94491620170618
 20
-11.93886025019604
 30
0.0
 40
0.265625
100
AcDbArc
 50
270.0
 51
315.0
  0
ARC
  5
33E
330
2
100
AcDbEntity
  8
0
100
AcDbCircle
 10
8.402022982506203
 20
-11.93886025019604
 30
0.0
 40
0.265625
100
AcDbArc
 50
225.0
 51
270.0
  0
LWPOLYLINE
  5
33F
330
2
100
AcDbEntity
  8
CENTER
 62
     1
 48
4.0
100
AcDbPolyline
 90
        3
 70
   128
 43
0.0
 10
13.5234695921062
 20
4.80578938386138
 10
9.673469592106187
 20
4.805789383861409
 10
5.823469592106192
 20
4.805789383861409
  0
LINE
  5
340
330
2
100
AcDbEntity
  8
0
100
AcDbLine
 10
4.302398035306204
 20
-12.68886025019604
 30
0.0
 11
6.913417414337097
 21
-12.68886025008983
 31
0.0
  0
LINE
  5
341
330
2
100
AcDbEntity
  8
0
100
AcDbLine
 10
12.43350813627532
 20
-12.68886025008986
 30
0.0
 11
15.04454114887062
 21
-12.68886025019607
 31
0.0
  0
LINE
  5
342
330
2
100
AcDbEntity
  8
CENTER
 62
     1
 48
4.0
100
AcDbLine
 10
9.673469569706192
 20
-9.690553691975292
 30
0.0
 11
9.673469569706192
 21
-14.71841680841682
 31
0.0
  0
LINE
  5
455
330
2
100
AcDbEntity
  8
0
100
AcDbLine
 10
27.67346956970619
 20
6.81113974784418
 30
0.0
 11
-8.326530407893804
 21
6.811139749803968
 31
0.0
  0
ENDSEC
  0
SECTION
  2
OBJECTS
  0
DICTIONARY
  5
C
330
0
100
AcDbDictionary
  3
ACAD_COLOR
350
2E
  3
ACAD_GROUP
350
29
  3
ACAD_LAYOUT
350
B
  3
ACAD_MATERIAL
350
2D
  3
ACAD_MLINESTYLE
350
2A
  3
ACAD_PLOTSETTINGS
350
2B
  3
ACAD_PLOTSTYLENAME
350
2C
  3
ACAD_TABLESTYLE
350
2F
  3
ACDBHEADERROUNDTRIPXREC
350
492
  3
ACDBVARIABLEDICTIONARY
350
348
  0
DICTIONARY
  5
12
330
11
100
AcDbDictionary
280
     1
  3
ACAD_LAYERFILTERS
360
13
  3
ACLYDICTIONARY
360
14
  0
DICTIONARY
  5
3
330
2
100
AcDbDictionary
280
     1
  3
ACAD_LAYOUTSELFREF
360
4B3
  3
ACAD_SORTENTS
360
343
  0
DICTIONARY
  5
3CC
330
D
100
AcDbDictionary
280
     1
  3
ACAD_LAYOUTSELFREF
360
4B4
  0
DICTIONARY
  5
2E
102
{ACAD_REACTORS
330
C
102
}
330
C
100
AcDbDictionary
  0
DICTIONARY
  5
29
102
{ACAD_REACTORS
330
C
102
}
330
C
100
AcDbDictionary
  0
DICTIONARY
  5
B
102
{ACAD_REACTORS
330
C
102
}
330
C
100
AcDbDictionary
  0
DICTIONARY
  5
2D
102
{ACAD_REACTORS
330
C
102
}
330
C
100
AcDbDictionary
  0
DICTIONARY
  5
2A
102
{ACAD_REACTORS
330
C
102
}
330
C
100
AcDbDictionary
  3
STANDARD
350
30
  0
DICTIONARY
  5
2B
102
{ACAD_REACTORS
330
C
102
}
330
C
100
AcDbDictionary
  0
ACDBDICTIONARYWDFLT
  5
2C
102
{ACAD_REACTORS
330
C
102
}
330
C
100
AcDbDictionary
281
     1
  3
Normal
350
7
100
AcDbDictionaryWithDefault
340
7
  0
DICTIONARY
  5
2F
102
{ACAD_REACTORS
330
C
102
}
330
C
100
AcDbDictionary
  3
STANDARD
350
31
  0
DICTIONARY
  5
492
102
{ACAD_REACTORS
330
C
102
}
330
C
100
AcDbDictionary
  3
CEPSNTYPE
350
49C
  3
DIMSTYLEDATA
350
4A0
  3
FINGERPRINTGUID
350
49D
  3
HYPERLINKBASE
350
495
  3
INSUNITS
350
49B
  3
LAYOUTDICT
350
497
  3
LWETCUNION
350
49A
  3
PLOTSETDICT
350
498
  3
PLOTSTYLNAMDICT
350
499
  3
PSVPSCALE
350
49F
  3
PUCSBASE
350
4A3
  3
PUCSORGBACK
350
4A9
  3
PUCSORGBOTTOM
350
4A5
  3
PUCSORGFRONT
350
4A8
  3
PUCSORGLEFT
350
4A6
  3
PUCSORGRIGHT
350
4A7
  3
PUCSORGTOP
350
4A4
  3
PUCSORTHOREF
350
4A1
  3
PUCSORTHOVIEW
350
4A2
  3
STYLESHEET
350
496
  3
TSTACKALIGN
350
493
  3
TSTACKSIZE
350
494
  3
UCSBASE
350
4AC
  3
UCSORGBACK
350
4B2
  3
UCSORGBOTTOM
350
4AE
  3
UCSORGFRONT
350
4B1
  3
UCSORGLEFT
350
4AF
  3
UCSORGRIGHT
350
4B0
  3
UCSORGTOP
350
4AD
  3
UCSORTHOREF
350
4AA
  3
UCSORTHOVIEW
350
4AB
  3
VERSIONGUID
350
49E
  0
DICTIONARY
  5
348
102
{ACAD_REACTORS
330
C
102
}
330
C
100
AcDbDictionary
  3
CTABLESTYLE
350
349
  3
DIMASSOC
350
37D
  3
HIDETEXT
350
37C
  3
PROJECTNAME
350
37E
  0
DICTIONARY
  5
13
102
{ACAD_REACTORS
330
12
102
}
330
12
100
AcDbDictionary
  0
DICTIONARY
  5
14
102
{ACAD_REACTORS
330
12
102
}
330
12
100
AcDbDictionary
1001
ACAD
1000
<All
  0
XRECORD
  5
4B3
102
{ACAD_REACTORS
330
3
102
}
330
3
100
AcDbXrecord
340
2
  0
SORTENTSTABLE
  5
343
102
{ACAD_REACTORS
330
3
102
}
330
3
100
AcDbSortentsTable
330
2
  0
XRECORD
  5
4B4
102
{ACAD_REACTORS
330
3CC
102
}
330
3CC
100
AcDbXrecord
340
D
  0
MLINESTYLE
  5
30
102
{ACAD_REACTORS
330
2A
102
}
330
2A
100
AcDbMlineStyle
  2
STANDARD
 70
     0
  3

 62
   256
 51
90.0
 52
90.0
 71
     2
 49
0.5
 62
   256
  6
BYLAYER
 49
-0.5
 62
   256
  6
BYLAYER
  0
ACDBPLACEHOLDER
  5
7
102
{ACAD_REACTORS
330
2C
102
}
330
0
100
AcDbPlaceHolder
280
     0
  0
ACAD_PROXY_OBJECT
  5
31
102
{ACAD_REACTORS
330
2F
102
}
330
2F
100
AcDbProxyObject
 90
      499
 91
      525
 93
     1841
310
4214DD185B99185C9928B81E85EB51B8AE3F2E07A17AD46E2B8FC02B5E8DC0F42B1CFD028000000C1008070000C3001FDFF8000000C1003FBFF000000182007F7FE00000030400FEFFC00000060801FDFF8000000C1003FBFF00000018200000000000000681FA0B0000001820100E000186003FBFF000000182007F7FE000
310
00030400FEFFC00000060801FDFF8000000C1003FBFF000000182007F7FE000000304000AD7A3703D0AC73F4160000003040201C00030C007F7FE00000030400FEFFC00000060801FDFF8000000C1003FBFF000000182007F7FE00000030400FEFFC000000608018
340
17
340
17
340
17
 94
        0
1001
ACAD
1000
AcadProxyRoundTripData
1071
      524
1071
   851991
1070
     0
  0
XRECORD
  5
49C
102
{ACAD_REACTORS
330
492
102
}
330
492
100
AcDbXrecord
 90
        0
  0
XRECORD
  5
4A0
102
{ACAD_REACTORS
330
492
102
}
330
492
100
AcDbXrecord
1000
DSTYLE
1002
{
1070
   341
340
23
1070
   342
340
23
1002
}
  0
XRECORD
  5
49D
102
{ACAD_REACTORS
330
492
102
}
330
492
100
AcDbXrecord
  1
{3EB8ADAE-E0F4-4E05-B6EC-3C60B26A4416}
  0
XRECORD
  5
495
102
{ACAD_REACTORS
330
492
102
}
330
492
100
AcDbXrecord
  1

  0
XRECORD
  5
49B
102
{ACAD_REACTORS
330
492
102
}
330
492
100
AcDbXrecord
 90
        1
  0
XRECORD
  5
497
102
{ACAD_REACTORS
330
492
102
}
330
492
100
AcDbXrecord
340
B
  0
XRECORD
  5
49A
102
{ACAD_REACTORS
330
492
102
}
330
492
100
AcDbXrecord
 90
    10781
  0
XRECORD
  5
498
102
{ACAD_REACTORS
330
492
102
}
330
492
100
AcDbXrecord
340
2B
  0
XRECORD
  5
499
102
{ACAD_REACTORS
330
492
102
}
330
492
100
AcDbXrecord
340
2C
  0
XRECORD
  5
49F
102
{ACAD_REACTORS
330
492
102
}
330
492
100
AcDbXrecord
 40
0.0
  0
XRECORD
  5
4A3
102
{ACAD_REACTORS
330
492
102
}
330
492
100
AcDbXrecord
340
0
  0
XRECORD
  5
4A9
102
{ACAD_REACTORS
330
492
102
}
330
492
100
AcDbXrecord
 10
0.0
 20
0.0
 30
0.0
  0
XRECORD
  5
4A5
102
{ACAD_REACTORS
330
492
102
}
330
492
100
AcDbXrecord
 10
0.0
 20
0.0
 30
0.0
  0
XRECORD
  5
4A8
102
{ACAD_REACTORS
330
492
102
}
330
492
100
AcDbXrecord
 10
0.0
 20
0.0
 30
0.0
  0
XRECORD
  5
4A6
102
{ACAD_REACTORS
330
492
102
}
330
492
100
AcDbXrecord
 10
0.0
 20
0.0
 30
0.0
  0
XRECORD
  5
4A7
102
{ACAD_REACTORS
330
492
102
}
330
492
100
AcDbXrecord
 10
0.0
 20
0.0
 30
0.0
  0
XRECORD
  5
4A4
102
{ACAD_REACTORS
330
492
102
}
330
492
100
AcDbXrecord
 10
0.0
 20
0.0
 30
0.0
  0
XRECORD
  5
4A1
102
{ACAD_REACTORS
330
492
102
}
330
492
100
AcDbXrecord
340
0
  0
XRECORD
  5
4A2
102
{ACAD_REACTORS
330
492
102
}
330
492
100
AcDbXrecord
 70
     0
  0
XRECORD
  5
496
102
{ACAD_REACTORS
330
492
102
}
330
492
100
AcDbXrecord
  1

  0
XRECORD
  5
493
102
{ACAD_REACTORS
330
492
102
}
330
492
100
AcDbXrecord
 90
        1
  0
XRECORD
  5
494
102
{ACAD_REACTORS
330
492
102
}
330
492
100
AcDbXrecord
 90
       70
  0
XRECORD
  5
4AC
102
{ACAD_REACTORS
330
492
102
}
330
492
100
AcDbXrecord
340
0
  0
XRECORD
  5
4B2
102
{ACAD_REACTORS
330
492
102
}
330
492
100
AcDbXrecord
 10
0.0
 20
0.0
 30
0.0
  0
XRECORD
  5
4AE
102
{ACAD_REACTORS
330
492
102
}
330
492
100
AcDbXrecord
 10
0.0
 20
0.0
 30
0.0
  0
XRECORD
  5
4B1
102
{ACAD_REACTORS
330
492
102
}
330
492
100
AcDbXrecord
 10
0.0
 20
0.0
 30
0.0
  0
XRECORD
  5
4AF
102
{ACAD_REACTORS
330
492
102
}
330
492
100
AcDbXrecord
 10
0.0
 20
0.0
 30
0.0
  0
XRECORD
  5
4B0
102
{ACAD_REACTORS
330
492
102
}
330
492
100
AcDbXrecord
 10
0.0
 20
0.0
 30
0.0
  0
XRECORD
  5
4AD
102
{ACAD_REACTORS
330
492
102
}
330
492
100
AcDbXrecord
 10
0.0
 20
0.0
 30
0.0
  0
XRECORD
  5
4AA
102
{ACAD_REACTORS
330
492
102
}
330
492
100
AcDbXrecord
340
0
  0
XRECORD
  5
4AB
102
{ACAD_REACTORS
330
492
102
}
330
492
100
AcDbXrecord
 70
     0
  0
XRECORD
  5
49E
102
{ACAD_REACTORS
330
492
102
}
330
492
100
AcDbXrecord
  1
{D576718D-388B-4F61-A80F-00D4173E78F1}
  0
DICTIONARYVAR
  5
349
102
{ACAD_REACTORS
330
348
102
}
330
348
100
DictionaryVariables
280
     0
  1
STANDARD
  0
DICTIONARYVAR
  5
37D
102
{ACAD_REACTORS
330
348
102
}
330
348
100
DictionaryVariables
280
     0
  1
1
  0
DICTIONARYVAR
  5
37C
102
{ACAD_REACTORS
330
348
102
}
330
348
100
DictionaryVariables
280
     0
  1
1
  0
DICTIONARYVAR
  5
37E
102
{ACAD_REACTORS
330
348
102
}
330
348
100
DictionaryVariables
280
     0
  1

  0
ENDSEC
  0
EOF
