  0
SECTION
  2
HEADER
  9
$ACADVER
  1
AC1014
  9
$ACADMAINTVER
 70
     9
  9
$DWGCODEPAGE
  3
ANSI_1252
  9
$INSBASE
 10
6.4606414343
 20
8.2355198893
 30
0.0
  9
$EXTMIN
 10
-25.41390612869037
 20
-10.39128623269475
 30
-0.0015258207003583
  9
$EXTMAX
 10
40.59012219162684
 20
25.61091103293282
 30
0.0000000349246037
  9
$LIMMIN
 10
0.0
 20
0.0
  9
$LIMMAX
 10
17.0
 20
11.0
  9
$ORTHOMODE
 70
     1
  9
$REGENMODE
 70
     1
  9
$FILLMODE
 70
     1
  9
$QTEXTMODE
 70
     0
  9
$MIRRTEXT
 70
     1
  9
$DRAGMODE
 70
     2
  9
$LTSCALE
 40
2.0
  9
$OSMODE
 70
    55
  9
$ATTMODE
 70
     1
  9
$TEXTSIZE
 40
0.2
  9
$TRACEWID
 40
0.05
  9
$TEXTSTYLE
  7
STANDARD
  9
$CLAYER
  8
0
  9
$CELTYPE
  6
BYLAYER
  9
$CECOLOR
 62
   256
  9
$CELTSCALE
 40
1.0
  9
$DELOBJ
 70
     1
  9
$DISPSILH
 70
     0
  9
$DIMSCALE
 40
1.0
  9
$DIMASZ
 40
0.1875
  9
$DIMEXO
 40
0.0625
  9
$DIMDLI
 40
0.38
  9
$DIMRND
 40
0.0
  9
$DIMDLE
 40
0.0
  9
$DIMEXE
 40
0.18
  9
$DIMTP
 40
0.0
  9
$DIMTM
 40
0.0
  9
$DIMTXT
 40
0.125
  9
$DIMCEN
 40
0.09
  9
$DIMTSZ
 40
0.0
  9
$DIMTOL
 70
     0
  9
$DIMLIM
 70
     0
  9
$DIMTIH
 70
     1
  9
$DIMTOH
 70
     1
  9
$DIMSE1
 70
     0
  9
$DIMSE2
 70
     0
  9
$DIMTAD
 70
     0
  9
$DIMZIN
 70
     4
  9
$DIMBLK
  1
_FILLED
  9
$DIMASO
 70
     1
  9
$DIMSHO
 70
     1
  9
$DIMPOST
  1

  9
$DIMAPOST
  1

  9
$DIMALT
 70
     0
  9
$DIMALTD
 70
     2
  9
$DIMALTF
 40
25.4
  9
$DIMLFAC
 40
1.0
  9
$DIMTOFL
 70
     0
  9
$DIMTVP
 40
0.0
  9
$DIMTIX
 70
     0
  9
$DIMSOXD
 70
     0
  9
$DIMSAH
 70
     0
  9
$DIMBLK1
  1
_FILLED
  9
$DIMBLK2
  1
_FILLED
  9
$DIMSTYLE
  2
STANDARD
  9
$DIMCLRD
 70
     0
  9
$DIMCLRE
 70
     0
  9
$DIMCLRT
 70
     0
  9
$DIMTFAC
 40
1.0
  9
$DIMGAP
 40
0.09
  9
$DIMJUST
 70
     0
  9
$DIMSD1
 70
     0
  9
$DIMSD2
 70
     0
  9
$DIMTOLJ
 70
     1
  9
$DIMTZIN
 70
     4
  9
$DIMALTZ
 70
     0
  9
$DIMALTTZ
 70
     0
  9
$DIMFIT
 70
     3
  9
$DIMUPT
 70
     0
  9
$DIMUNIT
 70
     2
  9
$DIMDEC
 70
     6
  9
$DIMTDEC
 70
     6
  9
$DIMALTU
 70
     2
  9
$DIMALTTD
 70
     2
  9
$DIMTXSTY
  7
STANDARD
  9
$DIMAUNIT
 70
     0
  9
$LUNITS
 70
     2
  9
$LUPREC
 70
     4
  9
$SKETCHINC
 40
0.1
  9
$FILLETRAD
 40
0.0
  9
$AUNITS
 70
     0
  9
$AUPREC
 70
     0
  9
$MENU
  1
acad
  9
$ELEVATION
 40
0.0
  9
$PELEVATION
 40
0.0
  9
$THICKNESS
 40
0.0
  9
$LIMCHECK
 70
     0
  9
$BLIPMODE
 70
     0
  9
$CHAMFERA
 40
0.0
  9
$CHAMFERB
 40
0.0
  9
$CHAMFERC
 40
0.0
  9
$CHAMFERD
 40
0.0
  9
$SKPOLY
 70
     0
  9
$TDCREATE
 40
2453676.832069583
  9
$TDUPDATE
 40
2453685.549746782
  9
$TDINDWG
 40
0.0154239005
  9
$TDUSRTIMER
 40
0.0154239005
  9
$USRTIMER
 70
     1
  9
$ANGBASE
 50
0.0
  9
$ANGDIR
 70
     0
  9
$PDMODE
 70
     3
  9
$PDSIZE
 40
0.015625
  9
$PLINEWID
 40
0.0
  9
$COORDS
 70
     1
  9
$SPLFRAME
 70
     0
  9
$SPLINETYPE
 70
     6
  9
$SPLINESEGS
 70
     8
  9
$ATTDIA
 70
     0
  9
$ATTREQ
 70
     1
  9
$HANDLING
 70
 22529
  9
$HANDSEED
  5
20A
  9
$SURFTAB1
 70
     6
  9
$SURFTAB2
 70
     6
  9
$SURFTYPE
 70
     6
  9
$SURFU
 70
     6
  9
$SURFV
 70
     6
  9
$UCSNAME
  2

  9
$UCSORG
 10
0.0
 20
0.0
 30
0.0
  9
$UCSXDIR
 10
1.0
 20
0.0
 30
0.0
  9
$UCSYDIR
 10
0.0
 20
1.0
 30
0.0
  9
$PUCSNAME
  2

  9
$PUCSORG
 10
0.0
 20
0.0
 30
0.0
  9
$PUCSXDIR
 10
1.0
 20
0.0
 30
0.0
  9
$PUCSYDIR
 10
0.0
 20
1.0
 30
0.0
  9
$USERI1
 70
     0
  9
$USERI2
 70
     0
  9
$USERI3
 70
     0
  9
$USERI4
 70
     0
  9
$USERI5
 70
     0
  9
$USERR1
 40
0.0
  9
$USERR2
 40
0.0
  9
$USERR3
 40
0.0
  9
$USERR4
 40
0.0
  9
$USERR5
 40
0.0
  9
$WORLDVIEW
 70
     1
  9
$SHADEDGE
 70
     3
  9
$SHADEDIF
 70
    70
  9
$TILEMODE
 70
     1
  9
$MAXACTVP
 70
    16
  9
$PINSBASE
 10
0.0
 20
0.0
 30
0.0
  9
$PLIMCHECK
 70
     0
  9
$PEXTMIN
 10
1.000000000000000E+20
 20
1.000000000000000E+20
 30
1.000000000000000E+20
  9
$PEXTMAX
 10
-1.000000000000000E+20
 20
-1.000000000000000E+20
 30
-1.000000000000000E+20
  9
$PLIMMIN
 10
0.0
 20
0.0
  9
$PLIMMAX
 10
12.0
 20
9.0
  9
$UNITMODE
 70
     0
  9
$VISRETAIN
 70
     0
  9
$PLINEGEN
 70
     1
  9
$PSLTSCALE
 70
     0
  9
$TREEDEPTH
 70
  3020
  9
$PICKSTYLE
 70
     1
  9
$CMLSTYLE
  2
STANDARD
  9
$CMLJUST
 70
     0
  9
$CMLSCALE
 40
1.0
  9
$PROXYGRAPHICS
 70
     0
  9
$MEASUREMENT
 70
     0
  0
ENDSEC
  0
SECTION
  2
CLASSES
  0
CLASS
  1
ACDBDICTIONARYWDFLT
  2
AcDbDictionaryWithDefault
  3
AutoCAD 2000
 90
        0
280
     0
281
     0
  0
CLASS
  1
ACDBPLACEHOLDER
  2
AcDbPlaceHolder
  3
AutoCAD 2000
 90
        0
280
     0
281
     0
  0
CLASS
  1
LAYOUT
  2
AcDbLayout
  3
AutoCAD 2000
 90
        0
280
     0
281
     0
  0
CLASS
  1
LWPOLYLINE
  2
AcDbPolyline
  3
AutoCAD 2000
 90
        0
280
     0
281
     1
  0
CLASS
  1
IMAGE
  2
AcDbRasterImage
  3
ISM
 90
      127
280
     0
281
     1
  0
CLASS
  1
OLE2FRAME
  2
AcDbOle2Frame
  3
AutoCAD 2000
 90
        0
280
     0
281
     1
  0
CLASS
  1
HATCH
  2
AcDbHatch
  3
AutoCAD 2000
 90
        0
280
     0
281
     1
  0
CLASS
  1
DICTIONARYVAR
  2
AcDbDictionaryVar
  3
AutoCAD 2000
 90
        0
280
     0
281
     0
  0
CLASS
  1
RASTERVARIABLES
  2
AcDbRasterVariables
  3
ISM
 90
        0
280
     0
281
     0
  0
CLASS
  1
IMAGEDEF
  2
AcDbRasterImageDef
  3
ISM
 90
        0
280
     0
281
     0
  0
CLASS
  1
IMAGEDEF_REACTOR
  2
AcDbRasterImageDefReactor
  3
ISM
 90
        1
280
     0
281
     0
  0
CLASS
  1
IDBUFFER
  2
AcDbIdBuffer
  3
AutoCAD 2000
 90
        0
280
     0
281
     0
  0
CLASS
  1
SPATIAL_FILTER
  2
AcDbSpatialFilter
  3
AutoCAD 2000
 90
        0
280
     0
281
     0
  0
CLASS
  1
XRECORD
  2
AcDbXrecord
  3
AutoCAD 2000
 90
        0
280
     0
281
     0
  0
CLASS
  1
SORTENTSTABLE
  2
AcDbSortentsTable
  3
AutoCAD 2000
 90
        0
280
     0
281
     0
  0
CLASS
  1
LAYER_INDEX
  2
AcDbLayerIndex
  3
AutoCAD 2000
 90
        0
280
     0
281
     0
  0
CLASS
  1
SPATIAL_INDEX
  2
AcDbSpatialIndex
  3
AutoCAD 2000
 90
        0
280
     0
281
     0
  0
CLASS
  1
OBJECT_PTR
  2
CAseDLPNTableRecord
  3
ASE-LPNTableRecord
 90
        1
280
     0
281
     0
  0
CLASS
  1
PLOTSETTINGS
  2
AcDbPlotSettings
  3
AutoCAD 2000
 90
        0
280
     0
281
     0
  0
CLASS
  1
VBA_PROJECT
  2
AcDbVbaProject
  3
acadvba
 90
        0
280
     0
281
     0
  0
CLASS
  1
WIPEOUT
  2
AcDbWipeout
  3
"WipeOut|Product Desc: Object Enabler for WipeOut entity^I^I^I^I^I^I|Company: Autodesk, Inc.^I^I^I^I^I^I|WEB Address: www.autodesk.com"
 90
      127
280
     0
281
     1
  0
CLASS
  1
WIPEOUTVARIABLES
  2
AcDbWipeoutVariables
  3
"WipeOut|Product Desc:     WipeOut Dbx Application|Company:          Autodesk, Inc.|WEB Address:      www.autodesk.com"
 90
        0
280
     0
281
     0
  0
CLASS
  1
RTEXT
  2
RText
  3
RText|AutoCAD Express Tool|expresstools@autodesk.com
 90
        0
280
     1
281
     1
  0
CLASS
  1
ARCALIGNEDTEXT
  2
AcDbArcAlignedText
  3
ATEXT|AutoCAD Express Tool|expresstools@autodesk.com
 90
        0
280
     1
281
     1
  0
CLASS
  1
TABLESTYLE
  2
AcDbTableStyle
  3
ObjectDBX Classes
 90
     2047
280
     0
281
     0
  0
CLASS
  1
ACAD_PROXY_OBJECT_WRAPPER
  2
AcDbProxyObjectWrapper
  3
AutoCAD 2000
 90
        0
280
     0
281
     0
  0
CLASS
  1
LONG_TRANSACTION
  2
AcDbLongTransaction
  3
AutoCAD 2000
 90
        0
280
     0
281
     0
  0
CLASS
  1
LWPOLYLINE
  2
AcDbPolyline
  3
AutoCAD 2000
 90
        0
280
     0
281
     1
  0
CLASS
  1
HATCH
  2
AcDbHatch
  3
AutoCAD 2000
 90
        0
280
     0
281
     1
  0
CLASS
  1
XRECORD
  2
AcDbXrecord
  3
AutoCAD 2000
 90
        0
280
     0
281
     0
  0
CLASS
  1
LONG_TRANSACTION
  2
AcDbLongTransaction
  3
AutoCAD 2000
 90
        0
280
     0
281
     0
  0
CLASS
  1
LWPOLYLINE
  2
AcDbPolyline
  3
AutoCAD 2000
 90
        0
280
     0
281
     1
  0
CLASS
  1
HATCH
  2
AcDbHatch
  3
AutoCAD 2000
 90
        0
280
     0
281
     1
  0
CLASS
  1
XRECORD
  2
AcDbXrecord
  3
AutoCAD 2000
 90
        0
280
     0
281
     0
  0
ENDSEC
  0
SECTION
  2
TABLES
  0
TABLE
  2
VPORT
  5
1E
330
0
100
AcDbSymbolTable
 70
     3
  0
VPORT
  5
1E6
330
1E
100
AcDbSymbolTableRecord
100
AcDbViewportTableRecord
  2
*ACTIVE
 70
     0
 10
0.0
 20
0.0
 11
1.0
 21
1.0
 12
7.588108052037981
 22
7.609812329408242
 13
0.0
 23
0.0
 14
1.0
 24
1.0
 15
0.0
 25
0.0
 16
0.0
 26
0.0
 36
1.0
 17
0.0
 27
0.0
 37
0.0
 40
42.74958931749168
 41
1.786792452830188
 42
50.0
 43
0.0
 44
0.0
 50
0.0
 51
0.0
 71
     0
 72
   100
 73
     1
 74
     1
 75
     0
 76
     0
 77
     0
 78
     0
  0
ENDTAB
  0
TABLE
  2
LTYPE
  5
19
330
0
100
AcDbSymbolTable
 70
     2
  0
LTYPE
  5
1A
330
19
100
AcDbSymbolTableRecord
100
AcDbLinetypeTableRecord
  2
BYBLOCK
 70
     0
  3

 72
    65
 73
     0
 40
0.0
  0
LTYPE
  5
1B
330
19
100
AcDbSymbolTableRecord
100
AcDbLinetypeTableRecord
  2
BYLAYER
 70
     0
  3

 72
    65
 73
     0
 40
0.0
  0
LTYPE
  5
8
330
19
100
AcDbSymbolTableRecord
100
AcDbLinetypeTableRecord
  2
CONTINUOUS
 70
     0
  3
Solid line
 72
    65
 73
     0
 40
0.0
  0
LTYPE
  5
113
330
19
100
AcDbSymbolTableRecord
100
AcDbLinetypeTableRecord
  2
CENTER
 70
     0
  3
____ _ ____ _ ____ _ ____ _ ____ _ ____ _ ____
 72
    65
 73
     4
 40
0.6
 49
0.375
 74
     0
 49
-0.075
 74
     0
 49
0.075
 74
     0
 49
-0.075
 74
     0
  0
ENDTAB
  0
TABLE
  2
LAYER
  5
11
102
{ACAD_XDICTIONARY
360
12
102
}
330
0
100
AcDbSymbolTable
 70
     2
  0
LAYER
  5
6
330
11
100
AcDbSymbolTableRecord
100
AcDbLayerTableRecord
  2
0
 70
     0
 62
     7
  6
CONTINUOUS
  0
LAYER
  5
112
330
11
100
AcDbSymbolTableRecord
100
AcDbLayerTableRecord
  2
CENTER
 70
     0
 62
     1
  6
CENTER
1001
ACAECLAYERSTANDARD
1000

1000

  0
ENDTAB
  0
TABLE
  2
STYLE
  5
16
330
0
100
AcDbSymbolTable
 70
     1
  0
STYLE
  5
17
330
16
100
AcDbSymbolTableRecord
100
AcDbTextStyleTableRecord
  2
STANDARD
 70
     0
 40
0.0
 41
0.8
 50
0.0
 71
     0
 42
0.2
  3
txt
  4

  0
ENDTAB
  0
TABLE
  2
VIEW
  5
1C
330
0
100
AcDbSymbolTable
 70
     0
  0
ENDTAB
  0
TABLE
  2
UCS
  5
1D
330
0
100
AcDbSymbolTable
 70
     0
  0
ENDTAB
  0
TABLE
  2
APPID
  5
20
330
0
100
AcDbSymbolTable
 70
     4
  0
APPID
  5
15
330
20
100
AcDbSymbolTableRecord
100
AcDbRegAppTableRecord
  2
ACAD
 70
     0
  0
APPID
  5
114
330
20
100
AcDbSymbolTableRecord
100
AcDbRegAppTableRecord
  2
ACAECLAYERSTANDARD
 70
     0
  0
APPID
  5
134
330
20
100
AcDbSymbolTableRecord
100
AcDbRegAppTableRecord
  2
DCO15
 70
     0
  0
APPID
  5
13C
330
20
100
AcDbSymbolTableRecord
100
AcDbRegAppTableRecord
  2
ACAD_DSTYLE_DIMTEXT_FILL
 70
     0
  0
ENDTAB
  0
TABLE
  2
DIMSTYLE
  5
21
330
0
100
AcDbSymbolTable
 70
     1
  0
DIMSTYLE
105
22
330
21
100
AcDbSymbolTableRecord
100
AcDbDimStyleTableRecord
  2
STANDARD
 70
     0
  3

  4

  5
_FILLED
  6
_FILLED
  7
_FILLED
 40
1.0
 41
0.1875
 42
0.0625
 43
0.38
 44
0.18
 45
0.0
 46
0.0
 47
0.0
 48
0.0
140
0.125
141
0.09
142
0.0
143
25.4
144
16.0
145
0.0
146
1.0
147
0.09
 71
     0
 72
     0
 73
     1
 74
     1
 75
     0
 76
     0
 77
     0
 78
     4
170
     0
171
     2
172
     0
173
     0
174
     0
175
     0
176
     0
177
     0
178
     0
270
     2
271
     6
272
     6
273
     2
274
     2
340
17
275
     0
280
     0
281
     0
282
     0
283
     1
284
     4
285
     0
286
     0
287
     3
288
     0
  0
ENDTAB
  0
TABLE
  2
BLOCK_RECORD
  5
1
330
0
100
AcDbSymbolTable
 70
     1
  0
BLOCK_RECORD
  5
2
102
{ACAD_XDICTIONARY
360
3
102
}
330
1
100
AcDbSymbolTableRecord
100
AcDbBlockTableRecord
  2
*MODEL_SPACE
  0
BLOCK_RECORD
  5
D
102
{ACAD_XDICTIONARY
360
19F
102
}
330
1
100
AcDbSymbolTableRecord
100
AcDbBlockTableRecord
  2
*PAPER_SPACE
  0
BLOCK_RECORD
  5
23
330
1
100
AcDbSymbolTableRecord
100
AcDbBlockTableRecord
  2
_FILLED
  0
ENDTAB
  0
ENDSEC
  0
SECTION
  2
BLOCKS
  0
BLOCK
  5
5
330
2
100
AcDbEntity
  8
0
100
AcDbBlockBegin
  2
*MODEL_SPACE
 70
     0
 10
0.0
 20
0.0
 30
0.0
  3
*MODEL_SPACE
  1

  0
ENDBLK
  5
9
330
2
100
AcDbEntity
  8
0
100
AcDbBlockEnd
  0
BLOCK
  5
E
330
D
100
AcDbEntity
 67
     1
  8
0
100
AcDbBlockBegin
  2
*PAPER_SPACE
 70
     0
 10
0.0
 20
0.0
 30
0.0
  3
*PAPER_SPACE
  1

  0
ENDBLK
  5
F
330
D
100
AcDbEntity
 67
     1
  8
0
100
AcDbBlockEnd
  0
BLOCK
  5
24
330
23
100
AcDbEntity
  8
0
100
AcDbBlockBegin
  2
_FILLED
 70
     0
 10
0.0
 20
0.0
 30
0.0
  3
_FILLED
  1

  0
SOLID
  5
25
330
23
100
AcDbEntity
  8
0
  6
BYBLOCK
 62
     0
100
AcDbTrace
 10
0.0
 20
0.0
 30
0.0
 11
-1.0
 21
0.1666666667
 31
0.0
 12
-1.0
 22
-0.1666666667
 32
0.0
 13
-1.0
 23
-0.1666666667
 33
0.0
  0
ENDBLK
  5
26
330
23
100
AcDbEntity
  8
0
  6
BYBLOCK
 62
     0
100
AcDbBlockEnd
  0
ENDSEC
  0
SECTION
  2
ENTITIES
  0
LWPOLYLINE
  5
32
330
2
100
AcDbEntity
  8
0
100
AcDbPolyline
 90
       64
 70
     0
 43
0.0
 10
-16.00127361019998
 20
9.050828508299986
 10
-15.99291699419999
 20
9.086349922700009
 10
-15.98415404059998
 20
9.123049469899996
 10
-15.97487745819999
 20
9.161015682699996
 10
-15.96497996379999
 20
9.200337098700003
 10
-15.95437092699999
 20
9.241030537099987
 10
-15.94302636539999
 20
9.282825962700002
 10
-15.93093895739998
 20
9.325381621899992
 10
-15.91810137819999
 20
9.368355765899991
 10
-15.90449956219999
 20
9.411462133899988
 10
-15.89009245499999
 20
9.454636425100005
 10
-15.87488677979999
 20
9.497754586699983
 10
-15.85910731419998
 20
9.5402315563
 10
-15.84295606779998
 20
9.581574625099989
 10
-15.82632588219999
 20
9.622121489099981
 10
-15.80902015579999
 20
9.662402532300006
 10
-15.79079366139998
 20
9.70288848589999
 10
-15.77147136539998
 20
9.743872169100001
 10
-15.75120763579999
 20
9.784994407499993
 10
-15.73019171739999
 20
9.8258657051
 10
-15.70842296219999
 20
9.866627265099992
 10
-15.68592242459999
 20
9.907432821899988
 10
-15.66298788539999
 20
9.947955545100001
 10
-15.63998630459999
 20
9.987748458699996
 10
-15.61728464219999
 20
10.02636458509999
 10
-15.59518679739999
 20
10.0634604843
 10
-15.57374441659999
 20
10.09910685549999
 10
-15.55294609179998
 20
10.13347793549999
 10
-15.53278041019999
 20
10.16674795949998
 10
-15.51323713019999
 20
10.19906711149999
 10
-15.49431069979998
 20
10.23048937709998
 10
-15.47599673499998
 20
10.2610446891
 10
-15.45829085339999
 20
10.2907629867
 10
-15.43561823099999
 20
10.32914049709998
 10
-15.41398977979999
 20
10.36617457229999
 10
-15.39337642459999
 20
10.4019565867
 10
-15.37374777979999
 20
10.43657298989998
 10
-15.35506821019998
 20
10.47009053549999
 10
-15.33730077019998
 20
10.50257105069999
 10
-15.32040747259999
 20
10.5340762955
 10
-15.30434616059999
 20
10.56466778509999
 10
-15.28907363579999
 20
10.59440696589999
 10
-15.27455026779998
 20
10.62334411949999
 10
-15.26075069179999
 20
10.6514848523
 10
-15.24765310459999
 20
10.67882361069999
 10
-15.23523693979998
 20
10.7053506043
 10
-15.22348654299999
 20
10.73103912909999
 10
-15.21238749019999
 20
10.75585825389998
 10
-15.20191894619999
 20
10.77979274029999
 10
-15.19203443739999
 20
10.8028901483
 10
-15.18268107739999
 20
10.8252137339
 10
-15.17380467899999
 20
10.84683494829999
 10
-15.16534583739999
 20
10.86785802829999
 10
-15.15724385179999
 20
10.88839540589998
 10
-15.14562896539999
 20
10.9185480971
 10
-15.13448621979998
 20
10.94830861389999
 10
-15.12364420859999
 20
10.97808391789999
 10
-15.11302268539999
 20
11.00811810509998
 10
-15.10262392859998
 20
11.03858129389999
 10
-15.09268917819999
 20
11.0695105515
 10
-15.08351560539998
 20
11.10087467790001
 10
-15.07538515099999
 20
11.1325024315
 10
-15.06855251259999
 20
11.16423965709998
 10
-15.06317863899999
 20
11.19614058989998
  0
LINE
  5
33
330
2
100
AcDbEntity
  8
0
100
AcDbLine
 10
6.463607466600003
 20
18.07696818189998
 30
0.0
 11
6.213607466600003
 21
17.82696818189998
 31
0.0
  0
LINE
  5
34
330
2
100
AcDbEntity
  8
0
100
AcDbLine
 10
40.227792089
 20
-0.9198775589000014
 30
0.0
 11
40.227792089
 21
-9.780823219700014
 31
0.0
  0
LWPOLYLINE
  5
35
330
2
100
AcDbEntity
  8
0
100
AcDbPolyline
 90
       61
 70
     0
 43
0.0
 10
40.227792089
 20
-9.78082321970001
 10
40.22770676900001
 20
-9.787359168500003
 10
40.227451145
 20
-9.793892429300001
 10
40.22702530180001
 20
-9.800417738100009
 10
40.22642932900001
 20
-9.806929829300003
 10
40.2256641418
 20
-9.813417984500006
 10
40.2247298234
 20
-9.819883488500011
 10
40.22362699140001
 20
-9.82632213970001
 10
40.22235626020001
 20
-9.832729733299998
 10
40.22091969220001
 20
-9.839096306100003
 10
40.21931720420001
 20
-9.8454232821
 10
40.21754985700001
 20
-9.851706266100009
 10
40.21561870980001
 20
-9.857940858100008
 10
40.21352674980001
 20
-9.864117470899998
 10
40.2112738602
 20
-9.870237194099999
 10
40.2088615738
 20
-9.876295838900006
 10
40.206291425
 20
-9.882289213299998
 10
40.2035669322
 20
-9.888209138100009
 10
40.20068829700001
 20
-9.894055675700002
 10
40.19765749860001
 20
-9.899824802099999
 10
40.19447651140001
 20
-9.905512493300008
 10
40.19114913060001
 20
-9.911111912500004
 10
40.18767609380001
 20
-9.916622178099999
 10
40.184059809
 20
-9.922039507700006
 10
40.18030268100001
 20
-9.927360118899997
 10
40.176408441
 20
-9.932578634100011
 10
40.17237865700001
 20
-9.937693213300008
 10
40.16821613220002
 20
-9.942700354099997
 10
40.16392367300001
 20
-9.947596557300002
 10
40.15950465540001
 20
-9.952377843700006
 10
40.1549617082
 20
-9.9570415445
 10
40.15029800580001
 20
-9.961584490100008
 10
40.1455167194
 20
-9.966003507700008
 10
40.1406205146
 20
-9.97029596530001
 10
40.13561337380001
 20
-9.974458488500005
 10
40.13049879460001
 20
-9.978488272500001
 10
40.12528027780001
 20
-9.982382510900009
 10
40.11995966500001
 20
-9.986139638899999
 10
40.1145423338
 20
-9.989755922100002
 10
40.1090320666
 20
-9.993228957300004
 10
40.10343264580001
 20
-9.996556338100006
 10
40.097744953
 20
-9.999737323700003
 10
40.091975825
 20
-10.0027681221
 10
40.08612928580001
 20
-10.00564675569999
 10
40.08020936100002
 20
-10.00837124689999
 10
40.07421598500001
 20
-10.0109413957
 10
40.0681573418
 20
-10.0133536805
 10
40.06203761860001
 20
-10.0156065685
 10
40.05586100420001
 20
-10.0176985285
 10
40.04962641060001
 20
-10.0196296725
 10
40.043343425
 20
-10.0213970181
 10
40.0370164458
 20
-10.0229995045
 10
40.03064987140001
 20
-10.0244360709
 10
40.02424228260001
 20
-10.0257068005
 10
40.01780363620001
 20
-10.0268096325
 10
40.011338137
 20
-10.0277439509
 10
40.00484998660001
 20
-10.0285091381
 10
39.99833790340001
 20
-10.0291051093
 10
39.9918126042
 20
-10.02953095090001
 10
39.98527935460001
 20
-10.0297865765
 10
39.9787434154
 20
-10.02987189489999
  0
LINE
  5
36
330
2
100
AcDbEntity
  8
0
100
AcDbLine
 10
39.97874341539999
 20
-10.0298718949
 30
0.0
 11
-5.411905973400002
 21
-10.0298718949
 31
0.0
  0
LWPOLYLINE
  5
37
330
2
100
AcDbEntity
  8
0
100
AcDbPolyline
 90
       23
 70
     0
 43
0.0
 10
-2.92010588219999
 20
-6.795734038900008
 10
-2.371385827799997
 20
-6.756108712500008
 10
-1.74355938459999
 20
-6.714940230899998
 10
-1.03348184699999
 20
-6.671725995700001
 10
-0.2503341717999916
 20
-6.625486480500001
 10
0.6029037546000069
 20
-6.575168117300009
 10
1.533340121000009
 20
-6.520297098100002
 10
2.549638513000004
 20
-6.460362501300011
 10
3.661797637800006
 20
-6.394774669300005
 10
4.881449421800013
 20
-6.322847626099999
 10
6.222302831400014
 20
-6.243772907700005
 10
7.700703495400006
 20
-6.156586557300002
 10
9.336496909800004
 20
-6.060118218100001
 10
11.154127209
 20
-5.952926333299998
 10
13.1854044714
 20
-5.833180002100007
 10
15.4746693098
 20
-5.698873643700011
 10
18.04422413220001
 20
-5.550134795700003
 10
20.53855230500001
 20
-5.409076299700004
 10
22.73756741060001
 20
-5.28847684530001
 10
24.73551094020001
 20
-5.182736938100006
 10
26.59069154500001
 20
-5.088419262900004
 10
28.33641009540001
 20
-5.003554240500008
 10
29.99578343300001
 20
-4.926792133299997
  0
LWPOLYLINE
  5
38
330
2
100
AcDbEntity
  8
0
100
AcDbPolyline
 90
       60
 70
     0
 43
0.0
 10
29.99578343300001
 20
-4.926792133299997
 10
30.13004360740001
 20
-4.919557677300005
 10
30.26487107940001
 20
-4.910149269300006
 10
30.400323201
 20
-4.898543064500003
 10
30.53640031460001
 20
-4.884717141300001
 10
30.6730793322
 20
-4.868651550899997
 10
30.81035217860001
 20
-4.8503247461
 10
30.94822552900001
 20
-4.829712422900001
 10
31.0867030154
 20
-4.806789376500006
 10
31.22577647620001
 20
-4.781531294900005
 10
31.36543181060001
 20
-4.753914350900004
 10
31.5056527482
 20
-4.723914773300009
 10
31.6464235354
 20
-4.691508362100009
 10
31.78773030820001
 20
-4.656669978099998
 10
31.9295530682
 20
-4.619375384500003
 10
32.0718467498
 20
-4.579607037300007
 10
32.2145545002
 20
-4.537351886899998
 10
32.3576224218
 20
-4.492597421300004
 10
32.50100931780001
 20
-4.445327968500009
 10
32.64467778660001
 20
-4.395526554100001
 10
32.788441097
 20
-4.343231240500003
 10
32.9322229514
 20
-4.288446598900009
 10
33.076134737
 20
-4.23110193490001
 10
33.220211257
 20
-4.171151242100009
 10
33.3643531482
 20
-4.10860900050001
 10
33.5089088298
 20
-4.043290928499999
 10
33.6542094346
 20
-3.974994517300004
 10
33.79995722660001
 20
-3.903802763699999
 10
33.9447561946
 20
-3.830392750900003
 10
34.0861675194
 20
-3.756046814900003
 10
34.2214085594
 20
-3.68231842610001
 10
34.3498303898
 20
-3.60973483730001
 10
34.4729215242
 20
-3.537635979699999
 10
34.59175194020001
 20
-3.4655199253
 10
34.70661406340001
 20
-3.393311358900007
 10
34.81785840900001
 20
-3.320889202100005
 10
34.92611483140001
 20
-3.247926266100009
 10
35.0318801498
 20
-3.174146506100001
 10
35.13547785700001
 20
-3.099367251700002
 10
35.23715922340001
 20
-3.023441483699997
 10
35.33715818340001
 20
-2.946222486899998
 10
35.43594623460001
 20
-2.867358318900002
 10
35.53408311460001
 20
-2.786384198900009
 10
35.6318396986
 20
-2.703034795700006
 10
35.72935684740001
 20
-2.617140949300008
 10
35.8267860122
 20
-2.528516603699998
 10
35.92442532420001
 20
-2.436823821300009
 10
36.0228113002
 20
-2.341462006900002
 10
36.12248634340001
 20
-2.241770456500006
 10
36.22386091780001
 20
-2.137170536500008
 10
36.327244673
 20
-2.027153320500005
 10
36.43263743300001
 20
-1.911534517299998
 10
36.53963594020001
 20
-1.790584165300003
 10
36.64767521860001
 20
-1.664750104500001
 10
36.7558511546
 20
-1.534921022900007
 10
36.863288273
 20
-1.402055862899999
 10
36.96969801380001
 20
-1.2664596165
 10
37.0750597258
 20
-1.128102282100002
 10
37.17913450500001
 20
-0.987233795700007
 10
37.227792089
 20
-0.9198775588999978
  0
LWPOLYLINE
  5
39
330
2
100
AcDbEntity
  8
0
100
AcDbPolyline
 90
       49
 70
     0
 43
0.0
 10
-5.411905973399996
 20
-6.922164349300004
 10
-5.192640906199997
 20
-6.912701197300009
 10
-4.994976205399993
 20
-6.903837453299999
 10
-4.816205286999988
 20
-6.895577227700002
 10
-4.654079558999995
 20
-6.887904453300009
 10
-4.506704878999997
 20
-6.880791976500006
 10
-4.372480138199989
 20
-6.8742077765
 10
-4.250051102999989
 20
-6.868118747700009
 10
-4.138248032599989
 20
-6.862491650099997
 10
-4.036042298199987
 20
-6.857293648500004
 10
-3.942520875799985
 20
-6.852492888500009
 10
-3.856872066199997
 20
-6.848059088500008
 10
-3.778376486999988
 20
-6.843964032500011
 10
-3.706393150999986
 20
-6.840181546099998
 10
-3.640341950999996
 20
-6.836687075699998
 10
-3.579695690199997
 20
-6.8334576437
 10
-3.523982470999996
 20
-6.830472246900001
 10
-3.472778653399984
 20
-6.827711699700003
 10
-3.425699838999989
 20
-6.825158310900008
 10
-3.382397269399987
 20
-6.822795818100004
 10
-3.342553624599986
 20
-6.820609246900005
 10
-3.305878270999997
 20
-6.818584728499999
 10
-3.272106706199991
 20
-6.816709528499998
 10
-3.240999528599985
 20
-6.814972042100009
 10
-3.212338142999996
 20
-6.813361590900001
 10
-3.185923653399996
 20
-6.811868402100003
 10
-3.161574750999989
 20
-6.810483510899999
 10
-3.139125619799997
 20
-6.809198670900002
 10
-3.118424517399986
 20
-6.80800629170001
 10
-3.099332515799986
 20
-6.806899382899999
 10
-3.081722325399994
 20
-6.805871502900004
 10
-3.065477229399988
 20
-6.804916714100002
 10
-3.050490106199987
 20
-6.804029530100009
 10
-3.036662514199989
 20
-6.803204877300004
 10
-3.023903771799993
 20
-6.802438048500007
 10
-3.012130064599986
 20
-6.801724654899999
 10
-3.001264131799985
 20
-6.801060618100009
 10
-2.991234789399996
 20
-6.80044213970001
 10
-2.981976350999985
 20
-6.799865675700004
 10
-2.973428078999987
 20
-6.799327902900003
 10
-2.965533619799984
 20
-6.798825686900002
 10
-2.958240515799985
 20
-6.79835604530001
 10
-2.951499411799986
 20
-6.797916099700003
 10
-2.945263144599991
 20
-6.7975030021
 10
-2.939484803799985
 20
-6.797113787699998
 10
-2.934121946199994
 20
-6.796745616500004
 10
-2.929132331799991
 20
-6.796395408500004
 10
-2.924514150999996
 20
-6.796062573300005
 10
-2.92010588219999
 20
-6.795734038900008
  0
LWPOLYLINE
  5
3A
330
2
100
AcDbEntity
  8
0
100
AcDbPolyline
 90
       36
 70
     0
 43
0.0
 10
-15.06312924379999
 20
4.023229156300004
 10
-15.06829978299999
 20
4.054069730700007
 10
-15.07474002459999
 20
4.084379516300003
 10
-15.08226520059999
 20
4.114191437899989
 10
-15.09067015739999
 20
4.14349617709999
 10
-15.09973815739999
 20
4.172279364299981
 10
-15.10922650779998
 20
4.200548668300001
 10
-15.11892749659999
 20
4.228342061900008
 10
-15.12879925339999
 20
4.255796717899983
 10
-15.14913833819998
 20
4.3102781547
 10
-15.17052612219998
 20
4.36468849709999
 10
-15.19279058779999
 20
4.418517047499989
 10
-15.20420493659999
 20
4.445104357899992
 10
-15.21593660539998
 20
4.471764250700005
 10
-15.22814696379999
 20
4.498846909899981
 10
-15.24100361979999
 20
4.526671809100008
 10
-15.25001886619999
 20
4.545788284299987
 10
-15.25945596699999
 20
4.565466914699982
 10
-15.26937434939998
 20
4.585801396299984
 10
-15.27982666779998
 20
4.606870116300001
 10
-15.29083849499999
 20
4.6286902091
 10
-15.30242863419999
 20
4.651263497099989
 10
-15.31461244859998
 20
4.674588565899995
 10
-15.32739155739999
 20
4.698651052299993
 10
-15.34076413659999
 20
4.723433357900006
 10
-15.35473296379999
 20
4.748926993099985
 10
-15.36931919739998
 20
4.775159922699998
 10
-15.38454859099999
 20
4.802169218699987
 10
-15.40044763739999
 20
4.829996970699994
 10
-15.41704577659999
 20
4.858705301899988
 10
-15.43437318299999
 20
4.888361348300009
 10
-15.45245947259999
 20
4.919031018699996
 10
-15.47133199739999
 20
4.950775308299995
 10
-15.49101754779999
 20
4.983653983500005
 10
-15.51153904059999
 20
5.017729626700003
 10
-15.57233109019998
 20
5.118230933900008
  0
LWPOLYLINE
  5
3B
330
2
100
AcDbEntity
  8
0
100
AcDbPolyline
 90
       27
 70
     0
 43
0.0
 10
-15.57233109019998
 20
5.118230933900008
 10
-15.59001933819999
 20
5.147585573899988
 10
-15.60817474459999
 20
5.177926601099983
 10
-15.62679170939999
 20
5.209346666699985
 10
-15.64584536699999
 20
5.241908601099993
 10
-15.66523378459999
 20
5.275555933899994
 10
-15.68486969019998
 20
5.310275074700001
 10
-15.70480153019999
 20
5.346343268299989
 10
-15.72503536699999
 20
5.383984730700007
 10
-15.74527201499999
 20
5.422920749899986
 10
-15.76516421499999
 20
5.462755410699998
 10
-15.78447768699999
 20
5.503126890700002
 10
-15.80305992539999
 20
5.543778873099995
 10
-15.82097254939998
 20
5.584842951500007
 10
-15.83831225339999
 20
5.626526653899986
 10
-15.85510187419998
 20
5.668953332299992
 10
-15.87660645499999
 20
5.726711465099981
 10
-15.89695053499998
 20
5.785354807499999
 10
-15.91594376059999
 20
5.844265845899997
 10
-15.92920646139999
 20
5.88824536749999
 10
-15.94163465179999
 20
5.931719853900006
 10
-15.95326074459999
 20
5.974381041100002
 10
-15.96411715899999
 20
6.015920666699997
 10
-15.97424848379999
 20
6.056094497099991
 10
-15.98374801979999
 20
6.094914410699999
 10
-15.99272123739999
 20
6.132456317899993
 10
-16.00127361019998
 20
6.168796124300001
  0
LINE
  5
3C
330
2
100
AcDbEntity
  8
0
100
AcDbLine
 10
6.463607466600003
 20
17.82696818189998
 30
0.0
 11
6.213607466600003
 21
18.07696818189998
 31
0.0
  0
LINE
  5
3D
330
2
100
AcDbEntity
  8
0
100
AcDbLine
 10
3.703115365799996
 20
20.55738015629998
 30
0.0
 11
8.704984860200006
 21
20.2624022139
 31
0.0
  0
LWPOLYLINE
  5
3E
330
2
100
AcDbEntity
  8
0
100
AcDbPolyline
 90
       16
 70
     0
 43
0.0
 10
-25.05157633339999
 20
25.0004478523
 10
-25.05021357659999
 20
25.02655442509999
 10
-25.04614050939999
 20
25.05235430989998
 10
-25.03940296699999
 20
25.0775654427
 10
-25.03007568539999
 20
25.10191379949998
 10
-25.01826077499999
 20
25.12513708430001
 10
-25.00408694939999
 20
25.14698471629998
 10
-24.98770794619999
 20
25.1672211579
 10
-24.96930099579999
 20
25.18562811149999
 10
-24.94906455739999
 20
25.20200711949999
 10
-24.92721693179999
 20
25.2161809499
 10
-24.90399365179999
 20
25.22799586189998
 10
-24.87964529659999
 20
25.23732314829999
 10
-24.85443417179999
 20
25.24406069869999
 10
-24.82863426779999
 20
25.2481337675
 10
-24.80252765819999
 20
25.24949652749998
  0
LINE
  5
3F
330
2
100
AcDbEntity
  8
0
100
AcDbLine
 10
-25.4118921222
 20
-9.892090334900007
 30
0.0
 11
-25.4118921222
 21
25.1117149675
 31
0.0
  0
LINE
  5
40
330
2
100
AcDbEntity
  8
0
100
AcDbLine
 10
-25.0515763334
 20
-9.780823219700014
 30
0.0
 11
-25.0515763334
 21
25.00044785229999
 31
0.0
  0
LWPOLYLINE
  5
41
330
2
100
AcDbEntity
  8
0
100
AcDbPolyline
 90
       43
 70
     0
 43
0.0
 10
-24.02016527739998
 20
7.609812316300008
 10
-24.00247433819998
 20
8.439868676299994
 10
-23.95045946459999
 20
9.247309751499983
 10
-23.86592633499998
 20
10.0288423419
 10
-23.75119449819999
 20
10.7799292043
 10
-23.60889712059999
 20
11.49649338669999
 10
-23.43989354619999
 20
12.1840398363
 10
-23.24437650459999
 20
12.84788592909998
 10
-23.02379316699999
 20
13.48757120589999
 10
-22.78054550779999
 20
14.0999921899
 10
-22.51655695259999
 20
14.6840487483
 10
-22.23283232379999
 20
15.2406720779
 10
-21.92672969659999
 20
15.7770677531
 10
-21.59901820379999
 20
16.29298907629999
 10
-21.25116604539999
 20
16.78707453709998
 10
-20.88317775259999
 20
17.26005684749998
 10
-20.49295279419999
 20
17.7150098491
 10
-20.08182127899999
 20
18.15041847949999
 10
-19.65144609339999
 20
18.56464047149998
 10
-19.19983316379999
 20
18.95946875469999
 10
-18.72536563579998
 20
19.3359458587
 10
-18.22987784539999
 20
19.6920905835
 10
-17.71408208219999
 20
20.02690692429999
 10
-17.16952452699999
 20
20.34487312909999
 10
-16.58993719259999
 20
20.64791628909998
 10
-15.96806200219999
 20
20.9374144091
 10
-15.30320407099998
 20
21.21108028589998
 10
-14.62030484379999
 20
21.45719496749998
 10
-13.94473818299999
 20
21.66781422509998
 10
-13.29954433019999
 20
21.83825760109999
 10
-12.63823426459999
 20
21.98198085869998
 10
-11.93769691259998
 20
22.10168441709999
 10
-11.20472719579999
 20
22.1931866907
 10
-10.39884308059998
 20
22.25788424589998
 10
-9.569113048599987
 20
22.29076142989999
 10
-8.838365274199993
 20
22.29657587149998
 10
-8.187739806999992
 20
22.2873969899
 10
-7.603571317399989
 20
22.26950294189998
 10
-7.076567538199995
 20
22.24664280589999
 10
-6.599407253399988
 20
22.22116639789999
 10
-6.166126432599995
 20
22.19459702989999
 10
-5.771667110999985
 20
22.1679271179
 10
-5.411897480599989
 20
22.14178823309998
  0
LWPOLYLINE
  5
42
330
2
100
AcDbEntity
  8
0
100
AcDbPolyline
 90
       31
 70
     0
 43
0.0
 10
-18.58752110139999
 20
7.609812316300008
 10
-18.58531420859998
 20
7.495404383499987
 10
-18.57862098939999
 20
7.380409517900005
 10
-18.56739238459999
 20
7.265701877899999
 10
-18.55166647739999
 20
7.152182053899991
 10
-18.53156749339999
 20
7.040729359500005
 10
-18.50721037019999
 20
6.931809708299994
 10
-18.47860307099998
 20
6.8254363275
 10
-18.44567581659999
 20
6.721570762699997
 10
-18.40827066139999
 20
6.620158306700005
 10
-18.36623962939999
 20
6.521394239499983
 10
-18.31942057499998
 20
6.425576015499984
 10
-18.26701774779999
 20
6.332037978699986
 10
-18.20891397499999
 20
6.241706351499999
 10
-18.14414195579998
 20
6.154335349900009
 10
-18.07175173019999
 20
6.070192202699985
 10
-17.99086885979998
 20
5.989968133899992
 10
-17.90067948219999
 20
5.914600909900002
 10
-17.80073783899999
 20
5.845288103499996
 10
-17.69079933979999
 20
5.782159580300003
 10
-17.57048866139999
 20
5.723204308299983
 10
-17.44014251099999
 20
5.666556951499984
 10
-17.29926109659999
 20
5.612073356299987
 10
-17.14810314139999
 20
5.559188965900005
 10
-16.98762172219999
 20
5.506457661899986
 10
-16.81798899099999
 20
5.450396425099995
 10
-16.63830199739999
 20
5.384734850699999
 10
-16.44800012859999
 20
5.298699399500009
 10
-16.24802405819998
 20
5.179283681100002
 10
-16.03064757819999
 20
5.016671501899992
 10
-15.82050413819999
 20
4.827375546699983
  0
LWPOLYLINE
  5
43
330
2
100
AcDbEntity
  8
0
100
AcDbPolyline
 90
       31
 70
     0
 43
0.0
 10
-18.58752110139999
 20
7.609812316300008
 10
-18.58531420859998
 20
7.7242202507
 10
-18.57862098939999
 20
7.839215114699982
 10
-18.56739238459999
 20
7.953922754699988
 10
-18.55166647739999
 20
8.067442578699996
 10
-18.53156749339999
 20
8.178895273099982
 10
-18.50721037019999
 20
8.287814924299993
 10
-18.47860307099998
 20
8.394188305099987
 10
-18.44567581659999
 20
8.49805386989999
 10
-18.40827066139999
 20
8.599466325899982
 10
-18.36623962939999
 20
8.698230393100004
 10
-18.31942057499998
 20
8.794048617100003
 10
-18.26701774779999
 20
8.887586653900001
 10
-18.20891397499999
 20
8.977918281099988
 10
-18.14414195579998
 20
9.065289282700007
 10
-18.07175173019999
 20
9.149432429900002
 10
-17.99086885979998
 20
9.229656498699995
 10
-17.90067948219999
 20
9.305023722699985
 10
-17.80073783899999
 20
9.374336529099991
 10
-17.69079933979999
 20
9.437465052299984
 10
-17.57048866139999
 20
9.496420324300004
 10
-17.44014251099999
 20
9.553067681100003
 10
-17.29926109659999
 20
9.6075512763
 10
-17.14810314139999
 20
9.660435668299982
 10
-16.98762172219999
 20
9.713166970700001
 10
-16.81798899099999
 20
9.769228207499992
 10
-16.63830199739999
 20
9.834889781899988
 10
-16.44800012859999
 20
9.920925233100007
 10
-16.24802405819998
 20
10.04034095149998
 10
-16.03064757819999
 20
10.20295313229999
 10
-15.82050413819999
 20
10.3922490859
  0
LWPOLYLINE
  5
44
330
2
100
AcDbEntity
  8
0
100
AcDbPolyline
 90
       31
 70
     0
 43
0.0
 10
-16.21937847739999
 20
7.609812316300008
 10
-16.21857131579999
 20
7.522273028299991
 10
-16.21614476219998
 20
7.434444517900004
 10
-16.21209120539999
 20
7.346349724299983
 10
-16.20640149819999
 20
7.257996295499992
 10
-16.19906032539999
 20
7.169330697100008
 10
-16.19005083739999
 20
7.08028409549999
 10
-16.18218734459999
 20
7.013206370700004
 10
-16.17336040059998
 20
6.945838549900003
 10
-16.16355445979999
 20
6.878143564299989
 10
-16.15275397979998
 20
6.810084349899995
 10
-16.14094264859998
 20
6.741625873099991
 10
-16.12810108059998
 20
6.672741244299999
 10
-16.11420912059999
 20
6.603405610700008
 10
-16.09924661819999
 20
6.533594113100008
 10
-16.08319312059999
 20
6.463283340299994
 10
-16.06602700379998
 20
6.392455641099985
 10
-16.04772634619999
 20
6.321094809100003
 10
-16.02826922299998
 20
6.249184633099986
 10
-16.00763202619999
 20
6.176705932299995
 10
-15.98578440059998
 20
6.10362764589999
 10
-15.96269430139999
 20
6.029915733899997
 10
-15.93832968539999
 20
5.955536161099985
 10
-15.91265828219999
 20
5.880457385099987
 10
-15.88564690619999
 20
5.804657823500008
 10
-15.85726214459999
 20
5.728118388300003
 10
-15.82747058459999
 20
5.650819989899986
 10
-15.79624148699998
 20
5.572749925899984
 10
-15.76355480219999
 20
5.493921028300007
 10
-15.72939315579999
 20
5.414352516299999
 10
-15.69373917019999
 20
5.334063610699985
  0
LWPOLYLINE
  5
45
330
2
100
AcDbEntity
  8
0
100
AcDbPolyline
 90
        7
 70
     0
 43
0.0
 10
-14.27903618139998
 20
15.64493574349998
 10
-14.03538077339999
 20
16.08028452589999
 10
-13.78025626299999
 20
16.49733802509999
 10
-13.51640509659999
 20
16.89303488429999
 10
-13.24641905339999
 20
17.26484392430001
 10
-12.97413762299999
 20
17.6093348539
 10
-12.70400838459999
 20
17.92323375629999
  0
LWPOLYLINE
  5
46
330
2
100
AcDbEntity
  8
0
100
AcDbPolyline
 90
       19
 70
     0
 43
0.0
 10
-15.03785535419999
 20
11.29642232589998
 10
-15.04534383899999
 20
11.26797103789999
 10
-15.05314453499999
 20
11.23960021869999
 10
-15.06125845499999
 20
11.2113076651
 10
-15.06968661019999
 20
11.1830911675
 10
-15.07843001019999
 20
11.15494852269998
 10
-15.08748966779999
 20
11.1268775259
 10
-15.09686607739999
 20
11.0988774795
 10
-15.10655767739999
 20
11.07095373869998
 10
-15.11656239099998
 20
11.04311316589999
 10
-15.12687814139999
 20
11.01536262189998
 10
-15.13750285179999
 20
10.98770897389999
 10
-15.14843444539999
 20
10.96015908429998
 10
-15.15967141979999
 20
10.9327183435
 10
-15.17121457179999
 20
10.90538626509999
 10
-15.18306527259999
 20
10.8781608843
 10
-15.19522489179998
 20
10.8510402427
 10
-15.20769480219998
 20
10.82402237709999
 10
-15.22047637179999
 20
10.79710533069999
  0
LWPOLYLINE
  5
47
330
2
100
AcDbEntity
  8
0
100
AcDbPolyline
 90
       31
 70
     0
 43
0.0
 10
-15.69373917019999
 20
9.885561021900002
 10
-15.72939315579999
 20
9.805272116299988
 10
-15.76355480219999
 20
9.725703604300008
 10
-15.79624148699998
 20
9.646874706700003
 10
-15.82747058459999
 20
9.568804642700001
 10
-15.85726214459999
 20
9.491506244299984
 10
-15.88564690619999
 20
9.414966809100008
 10
-15.91265828219999
 20
9.3391672475
 10
-15.93832968539999
 20
9.264088471500002
 10
-15.96269430139999
 20
9.18970889869999
 10
-15.98578440059998
 20
9.115996988299997
 10
-16.00763202619999
 20
9.042918700299992
 10
-16.02826922299998
 20
8.970440001100001
 10
-16.04772634619999
 20
8.898529823499984
 10
-16.06602700379998
 20
8.827168991500002
 10
-16.08319312059999
 20
8.756341292299993
 10
-16.09924661819999
 20
8.686030519500008
 10
-16.11420912059999
 20
8.616219023500008
 10
-16.12810108059998
 20
8.546883388299988
 10
-16.14094264859998
 20
8.477998759499996
 10
-16.15275397979998
 20
8.409540282699992
 10
-16.16355445979999
 20
8.341481068299998
 10
-16.17336040059998
 20
8.273786082699984
 10
-16.18218734459999
 20
8.206418261899983
 10
-16.19005083739999
 20
8.139340537099997
 10
-16.19906032539999
 20
8.050293935500008
 10
-16.20640149819999
 20
7.961628337099995
 10
-16.21209120539999
 20
7.873274908300004
 10
-16.21614476219998
 20
7.785180114699983
 10
-16.21857131579999
 20
7.697351604299996
 10
-16.21937847739999
 20
7.609812316300008
  0
LWPOLYLINE
  5
48
330
2
100
AcDbEntity
  8
0
100
AcDbPolyline
 90
       12
 70
     0
 43
0.0
 10
-15.22047637019999
 20
10.79710532909999
 10
-15.22862695419998
 20
10.7803173627
 10
-15.23688973659999
 20
10.76357237069998
 10
-15.24526510459999
 20
10.74686988109999
 10
-15.25375344379999
 20
10.73020942029998
 10
-15.26235496379999
 20
10.7135908683
 10
-15.27106914779999
 20
10.69701551629998
 10
-15.27989530139999
 20
10.68048500909998
 10
-15.28883273019999
 20
10.66400098829998
 10
-15.29788091739999
 20
10.6475647483
 10
-15.30704004859999
 20
10.6311761675
 10
-15.31631048699998
 20
10.61483477549998
  0
LWPOLYLINE
  5
49
330
2
100
AcDbEntity
  8
0
100
AcDbPolyline
 90
       12
 70
     0
 43
0.0
 10
-15.32647377819999
 20
10.59968170669998
 10
-15.49856412699999
 20
10.2871037051
 10
-15.64865262619998
 20
9.983890636300003
 10
-15.77794800699999
 20
9.690319599499986
 10
-15.88780224379998
 20
9.406249031499982
 10
-15.97967020699999
 20
9.131001946699996
 10
-16.05491509659999
 20
8.86366656749999
 10
-16.11473371419999
 20
8.603234524300006
 10
-16.16013754939999
 20
8.348621290700009
 10
-16.19192548859999
 20
8.098801729099989
 10
-16.21069715099999
 20
7.852890188299994
 10
-16.21689038779999
 20
7.609841109900003
  0
LWPOLYLINE
  5
4A
330
2
100
AcDbEntity
  8
0
100
AcDbPolyline
 90
        3
 70
     0
 43
0.0
 10
-13.86040172219998
 20
15.65085684269999
 10
-13.87706518139999
 20
15.62116794029998
 10
-13.89282551899999
 20
15.59210371789998
  0
LWPOLYLINE
  5
4B
330
2
100
AcDbEntity
  8
0
100
AcDbPolyline
 90
       18
 70
     0
 43
0.0
 10
-15.31631048699998
 20
10.61483477549998
 10
-15.34961548539999
 20
10.5570338075
 10
-15.37311009659999
 20
10.5157451963
 10
-15.39617792379998
 20
10.47467965869998
 10
-15.41882045819998
 20
10.43384258829999
 10
-15.44103919579998
 20
10.3932393739
 10
-15.46283562939999
 20
10.35287540909999
 10
-15.48421241019999
 20
10.31275373709999
 10
-15.50517681179999
 20
10.27286801869999
 10
-15.52573727099999
 20
10.23320956429998
 10
-15.54590221979999
 20
10.1937696891
 10
-15.56568008859999
 20
10.1545397035
 10
-15.58507931579999
 20
10.11551092269999
 10
-15.60786840059999
 20
10.06893361389998
 10
-15.63012666299999
 20
10.0226417515
 10
-15.65185638139999
 20
9.97664355949999
 10
-15.67305983579998
 20
9.930947261900001
 10
-15.69373930779999
 20
9.885561084300007
  0
LWPOLYLINE
  5
4C
330
2
100
AcDbEntity
  8
0
100
AcDbPolyline
 90
       11
 70
     0
 43
0.0
 10
-13.86040172219998
 20
15.65085684269999
 10
-13.77198325339998
 20
15.79450562509998
 10
-13.66172909179999
 20
15.95072503309998
 10
-13.52600729659999
 20
16.1201768475
 10
-13.36144685499998
 20
16.30250311149998
 10
-13.16655857819998
 20
16.49502243149999
 10
-12.94118856379999
 20
16.69400586349999
 10
-12.68389689979999
 20
16.89724406349998
 10
-12.39415311739998
 20
17.1020573483
 10
-12.07423145659999
 20
17.30405066349999
 10
-11.72585253339999
 20
17.49975567309999
  0
LWPOLYLINE
  5
4D
330
2
100
AcDbEntity
  8
0
100
AcDbPolyline
 90
       42
 70
     0
 43
0.0
 10
-13.07465907579999
 20
15.56596023629998
 10
-13.14126345179999
 20
15.47750154509998
 10
-13.20771399579999
 20
15.38674086669999
 10
-13.27393549819999
 20
15.2937102683
 10
-13.33985274939998
 20
15.19844181389998
 10
-13.40541800059999
 20
15.10092882189999
 10
-13.47069333659999
 20
15.00100961230001
 10
-13.53576830939999
 20
14.89848375629998
 10
-13.60073246299999
 20
14.79315082189998
 10
-13.65268320059998
 20
14.70672059629998
 10
-13.70466032699999
 20
14.6182143883
 10
-13.75670384699999
 20
14.5274810219
 10
-13.80885376219998
 20
14.4343693163
 10
-13.86115007579999
 20
14.33872809389998
 10
-13.90484700539999
 20
14.25703470669998
 10
-13.94855237179999
 20
14.17368603629998
 10
-13.99214516859998
 20
14.0888883931
 10
-14.03553978619999
 20
14.0027683275
 10
-14.07879221019999
 20
13.9151333387
 10
-14.12199382139998
 20
13.8257111691
 10
-14.17380392699999
 20
13.7158951387
 10
-14.22526983099999
 20
13.6040410283
 10
-14.27598890939999
 20
13.4910763579
 10
-14.32555853499999
 20
13.37792864109999
 10
-14.37357608539999
 20
13.2655253979
 10
-14.41217696539999
 20
13.17297240109999
 10
-14.44956146779998
 20
13.08138838669998
 10
-14.48587064219999
 20
12.99058122989998
 10
-14.53852640699999
 20
12.85559633549999
 10
-14.58895425819999
 20
12.72241566509998
 10
-14.63706386619998
 20
12.59146046509999
 10
-14.68290677979999
 20
12.46288270029998
 10
-14.72657001339999
 20
12.33676701549998
 10
-14.76814058299999
 20
12.21319805549998
 10
-14.80771090299999
 20
12.0921922379
 10
-14.84539500219999
 20
11.9734930827
 10
-14.88131230779999
 20
11.85677588269999
 10
-14.91558224859999
 20
11.74171592749999
 10
-14.94831287579999
 20
11.62806454669998
 10
-14.97956674299999
 20
11.51587720749998
 10
-15.00939502139998
 20
11.4052854107
 10
-15.03784889019998
 20
11.29642066189998
  0
LWPOLYLINE
  5
4E
330
2
100
AcDbEntity
  8
0
100
AcDbPolyline
 90
        7
 70
     0
 43
0.0
 10
-12.70400838459999
 20
-2.703609123700005
 10
-12.97413762299999
 20
-2.389710221300006
 10
-13.24641905339999
 20
-2.045219291700007
 10
-13.51640509659999
 20
-1.673410251700005
 10
-13.78025626299999
 20
-1.277713392500004
 10
-14.03538077339999
 20
-0.86065989330001
 10
-14.27903618139998
 20
-0.4253111108999974
  0
LWPOLYLINE
  5
4F
330
2
100
AcDbEntity
  8
0
100
AcDbPolyline
 90
      101
 70
     0
 43
0.0
 10
-13.07465935739999
 20
-0.3463352341000103
 10
-12.99149239099999
 20
-0.4519121525000003
 10
-12.90295516859998
 20
-0.5572350645000057
 10
-12.84087672059999
 20
-0.6272525700999978
 10
-12.77630032219999
 20
-0.697077072500008
 10
-12.70917676219998
 20
-0.766680419700009
 10
-12.63945904859999
 20
-0.8360321285000082
 10
-12.56710909019999
 20
-0.9050923717000074
 10
-12.49209101659999
 20
-0.9738189941000001
 10
-12.41436789979999
 20
-1.042170314100005
 10
-12.33389858299999
 20
-1.110106571700001
 10
-12.25064085019999
 20
-1.177588490100006
 10
-12.16456571899998
 20
-1.244564938099998
 10
-12.07569713499999
 20
-1.310937398900009
 10
-11.98407227739998
 20
-1.376595501300002
 10
-11.88971471419999
 20
-1.4414404165
 10
-11.79259358139999
 20
-1.505419470900008
 10
-11.69266439899999
 20
-1.568491526900004
 10
-11.58988140699999
 20
-1.630615085300007
 10
-11.48419369339999
 20
-1.6917471621
 10
-11.37554906459999
 20
-1.751844410100005
 10
-11.26388625499998
 20
-1.810865768500008
 10
-11.14910773339999
 20
-1.868779333299997
 10
-11.03110689819999
 20
-1.925555490100009
 10
-10.90978801499999
 20
-1.981158603700009
 10
-10.78509880859999
 20
-2.035528974900003
 10
-10.65699787099999
 20
-2.08860088690001
 10
-10.52539951259998
 20
-2.140320642100007
 10
-10.39004094619998
 20
-2.190682648500001
 10
-10.25061510619999
 20
-2.23969333330001
 10
-10.10681081979998
 20
-2.287352318900005
 10
-9.95830051419999
 20
-2.333632002100003
 10
-9.804752509399989
 20
-2.3784979733
 10
-9.686085797399989
 20
-2.411198059699998
 10
-9.564257738199991
 20
-2.443063397300008
 10
-9.439127254999988
 20
-2.474073803700008
 10
-9.310553275799989
 20
-2.504209096500005
 10
-9.178397331799992
 20
-2.533444074100003
 10
-9.042531371799988
 20
-2.561733448500007
 10
-8.902829949399993
 20
-2.589026910900003
 10
-8.759167618199988
 20
-2.615274154100006
 10
-8.611466219799993
 20
-2.640417694900008
 10
-8.45983675419999
 20
-2.664371357299998
 10
-8.304437512599989
 20
-2.68704178930001
 10
-8.14542678299999
 20
-2.70833564370001
 10
-7.982951008599989
 20
-2.728169152500001
 10
-7.817109230999989
 20
-2.746496899700005
 10
-7.64798864379999
 20
-2.7632830517
 10
-7.47567644219999
 20
-2.778491776500004
 10
-7.335521544599991
 20
-2.789502106100002
 10
-7.193029851799991
 20
-2.79948067090001
 10
-7.047851398999995
 20
-2.808428190900002
 10
-6.899636221399987
 20
-2.81634538610001
 10
-6.748034352599987
 20
-2.823232978100008
 10
-6.618929866199991
 20
-2.828181891699998
 10
-6.487447603799992
 20
-2.832388142900001
 10
-6.353804688599993
 20
-2.835823568500003
 10
-6.218144696599992
 20
-2.838463222900003
 10
-6.080317026199992
 20
-2.840295014900007
 10
-5.940097530199992
 20
-2.841310066100007
 10
-5.797345056599993
 20
-2.841498714099998
 10
-5.652250448599986
 20
-2.840848133299999
 10
-5.505087550999988
 20
-2.839344714100008
 10
-5.281619722199991
 20
-2.835494158900004
 10
-5.057088378199992
 20
-2.829805301299998
 10
-4.830173675799997
 20
-2.822261658100003
 10
-4.601631834199991
 20
-2.812986338100003
 10
-4.373058946199989
 20
-2.802148186099998
 10
-4.14605110459999
 20
-2.789916045300003
 10
-3.921303672599989
 20
-2.776420762100002
 10
-3.697439469399995
 20
-2.761725538100009
 10
-3.55028558939999
 20
-2.751426579700009
 10
-3.405592619799989
 20
-2.740831629300004
 10
-3.263720666199986
 20
-2.730016827699998
 10
-3.124923202199994
 20
-2.719048118900005
 10
-2.989027213399992
 20
-2.707950656500003
 10
-2.855753053399993
 20
-2.696739400500007
 10
-2.724957037399988
 20
-2.6854402453
 10
-2.597039322199989
 20
-2.674122837300004
 10
-2.472536018199988
 20
-2.662867760500006
 10
-2.351791080599994
 20
-2.651736843700007
 10
-2.234379827799997
 20
-2.640716880500008
 10
-2.119685422999992
 20
-2.629775910900008
 10
-1.951682002199987
 20
-2.613463643700001
 10
-1.788082363799986
 20
-2.597275266099998
 10
-1.628498086999996
 20
-2.581220242100002
 10
-1.472272027799988
 20
-2.565273622900008
 10
-1.318586936599984
 20
-2.549389342899999
 10
-1.166253899799997
 20
-2.533471309299997
 10
-0.8625906869999937
 20
-2.501309910900005
 10
-0.7113297125999907
 20
-2.48511509810001
 10
-0.5596465061999965
 20
-2.468784650100005
 10
-0.3555214565999876
 20
-2.446699362100005
 10
-0.1497720421999844
 20
-2.424340608500003
 10
0.0566268794000138
 20
-2.401838869300007
 10
0.6742930282000117
 20
-2.334297037300004
 10
1.289403068200002
 20
-2.267212443700003
 10
1.904778196200012
 20
-2.20101057490001
 10
2.521336508200008
 20
-2.136336310900006
 10
3.138639613800009
 20
-2.073946949300008
 10
3.756215583400006
 20
-2.014543184499999
  0
LWPOLYLINE
  5
50
330
2
100
AcDbEntity
  8
0
100
AcDbPolyline
 90
       11
 70
     0
 43
0.0
 10
-13.86040172219998
 20
-0.4312322101000064
 10
-13.77198325339998
 20
-0.5748809924999989
 10
-13.66172909179999
 20
-0.7311004004999973
 10
-13.52600729659999
 20
-0.9005522149000029
 10
-13.36144685499998
 20
-1.082878478899999
 10
-13.16655857819998
 20
-1.275397798900002
 10
-12.94118856379999
 20
-1.474381230900007
 10
-12.68389689979999
 20
-1.677619429300008
 10
-12.39415311739998
 20
-1.882432715700005
 10
-12.07423145659999
 20
-2.084426030900004
 10
-11.72585253339999
 20
-2.280131040500009
  0
LWPOLYLINE
  5
51
330
2
100
AcDbEntity
  8
0
100
AcDbPolyline
 90
       13
 70
     0
 43
0.0
 10
-15.34961547579999
 20
4.662590807500009
 10
-15.31631048699998
 20
4.604789857100001
 10
-15.30704004859999
 20
4.588448465099986
 10
-15.29788091739999
 20
4.572059884299989
 10
-15.28883273019999
 20
4.555623644299998
 10
-15.27989530139999
 20
4.539139623500005
 10
-15.27106914779999
 20
4.522609116300003
 10
-15.26235496379999
 20
4.506033764299985
 10
-15.25375344379999
 20
4.489415212300002
 10
-15.24526510459999
 20
4.472754751499991
 10
-15.23688973659999
 20
4.456052261899998
 10
-15.22862695419998
 20
4.439307269899984
 10
-15.22047637019999
 20
4.422519303499996
  0
LWPOLYLINE
  5
52
330
2
100
AcDbEntity
  8
0
100
AcDbPolyline
 90
       11
 70
     0
 43
0.0
 10
-15.32647377819999
 20
4.619942925900005
 10
-15.51455650139999
 20
4.963294773900003
 10
-15.67615025819999
 20
5.295258841100007
 10
-15.81289933499999
 20
5.615552652299982
 10
-15.92663365499999
 20
5.924502855500008
 10
-16.01928885819999
 20
6.223208701900006
 10
-16.09257897499998
 20
6.512934428299985
 10
-16.14796765179998
 20
6.795100253899988
 10
-16.18662013819999
 20
7.071143751499988
 10
-16.20938825339999
 20
7.342224690699993
 10
-16.21689039259999
 20
7.609841109900003
  0
LWPOLYLINE
  5
53
330
2
100
AcDbEntity
  8
0
100
AcDbPolyline
 90
        3
 70
     0
 43
0.0
 10
-13.89282551899999
 20
-0.3724790853000002
 10
-13.87706518139999
 20
-0.4015433077000097
 10
-13.86040172219998
 20
-0.4312322101000064
  0
LWPOLYLINE
  5
54
330
2
100
AcDbEntity
  8
0
100
AcDbPolyline
 90
       19
 70
     0
 43
0.0
 10
-15.22047637179999
 20
4.422519301899995
 10
-15.20769480219998
 20
4.395602255499994
 10
-15.19522489179998
 20
4.368584389900007
 10
-15.18306527259999
 20
4.341463748299986
 10
-15.17121457179999
 20
4.314238367499996
 10
-15.15967141979999
 20
4.286906289099988
 10
-15.14843444539999
 20
4.259465548299999
 10
-15.13750285179999
 20
4.231915658699989
 10
-15.12687814139999
 20
4.204262010700006
 10
-15.11656239099998
 20
4.176511468299992
 10
-15.10655767739999
 20
4.148670893900003
 10
-15.09686607739999
 20
4.120747153099983
 10
-15.08748966779999
 20
4.092747108299988
 10
-15.07843001019999
 20
4.064676109900005
 10
-15.06968661019999
 20
4.036533465100006
 10
-15.06125845499999
 20
4.008316969100008
 10
-15.05314453499999
 20
3.980024413899997
 10
-15.04534383899999
 20
3.95165359469999
 10
-15.03785535419999
 20
3.923202306700005
  0
LWPOLYLINE
  5
55
330
2
100
AcDbEntity
  8
0
100
AcDbPolyline
 90
       17
 70
     0
 43
0.0
 10
-15.69373930779999
 20
5.334063548300008
 10
-15.67305980859999
 20
5.288677308300009
 10
-15.65185632859999
 20
5.242980961099988
 10
-15.63012659099999
 20
5.1969827307
 10
-15.60786831579999
 20
5.150690842699987
 10
-15.58507922139999
 20
5.104113521100003
 10
-15.56567999579999
 20
5.065084740299994
 10
-15.54590212859999
 20
5.025854764299992
 10
-15.52573718779999
 20
4.986414905099991
 10
-15.50517673819999
 20
4.946756469900009
 10
-15.48421234459999
 20
4.906870772299981
 10
-15.46283557499999
 20
4.866749121099985
 10
-15.44103915099999
 20
4.826385175500007
 10
-15.41882042139999
 20
4.785781978699986
 10
-15.39617789499999
 20
4.7449449227
 10
-15.37311007739999
 20
4.703879402699982
 10
-15.34961547579999
 20
4.662590807500009
  0
LWPOLYLINE
  5
56
330
2
100
AcDbEntity
  8
0
100
AcDbPolyline
 90
       41
 70
     0
 43
0.0
 10
-15.03784889019998
 20
3.923203970700001
 10
-15.00946400859999
 20
3.814579130699996
 10
-14.97962096059998
 20
3.703899674699997
 10
-14.94821865179999
 20
3.591184372299991
 10
-14.91515598779999
 20
3.476451996299999
 10
-14.88034730299999
 20
3.359722077900002
 10
-14.84376867099999
 20
3.241017188299991
 10
-14.80541159259998
 20
3.120360666699994
 10
-14.76526756859998
 20
2.997775842699994
 10
-14.72330372699999
 20
2.873258642699994
 10
-14.67938967739998
 20
2.746695357899994
 10
-14.63337065019999
 20
2.6179448715
 10
-14.58509187899998
 20
2.486866065100002
 10
-14.53445485819999
 20
2.353452586700001
 10
-14.48158613019999
 20
2.218237146699991
 10
-14.42656811579998
 20
2.08168352749999
 10
-14.36908170459999
 20
1.943440719499989
 10
-14.32113150299999
 20
1.831447585099994
 10
-14.27170671739999
 20
1.718874893899993
 10
-14.22118101339999
 20
1.606579173900001
 10
-14.16992805979999
 20
1.495416962699991
 10
-14.11832152219999
 20
1.38624478989999
 10
-14.07526615899999
 20
1.297282943499993
 10
-14.03214459899999
 20
1.210054653900002
 10
-13.98887669499998
 20
1.124316697099999
 10
-13.94541602139999
 20
1.039900697099994
 10
-13.90185102299999
 20
0.9569376923000021
 10
-13.85830386459999
 20
0.8756335770999896
 10
-13.80619996379999
 20
0.7804622618999986
 10
-13.75425156699999
 20
0.687815983500002
 10
-13.70241257659999
 20
0.5975344938999996
 10
-13.65063689019999
 20
0.5094575434999911
 10
-13.59887840699999
 20
0.4234248842999904
 10
-13.53413613179998
 20
0.3185365243000007
 10
-13.46926985979999
 20
0.2164098427000027
 10
-13.40420074779999
 20
0.1168627002999898
 10
-13.33884994939999
 20
0.0197129626999981
 10
-13.27316371899998
 20
-0.0751868325000089
 10
-13.20718870939999
 20
-0.167845422900001
 10
-13.14099667099998
 20
-0.2582368709000065
 10
-13.07465935739999
 20
-0.3463352341000103
  0
LWPOLYLINE
  5
57
330
2
100
AcDbEntity
  8
0
100
AcDbPolyline
 90
        7
 70
     0
 43
0.0
 10
-15.82049464219998
 20
10.39228094509999
 10
-15.65193568379999
 20
10.56659912429998
 10
-15.50812965499999
 20
10.72704930669999
 10
-15.38372168219999
 20
10.8709758555
 10
-15.26429223259999
 20
11.01236121389999
 10
-15.14239215259999
 20
11.1615815099
 10
-15.02192819259999
 20
11.31777987309999
  0
LWPOLYLINE
  5
58
330
2
100
AcDbEntity
  8
0
100
AcDbPolyline
 90
        8
 70
     0
 43
0.0
 10
-10.55455877019998
 20
19.61378220110001
 10
-10.87479844699998
 20
19.4369867627
 10
-11.19678501819999
 20
19.23734746349998
 10
-11.50404968859999
 20
19.02382356429998
 10
-11.80114800539999
 20
18.79260921389999
 10
-12.09878844379999
 20
18.53457666829999
 10
-12.39933534139999
 20
18.2461135419
 10
-12.70400838459999
 20
17.92323375629999
  0
LWPOLYLINE
  5
59
330
2
100
AcDbEntity
  8
0
100
AcDbPolyline
 90
       30
 70
     0
 43
0.0
 10
-10.55455877019998
 20
19.6137821995
 10
-10.16440606939999
 20
19.8029635691
 10
-9.742480398999994
 20
19.9803507899
 10
-9.283322763799993
 20
20.14561432429999
 10
-8.780234829399994
 20
20.2980428715
 10
-8.224786032599993
 20
20.43649357710001
 10
-7.631377920599987
 20
20.55484824269999
 10
-7.040809739799996
 20
20.64672275629999
 10
-6.453653102999993
 20
20.71603271469999
 10
-5.913170365399992
 20
20.76293071629998
 10
-5.438975083799988
 20
20.7922805339
 10
-5.020122634199992
 20
20.8100850939
 10
-4.644949875799994
 20
20.82068065709998
 10
-4.304078304599997
 20
20.82665284109998
 10
-3.994367469399989
 20
20.82944858029998
 10
-3.715248170199984
 20
20.83004043789998
 10
-3.464966706199987
 20
20.82913706509998
 10
-3.241115610199997
 20
20.82724646189999
 10
-3.041163200599996
 20
20.82472757389999
 10
-2.862680483799991
 20
20.8218333243
 10
-2.703409144599987
 20
20.81874092429998
 10
-2.561301942999989
 20
20.81557390189999
 10
-2.434520898199991
 20
20.81241738669999
 10
-2.321418160599989
 20
20.80932863629999
 10
-2.220541152599992
 20
20.8063450939
 10
-2.130626678999988
 20
20.8034901931
 10
-2.05057550939999
 20
20.80077666029998
 10
-1.979445166999994
 20
20.79820854029998
 10
-1.916465218199988
 20
20.79578112589999
 10
-1.861089600599996
 20
20.79347174189999
  0
LINE
  5
5A
330
2
100
AcDbEntity
  8
0
100
AcDbLine
 10
40.090010529
 20
-10.3901876837
 30
0.0
 11
-24.9137947734
 21
-10.3901876837
 31
0.0
  0
LWPOLYLINE
  5
5B
330
2
100
AcDbEntity
  8
0
100
AcDbPolyline
 90
       16
 70
     0
 43
0.0
 10
-24.80252765819999
 20
-10.02987189489999
 10
-24.82863426779999
 20
-10.0285091349
 10
-24.85443417179999
 20
-10.0244360661
 10
-24.87964529659999
 20
-10.0176985157
 10
-24.90399365179999
 20
-10.00837122930001
 10
-24.92721693179999
 20
-9.996556317300004
 10
-24.94906455739999
 20
-9.982382486900007
 10
-24.96930099579999
 20
-9.966003478900006
 10
-24.98770794619999
 20
-9.947596525299999
 10
-25.00408694939999
 20
-9.927360083700008
 10
-25.01826077499999
 20
-9.905512451700005
 10
-25.03007568539999
 20
-9.882289166900008
 10
-25.03940296699999
 20
-9.857940810100004
 10
-25.04614050939999
 20
-9.832729677300008
 10
-25.05021357659999
 20
-9.8069297925
 10
-25.05157633339999
 20
-9.78082321970001
  0
LWPOLYLINE
  5
5C
330
2
100
AcDbEntity
  8
0
100
AcDbPolyline
 90
       16
 70
     0
 43
0.0
 10
-24.91379477339999
 20
-10.3901876837
 10
-24.96560764059999
 20
-10.38709210609999
 10
-25.01687701499999
 20
-10.3786220261
 10
-25.06704602299999
 20
-10.3648633237
 10
-25.11556863579999
 20
-10.3459592453
 10
-25.16180503739999
 20
-10.3221733461
 10
-25.20534796539999
 20
-10.2937353013
 10
-25.24575147099999
 20
-10.2609339045
 10
-25.28257385659999
 20
-10.2241185573
 10
-25.31541125659999
 20
-10.1836825701
 10
-25.34390198139998
 20
-10.1400589973
 10
-25.36771772859999
 20
-10.0937442261
 10
-25.38657256379999
 20
-10.0453270741
 10
-25.40031629339999
 20
-9.995218989299999
 10
-25.40879056059999
 20
-9.943956518900009
 10
-25.41189212219999
 20
-9.892090334900004
  0
LWPOLYLINE
  5
5D
330
2
100
AcDbEntity
  8
0
100
AcDbPolyline
 90
        8
 70
     0
 43
0.0
 10
-10.55455877019998
 20
-4.394157568500006
 10
-10.87479844699998
 20
-4.217362130099999
 10
-11.19678501819999
 20
-4.017722829299998
 10
-11.50404968859999
 20
-3.8041989317
 10
-11.80114800539999
 20
-3.572984581300005
 10
-12.09878844379999
 20
-3.314952035700002
 10
-12.39933534139999
 20
-3.026488909299999
 10
-12.70400838459999
 20
-2.703609123700005
  0
LWPOLYLINE
  5
5E
330
2
100
AcDbEntity
  8
0
100
AcDbPolyline
 90
        7
 70
     0
 43
0.0
 10
-15.82049464219998
 20
4.82734368749999
 10
-15.65193568379999
 20
4.653025508300004
 10
-15.50812965499999
 20
4.492575325899991
 10
-15.38372168219999
 20
4.348648777099981
 10
-15.26429223259999
 20
4.207263418699994
 10
-15.14239215259999
 20
4.058043122699984
 10
-15.02192819259999
 20
3.901844759499994
  0
LWPOLYLINE
  5
5F
330
2
100
AcDbEntity
  8
0
100
AcDbPolyline
 90
        6
 70
     0
 43
0.0
 10
-11.72585253339999
 20
17.49975567309999
 10
-11.39575187099999
 20
17.66508724429999
 10
-11.04466589179999
 20
17.8220288555
 10
-10.67440294299998
 20
17.96860476749998
 10
-10.28897990619999
 20
18.10238138829999
 10
-9.888071640599989
 20
18.2225759019
  0
LINE
  5
60
330
2
100
AcDbEntity
  8
0
100
AcDbLine
 10
39.97874341539999
 20
-10.0298718949
 30
0.0
 11
-24.80252765819999
 21
-10.0298718949
 31
0.0
  0
LWPOLYLINE
  5
61
330
2
100
AcDbEntity
  8
0
100
AcDbPolyline
 90
        6
 70
     0
 43
0.0
 10
-11.72585253339999
 20
-2.280131040500009
 10
-11.39575187099999
 20
-2.445462611700008
 10
-11.04466589179999
 20
-2.602404222900005
 10
-10.67440294299998
 20
-2.748980134900008
 10
-10.28897990619999
 20
-2.8827567557
 10
-9.888071640599989
 20
-3.002951269299998
  0
LWPOLYLINE
  5
62
330
2
100
AcDbEntity
  8
0
100
AcDbPolyline
 90
       42
 70
     0
 43
0.0
 10
-5.411910429399995
 20
-6.922164541300006
 10
-5.780370763799993
 20
-6.948914256500003
 10
-6.185424392599998
 20
-6.976219206899997
 10
-6.631734781399984
 20
-7.00339882930001
 10
-7.125194678999989
 20
-7.029370430900002
 10
-7.673105954199989
 20
-7.052440453300008
 10
-8.28474688699999
 20
-7.0699007077
 10
-8.972288939799987
 20
-7.077265589299997
 10
-9.752488053399993
 20
-7.066514514100006
 10
-10.62151159899999
 20
-7.023852091700007
 10
-11.42177223419999
 20
-6.949905714099998
 10
-12.15797290299999
 20
-6.847915512500009
 10
-12.86478407899998
 20
-6.716568107699998
 10
-13.52846168699999
 20
-6.561623078899998
 10
-14.19596386619998
 20
-6.373651803699999
 10
-14.89646437339999
 20
-6.142157464500002
 10
-15.59003919099998
 20
-5.877656997300007
 10
-16.25264174619999
 20
-5.589590627700005
 10
-16.86801905019999
 20
-5.28716500050001
 10
-17.44292257339998
 20
-4.969899499700005
 10
-17.98378794779998
 20
-4.636548110900008
 10
-18.50020592219999
 20
-4.28259106130001
 10
-18.99542994299999
 20
-3.906557374900003
 10
-19.46757759099999
 20
-3.510376622899997
 10
-19.91592979899999
 20
-3.095178304500009
 10
-20.34417513819999
 20
-2.657792974900004
 10
-20.75115996699999
 20
-2.199314314100007
 10
-21.13524579259999
 20
-1.721532766899997
 10
-21.49716491579999
 20
-1.223279485299997
 10
-21.83848257179999
 20
-0.7017771316999984
 10
-22.15759386139998
 20
-0.1584555781000034
 10
-22.45317261659999
 20
0.4054762666999921
 10
-22.72760122779999
 20
0.9965174634999982
 10
-22.98072909019999
 20
1.617413141900001
 10
-23.21051346459999
 20
2.267087138699992
 10
-23.41451839899999
 20
2.94277364429999
 10
-23.59083344059999
 20
3.642787409099994
 10
-23.73924794619998
 20
4.372477482699991
 10
-23.85895342939999
 20
5.137949789900005
 10
-23.94727327899999
 20
5.935813945099994
 10
-24.00165822779999
 20
6.760939588300004
 10
-24.02016527739998
 20
7.609812316300008
  0
LINE
  5
63
330
2
100
AcDbEntity
  8
0
100
AcDbLine
 10
-2.371385827800003
 20
-6.756108712500012
 30
0.0
 11
-2.929132331799997
 21
-6.796395408500007
 31
0.0
  0
LINE
  5
64
330
2
100
AcDbEntity
  8
0
100
AcDbLine
 10
-2.929132331799997
 20
-6.796395408500007
 30
0.0
 11
-2.945263144599997
 21
-6.797503002100004
 31
0.0
  0
LWPOLYLINE
  5
65
330
2
100
AcDbEntity
  8
0
100
AcDbPolyline
 90
        4
 70
     0
 43
0.0
 10
-2.371385827799997
 20
-6.756108712500008
 10
-1.74355938459999
 20
-6.714940230899998
 10
-1.03348184699999
 20
-6.671725995700001
 10
-0.2503341717999916
 20
-6.625486480500001
  0
LINE
  5
66
330
2
100
AcDbEntity
  8
0
100
AcDbLine
 10
-2.945263144599997
 20
-6.797503002100004
 30
0.0
 11
-2.973428078999993
 21
-6.799327902900007
 31
0.0
  0
LINE
  5
67
330
2
100
AcDbEntity
  8
0
100
AcDbLine
 10
-2.973428078999993
 20
-6.799327902900007
 30
0.0
 11
-3.012130064599992
 21
-6.801724654900002
 31
0.0
  0
LINE
  5
68
330
2
100
AcDbEntity
  8
0
100
AcDbLine
 10
-3.012130064599992
 20
-6.801724654900002
 30
0.0
 11
-3.065477229399994
 21
-6.804916714100006
 31
0.0
  0
LWPOLYLINE
  5
69
330
2
100
AcDbEntity
  8
0
100
AcDbPolyline
 90
       11
 70
     0
 43
0.0
 10
-0.2503341717999916
 20
-6.625486480500001
 10
11.154127209
 20
-5.952926333299998
 10
13.1854044714
 20
-5.833180002100007
 10
15.4746693098
 20
-5.698873643700011
 10
18.04422413220001
 20
-5.550134795700003
 10
20.53855230500001
 20
-5.409076299700004
 10
22.73756741060001
 20
-5.28847684530001
 10
24.73551094020001
 20
-5.182736938100006
 10
26.59069154500001
 20
-5.088419262900004
 10
28.33641009540001
 20
-5.003554240500008
 10
29.99578343300001
 20
-4.926792133299997
  0
LINE
  5
6A
330
2
100
AcDbEntity
  8
0
100
AcDbLine
 10
-3.065477229399994
 20
-6.804916714100006
 30
0.0
 11
-3.118424517399993
 21
-6.808006291700014
 31
0.0
  0
LINE
  5
6B
330
2
100
AcDbEntity
  8
0
100
AcDbLine
 10
-3.118424517399993
 20
-6.808006291700014
 30
0.0
 11
-3.185923653400002
 21
-6.811868402100007
 31
0.0
  0
LWPOLYLINE
  5
6C
330
2
100
AcDbEntity
  8
0
100
AcDbPolyline
 90
        4
 70
     0
 43
0.0
 10
28.89444914500001
 20
-3.983246110899997
 10
26.48809269220001
 20
-4.119734584500008
 10
24.3490962874
 20
-4.240845000500002
 10
22.44424448900001
 20
-4.346379456500002
  0
LINE
  5
6D
330
2
100
AcDbEntity
  8
0
100
AcDbLine
 10
-3.185923653400002
 20
-6.811868402100007
 30
0.0
 11
-3.272106706199997
 21
-6.816709528500002
 31
0.0
  0
LINE
  5
6E
330
2
100
AcDbEntity
  8
0
100
AcDbLine
 10
-3.272106706199997
 20
-6.816709528500002
 30
0.0
 11
-3.382397269399993
 21
-6.822795818100008
 31
0.0
  0
LINE
  5
6F
330
2
100
AcDbEntity
  8
0
100
AcDbLine
 10
16.99881765699999
 20
-4.944269893300006
 30
0.0
 11
15.9758506586
 21
-4.999899219700001
 31
0.0
  0
LINE
  5
70
330
2
100
AcDbEntity
  8
0
100
AcDbLine
 10
8.465946045800002
 20
-5.408290626100001
 30
0.0
 11
6.807171565799998
 21
-5.498495400500008
 31
0.0
  0
LWPOLYLINE
  5
71
330
2
100
AcDbEntity
  8
0
100
AcDbPolyline
 90
        3
 70
     0
 43
0.0
 10
22.44424448900001
 20
-4.346379456500002
 10
18.7879315258
 20
-4.545491347700007
 10
17.42724030500001
 20
-4.618023472499999
  0
LINE
  5
72
330
2
100
AcDbEntity
  8
0
100
AcDbLine
 10
-3.382397269399993
 20
-6.822795818100008
 30
0.0
 11
-3.47277865339999
 21
-6.827711699700007
 31
0.0
  0
LINE
  5
73
330
2
100
AcDbEntity
  8
0
100
AcDbLine
 10
-3.47277865339999
 20
-6.827711699700007
 30
0.0
 11
-3.579695690200003
 21
-6.833457643700004
 31
0.0
  0
LWPOLYLINE
  5
74
330
2
100
AcDbEntity
  8
0
100
AcDbPolyline
 90
        4
 70
     0
 43
0.0
 10
15.32924099460001
 20
-4.729858061300006
 10
15.22823027300001
 20
-4.735242474100004
 10
11.7721665978
 20
-4.915373184499998
 10
9.218316553000008
 20
-5.045393269300006
  0
LINE
  5
75
330
2
100
AcDbEntity
  8
0
100
AcDbLine
 10
-3.579695690200003
 20
-6.833457643700004
 30
0.0
 11
-3.706393150999992
 21
-6.840181546100001
 31
0.0
  0
LINE
  5
76
330
2
100
AcDbEntity
  8
0
100
AcDbLine
 10
-3.706393150999992
 20
-6.840181546100001
 30
0.0
 11
-3.856872066200003
 21
-6.848059088500011
 31
0.0
  0
LWPOLYLINE
  5
77
330
2
100
AcDbEntity
  8
0
100
AcDbPolyline
 90
       26
 70
     0
 43
0.0
 10
6.807171565800004
 20
-5.498495400500004
 10
6.764499527400005
 20
-5.500704059699998
 10
6.723507314600013
 20
-5.502606115700004
 10
6.684249388200015
 20
-5.504211403699997
 10
6.646671039400004
 20
-5.5055335893
 10
6.610784748200003
 20
-5.506582462899999
 10
6.576550167400014
 20
-5.507368384499997
 10
6.544011143400012
 20
-5.5078987957
 10
6.513115629800012
 20
-5.50818212850001
 10
6.483894311400007
 20
-5.508224645300003
 10
6.456344604200012
 20
-5.508032314100006
 10
6.430451745000013
 20
-5.5076097365
 10
6.406262575400006
 20
-5.506961622900007
 10
6.383751778600014
 20
-5.506090038899998
 10
6.362978345000001
 20
-5.5049987461
 10
6.343954876200015
 20
-5.503688931699997
 10
6.326717125800001
 20
-5.502161642100006
 10
6.311327749800014
 20
-5.500419814899998
 10
6.29781147780001
 20
-5.498461218100004
 10
6.286247450600015
 20
-5.496289544500001
 10
6.276683439400002
 20
-5.4939026917
 10
6.26919443780001
 20
-5.491302459700008
 10
6.263855655400007
 20
-5.488491384500008
 10
6.26073786660001
 20
-5.485467648500005
 10
6.259923997800015
 20
-5.4822374357
 10
6.260469317800001
 20
-5.480407605300001
  0
LWPOLYLINE
  5
78
330
2
100
AcDbEntity
  8
0
100
AcDbPolyline
 90
       11
 70
     0
 43
0.0
 10
-3.856872066199997
 20
-6.848059088500008
 10
-4.036042298199987
 20
-6.857293648500004
 10
-4.138248032599989
 20
-6.862491650099997
 10
-4.250051102999989
 20
-6.868118747700009
 10
-4.372480138199989
 20
-6.8742077765
 10
-4.506704878999997
 20
-6.880791976500006
 10
-4.654079558999995
 20
-6.887904453300009
 10
-4.816205286999988
 20
-6.895577227700002
 10
-4.994976205399993
 20
-6.903837453299999
 10
-5.192640906199997
 20
-6.912701197300009
 10
-5.411910429399995
 20
-6.922164541300006
  0
LWPOLYLINE
  5
79
330
2
100
AcDbEntity
  8
0
100
AcDbPolyline
 90
       22
 70
     0
 43
0.0
 10
15.97585065860001
 20
-4.999899219699997
 10
15.94992248260001
 20
-5.001227378099997
 10
15.92371183460001
 20
-5.002403902899999
 10
15.89735331140001
 20
-5.003417387700011
 10
15.8708977322
 20
-5.00425999570001
 10
15.84448378660001
 20
-5.004920763699999
 10
15.8181809146
 20
-5.005390714100002
 10
15.79215018820001
 20
-5.005659018100004
 10
15.7665133386
 20
-5.005716043700005
 10
15.74147396260001
 20
-5.005552805299998
 10
15.71717994500001
 20
-5.005161667700008
 10
15.6938304426
 20
-5.004536886899998
 10
15.67167415300001
 20
-5.003677341300004
 10
15.6509413626
 20
-5.002586370100004
 10
15.63175842980001
 20
-5.001265331699997
 10
15.61431843620001
 20
-4.999722027700002
 10
15.5988519434
 20
-4.997975378100008
 10
15.5855291322
 20
-4.996050606899999
 10
15.57439262340001
 20
-4.993965091700005
 10
15.5654639386
 20
-4.99173563570001
 10
15.55876947620001
 20
-4.989386813300001
 10
15.554295905
 20
-4.986945198900002
  0
LWPOLYLINE
  5
7A
330
2
100
AcDbEntity
  8
0
100
AcDbPolyline
 90
        5
 70
     0
 43
0.0
 10
6.419511098600011
 20
-5.1852889333
 10
5.493941265000003
 20
-5.231255869299999
 10
2.837583929000004
 20
-5.359281517300004
 10
0.416152903400004
 20
-5.471962410100005
 10
-1.861089602199996
 20
-5.573847069300001
  0
LWPOLYLINE
  5
7B
330
2
100
AcDbEntity
  8
0
100
AcDbPolyline
 90
       30
 70
     0
 43
0.0
 10
-1.861089600599996
 20
-5.573847109300004
 10
-1.916465218199988
 20
-5.576156493300004
 10
-1.979445166999994
 20
-5.578583907700007
 10
-2.05057550939999
 20
-5.581152027699999
 10
-2.130626678999988
 20
-5.583865560500001
 10
-2.220541152599992
 20
-5.586720461300004
 10
-2.321418160599989
 20
-5.589704003700006
 10
-2.434520898199991
 20
-5.592792754100003
 10
-2.561301942999989
 20
-5.595949269300007
 10
-2.703409144599987
 20
-5.599116291699999
 10
-2.862680483799991
 20
-5.602208691699999
 10
-3.041163200599996
 20
-5.605102941300003
 10
-3.241115610199997
 20
-5.607621829300001
 10
-3.464966706199987
 20
-5.609512432500011
 10
-3.715248170199984
 20
-5.610415805300007
 10
-3.994367469399989
 20
-5.609823947700007
 10
-4.304078304599997
 20
-5.607028208499997
 10
-4.644949875799994
 20
-5.60105602290001
 10
-5.020122634199992
 20
-5.590460461299997
 10
-5.438975083799988
 20
-5.572655901300009
 10
-5.913170365399992
 20
-5.543306083700002
 10
-6.453653102999993
 20
-5.496408082100003
 10
-7.040809739799996
 20
-5.427098123700005
 10
-7.631377920599987
 20
-5.335223610100001
 10
-8.224786032599993
 20
-5.216868944500006
 10
-8.780234829399994
 20
-5.078418238899999
 10
-9.283322763799993
 20
-4.92598969170001
 10
-9.742480398999994
 20
-4.760726157299998
 10
-10.16440606939999
 20
-4.583338936499998
 10
-10.55455877019998
 20
-4.394157565300005
  0
LWPOLYLINE
  5
7C
330
2
100
AcDbEntity
  8
0
100
AcDbPolyline
 90
       39
 70
     0
 43
0.0
 10
-9.515848923799993
 20
-3.098529877300009
 10
-8.942521434199989
 20
-3.217948301299998
 10
-8.289176666199992
 20
-3.3211873093
 10
-7.57998595579999
 20
-3.400697184500003
 10
-6.837250062999984
 20
-3.4540867109
 10
-6.059059867799987
 20
-3.482946227699997
 10
-5.246051848599989
 20
-3.488554726900005
 10
-4.410155453399994
 20
-3.472778461300009
 10
-3.550426326999996
 20
-3.437925614900009
 10
-2.656820202199995
 20
-3.385088669300003
 10
-1.822626840599994
 20
-3.32399368850001
 10
-1.081832053399992
 20
-3.263389155700011
 10
-0.399828173399996
 20
-3.204687234100006
 10
0.2475805098000023
 20
-3.148258142900004
 10
0.8758246106000058
 20
-3.09433603730001
 10
1.497519341800014
 20
-3.042561531700002
 10
2.114797285800008
 20
-2.993274397299998
 10
2.738461820200015
 20
-2.946165467699998
 10
3.400016117800007
 20
-2.899414264500009
 10
4.144078844200009
 20
-2.850790403700003
 10
4.994194185000011
 20
-2.800367043700006
 10
5.956106474600005
 20
-2.750164622900001
 10
7.015817186600003
 20
-2.703969602100002
 10
8.017266322600008
 20
-2.6701984181
 10
8.885077565800003
 20
-2.650377941300007
 10
9.715719623400005
 20
-2.640965336500002
 10
10.6452167914
 20
-2.6423226709
 10
11.58086091940001
 20
-2.656761274100006
 10
12.41053551300001
 20
-2.679378280500003
 10
13.14644768900001
 20
-2.70586584050001
 10
13.845200793
 20
-2.735599934900008
 10
14.5739875338
 20
-2.770373066100006
 10
15.3903149802
 20
-2.812642592499997
 10
16.32493141060001
 20
-2.864116614899998
 10
17.3830922922
 20
-2.925270352500007
 10
18.5625049674
 20
-2.995565462900003
 10
19.88230659620001
 20
-3.074992019700005
 10
21.1955115786
 20
-3.152567462900009
 10
22.3389979386
 20
-3.216929261300009
  0
LWPOLYLINE
  5
7D
330
2
100
AcDbEntity
  8
0
100
AcDbPolyline
 90
        3
 70
     0
 43
0.0
 10
-9.888071640599989
 20
-3.002951269299998
 10
-9.703518594199991
 20
-3.0521806709
 10
-9.515849224599989
 20
-3.098532085300007
  0
LWPOLYLINE
  5
7E
330
2
100
AcDbEntity
  8
0
100
AcDbPolyline
 90
       24
 70
     0
 43
0.0
 10
28.89444914500001
 20
-3.371996456499999
 10
29.27550227140001
 20
-3.350068286899997
 10
29.644913665
 20
-3.320728795700006
 10
30.0068038746
 20
-3.282944027699997
 10
30.364628889
 20
-3.235273126899997
 10
30.72269306820001
 20
-3.175606035699999
 10
31.08909782820001
 20
-3.100364395699997
 10
31.48052014660001
 20
-3.002293757300009
 10
31.91642915940001
 20
-2.870426013300004
 10
32.35963328740001
 20
-2.7131626181
 10
32.74112753220001
 20
-2.557016283700008
 10
33.0777815162
 20
-2.398113493300002
 10
33.3917966746
 20
-2.227989794099997
 10
33.6883421194
 20
-2.046506126899998
 10
33.99181180100001
 20
-1.840651198900005
 10
34.30309561700001
 20
-1.61095170130001
 10
34.5805785082
 20
-1.392167323700007
 10
34.82002641060001
 20
-1.192784726900001
 10
35.02873599620001
 20
-1.010071366900007
 10
35.20920256740001
 20
-0.8437629380999993
 10
35.36341078020001
 20
-0.6930618133000053
 10
35.501329009
 20
-0.5484811749000045
 10
35.6380428858
 20
-0.3925222148999978
 10
35.7839247162
 20
-0.2106348581000077
  0
LWPOLYLINE
  5
7F
330
2
100
AcDbEntity
  8
0
100
AcDbPolyline
 90
       33
 70
     0
 43
0.0
 10
11.092404649
 20
-2.802381006900006
 10
10.8904598026
 20
-2.802150072499998
 10
10.68643024420001
 20
-2.80890850770001
 10
10.48262372420001
 20
-2.822681021299999
 10
10.27948583460001
 20
-2.843433026100001
 10
10.07746435300001
 20
-2.871104226100001
 10
9.877002820200004
 20
-2.905608842100008
 10
9.678538852200006
 20
-2.946835770100008
 10
9.482500588200011
 20
-2.994649258099997
 10
9.289287311400002
 20
-3.048894760500004
 10
9.099279770600006
 20
-3.109398843700006
 10
8.912848697000015
 20
-3.175967301300005
 10
8.730346333800014
 20
-3.248388075700006
 10
8.552090751400015
 20
-3.326439278900011
 10
8.37838360900001
 20
-3.409884270900008
 10
8.209513053800009
 20
-3.498470253299998
 10
8.04572863140001
 20
-3.591942469300008
 10
7.887225797800013
 20
-3.690059294900009
 10
7.734185402600004
 20
-3.792574466100006
 10
7.586777426600008
 20
-3.899234563700005
 10
7.445164524200009
 20
-4.009775286900008
 10
7.309502471400008
 20
-4.123918795700006
 10
7.179917084200013
 20
-4.241392373300001
 10
7.056491810600007
 20
-4.361945480499997
 10
6.939292333800011
 20
-4.485333195700007
 10
6.828362314600013
 20
-4.611323651700004
 10
6.723735897000011
 20
-4.739687192499999
 10
6.625434119400011
 20
-4.8702014773
 10
6.533459045800015
 20
-5.002662608500003
 10
6.447807031400003
 20
-5.136870637300006
 10
6.368469634600003
 20
-5.272628006900006
 10
6.295432453800003
 20
-5.409741338100005
 10
6.260469301800014
 20
-5.480407605300001
  0
LWPOLYLINE
  5
80
330
2
100
AcDbEntity
  8
0
100
AcDbPolyline
 90
        6
 70
     0
 43
0.0
 10
11.0924046506
 20
-2.802381003700006
 10
11.7164137018
 20
-2.816849432500006
 10
12.34008180900001
 20
-2.83750321970001
 10
12.96334127300001
 20
-2.864340117300002
 10
13.5861242026
 20
-2.89735719730001
 10
14.2083629194
 20
-2.936550869300006
  0
LWPOLYLINE
  5
81
330
2
100
AcDbEntity
  8
0
100
AcDbPolyline
 90
        6
 70
     0
 43
0.0
 10
11.27741746820001
 20
-4.032571219700002
 10
11.8548450442
 20
-4.046445971700009
 10
12.43191045060001
 20
-4.066671240499999
 10
13.00853604580001
 20
-4.093244306100004
 10
13.5846444122
 20
-4.126161608499998
 10
14.160158089
 20
-4.165418720499999
  0
LWPOLYLINE
  5
82
330
2
100
AcDbEntity
  8
0
100
AcDbPolyline
 90
       21
 70
     0
 43
0.0
 10
14.160158089
 20
-4.165418720499999
 10
14.24299450020001
 20
-4.173414277299997
 10
14.32523674820001
 20
-4.185134448500008
 10
14.4067213482
 20
-4.2005599477
 10
14.4872609834
 20
-4.219661253300003
 10
14.56663331940001
 20
-4.242389090100004
 10
14.6447210058
 20
-4.268715726899998
 10
14.7212811578
 20
-4.298565670900003
 10
14.79616795460001
 20
-4.331886437299999
 10
14.86922099140001
 20
-4.368615206900003
 10
14.94022737540001
 20
-4.4086515141
 10
15.00909077540001
 20
-4.4519509653
 10
15.0755877562
 20
-4.498384646900007
 10
15.13958529060001
 20
-4.547868478899999
 10
15.20094181060001
 20
-4.600306845300011
 10
15.2594721578
 20
-4.65555322450001
 10
15.3150874986
 20
-4.713539147700004
 10
15.3676017658
 20
-4.774087850100002
 10
15.4169019322
 20
-4.837082498100002
 10
15.462867321
 20
-4.90238731250001
 10
15.4935877946
 20
-4.950359371700002
  0
LINE
  5
83
330
2
100
AcDbEntity
  8
0
100
AcDbLine
 10
5.622747349800001
 20
-1.763662115700004
 30
0.0
 11
5.702135674600008
 21
-1.745518288500012
 31
0.0
  0
LWPOLYLINE
  5
84
330
2
100
AcDbEntity
  8
0
100
AcDbPolyline
 90
       24
 70
     0
 43
0.0
 10
5.702135674600015
 20
-1.745518288500008
 10
5.753192061800007
 20
-1.734077389299997
 10
5.803846220200014
 20
-1.723036570100006
 10
5.854099617000002
 20
-1.712451651700007
 10
5.903958420200012
 20
-1.702370326900009
 10
5.953426557800014
 20
-1.692827062900008
 10
6.002504242600011
 20
-1.6838501669
 10
6.051179073000014
 20
-1.675456485300003
 10
6.099441577000007
 20
-1.66765608850001
 10
6.147306620200012
 20
-1.66044335890001
 10
6.194795181800003
 20
-1.653806686899997
 10
6.241928399400009
 20
-1.647726195700002
 10
6.288730077800011
 20
-1.642178139700007
 10
6.335234556200006
 20
-1.637131598899998
 10
6.381482095400002
 20
-1.632552776500006
 10
6.427526111400013
 20
-1.628403565300004
 10
6.473422204200005
 20
-1.624644450100007
 10
6.519221540200007
 20
-1.621234592500002
 10
6.564979373800014
 20
-1.618132262900005
 10
6.610771762600009
 20
-1.6152934869
 10
6.656677169000005
 20
-1.612673688500009
 10
6.702762890600013
 20
-1.610228126899997
 10
6.749099629800014
 20
-1.607911323700008
 10
6.795782917800011
 20
-1.605675018100001
  0
LINE
  5
85
330
2
100
AcDbEntity
  8
0
100
AcDbLine
 10
5.594772810599999
 20
-1.769907922100006
 30
0.0
 11
5.622747349800001
 21
-1.763662115700004
 31
0.0
  0
LINE
  5
86
330
2
100
AcDbEntity
  8
0
100
AcDbLine
 10
5.566775511400003
 20
-1.776028803700004
 30
0.0
 11
5.594772810599999
 21
-1.769907922100006
 31
0.0
  0
LWPOLYLINE
  5
87
330
2
100
AcDbEntity
  8
0
100
AcDbPolyline
 90
        3
 70
     0
 43
0.0
 10
5.524738869800003
 20
-1.784985333299999
 10
5.538756729000013
 20
-1.782036390900003
 10
5.56677551140001
 20
-1.7760288037
  0
LWPOLYLINE
  5
88
330
2
100
AcDbEntity
  8
0
100
AcDbPolyline
 90
       16
 70
     0
 43
0.0
 10
5.103430447400015
 20
-1.857542013300005
 10
5.132901449000002
 20
-1.853280470900003
 10
5.162185901800015
 20
-1.848948421300008
 10
5.191287513000006
 20
-1.844542203700001
 10
5.220209989800011
 20
-1.840058154100006
 10
5.248957041000011
 20
-1.835492611700004
 10
5.277529084200011
 20
-1.8308423653
 10
5.305913373800009
 20
-1.826106018100006
 10
5.334093873000014
 20
-1.8212826245
 10
5.362054546600006
 20
-1.816371242100004
 10
5.389779357800009
 20
-1.81137092530001
 10
5.417255746600005
 20
-1.806280595700002
 10
5.444485065000009
 20
-1.8010986277
 10
5.471472140200006
 20
-1.795823267700001
 10
5.498221799400013
 20
-1.790452754100002
 10
5.524738869800003
 20
-1.784985333299999
  0
LWPOLYLINE
  5
89
330
2
100
AcDbEntity
  8
0
100
AcDbPolyline
 90
       27
 70
     0
 43
0.0
 10
3.756215583400006
 20
-2.014543184499999
 10
3.809421917800008
 20
-2.009526675700001
 10
3.862248708200013
 20
-2.004455562100005
 10
3.914684565800001
 20
-1.999332738100008
 10
3.966718105000012
 20
-1.994161098100008
 10
4.01834031300001
 20
-1.988943256500007
 10
4.069551669800006
 20
-1.983680714100003
 10
4.120355029800009
 20
-1.978374694899997
 10
4.170753249000014
 20
-1.973026419700005
 10
4.220750537000014
 20
-1.967636875700009
 10
4.270356537000012
 20
-1.962206118899999
 10
4.319582252200007
 20
-1.956733968500003
 10
4.368438682600014
 20
-1.951220240500006
 10
4.416934772200008
 20
-1.945664938100009
 10
4.465071242600004
 20
-1.940068781299999
 10
4.512846757800005
 20
-1.934432669300008
 10
4.560259983400015
 20
-1.928757504499998
 10
4.607311631400008
 20
-1.923043870900002
 10
4.65401060740001
 20
-1.917291090100007
 10
4.700367868200004
 20
-1.911498170100003
 10
4.746394365800014
 20
-1.905664117300005
 10
4.807265345000004
 20
-1.897819758899998
 10
4.867581140200002
 20
-1.889898656500008
 10
4.927355117800004
 20
-1.881898962100009
 10
4.98659532900001
 20
-1.873819523700007
 10
5.045288580200008
 20
-1.865661992500008
 10
5.103416365800015
 20
-1.85742871730001
  0
LWPOLYLINE
  5
8A
330
2
100
AcDbEntity
  8
0
100
AcDbPolyline
 90
       15
 70
     0
 43
0.0
 10
7.194351177000015
 20
-1.584001208499998
 10
7.226162850600005
 20
-1.581707557300006
 10
7.258161402600009
 20
-1.579460696500007
 10
7.290344337000007
 20
-1.577261680500001
 10
7.322709156200005
 20
-1.575111565300005
 10
7.34873056420001
 20
-1.573427371700006
 10
7.374867133800009
 20
-1.571775586100002
 10
7.401119217000015
 20
-1.570156638900002
 10
7.427487162600002
 20
-1.568570968499997
 10
7.453971322600011
 20
-1.567019008499997
 10
7.480571732200004
 20
-1.565501210100009
 10
7.507287149800006
 20
-1.564018098100007
 10
7.534116017000002
 20
-1.562570214900006
 10
7.561056780200004
 20
-1.561158101300009
 10
7.588107877800013
 20
-1.559782301300003
  0
LWPOLYLINE
  5
8B
330
2
100
AcDbEntity
  8
0
100
AcDbPolyline
 90
       25
 70
     0
 43
0.0
 10
7.588107877800013
 20
-1.559782301300003
 10
7.927577786600011
 20
-1.543352309300004
 10
8.262393759400012
 20
-1.528240138100002
 10
8.592376293800015
 20
-1.514369648500007
 10
8.917462949800011
 20
-1.501663011700003
 10
9.238059524200011
 20
-1.490035667699999
 10
9.554688871400003
 20
-1.479401371700006
 10
9.867842268200007
 20
-1.469678768500003
 10
10.1778846762
 20
-1.460806074100005
 10
10.4851494762
 20
-1.452726395699997
 10
10.78997791460001
 20
-1.445384930100004
 10
11.0927427002
 20
-1.438735229300007
 10
11.3938244026
 20
-1.432732933300002
 10
11.8430212746
 20
-1.42485509010001
 10
12.28995747620001
 20
-1.418236904500005
 10
12.73529928420001
 20
-1.412782878900003
 10
13.17969820740001
 20
-1.408404334899998
 10
14.06779028740001
 20
-1.4025400501
 10
14.95692559780001
 20
-1.400020234099997
 10
15.84841572580001
 20
-1.400227082100002
 10
16.7418475994
 20
-1.402496171700008
 10
17.18853662500001
 20
-1.404188763700005
 10
17.63397522180001
 20
-1.406142435700004
 10
18.07744394820001
 20
-1.408279653299999
 10
18.52032304260001
 20
-1.410537672499998
  0
LWPOLYLINE
  5
8C
330
2
100
AcDbEntity
  8
0
100
AcDbPolyline
 90
       10
 70
     0
 43
0.0
 10
6.795782917800011
 20
-1.605675018100001
 10
6.890602431400012
 20
-1.601242130100004
 10
6.938949871400012
 20
-1.598938258100005
 10
6.988059039400013
 20
-1.596498461300001
 10
7.021273617000005
 20
-1.594765709300006
 10
7.054915284200006
 20
-1.592923050099997
 10
7.089027953000012
 20
-1.590947939700001
 10
7.123645164200013
 20
-1.588817778100008
 10
7.158758997800006
 20
-1.586509752500006
 10
7.194351161000014
 20
-1.584001002100009
  0
LWPOLYLINE
  5
8D
330
2
100
AcDbEntity
  8
0
100
AcDbPolyline
 90
       93
 70
     0
 43
0.0
 10
22.31797421380001
 20
-1.425422490100004
 10
22.47864131940001
 20
-1.425512360500007
 10
22.6339761578
 20
-1.425529413299997
 10
22.7843357674
 20
-1.4254768933
 10
22.93028105380001
 20
-1.425357064500005
 10
23.0724238858
 20
-1.425171949300008
 10
23.2113761338
 20
-1.424923566900005
 10
23.3927585498
 20
-1.4244954917
 10
23.57111688100001
 20
-1.423951467700007
 10
23.74801142180001
 20
-1.423284427700011
 10
24.0135215306
 20
-1.422034694900006
 10
24.2815133514
 20
-1.420450048500001
 10
24.553453825
 20
-1.418487498100006
 10
24.827619345
 20
-1.416101026100008
 10
25.3754178538
 20
-1.409717597300002
 10
25.64801922340001
 20
-1.405418290100001
 10
25.91956196740001
 20
-1.400164869299999
 10
26.190361585
 20
-1.393777861300009
 10
26.46213922820001
 20
-1.386009661300008
 10
26.64496188100001
 20
-1.379919160500008
 10
26.83017876100001
 20
-1.372936630899999
 10
27.01882828420001
 20
-1.364901525299998
 10
27.1631102074
 20
-1.358087890100009
 10
27.30984981700001
 20
-1.350524306099998
 10
27.45921684900001
 20
-1.342123768500002
 10
27.61228909860001
 20
-1.3327215045
 10
27.76989592420001
 20
-1.322163797300007
 10
27.93096490020001
 20
-1.3104189493
 10
28.09423979460001
 20
-1.297463733300006
 10
28.25963096100001
 20
-1.283186792500004
 10
28.4833159946
 20
-1.26192496210001
 10
28.70873542500001
 20
-1.238124021300009
 10
28.9335022826
 20
-1.211831726900001
 10
29.10032117860001
 20
-1.190510485300009
 10
29.265070825
 20
-1.167860064500004
 10
29.4273917146
 20
-1.1439258053
 10
29.58692434180001
 20
-1.118753050100011
 10
29.7433736618
 20
-1.092381269300005
 10
29.8967024842
 20
-1.064826445299999
 10
30.0469380826
 20
-1.036098690100004
 10
30.19410773060001
 20
-1.006208117300005
 10
30.3382345706
 20
-0.9751720500999994
 10
30.47932524420001
 20
-0.9430366612999989
 10
30.6173822618
 20
-0.9098553349000013
 10
30.752408137
 20
-0.8756814565000041
 10
30.927753945
 20
-0.8286575205000019
 10
31.09785394660001
 20
-0.7800481204999983
 10
31.2628465754
 20
-0.7299374213000079
 10
31.42287400100001
 20
-0.6784016885000029
 10
31.57809336260001
 20
-0.6254855733000113
 10
31.72866553860001
 20
-0.5712258277000047
 10
31.8747287866
 20
-0.5156721557000026
 10
32.01633087620001
 20
-0.4589260933000077
 10
32.1534969594
 20
-0.4011021284999999
 10
32.28626135300001
 20
-0.342314778100004
 10
32.4146950682
 20
-0.2826786437000095
 10
32.53887828260001
 20
-0.2223083557000081
 10
32.6588875962
 20
-0.1613106053000024
 10
32.77478529380001
 20
-0.0997603364999975
 10
32.8866300826
 20
-0.0377245573000096
 10
32.99452322980001
 20
0.0247598938999971
 10
33.09873623940001
 20
0.087776866699997
 10
33.19958317700001
 20
0.1514403755000018
 10
33.29739964260001
 20
0.215884100300002
 10
33.3926073786
 20
0.2813203386999987
 10
33.48564965860001
 20
0.3479810490999995
 10
33.57696642820001
 20
0.4161194298999931
 10
33.66698428580001
 20
0.4860736298999911
 10
33.75612650340001
 20
0.5582030411000006
 10
33.844680537
 20
0.6327550666999997
 10
33.9323905946
 20
0.7095291626999938
 10
34.01886507460001
 20
0.7882128027000022
 10
34.10361903460001
 20
0.8683461210999894
 10
34.1857941546
 20
0.9488799018999998
 10
34.26443877380001
 20
1.028617588299994
 10
34.33879679940001
 20
1.106535445899993
 10
34.40889442820001
 20
1.182300989899999
 10
34.47495342820001
 20
1.25575455789999
 10
34.53721554020001
 20
1.326801185099995
 10
34.5960024106
 20
1.3956047307
 10
34.6516556586
 20
1.462393756300002
 10
34.7044641706
 20
1.527358842699996
 10
34.75450588900001
 20
1.590538644299996
 10
34.8018060154
 20
1.651933836299988
 10
34.8463774506
 20
1.711531343499999
 10
34.888183865
 20
1.769263093899994
 10
34.92717662340001
 20
1.825047263499996
 10
34.9634873658
 20
1.87912377069999
 10
34.9979688362
 20
1.93301949069999
 10
35.03165406020001
 20
1.988583034699999
 10
35.065379305
 20
2.047235177099992
 10
35.0991938458
 20
2.108685332299998
 10
35.13295020580001
 20
2.172215074699991
  0
LINE
  5
8E
330
2
100
AcDbEntity
  8
0
100
AcDbLine
 10
22.0943644938
 20
-1.425181640500003
 30
0.0
 11
22.3179742138
 21
-1.425422490100007
 31
0.0
  0
LINE
  5
8F
330
2
100
AcDbEntity
  8
0
100
AcDbLine
 10
21.8567885514
 20
-1.424786925300001
 30
0.0
 11
22.0943644938
 21
-1.425181640500003
 31
0.0
  0
LINE
  5
90
330
2
100
AcDbEntity
  8
0
100
AcDbLine
 10
21.6050426794
 20
-1.424229114100004
 30
0.0
 11
21.8567885514
 21
-1.424786925300001
 31
0.0
  0
LINE
  5
91
330
2
100
AcDbEntity
  8
0
100
AcDbLine
 10
21.34136028259999
 20
-1.423504245300012
 30
0.0
 11
21.6050426794
 21
-1.424229114100004
 31
0.0
  0
LINE
  5
92
330
2
100
AcDbEntity
  8
0
100
AcDbLine
 10
21.06314406819999
 20
-1.422595107700008
 30
0.0
 11
21.34136028259999
 21
-1.423504245300012
 31
0.0
  0
LINE
  5
93
330
2
100
AcDbEntity
  8
0
100
AcDbLine
 10
20.7714055946
 20
-1.42150725810001
 30
0.0
 11
21.06314406819999
 21
-1.422595107700008
 31
0.0
  0
LINE
  5
94
330
2
100
AcDbEntity
  8
0
100
AcDbLine
 10
20.4720669658
 20
-1.420272709300011
 30
0.0
 11
20.7714055946
 21
-1.42150725810001
 31
0.0
  0
LINE
  5
95
330
2
100
AcDbEntity
  8
0
100
AcDbLine
 10
20.0953104298
 20
-1.4185700005
 30
0.0
 11
20.4720669658
 21
-1.420272709300011
 31
0.0
  0
LINE
  5
96
330
2
100
AcDbEntity
  8
0
100
AcDbLine
 10
19.63795082019999
 20
-1.416335803700011
 30
0.0
 11
20.0953104298
 21
-1.4185700005
 31
0.0
  0
LWPOLYLINE
  5
97
330
2
100
AcDbEntity
  8
0
100
AcDbPolyline
 90
        3
 70
     0
 43
0.0
 10
18.52032304260001
 20
-1.410537672499998
 10
19.18668064420001
 20
-1.414019082099997
 10
19.6379508202
 20
-1.416335803700008
  0
LWPOLYLINE
  5
98
330
2
100
AcDbEntity
  8
0
100
AcDbPolyline
 90
       55
 70
     0
 43
0.0
 10
7.720285705000009
 20
-1.376190907700006
 10
7.675081497000007
 20
-1.375911998900008
 10
7.629774372200003
 20
-1.374593934900005
 10
7.584878737000011
 20
-1.372252774900005
 10
7.540328975400015
 20
-1.368899515700007
 10
7.496126770600014
 20
-1.364545269300009
 10
7.452268735400011
 20
-1.35919949330001
 10
7.408747933800015
 20
-1.352869680500006
 10
7.365558892200013
 20
-1.345561894900001
 10
7.322696260200004
 20
-1.3372806789
 10
7.280156105000003
 20
-1.328029373299997
 10
7.237934257000006
 20
-1.317809869300006
 10
7.196027300200015
 20
-1.3066228725
 10
7.154434756200004
 20
-1.294468626099998
 10
7.113158321000014
 20
-1.281346979700003
 10
7.072201842600009
 20
-1.267257610100003
 10
7.031569617000002
 20
-1.252199614900007
 10
6.991267583400002
 20
-1.236172058100009
 10
6.951305068200014
 20
-1.219174866100004
 10
6.91169342820001
 20
-1.201208590900009
 10
6.872445791400011
 20
-1.1822745029
 10
6.833574649000013
 20
-1.162373538099998
 10
6.795094001000009
 20
-1.141507419700005
 10
6.757021572200002
 20
-1.119680032499999
 10
6.719376879400002
 20
-1.096896709299997
 10
6.682177922600004
 20
-1.073162264499998
 10
6.645457052200015
 20
-1.048491678900006
 10
6.609092921000012
 20
-1.022792112499999
 10
6.572887119400007
 20
-0.9959036517000043
 10
6.536839829800015
 20
-0.9677997492999992
 10
6.501020301800011
 20
-0.9385084004999981
 10
6.465473349800006
 20
-0.9080434325000084
 10
6.430235186600015
 20
-0.876414250099998
 10
6.395323189800009
 20
-0.8436158709000096
 10
6.360764367400008
 20
-0.8096533413000059
 10
6.32658136900001
 20
-0.7745276341000107
 10
6.292782362600007
 20
-0.7382247445000019
 10
6.259754186600005
 20
-0.7011636805000024
 10
6.228582175400006
 20
-0.6646738309
 10
6.199586322600012
 20
-0.6293472740999988
 10
6.172387281000013
 20
-0.5949386325000035
 10
6.146759701800007
 20
-0.5613419188999984
 10
6.122518570600007
 20
-0.5284662341000086
 10
6.099524959400014
 20
-0.4962554293000068
 10
6.077666756200002
 20
-0.464670698100008
 10
6.056854364200006
 20
-0.4336900213000093
 10
6.037013327400003
 20
-0.4033018101000039
 10
6.018079385000007
 20
-0.3735004932999999
 10
5.999999332200005
 20
-0.344287797299998
 10
5.982728713000014
 20
-0.3156720517000053
 10
5.966228081000011
 20
-0.2876633941000079
 10
5.950463975400012
 20
-0.2602761909000009
 10
5.935401058600007
 20
-0.2335160965000114
 10
5.921015839400013
 20
-0.2074039268999996
 10
5.907278756200014
 20
-0.1819443237000087
  0
LWPOLYLINE
  5
99
330
2
100
AcDbEntity
  8
0
100
AcDbPolyline
 90
       12
 70
     0
 43
0.0
 10
22.3389979386
 20
-3.216929261300009
 10
23.24888902340001
 20
-3.2653308549
 10
24.0603312682
 20
-3.304769763700008
 10
24.79434054660001
 20
-3.336503566900006
 10
25.46457482340001
 20
-3.361344091700004
 10
26.08032934660001
 20
-3.379835547699997
 10
26.64778457220001
 20
-3.392338525300004
 10
27.1710865434
 20
-3.399104270900011
 10
27.6550537482
 20
-3.400338912500004
 10
28.1014735354
 20
-3.396183112499997
 10
28.5120568938
 20
-3.386782322100003
 10
28.89444914500001
 20
-3.371996739700009
  0
LWPOLYLINE
  5
9A
330
2
100
AcDbEntity
  8
0
100
AcDbPolyline
 90
       25
 70
     0
 43
0.0
 10
14.2083629194
 20
-2.936550869300006
 10
14.383264777
 20
-2.951748459699999
 10
14.557254025
 20
-2.973492606900009
 10
14.73006860260001
 20
-3.001748754100006
 10
14.9013369034
 20
-3.036448312499999
 10
15.07092263620001
 20
-3.077556811700006
 10
15.2385660906
 20
-3.125011827700006
 10
15.40388699620001
 20
-3.178698496500004
 10
15.5667692314
 20
-3.238572456500008
 10
15.72695232740001
 20
-3.304539141299997
 10
15.88405610020001
 20
-3.376433080500007
 10
16.0379869882
 20
-3.454202826100001
 10
16.18849940420001
 20
-3.537724936499998
 10
16.33523225860001
 20
-3.626788501299998
 10
16.47810766500001
 20
-3.721336067700008
 10
16.61689789380001
 20
-3.821217219700002
 10
16.75126951460001
 20
-3.926179958900007
 10
16.8811546378
 20
-4.036159405299997
 10
17.0063486842
 20
-4.150982194100009
 10
17.12655547940001
 20
-4.270363411700003
 10
17.24171239140001
 20
-4.394227589300001
 10
17.35164173700001
 20
-4.522383368500001
 10
17.45609196900001
 20
-4.654523845300005
 10
17.55499986180001
 20
-4.790554837300007
 10
17.6017203834
 20
-4.859054101300003
  0
LWPOLYLINE
  5
9B
330
2
100
AcDbEntity
  8
0
100
AcDbPolyline
 90
       25
 70
     0
 43
0.0
 10
5.907279805800001
 20
15.40156966189999
 10
5.896817849000015
 20
15.38004722989998
 10
5.886647967400008
 20
15.35867794989999
 10
5.876759191400012
 20
15.33745437229998
 10
5.867142669800003
 20
15.31637246829999
 10
5.857791063400014
 20
15.2954306107
 10
5.848697060200009
 20
15.2746264779
 10
5.839853186600009
 20
15.25395654509998
 10
5.831252162600009
 20
15.23341686829999
 10
5.822886777000007
 20
15.21300275629999
 10
5.814749980200005
 20
15.19270896589998
 10
5.806834889000015
 20
15.1725296987
 10
5.799134821800009
 20
15.15245866189999
 10
5.791643309800008
 20
15.1324890971
 10
5.784354130600007
 20
15.11261382669999
 10
5.77726130980001
 20
15.0928252843
 10
5.770359151400015
 20
15.07311555309999
 10
5.763642236200013
 20
15.05347638509999
 10
5.757105453800008
 20
15.03389925869998
 10
5.750743983400013
 20
15.0143753259
 10
5.744553372200002
 20
14.99489564909998
 10
5.738529373800005
 20
14.97545067469999
 10
5.73266838340001
 20
14.95603162829999
 10
5.726966482600005
 20
14.93662734349999
 10
5.721422474600004
 20
14.91723471789998
  0
LWPOLYLINE
  5
9C
330
2
100
AcDbEntity
  8
0
100
AcDbPolyline
 90
       18
 70
     0
 43
0.0
 10
5.936650989800014
 20
15.4261990235
 10
5.928010114600013
 20
15.4123492587
 10
5.919515845800006
 20
15.39842758029999
 10
5.911173271400002
 20
15.3844453467
 10
5.90298747460001
 20
15.3704139147
 10
5.894963541800009
 20
15.35634464270001
 10
5.888402063400008
 20
15.34459525069999
 10
5.881946367400004
 20
15.3328083179
 10
5.875586295400012
 20
15.3209646923
 10
5.869311695400014
 20
15.30904522509999
 10
5.863112407400009
 20
15.29703076269998
 10
5.85697827940001
 20
15.2849021563
 10
5.850901721000013
 20
15.2726448091
 10
5.844885415400014
 20
15.26026233549998
 10
5.838934615400006
 20
15.24776291149999
 10
5.833054573800012
 20
15.2351547051
 10
5.827250538600011
 20
15.22244589069998
 10
5.821527762600013
 20
15.20964463789999
  0
LWPOLYLINE
  5
9D
330
2
100
AcDbEntity
  8
0
100
AcDbPolyline
 90
       16
 70
     0
 43
0.0
 10
6.096016258600002
 20
15.64547978990001
 10
6.084922111400004
 20
15.6320803051
 10
6.073890909800013
 20
15.61851296270001
 10
6.062922170600003
 20
15.60477434669999
 10
6.052015415400006
 20
15.59086104269999
 10
6.04117015940001
 20
15.57676963789998
 10
6.030386717800013
 20
15.56249776429999
 10
6.019668581800004
 20
15.54804724429999
 10
6.009020041000013
 20
15.5334209467
 10
5.99844538180001
 20
15.5186217451
 10
5.987948892200009
 20
15.5036525083
 10
5.977533756200003
 20
15.4885148475
 10
5.967198737000003
 20
15.47320534349998
 10
5.956941495400002
 20
15.4577193227
 10
5.946759693800004
 20
15.4420521083
 10
5.936650989800014
 20
15.4261990235
  0
LWPOLYLINE
  5
9E
330
2
100
AcDbEntity
  8
0
100
AcDbPolyline
 90
        3
 70
     0
 43
0.0
 10
15.49851376900001
 20
20.17372495949999
 10
15.49471805060001
 20
20.1713075659
 10
15.49358808900001
 20
20.1699839867
  0
LWPOLYLINE
  5
9F
330
2
100
AcDbEntity
  8
0
100
AcDbPolyline
 90
        3
 70
     0
 43
0.0
 10
15.49851376900001
 20
20.17372495949999
 10
15.5285670858
 20
20.18973255309998
 10
15.554295905
 20
20.20656983149998
  0
LINE
  5
A0
330
2
100
AcDbEntity
  8
0
100
AcDbLine
 10
38.1058098922
 20
8.795121319499994
 30
0.0
 11
38.1004858666
 21
8.793611922699991
 31
0.0
  0
LWPOLYLINE
  5
A1
330
2
100
AcDbEntity
  8
0
100
AcDbPolyline
 90
        4
 70
     0
 43
0.0
 10
-14.10600908859999
 20
-0.3901878021000016
 10
-14.03509667099999
 20
-0.3837150453000078
 10
-13.96408105819999
 20
-0.3778163637000063
 10
-13.89282551899999
 20
-0.3724790853000002
  0
LWPOLYLINE
  5
A2
330
2
100
AcDbEntity
  8
0
100
AcDbPolyline
 90
        3
 70
     0
 43
0.0
 10
15.49851376900001
 20
-4.954100326900004
 10
15.5285670858
 20
-4.970107920499998
 10
15.554295905
 20
-4.986945198900002
  0
LWPOLYLINE
  5
A3
330
2
100
AcDbEntity
  8
0
100
AcDbPolyline
 90
        3
 70
     0
 43
0.0
 10
15.49851376900001
 20
-4.954100326900004
 10
15.49471805060001
 20
-4.951682933300006
 10
15.49358808900001
 20
-4.950359354100001
  0
LWPOLYLINE
  5
A4
330
2
100
AcDbEntity
  8
0
100
AcDbPolyline
 90
       16
 70
     0
 43
0.0
 10
5.936650989800014
 20
-0.206574390900002
 10
5.946757996200005
 20
-0.222424838900011
 10
5.956938298600007
 20
-0.2380898181000077
 10
5.967194245800001
 20
-0.2535739941000088
 10
5.97752818020001
 20
-0.2688820341000024
 10
5.987942449000001
 20
-0.2840186005000049
 10
5.998438297000006
 20
-0.2989871061000002
 10
6.009012554600005
 20
-0.3137859381000112
 10
6.019660953000013
 20
-0.3284122324999998
 10
6.030379223400004
 20
-0.342863123699999
 10
6.041163097000008
 20
-0.357135744499999
 10
6.052009098600009
 20
-0.3712282773000055
 10
6.06291692420001
 20
-0.3851430789000005
 10
6.073887065000008
 20
-0.3988835573000102
 10
6.084920012200015
 20
-0.4124531141000034
 10
6.096016257000002
 20
-0.4258551557000061
  0
LWPOLYLINE
  5
A5
330
2
100
AcDbEntity
  8
0
100
AcDbPolyline
 90
       25
 70
     0
 43
0.0
 10
5.907279805800001
 20
-0.1819450293000102
 10
5.896817849000015
 20
-0.1604225972999984
 10
5.886647967400008
 20
-0.1390533173000108
 10
5.876759191400012
 20
-0.1178297396999994
 10
5.867142669800003
 20
-0.0967478357000005
 10
5.857791063400014
 20
-0.0758059781000071
 10
5.848697060200009
 20
-0.0550018452999979
 10
5.839853186600009
 20
-0.0343319125000079
 10
5.831252162600009
 20
-0.0137922357000093
 10
5.822886777000007
 20
0.0066218763000023
 10
5.814749980200005
 20
0.0269156666999919
 10
5.806834889000015
 20
0.0470949338999986
 10
5.799134821800009
 20
0.067165970699989
 10
5.791643309800008
 20
0.0871355354999963
 10
5.784354130600007
 20
0.1070108058999892
 10
5.77726130980001
 20
0.1267993482999969
 10
5.770359151400015
 20
0.1465090794999924
 10
5.763642236200013
 20
0.16614824749999
 10
5.757105453800008
 20
0.1857253738999986
 10
5.750743983400013
 20
0.2052493066999972
 10
5.744553372200002
 20
0.2247289835000004
 10
5.738529373800005
 20
0.2441739578999886
 10
5.73266838340001
 20
0.2635930042999917
 10
5.726966482600005
 20
0.2829972890999954
 10
5.721422474600004
 20
0.3023899147000009
  0
LWPOLYLINE
  5
A6
330
2
100
AcDbEntity
  8
0
100
AcDbPolyline
 90
       27
 70
     0
 43
0.0
 10
4.739149052200005
 20
7.609812205899999
 10
4.741615525800014
 20
7.230476028299989
 10
4.748998231400008
 20
6.8520823371
 10
4.761272047400012
 20
6.474785956299996
 10
4.77840603140001
 20
6.098794049100007
 10
4.800345972200005
 20
5.724523137099993
 10
4.827031837800006
 20
5.352442084300008
 10
4.85012141380001
 20
5.075097468299986
 10
4.875802114600006
 20
4.799428351499983
 10
4.904029255400004
 20
4.525614708299997
 10
4.934758143400003
 20
4.253836509899997
 10
4.967942397800015
 20
3.984265922699989
 10
5.003528861800006
 20
3.717043905099998
 10
5.041462685800013
 20
3.452303613899999
 10
5.081689021800002
 20
3.190178204299996
 10
5.124151903400004
 20
2.930796541899994
 10
5.168790890600007
 20
2.674270343499998
 10
5.215544431400005
 20
2.420707036300001
 10
5.264350970600006
 20
2.170214050699996
 10
5.315145138600001
 20
1.92290413389999
 10
5.367846301800014
 20
1.678911319500002
 10
5.422370010600005
 20
1.438374964299995
 10
5.478631818600007
 20
1.201434423499989
 10
5.536552138600015
 20
0.968203383499997
 10
5.596070823400012
 20
0.7386928602999916
 10
5.657132591400014
 20
0.5128882010999974
 10
5.719682161000008
 20
0.2907747514999954
  0
LWPOLYLINE
  5
A7
330
2
100
AcDbEntity
  8
0
100
AcDbPolyline
 90
       19
 70
     0
 43
0.0
 10
5.532109511400008
 20
17.04374607629998
 10
5.525538181800001
 20
17.00933466189999
 10
5.51811978340001
 20
16.96252126670001
 10
5.509899185000008
 20
16.90358860909998
 10
5.500926092200003
 20
16.83289259629998
 10
5.491254761000007
 20
16.7508601739
 10
5.480943661800012
 20
16.6579867595
 10
5.470055125800001
 20
16.55483323629999
 10
5.458654973800008
 20
16.4420225755
 10
5.446812117800007
 20
16.3202360683
 10
5.434598140200009
 20
16.1902092171
 10
5.422086866600011
 20
16.0527272843
 10
5.409353917800004
 20
15.9086205627
 10
5.396476252200002
 20
15.7587593483
 10
5.383531703400009
 20
15.60404869549998
 10
5.370598505000003
 20
15.4454229403
 10
5.357754828200015
 20
15.2838400683
 10
5.345078297000014
 20
15.12027592109999
 10
5.332645529000004
 20
14.95571830509999
  0
LWPOLYLINE
  5
A8
330
2
100
AcDbEntity
  8
0
100
AcDbPolyline
 90
       10
 70
     0
 43
0.0
 10
5.332646047400004
 20
14.95571826189999
 10
5.143309327400004
 20
14.2459947067
 10
4.969746717800006
 20
13.50138661549999
 10
4.814110001000003
 20
12.72423798029999
 10
4.678581865000012
 20
11.91839888109998
 10
4.565036162600009
 20
11.08802597069998
 10
4.475014349800005
 20
10.23737230189999
 10
4.409755881000009
 20
9.370937578699994
 10
4.370192132200003
 20
8.4935149115
 10
4.356921629800012
 20
7.6098132539
  0
LWPOLYLINE
  5
A9
330
2
100
AcDbEntity
  8
0
100
AcDbPolyline
 90
       10
 70
     0
 43
0.0
 10
5.714205309800007
 20
14.96509524909998
 10
5.52228925060001
 20
14.25973621709999
 10
5.346005335400008
 20
13.5179456603
 10
5.187614613800008
 20
12.7419595403
 10
5.049450628200006
 20
11.9357126699
 10
4.933536922600012
 20
11.10357067469999
 10
4.841540061800003
 20
10.25002825709998
 10
4.774798596200014
 20
9.379846247499983
 10
4.734315151400011
 20
8.498081709899992
 10
4.720735001000008
 20
7.609812316300008
  0
LINE
  5
AA
330
2
100
AcDbEntity
  8
0
100
AcDbLine
 10
5.721422468199997
 20
14.91723475629998
 30
0.0
 11
5.711307964199996
 21
14.88068544749998
 31
0.0
  0
LWPOLYLINE
  5
AB
330
2
100
AcDbEntity
  8
0
100
AcDbPolyline
 90
       38
 70
     0
 43
0.0
 10
5.681626549800014
 20
14.77481092109999
 10
5.672356063400002
 20
14.7415360747
 10
5.662340324200002
 20
14.70536007309999
 10
5.651523500200013
 20
14.6660226811
 10
5.639840636200005
 20
14.6232179275
 10
5.627218706600004
 20
14.5765947035
 10
5.613579308200002
 20
14.52576298669998
 10
5.598835911400001
 20
14.47027932110001
 10
5.582894433000006
 20
14.40964320109998
 10
5.565651729000009
 20
14.34328435469998
 10
5.546995010600014
 20
14.27055141869999
 10
5.526800930600003
 20
14.19069686349999
 10
5.504935301800003
 20
14.10286101229999
 10
5.481252337000015
 20
14.0060497387
 10
5.455593577000001
 20
13.8991047627
 10
5.427787114600008
 20
13.78066646029998
 10
5.397647513000009
 20
13.6491276907
 10
5.364975735400008
 20
13.50257106029999
 10
5.329562629800008
 20
13.33869924109998
 10
5.291185522600002
 20
13.15469449069999
 10
5.249637626600005
 20
12.9471816395
 10
5.204668713000003
 20
12.71165874190001
 10
5.156247042600014
 20
12.44349185709998
 10
5.106161161000002
 20
12.14744127789998
 10
5.05780386340001
 20
11.83990525869998
 10
5.012711153000012
 20
11.52944978989998
 10
4.97082485380001
 20
11.2153228827
 10
4.932272071400007
 20
10.89803665549999
 10
4.897135956200003
 20
10.57785659789999
 10
4.865482567400007
 20
10.2549540555
 10
4.837381749800002
 20
9.929604730699992
 10
4.81290541540001
 20
9.602207220299987
 10
4.792100652200005
 20
9.272959273099985
 10
4.775012290600002
 20
8.942132263499985
 10
4.761684621800014
 20
8.610150810699991
 10
4.752143671400006
 20
8.277233727500004
 10
4.746409788200011
 20
7.943667671500008
 10
4.744496905000005
 20
7.609812316300008
  0
LINE
  5
AC
330
2
100
AcDbEntity
  8
0
100
AcDbLine
 10
5.711307964199996
 20
14.88068544749998
 30
0.0
 11
5.681626549800008
 21
14.77481092109999
 31
0.0
  0
LWPOLYLINE
  5
AD
330
2
100
AcDbEntity
  8
0
100
AcDbPolyline
 90
       27
 70
     0
 43
0.0
 10
5.719682161000008
 20
14.9288498811
 10
5.657127463400001
 20
14.70671779309998
 10
5.596061817000006
 20
14.4808976363
 10
5.536540479400002
 20
14.25137518349998
 10
5.478618703400002
 20
14.01813621229999
 10
5.422356562600015
 20
13.7811919483
 10
5.367833405800013
 20
13.54065539469999
 10
5.31513339460001
 20
13.29666501069999
 10
5.264340698600008
 20
13.0493592459
 10
5.215535708200008
 20
12.7988713947
 10
5.168783737000012
 20
12.5453141067
 10
5.124146325800012
 20
12.28879487309998
 10
5.081685018600012
 20
12.0294211803
 10
5.041460226600008
 20
11.7673046955
 10
5.003527849000008
 20
11.50257379629999
 10
4.967942657000008
 20
11.23536103629999
 10
4.934759423400009
 20
10.9657989707
 10
4.904031245800013
 20
10.69402807469998
 10
4.875804532200007
 20
10.42022052269999
 10
4.850124020200013
 20
10.1445564107
 10
4.827034445800009
 20
9.867215834700004
 10
4.800348356200004
 20
9.495138644299998
 10
4.778407991400015
 20
9.120868914699997
 10
4.761273437800014
 20
8.744874316299984
 10
4.748998983400014
 20
8.367570453899986
 10
4.741615746600004
 20
7.989164660299991
 10
4.739149052200005
 20
7.609812205899999
  0
LWPOLYLINE
  5
AE
330
2
100
AcDbEntity
  8
0
100
AcDbPolyline
 90
        4
 70
     0
 43
0.0
 10
5.714205231400015
 20
14.96509730829998
 10
5.767108937000003
 20
15.1149425691
 10
5.831475567400005
 20
15.2605177179
 10
5.907278756200014
 20
15.40156895629999
  0
LWPOLYLINE
  5
AF
330
2
100
AcDbEntity
  8
0
100
AcDbPolyline
 90
       16
 70
     0
 43
0.0
 10
5.821527765800013
 20
15.20964463789999
 10
5.813576645800011
 20
15.19144123469999
 10
5.805788274600004
 20
15.1731576667
 10
5.798163381800009
 20
15.15479532749998
 10
5.790702706600015
 20
15.13635562030001
 10
5.783406981800013
 20
15.1178399403
 10
5.776276943400006
 20
15.09924972909999
 10
5.769313333800013
 20
15.0805865915
 10
5.762516898600011
 20
15.0618521707
 10
5.755888378600005
 20
15.04304811629998
 10
5.749428521000012
 20
15.02417606989999
 10
5.743138044200009
 20
15.00523765069999
 10
5.737017570600002
 20
14.9862343547
 10
5.731067700200014
 20
14.96716764909999
 10
5.725289029800009
 20
14.94803900269999
 10
5.719682161000008
 20
14.9288498811
  0
LWPOLYLINE
  5
B0
330
2
100
AcDbEntity
  8
0
100
AcDbPolyline
 90
        4
 70
     0
 43
0.0
 10
-14.27903618139998
 20
-0.4253111108999974
 10
-14.21647464699999
 20
-0.4111899445000092
 10
-14.15973096059999
 20
-0.3982997269000066
 10
-14.10600905979999
 20
-0.3901878565000061
  0
LWPOLYLINE
  5
B1
330
2
100
AcDbEntity
  8
0
100
AcDbPolyline
 90
       35
 70
     0
 43
0.0
 10
32.08711341700001
 20
5.807776202699983
 10
32.14146751460001
 20
5.808833433100005
 10
32.1919425418
 20
5.811278149900005
 10
32.24813568900001
 20
5.815660938700005
 10
32.31159838820001
 20
5.822752425099992
 10
32.38363632740001
 20
5.833607431499984
 10
32.46503838340001
 20
5.84952276109999
 10
32.55228392580001
 20
5.870981562699995
 10
32.62970059460001
 20
5.893962060299998
 10
32.69772281860001
 20
5.917333474700001
 10
32.7577714954
 20
5.940539826699989
 10
32.8109841258
 20
5.963206188300006
 10
32.8583043002
 20
5.985090193100006
 10
32.9005203354
 20
6.006041889100004
 10
32.9382948906
 20
6.025975805900003
 10
32.9721876506
 20
6.044851185099986
 10
33.00267413380001
 20
6.062658447499984
 10
33.0301603898
 20
6.079409501899988
 10
33.0549948042
 20
6.095130839500001
 10
33.0774778554
 20
6.109858737099983
 10
33.09786888900001
 20
6.123635060299989
 10
33.11639380580001
 20
6.136505532299992
 10
33.133250185
 20
6.148517972299998
 10
33.14861052580001
 20
6.159720297099994
 10
33.16262636740001
 20
6.170159949899982
 10
33.17543124420001
 20
6.179883242699986
 10
33.1871432794
 20
6.188934975499989
 10
33.19786719780001
 20
6.197358103499993
 10
33.207696041
 20
6.205193546700002
 10
33.2167128362
 20
6.212480231499995
 10
33.224991633
 20
6.2192548891
 10
33.2325985866
 20
6.225552002699998
 10
33.23959330020001
 20
6.231404177099989
 10
33.246029257
 20
6.236841897099992
 10
33.25741359620001
 20
6.2465868731
  0
LWPOLYLINE
  5
B2
330
2
100
AcDbEntity
  8
0
100
AcDbPolyline
 90
       18
 70
     0
 43
0.0
 10
5.821527762600013
 20
0.0099799946999894
 10
5.827250538600011
 20
-0.0028212580999991
 10
5.833054575400012
 20
-0.0155300756999992
 10
5.838934618600006
 20
-0.0281382837000024
 10
5.844885418600014
 20
-0.0406377093000003
 10
5.850901724200014
 20
-0.0530201828999992
 10
5.85697828260001
 20
-0.0652775333000051
 10
5.86311241220001
 20
-0.0774061397000026
 10
5.869311700200015
 20
-0.0894206021000059
 10
5.875586301800012
 20
-0.1013400709000081
 10
5.881946372200005
 20
-0.1131836949000018
 10
5.888402068200008
 20
-0.1249706277000087
 10
5.89496354660001
 20
-0.1367200181000072
 10
5.90298747940001
 20
-0.1507892901000076
 10
5.911173274600002
 20
-0.1648207205000034
 10
5.919515849000006
 20
-0.178802952500007
 10
5.928010116200013
 20
-0.1927246293000024
 10
5.936650989800014
 20
-0.206574390900002
  0
LWPOLYLINE
  5
B3
330
2
100
AcDbEntity
  8
0
100
AcDbPolyline
 90
        4
 70
     0
 43
0.0
 10
5.714205231400015
 20
0.2545273242999997
 10
5.767108937000003
 20
0.1046820634999932
 10
5.831475567400005
 20
-0.0408930852999987
 10
5.907278756200014
 20
-0.1819443237000087
  0
LWPOLYLINE
  5
B4
330
2
100
AcDbEntity
  8
0
100
AcDbPolyline
 90
       16
 70
     0
 43
0.0
 10
5.719682161000008
 20
0.2907747530999955
 10
5.725289031400009
 20
0.2715856267000021
 10
5.731067701800014
 20
0.2524569754999959
 10
5.737017573800002
 20
0.2333902682999991
 10
5.743138047400009
 20
0.2143869706999908
 10
5.749428525800013
 20
0.1954485498999929
 10
5.755888385000005
 20
0.1765765035000015
 10
5.762516903400012
 20
0.157772447499994
 10
5.769313340200014
 20
0.1390380266999927
 10
5.776276948200006
 20
0.1203748890999918
 10
5.783406986600013
 20
0.1017846794999997
 10
5.790702711400015
 20
0.0832690010999926
 10
5.798163386600009
 20
0.0648292954999903
 10
5.805788276200004
 20
0.0464669610999948
 10
5.813576647400012
 20
0.0281833946999939
 10
5.821527764200013
 20
0.0099799962999896
  0
LINE
  5
B5
330
2
100
AcDbEntity
  8
0
100
AcDbLine
 10
5.711307964199996
 20
0.3389391850999992
 30
0.0
 11
5.681626549800008
 21
0.444813711499986
 31
0.0
  0
LWPOLYLINE
  5
B6
330
2
100
AcDbEntity
  8
0
100
AcDbPolyline
 90
       38
 70
     0
 43
0.0
 10
5.681626549800014
 20
0.4448137114999895
 10
5.672356063400002
 20
0.4780885578999943
 10
5.662340324200002
 20
0.514264559499992
 10
5.651523500200013
 20
0.5536019514999993
 10
5.639840636200005
 20
0.5964067050999944
 10
5.627218706600004
 20
0.6430299290999955
 10
5.613579308200002
 20
0.6938616459000003
 10
5.598835911400001
 20
0.7493453114999938
 10
5.582894433000006
 20
0.8099814314999917
 10
5.565651729000009
 20
0.8763402778999989
 10
5.546995010600014
 20
0.9490732154999932
 10
5.526800930600003
 20
1.028927770699993
 10
5.504935301800003
 20
1.116763620299991
 10
5.481252337000015
 20
1.213574893900002
 10
5.455593577000001
 20
1.320519869899996
 10
5.427787114600008
 20
1.43895817229999
 10
5.397647513000009
 20
1.570496941899989
 10
5.364975735400008
 20
1.717053572299988
 10
5.329562629800008
 20
1.880925391499999
 10
5.291185522600002
 20
2.064930141899992
 10
5.249637626600005
 20
2.2724429931
 10
5.204668713000003
 20
2.507965890699992
 10
5.156247042600014
 20
2.776132775500002
 10
5.106161161000002
 20
3.072183354700001
 10
5.05780386340001
 20
3.379719373900002
 10
5.012711153000012
 20
3.690174842699988
 10
4.97082485380001
 20
4.004301749900008
 10
4.932272071400007
 20
4.321587977099994
 10
4.897135956200003
 20
4.641768034699992
 10
4.865482567400007
 20
4.964670577100008
 10
4.837381749800002
 20
5.290019901899995
 10
4.81290541540001
 20
5.6174174123
 10
4.792100652200005
 20
5.946665359500002
 10
4.775012290600002
 20
6.277492369100002
 10
4.761684621800014
 20
6.609473821899996
 10
4.752143671400006
 20
6.942390905099983
 10
4.746409788200011
 20
7.275956961100007
 10
4.744496905000005
 20
7.609812316300008
  0
LINE
  5
B7
330
2
100
AcDbEntity
  8
0
100
AcDbLine
 10
5.721422468199997
 20
0.3023898762999941
 30
0.0
 11
5.711307964199996
 21
0.3389391850999992
 31
0.0
  0
LWPOLYLINE
  5
B8
330
2
100
AcDbEntity
  8
0
100
AcDbPolyline
 90
        9
 70
     0
 43
0.0
 10
5.714205309800007
 20
0.2545293834999995
 10
5.499361249000003
 20
1.050622818699991
 10
5.304654965800011
 20
1.892518239499992
 10
5.133320484200012
 20
2.776668850699991
 10
4.988600226600013
 20
3.697022935500001
 10
4.873141354600008
 20
4.647328007499993
 10
4.789052057000006
 20
5.620990321100009
 10
4.737912479400009
 20
6.610908556299989
 10
4.720735001000008
 20
7.609812316300008
  0
LWPOLYLINE
  5
B9
330
2
100
AcDbEntity
  8
0
100
AcDbPolyline
 90
        9
 70
     0
 43
0.0
 10
5.332646047400004
 20
0.2639063706999991
 10
5.120723663400013
 20
1.064768983500002
 10
4.92909348900001
 20
1.909486594699998
 10
4.760832405800002
 20
2.794374610699989
 10
4.618959613800015
 20
3.713595381899992
 10
4.505926447400014
 20
4.661207673099994
 10
4.423686471400003
 20
5.630955388300009
 10
4.373705164200003
 20
6.616110157899981
 10
4.356921629800012
 20
7.6098132539
  0
LWPOLYLINE
  5
BA
330
2
100
AcDbEntity
  8
0
100
AcDbPolyline
 90
       19
 70
     0
 43
0.0
 10
5.532109511400008
 20
-1.824121443700008
 10
5.525538181800001
 20
-1.78971002930001
 10
5.51811978340001
 20
-1.742896634100006
 10
5.509899185000008
 20
-1.68396397650001
 10
5.500926092200003
 20
-1.61326796370001
 10
5.491254761000007
 20
-1.531235541300006
 10
5.480943661800012
 20
-1.438362126900003
 10
5.470055125800001
 20
-1.33520860370001
 10
5.458654973800008
 20
-1.222397942900002
 10
5.446812117800007
 20
-1.100611435700002
 10
5.434598140200009
 20
-0.9705845845000027
 10
5.422086866600011
 20
-0.8331026517000026
 10
5.409353917800004
 20
-0.6889959301000062
 10
5.396476252200002
 20
-0.5391347157000013
 10
5.383531703400009
 20
-0.3844240629000097
 10
5.370598505000003
 20
-0.2257983077000034
 10
5.357754828200015
 20
-0.0642154357000067
 10
5.345078297000014
 20
0.0993487114999994
 10
5.332645529000004
 20
0.2639063274999955
  0
LINE
  5
BB
330
2
100
AcDbEntity
  8
0
100
AcDbLine
 10
5.714205297
 20
0.2545293002999891
 30
0.0
 11
5.721422474599997
 21
0.3023899146999973
 31
0.0
  0
LINE
  5
BC
330
2
100
AcDbEntity
  8
0
100
AcDbLine
 10
5.714205297
 20
14.96509533229999
 30
0.0
 11
5.721422474599997
 21
14.91723471789998
 31
0.0
  0
LWPOLYLINE
  5
BD
330
2
100
AcDbEntity
  8
0
100
AcDbPolyline
 90
       34
 70
     0
 43
0.0
 10
32.08711341700001
 20
9.411848429900004
 10
32.141467081
 20
9.410791215499983
 10
32.19194166180001
 20
9.408346538699987
 10
32.24813420580001
 20
9.403963833099993
 10
32.31159614820001
 20
9.396872498699991
 10
32.3836331562
 20
9.386017745099991
 10
32.46503420260001
 20
9.370102789899988
 10
32.5522791674
 20
9.348644367499986
 10
32.62969579300001
 20
9.325664114700003
 10
32.6977180618
 20
9.302292898699988
 10
32.7577668218
 20
9.279086708299985
 10
32.81097956100001
 20
9.256420474700007
 10
32.8582998666
 20
9.234536569099986
 10
32.9005160442
 20
9.213584943499995
 10
32.9382907482
 20
9.193651074699999
 10
32.9721836634
 20
9.17477572429999
 10
33.00267030500001
 20
9.156968471499993
 10
33.03015671940001
 20
9.140217412299989
 10
33.05499128900001
 20
9.124496060300003
 10
33.07747449220001
 20
9.10976813389999
 10
33.09786567620001
 20
9.095991773899982
 10
33.1163907386
 20
9.083121260300003
 10
33.13324725860001
 20
9.071108770699993
 10
33.148607737
 20
9.059906391499993
 10
33.1626237098
 20
9.0494666827
 10
33.1754287146
 20
9.039743329099991
 10
33.1871408714
 20
9.030691533899982
 10
33.1978649066
 20
9.022268341900002
 10
33.20769386340001
 20
9.014432834699988
 10
33.2167107642
 20
9.007146084299989
 10
33.22498966660001
 20
9.000371362700008
 10
33.2325967178
 20
8.994074186700004
 10
33.2395915258
 20
8.988221948300008
 10
33.2460275722
 20
8.982784164299999
  0
LWPOLYLINE
  5
BE
330
2
100
AcDbEntity
  8
0
100
AcDbPolyline
 90
       27
 70
     0
 43
0.0
 10
17.60172177540001
 20
20.0786786459
 10
17.6026968122
 20
20.08165256749998
 10
17.60148925060001
 20
20.0850500635
 10
17.5979413498
 20
20.08849236270001
 10
17.59214300900001
 20
20.0919734075
 10
17.58419205860001
 20
20.09547835309999
 10
17.574164201
 20
20.0990021531
 10
17.56213841860001
 20
20.1025355131
 10
17.5481952906
 20
20.10606850829998
 10
17.53237357700001
 20
20.1096003195
 10
17.51475345220001
 20
20.11311908749999
 10
17.4953499754
 20
20.11662545549998
 10
17.474211745
 20
20.1201118619
 10
17.45137532740001
 20
20.1235723787
 10
17.42682601380001
 20
20.1270074283
 10
17.4006191434
 20
20.13040631949999
 10
17.37271372260001
 20
20.13377025549999
 10
17.3431313738
 20
20.13709110509998
 10
17.31186133860001
 20
20.14036377389999
 10
17.2788643866
 20
20.14358471149998
 10
17.24417357860001
 20
20.14674225229998
 10
17.20771554980001
 20
20.14983356909999
 10
17.16951709220001
 20
20.15284575949999
 10
17.1295207114
 20
20.15577173549999
 10
17.08775013220001
 20
20.15859704589999
 10
17.04418806340001
 20
20.16130927469999
 10
16.998817657
 20
20.16389452589999
  0
LWPOLYLINE
  5
BF
330
2
100
AcDbEntity
  8
0
100
AcDbPolyline
 90
        4
 70
     0
 43
0.0
 10
-14.27903618139998
 20
15.64493574349998
 10
-14.21647464699999
 20
15.63081457709998
 10
-14.15973096059999
 20
15.61792435949999
 10
-14.10600905979999
 20
15.60981248909999
  0
LWPOLYLINE
  5
C0
330
2
100
AcDbEntity
  8
0
100
AcDbPolyline
 90
       33
 70
     0
 43
0.0
 10
6.260469301800014
 20
20.70003223949999
 10
6.295355207400007
 20
20.62951819629998
 10
6.368390468200004
 20
20.4923944539
 10
6.447726761000012
 20
20.3566266523
 10
6.533378495400015
 20
20.22240820749999
 10
6.625354121000015
 20
20.0899367051
 10
6.723657293800002
 20
19.9594121291
 10
6.828285957800005
 20
19.83103841069999
 10
6.939219077800004
 20
19.7050379291
 10
7.056422514600015
 20
19.5816403835
 10
7.179852609000008
 20
19.46107767949999
 10
7.309443674600004
 20
19.34359478350001
 10
7.445112257000005
 20
19.2294422843
 10
7.586732527400002
 20
19.11889294669998
 10
7.734148682600007
 20
19.0122246699
 10
7.887198042600005
 20
18.9097018059
 10
8.045710593000009
 20
18.81157782829999
 10
8.209505452200005
 20
18.7180990475
 10
8.378387129000003
 20
18.6295071355
 10
8.552106026600014
 20
18.54605690189998
 10
8.73037394340001
 20
18.4680011899
 10
8.912889154600009
 20
18.39557668909998
 10
9.099333524200005
 20
18.3290053275
 10
9.28935473700001
 20
18.26849919949998
 10
9.482581973800009
 20
18.21425254989998
 10
9.678634405800011
 20
18.16643883309998
 10
9.877112665000012
 20
18.1252126187
 10
10.0775885162
 20
18.09070967630001
 10
10.2796242522
 20
18.06304111469998
 10
10.48277623140001
 20
18.04229271629998
 10
10.6865965802
 20
18.02852476909998
 10
10.890639625
 20
18.02177184749999
 10
11.092404649
 20
18.0220056395
  0
LWPOLYLINE
  5
C1
330
2
100
AcDbEntity
  8
0
100
AcDbPolyline
 90
       27
 70
     0
 43
0.0
 10
17.60172177540001
 20
-4.85905401330001
 10
17.6026968122
 20
-4.862027934899998
 10
17.60148925060001
 20
-4.865425430900003
 10
17.5979413498
 20
-4.868867730100006
 10
17.59214300900001
 20
-4.872348774900004
 10
17.58419205860001
 20
-4.875853720500003
 10
17.574164201
 20
-4.8793775205
 10
17.56213841860001
 20
-4.882910880500006
 10
17.5481952906
 20
-4.88644387570001
 10
17.53237357700001
 20
-4.889975686900001
 10
17.51475345220001
 20
-4.893494454900007
 10
17.4953499754
 20
-4.897000822899997
 10
17.474211745
 20
-4.900487229299997
 10
17.45137532740001
 20
-4.903947746100001
 10
17.42682601380001
 20
-4.907382795700002
 10
17.4006191434
 20
-4.910781686900008
 10
17.37271372260001
 20
-4.914145622900008
 10
17.3431313738
 20
-4.917466472500009
 10
17.31186133860001
 20
-4.920739141300003
 10
17.2788643866
 20
-4.923960078900009
 10
17.24417357860001
 20
-4.927117619699998
 10
17.20771554980001
 20
-4.930208936500008
 10
17.16951709220001
 20
-4.933221126900008
 10
17.1295207114
 20
-4.936147102900008
 10
17.08775013220001
 20
-4.938972413300007
 10
17.04418806340001
 20
-4.9416846421
 10
16.998817657
 20
-4.944269893300003
  0
LWPOLYLINE
  5
C2
330
2
100
AcDbEntity
  8
0
100
AcDbPolyline
 90
       27
 70
     0
 43
0.0
 10
9.060534681000007
 20
-5.29660261490001
 10
9.088394164200011
 20
-5.246382814900002
 10
9.141352276200009
 20
-5.15839846770001
 10
9.198364162600014
 20
-5.072667477300001
 10
9.259265804200012
 20
-4.989417099700006
 10
9.323966777000009
 20
-4.908752574900006
 10
9.392354410600006
 20
-4.830808051700003
 10
9.46425738180001
 20
-4.755771526900005
 10
9.539536284200011
 20
-4.683778595700005
 10
9.618071994600015
 20
-4.61493927730001
 10
9.699687265000008
 20
-4.549407053300001
 10
9.784189682600015
 20
-4.487329787700005
 10
9.871458325800006
 20
-4.4287922197
 10
9.961317962600006
 20
-4.373912613300007
 10
10.0535380154
 20
-4.322828045299999
 10
10.1479878938
 20
-4.275607550900005
 10
10.24447977860001
 20
-4.232346248500007
 10
10.3427921338
 20
-4.193142462899999
 10
10.44274935140001
 20
-4.158064622899999
 10
10.54415971620001
 20
-4.127180435699997
 10
10.6468151562
 20
-4.100553771700006
 10
10.7505108522
 20
-4.078237797300005
 10
10.85504434660001
 20
-4.060276363699998
 10
10.9602113706
 20
-4.046705347699997
 10
11.06581046020001
 20
-4.037552267700007
 10
11.17161642500001
 20
-4.032837720499998
 10
11.27741746820001
 20
-4.032571219700002
  0
LWPOLYLINE
  5
C3
330
2
100
AcDbEntity
  8
0
100
AcDbPolyline
 90
        5
 70
     0
 43
0.0
 10
9.060536205800005
 20
-5.296602533300003
 10
9.060323037800003
 20
-5.296958610100006
 10
9.057813204200002
 20
-5.299434037300002
 10
9.053304023400002
 20
-5.3020989141
 10
9.046679221800005
 20
-5.304953490100004
  0
LWPOLYLINE
  5
C4
330
2
100
AcDbEntity
  8
0
100
AcDbPolyline
 90
        4
 70
     0
 43
0.0
 10
-13.89282551899999
 20
15.59210371789998
 10
-13.96408105819999
 20
15.5974409963
 10
-14.03509667099999
 20
15.60333967789998
 10
-14.10600908859999
 20
15.60981243469998
  0
LWPOLYLINE
  5
C5
330
2
100
AcDbEntity
  8
0
100
AcDbPolyline
 90
       20
 70
     0
 43
0.0
 10
38.0980285578
 20
6.422312316300008
 10
38.08496928260001
 20
6.426016730699984
 10
38.0718978074
 20
6.437201100300001
 10
38.05889294180001
 20
6.455945485900002
 10
38.04598331140001
 20
6.482416090699985
 10
38.03326819460001
 20
6.516669897100001
 10
38.0208191514
 20
6.558802383499994
 10
38.008788393
 20
6.608567833099982
 10
37.9973242906
 20
6.665510053899993
 10
37.98651909540001
 20
6.729263218699998
 10
37.97649649220001
 20
6.799125938700001
 10
37.9673066218
 20
6.874752026700008
 10
37.95903366660001
 20
6.955468393100005
 10
37.95172273860001
 20
7.040873241100001
 10
37.94544191140001
 20
7.130241684299988
 10
37.94024643620001
 20
7.222800161099996
 10
37.93617159140001
 20
7.317907601099989
 10
37.9332551802
 20
7.414530994699987
 10
37.93150348100001
 20
7.512137285899996
 10
37.9309217242
 20
7.609812316300008
  0
LINE
  5
C6
330
2
100
AcDbEntity
  8
0
100
AcDbLine
 10
38.1003044202
 20
6.426116429899987
 30
0.0
 11
38.1057930442
 21
6.424538685899985
 31
0.0
  0
LWPOLYLINE
  5
C7
330
2
100
AcDbEntity
  8
0
100
AcDbPolyline
 90
        5
 70
     0
 43
0.0
 10
9.060536205800005
 20
20.5162271659
 10
9.060323037800003
 20
20.51658324269999
 10
9.057813204200002
 20
20.5190586699
 10
9.053304023400002
 20
20.5217235467
 10
9.046679221800005
 20
20.5245781227
  0
LWPOLYLINE
  5
C8
330
2
100
AcDbEntity
  8
0
100
AcDbPolyline
 90
       27
 70
     0
 43
0.0
 10
9.060534681000007
 20
20.51622724749998
 10
9.088394164200011
 20
20.4660074475
 10
9.141352276200009
 20
20.3780231003
 10
9.198364162600014
 20
20.29229210989999
 10
9.259265804200012
 20
20.20904173229999
 10
9.323966777000009
 20
20.12837720749999
 10
9.392354410600006
 20
20.0504326843
 10
9.46425738180001
 20
19.9753961595
 10
9.539536284200011
 20
19.90340322829999
 10
9.618071994600015
 20
19.83456390989999
 10
9.699687265000008
 20
19.76903168749998
 10
9.784189682600015
 20
19.7069544203
 10
9.871458325800006
 20
19.64841685229998
 10
9.961317962600006
 20
19.59353724589999
 10
10.0535380154
 20
19.5424526779
 10
10.1479878938
 20
19.4952321835
 10
10.24447977860001
 20
19.45197088109998
 10
10.3427921338
 20
19.41276709709998
 10
10.44274935140001
 20
19.3776892555
 10
10.54415971620001
 20
19.3468050683
 10
10.6468151562
 20
19.32017840430001
 10
10.7505108522
 20
19.29786242989999
 10
10.85504434660001
 20
19.2799009963
 10
10.9602113706
 20
19.26632998029998
 10
11.06581046020001
 20
19.25717690029998
 10
11.17161642500001
 20
19.25246235309998
 10
11.27741746820001
 20
19.25219585229999
  0
LINE
  5
C9
330
2
100
AcDbEntity
  8
0
100
AcDbLine
 10
38.11120606179999
 20
6.426090801099999
 30
0.0
 11
38.0980285578
 21
6.422312316300004
 31
0.0
  0
LWPOLYLINE
  5
CA
330
2
100
AcDbEntity
  8
0
100
AcDbPolyline
 90
       25
 70
     0
 43
0.0
 10
14.2083629194
 20
18.1561755019
 10
14.383264777
 20
18.1713730923
 10
14.557254025
 20
18.19311723949999
 10
14.73006860260001
 20
18.22137338670001
 10
14.9013369034
 20
18.25607294509998
 10
15.07092263620001
 20
18.29718144590001
 10
15.2385660906
 20
18.34463646029999
 10
15.40388699620001
 20
18.39832312909999
 10
15.5667692314
 20
18.45819708909999
 10
15.72695232740001
 20
18.52416377389999
 10
15.88405610020001
 20
18.5960577131
 10
16.0379869882
 20
18.6738274587
 10
16.18849940420001
 20
18.7573495691
 10
16.33523225860001
 20
18.8464131339
 10
16.47810766500001
 20
18.94096070029999
 10
16.61689789380001
 20
19.04084185229999
 10
16.75126951460001
 20
19.14580459149999
 10
16.8811546378
 20
19.25578403789998
 10
17.0063486842
 20
19.37060682669999
 10
17.12655547940001
 20
19.48998804429999
 10
17.24171239140001
 20
19.6138522219
 10
17.35164173700001
 20
19.7420080011
 10
17.45609196900001
 20
19.8741484779
 10
17.55499986180001
 20
20.01017946990001
 10
17.6017203834
 20
20.0786787339
  0
LWPOLYLINE
  5
CB
330
2
100
AcDbEntity
  8
0
100
AcDbPolyline
 90
       39
 70
     0
 43
0.0
 10
22.3389979386
 20
18.43655389389999
 10
21.1955115786
 20
18.37219209549999
 10
19.88230659620001
 20
18.29461665229999
 10
18.5625049674
 20
18.21519009549999
 10
17.3830922922
 20
18.14489498509999
 10
16.32493141060001
 20
18.0837412475
 10
15.3903149802
 20
18.03226722509998
 10
14.5739875338
 20
17.98999769869999
 10
13.845200793
 20
17.95522456749998
 10
13.14644768900001
 20
17.92549047309998
 10
12.41053551300001
 20
17.89900291309999
 10
11.58086091940001
 20
17.87638590669999
 10
10.6452167914
 20
17.86194730349999
 10
9.715719623400005
 20
17.8605899691
 10
8.885077565800003
 20
17.87000257389999
 10
8.017266322600008
 20
17.88982305069998
 10
7.015817186600003
 20
17.9235942347
 10
5.956106474600005
 20
17.96978925549999
 10
4.994194185000011
 20
18.0199916763
 10
4.144078844200009
 20
18.0704150363
 10
3.400016117800007
 20
18.11903889709998
 10
2.738461820200015
 20
18.1657901003
 10
2.114797285800008
 20
18.2128990299
 10
1.497519341800014
 20
18.2621861643
 10
0.8758246106000058
 20
18.31396066989998
 10
0.2475805098000023
 20
18.36788277549999
 10
-0.399828173399996
 20
18.4243118667
 10
-1.081832053399992
 20
18.48301378829998
 10
-1.822626840599994
 20
18.54361832109998
 10
-2.656820202199995
 20
18.6047133019
 10
-3.550426326999996
 20
18.65755024749998
 10
-4.410155453399994
 20
18.69240309389999
 10
-5.246051848599989
 20
18.7081793595
 10
-6.059059867799987
 20
18.70257086029999
 10
-6.837250062999984
 20
18.6737113435
 10
-7.57998595579999
 20
18.6203218171
 10
-8.289176666199992
 20
18.54081194189999
 10
-8.942521434199989
 20
18.43757293389998
 10
-9.515848923799993
 20
18.31815450989998
  0
LWPOLYLINE
  5
CC
330
2
100
AcDbEntity
  8
0
100
AcDbPolyline
 90
        6
 70
     0
 43
0.0
 10
11.0924046506
 20
18.0220056363
 10
11.7164137018
 20
18.0364740651
 10
12.34008180900001
 20
18.05712785229999
 10
12.96334127300001
 20
18.08396474989999
 10
13.5861242026
 20
18.11698182989999
 10
14.2083629194
 20
18.1561755019
  0
LWPOLYLINE
  5
CD
330
2
100
AcDbEntity
  8
0
100
AcDbPolyline
 90
       55
 70
     0
 43
0.0
 10
7.720285705000009
 20
16.5958155403
 10
7.675081497000007
 20
16.59553663149998
 10
7.629774372200003
 20
16.5942185675
 10
7.584878737000011
 20
16.59187740749999
 10
7.540328975400015
 20
16.58852414829999
 10
7.496126770600014
 20
16.58416990189999
 10
7.452268735400011
 20
16.57882412589998
 10
7.408747933800015
 20
16.57249431310001
 10
7.365558892200013
 20
16.5651865275
 10
7.322696260200004
 20
16.5569053115
 10
7.280156105000003
 20
16.5476540059
 10
7.237934257000006
 20
16.53743450190001
 10
7.196027300200015
 20
16.5262475051
 10
7.154434756200004
 20
16.5140932587
 10
7.113158321000014
 20
16.50097161229999
 10
7.072201842600009
 20
16.4868822427
 10
7.031569617000002
 20
16.47182424749999
 10
6.991267583400002
 20
16.45579669069999
 10
6.951305068200014
 20
16.4387994987
 10
6.91169342820001
 20
16.42083322509998
 10
6.872445791400011
 20
16.4018991355
 10
6.833574649000013
 20
16.3819981707
 10
6.795094001000009
 20
16.3611320523
 10
6.757021572200002
 20
16.3393046651
 10
6.719376879400002
 20
16.3165213419
 10
6.682177922600004
 20
16.2927868971
 10
6.645457052200015
 20
16.26811631149999
 10
6.609092921000012
 20
16.2424167451
 10
6.572887119400007
 20
16.2155282843
 10
6.536839829800015
 20
16.1874243819
 10
6.501020301800011
 20
16.1581330331
 10
6.465473349800006
 20
16.12766806509998
 10
6.430235186600015
 20
16.09603888269998
 10
6.395323189800009
 20
16.06324050349999
 10
6.360764367400008
 20
16.0292779739
 10
6.32658136900001
 20
15.99415226829998
 10
6.292782362600007
 20
15.95784937869999
 10
6.259754186600005
 20
15.92078831309999
 10
6.228582175400006
 20
15.88429846349998
 10
6.199586322600012
 20
15.8489719067
 10
6.172387281000013
 20
15.81456326509999
 10
6.146759701800007
 20
15.7809665515
 10
6.122518570600007
 20
15.74809086669998
 10
6.099524959400014
 20
15.7158800619
 10
6.077666756200002
 20
15.68429533069999
 10
6.056854364200006
 20
15.65331465389999
 10
6.037013327400003
 20
15.62292644269999
 10
6.018079385000007
 20
15.5931251259
 10
5.999999332200005
 20
15.5639124299
 10
5.982728713000014
 20
15.53529668429999
 10
5.966228081000011
 20
15.50728802669999
 10
5.950463975400012
 20
15.4799008235
 10
5.935401058600007
 20
15.4531407291
 10
5.921015839400013
 20
15.4270285595
 10
5.907278756200014
 20
15.40156895629999
  0
LWPOLYLINE
  5
CE
330
2
100
AcDbEntity
  8
0
100
AcDbPolyline
 90
       29
 70
     0
 43
0.0
 10
19.3079580378
 20
16.63427345549999
 10
18.33541328900001
 20
16.62920945709998
 10
18.01714703140001
 20
16.62760525229998
 10
17.54379717380001
 20
16.62535330029999
 10
17.0732311018
 20
16.6233476971
 10
16.1334505642
 20
16.62038553709999
 10
15.6634476538
 20
16.61961807629998
 10
15.1942833866
 20
16.61945986349999
 10
14.72688218980001
 20
16.6200095899
 10
14.26105801220001
 20
16.62135288109999
 10
13.79625059620001
 20
16.6235738043
 10
13.3315133754
 20
16.62676326669998
 10
12.8660869274
 20
16.6310123819
 10
12.4003467338
 20
16.63640623629999
 10
11.93495253060001
 20
16.6430233211
 10
11.47056618820001
 20
16.65092175469999
 10
11.00727793380001
 20
16.6601714331
 10
10.54288926980001
 20
16.6709097563
 10
10.231341505
 20
16.67897514669999
 10
9.917397829800009
 20
16.6878362395
 10
9.60038281540001
 20
16.6975585515
 10
9.360171681000011
 20
16.70545854669998
 10
9.117400074600013
 20
16.71392951309999
 10
8.871615084200001
 20
16.7230211355
 10
8.622363794600005
 20
16.73278309549999
 10
8.369294393000004
 20
16.7432631867
 10
8.112459474600015
 20
16.7545016331
 10
7.852012737000009
 20
16.76653677069998
 10
7.588107877800013
 20
16.77940693389999
  0
LWPOLYLINE
  5
CF
330
2
100
AcDbEntity
  8
0
100
AcDbPolyline
 90
       15
 70
     0
 43
0.0
 10
7.588107877800013
 20
16.77940693389999
 10
7.56105753540001
 20
16.78078269549999
 10
7.534117426600005
 20
16.78219477229998
 10
7.507289113000013
 20
16.78364262349998
 10
7.480574153000006
 20
16.7851257067
 10
7.453974111400015
 20
16.78664347949998
 10
7.427490228200014
 20
16.78819542029998
 10
7.401122460200014
 20
16.78978107469998
 10
7.374870444200013
 20
16.79140001069998
 10
7.34873381700001
 20
16.7930517963
 10
7.322712217000002
 20
16.7947359979
 10
7.290346954600011
 20
16.79688613709998
 10
7.258163357800015
 20
16.79908519469998
 10
7.226163930600009
 20
16.80133211309998
 10
7.194351177000015
 20
16.8036258411
  0
LWPOLYLINE
  5
D0
330
2
100
AcDbEntity
  8
0
100
AcDbPolyline
 90
       37
 70
     0
 43
0.0
 10
7.194351161000014
 20
16.80362563469998
 10
7.158501887400007
 20
16.80615187949999
 10
7.123158652200004
 20
16.80847331469999
 10
7.088340417000011
 20
16.81061353229998
 10
7.054055319400006
 20
16.81259603789999
 10
7.020268221800009
 20
16.81444400749998
 10
6.986933172200011
 20
16.81618053709999
 10
6.937686079400009
 20
16.81862414349998
 10
6.889248119400008
 20
16.82093039949998
 10
6.841513490600007
 20
16.82315944589999
 10
6.794371466600011
 20
16.8253662667
 10
6.747711194600015
 20
16.82760374509999
 10
6.701426236200006
 20
16.8299214923
 10
6.655417505000002
 20
16.8323675723
 10
6.60961089540001
 20
16.8349871307
 10
6.56393575780001
 20
16.8378245403
 10
6.518310244200009
 20
16.8409239739
 10
6.472654916200013
 20
16.84432901069999
 10
6.426911165800007
 20
16.84808104589999
 10
6.381024453800009
 20
16.85222064589999
 10
6.334935722600008
 20
16.85678721709999
 10
6.288588020200009
 20
16.86181888109999
 10
6.24193734660001
 20
16.8673497211
 10
6.194945575400012
 20
16.87341110829999
 10
6.147585124200006
 20
16.8800275627
 10
6.099831063400003
 20
16.88721990829998
 10
6.051658551400009
 20
16.89500104109998
 10
6.003048826600007
 20
16.90337802669998
 10
5.954007362600009
 20
16.91234253389998
 10
5.904542746600014
 20
16.9218794875
 10
5.854651775400014
 20
16.93196224909999
 10
5.821150961000014
 20
16.93897176429999
 10
5.787454500200013
 20
16.9461961595
 10
5.753558972200011
 20
16.95362085389999
 10
5.719462911400015
 20
16.96122970669998
 10
5.685172685800012
 20
16.96900032429999
 10
5.622747349800008
 20
16.9832867483
  0
LWPOLYLINE
  5
D1
330
2
100
AcDbEntity
  8
0
100
AcDbPolyline
 90
      101
 70
     0
 43
0.0
 10
3.756215583400006
 20
17.2341678171
 10
3.138248901800011
 20
17.29361018189999
 10
2.520333996200008
 20
17.35606437229998
 10
1.903209802600002
 20
17.42080214189999
 10
1.287577324200015
 20
17.48703522509998
 10
0.672552751400005
 20
17.55411202669998
 10
0.0550204794000138
 20
17.6216388507
 10
-0.1513428549999958
 20
17.64413611949999
 10
-0.3570647317999942
 20
17.6664911835
 10
-0.5611736389999891
 20
17.6885740843
 10
-0.7128489125999949
 20
17.70490317709999
 10
-0.8640797189999886
 20
17.72109345389998
 10
-1.167718093399997
 20
17.75324969069998
 10
-1.320234445399989
 20
17.76919096270001
 10
-1.474046842199996
 20
17.78509051789998
 10
-1.630158446999985
 20
17.8010193947
 10
-1.789572427799996
 20
17.81704862349999
 10
-1.953155122199987
 20
17.83323127149998
 10
-2.121225570199996
 20
17.84954851789999
 10
-2.235951432599989
 20
17.8604906811
 10
-2.353381155799993
 20
17.87150975469998
 10
-2.474143054999984
 20
17.8826391723
 10
-2.598670662999992
 20
17.89389327789999
 10
-2.726618365399986
 20
17.90521003949999
 10
-2.857445762199986
 20
17.91650833549999
 10
-2.990748973399988
 20
17.92771805710001
 10
-3.126670198999988
 20
17.9388131867
 10
-3.265488158999986
 20
17.94977872749998
 10
-3.407375258199991
 20
17.96058950349999
 10
-3.552078648599987
 20
17.9711796347
 10
-3.699239165399987
 20
17.9814730651
 10
-3.92310742619999
 20
17.99615883949999
 10
-4.147850694999988
 20
18.00964341069999
 10
-4.374845315799987
 20
18.02186356269999
 10
-4.603396755799991
 20
18.03268868749998
 10
-4.831910131799986
 20
18.04195024749998
 10
-5.058790558999987
 20
18.04947970669999
 10
-5.283282282199991
 20
18.05515422029998
 10
-5.506704046999985
 20
18.0589904011
 10
-5.653834147799997
 20
18.06048438669998
 10
-5.798894422999993
 20
18.06112574349998
 10
-5.94161064859999
 20
18.0609281387
 10
-6.081791797399986
 20
18.0599044491
 10
-6.219579614999986
 20
18.0580643579
 10
-6.355199043799984
 20
18.05541675789999
 10
-6.488801475799988
 20
18.05197374669998
 10
-6.62024410619999
 20
18.0477602459
 10
-6.749310581399996
 20
18.0428043867
 10
-6.900869776599989
 20
18.03590882029999
 10
-7.049045341399988
 20
18.02798399630001
 10
-7.194186856599998
 20
18.0190291483
 10
-7.336643904599988
 20
18.00904350829998
 10
-7.476766062999992
 20
17.99802631309998
 10
-7.649039427799991
 20
17.9828092683
 10
-7.818122749399989
 20
17.96601519149999
 10
-7.98392802299999
 20
17.9476800571
 10
-8.146367248599993
 20
17.92783983629999
 10
-8.305340781399991
 20
17.90654006029998
 10
-8.460702422999993
 20
17.8838644811
 10
-8.612294326999993
 20
17.8599064043
 10
-8.759958656599991
 20
17.8347591371
 10
-8.903584805399994
 20
17.8085088075
 10
-9.043251133399991
 20
17.78121282829999
 10
-9.179083232599992
 20
17.75292143309999
 10
-9.311206699799988
 20
17.72368485709998
 10
-9.439749699799989
 20
17.69354831789999
 10
-9.564850672599988
 20
17.66253698189998
 10
-9.686650630999992
 20
17.63067100109998
 10
-9.805290582999994
 20
17.59797052589999
 10
-9.958804899799993
 20
17.5531043883
 10
-10.10728370619999
 20
17.50682491469999
 10
-10.25105859739998
 20
17.45916649069999
 10
-10.39045702779999
 20
17.4101567003
 10
-10.52578990779998
 20
17.35979592589998
 10
-10.65736400699999
 20
17.3080777467
 10
-10.78544185179999
 20
17.25500776909998
 10
-10.91010900059998
 20
17.2006396955
 10
-11.03140676699999
 20
17.14503925549999
 10
-11.14938734619999
 20
17.08826615469999
 10
-11.26414644219999
 20
17.03035600589998
 10
-11.37579064539998
 20
16.97133839309998
 10
-11.48441746779999
 20
16.9112451963
 10
-11.59008815259998
 20
16.85011745229999
 10
-11.69285487099999
 20
16.7879984939
 10
-11.79276850139999
 20
16.7249312875
 10
-11.88987473979999
 20
16.6609573579
 10
-11.98421799739998
 20
16.59611786669998
 10
-12.07582908379998
 20
16.53046550029998
 10
-12.16468444699999
 20
16.46409905709998
 10
-12.25074693819999
 20
16.3971288587
 10
-12.33399263739999
 20
16.32965338669998
 10
-12.41445052539999
 20
16.2617237435
 10
-12.49216280859999
 20
16.19337918509998
 10
-12.56717064059999
 20
16.12465945069999
 10
-12.63951094939999
 20
16.0556061899
 10
-12.70921961339998
 20
15.9862615291
 10
-12.77633471899999
 20
15.91666527469999
 10
-12.84090320859998
 20
15.84684794189999
 10
-12.90297423739998
 20
15.77683772590001
 10
-12.99150119099999
 20
15.6715259867
 10
-13.07465907579999
 20
15.56596023629998
  0
LWPOLYLINE
  5
D2
330
2
100
AcDbEntity
  8
0
100
AcDbPolyline
 90
       27
 70
     0
 43
0.0
 10
5.103416365800015
 20
17.07705334989998
 10
5.045245618600006
 20
17.08529265229998
 10
4.986513962600014
 20
17.09345535789998
 10
4.927240095400009
 20
17.10153913389999
 10
4.867437346600013
 20
17.10954235309998
 10
4.807097586600008
 20
17.1174662155
 10
4.746207316200013
 20
17.1253126267
 10
4.700169338600005
 20
17.13114778829998
 10
4.653803113000009
 20
17.13694146829999
 10
4.60709764420001
 20
17.14269467629998
 10
4.560041937000008
 20
17.1484084251
 10
4.512627042600001
 20
17.15408341069999
 10
4.464852191400012
 20
17.1597190667
 10
4.416718657000004
 20
17.16531451149998
 10
4.36822771300001
 20
17.1708688603
 10
4.319378581800009
 20
17.1763814123
 10
4.27016226340001
 20
17.18185218349998
 10
4.220567701800007
 20
17.18728137069999
 10
4.17058384580001
 20
17.19266917069998
 10
4.120200988200011
 20
17.19801554509999
 10
4.069414818600009
 20
17.20331952589998
 10
4.018222369000014
 20
17.20857991149998
 10
3.966620677800008
 20
17.21379549709999
 10
3.914609177000002
 20
17.21896479949998
 10
3.862196884200002
 20
17.22408521389999
 10
3.809395215400002
 20
17.22915384909998
 10
3.756215583400006
 20
17.2341678171
  0
LWPOLYLINE
  5
D3
330
2
100
AcDbEntity
  8
0
100
AcDbPolyline
 90
       16
 70
     0
 43
0.0
 10
5.524738901800006
 20
17.00460995949998
 10
5.498221831400002
 20
17.0100773803
 10
5.471472177000009
 20
17.01544789229998
 10
5.444485106600012
 20
17.0207232523
 10
5.417255793000009
 20
17.02590521869999
 10
5.389779404200012
 20
17.03099554989998
 10
5.36205459140001
 20
17.0359958667
 10
5.334093911400003
 20
17.0409072507
 10
5.305913402600012
 20
17.04573064429999
 10
5.277529103400013
 20
17.0504669931
 10
5.248957053800012
 20
17.05511724109999
 10
5.220209996200011
 20
17.05968278669999
 10
5.191287516200006
 20
17.06416683629998
 10
5.162185903400015
 20
17.06857305389999
 10
5.132901450600002
 20
17.0729051035
 10
5.103430447400015
 20
17.0771666459
  0
LINE
  5
D4
330
2
100
AcDbEntity
  8
0
100
AcDbLine
 10
5.538756754600009
 20
17.00166101709998
 30
0.0
 11
5.5247389018
 21
17.00460995949998
 31
0.0
  0
LINE
  5
D5
330
2
100
AcDbEntity
  8
0
100
AcDbLine
 10
5.566775511400003
 20
16.99565343629998
 30
0.0
 11
5.538756754600009
 21
17.00166101709998
 31
0.0
  0
LINE
  5
D6
330
2
100
AcDbEntity
  8
0
100
AcDbLine
 10
5.594772807399999
 20
16.98953255469998
 30
0.0
 11
5.566775511400003
 21
16.99565343629998
 31
0.0
  0
LINE
  5
D7
330
2
100
AcDbEntity
  8
0
100
AcDbLine
 10
5.622747349800001
 20
16.98328674829999
 30
0.0
 11
5.594772807399999
 21
16.98953255469998
 31
0.0
  0
LINE
  5
D8
330
2
100
AcDbEntity
  8
0
100
AcDbLine
 10
38.0980285578
 20
8.797312316300004
 30
0.0
 11
38.1109695674
 21
8.793668505099983
 31
0.0
  0
LWPOLYLINE
  5
D9
330
2
100
AcDbEntity
  8
0
100
AcDbPolyline
 90
        3
 70
     0
 43
0.0
 10
8.945408877800005
 20
-5.346338934900003
 10
8.994701717800012
 20
-5.325477210100004
 10
9.046679221800005
 20
-5.304953490100004
  0
LWPOLYLINE
  5
DA
330
2
100
AcDbEntity
  8
0
100
AcDbPolyline
 90
       22
 70
     0
 43
0.0
 10
8.945408877800005
 20
-5.346338934900003
 10
8.937549356200008
 20
-5.349385197300009
 10
8.92743831460001
 20
-5.352589198900005
 10
8.915037549800004
 20
-5.3559355541
 10
8.900373196200007
 20
-5.359396704499999
 10
8.883549199400007
 20
-5.362935461299997
 10
8.864637866600006
 20
-5.366528365299998
 10
8.843794172200006
 20
-5.370140370100003
 10
8.821213889000006
 20
-5.373735531700006
 10
8.797074873000013
 20
-5.37728569810001
 10
8.771542937000006
 20
-5.38076729170001
 10
8.74493287940001
 20
-5.384140394100001
 10
8.717507751400006
 20
-5.387377570099999
 10
8.689508116200002
 20
-5.390457698100007
 10
8.661134405800012
 20
-5.393366542899997
 10
8.632600305000011
 20
-5.396090365299997
 10
8.604043999400005
 20
-5.398624067699998
 10
8.57565906660001
 20
-5.400958523699998
 10
8.54753667300001
 20
-5.403094058100009
 10
8.519827079400002
 20
-5.405026696500002
 10
8.492586842600005
 20
-5.406759466099998
 10
8.465946045800009
 20
-5.408290626099997
  0
LWPOLYLINE
  5
DB
330
2
100
AcDbEntity
  8
0
100
AcDbPolyline
 90
       21
 70
     0
 43
0.0
 10
14.160158089
 20
19.3850433531
 10
14.24299450020001
 20
19.39303890989998
 10
14.32523674820001
 20
19.40475908109999
 10
14.4067213482
 20
19.4201845803
 10
14.4872609834
 20
19.4392858859
 10
14.56663331940001
 20
19.46201372269999
 10
14.6447210058
 20
19.4883403595
 10
14.7212811578
 20
19.5181903035
 10
14.79616795460001
 20
19.55151106989998
 10
14.86922099140001
 20
19.5882398395
 10
14.94022737540001
 20
19.62827614669999
 10
15.00909077540001
 20
19.67157559789998
 10
15.0755877562
 20
19.71800927949999
 10
15.13958529060001
 20
19.76749311149998
 10
15.20094181060001
 20
19.81993147789998
 10
15.2594721578
 20
19.87517785709999
 10
15.3150874986
 20
19.93316378029999
 10
15.3676017658
 20
19.9937124827
 10
15.4169019322
 20
20.0567071307
 10
15.462867321
 20
20.12201194509998
 10
15.4935877946
 20
20.1699840043
  0
LWPOLYLINE
  5
DC
330
2
100
AcDbEntity
  8
0
100
AcDbPolyline
 90
        6
 70
     0
 43
0.0
 10
11.27741746820001
 20
19.25219585229999
 10
11.8548450442
 20
19.26607060589998
 10
12.43191045060001
 20
19.28629587309998
 10
13.00853604580001
 20
19.3128689387
 10
13.5846444122
 20
19.3457862411
 10
14.160158089
 20
19.3850433531
  0
LWPOLYLINE
  5
DD
330
2
100
AcDbEntity
  8
0
100
AcDbPolyline
 90
       12
 70
     0
 43
0.0
 10
28.89444914500001
 20
18.59162137229998
 10
28.5120568938
 20
18.60640695469999
 10
28.1014735354
 20
18.6158077451
 10
27.6550537482
 20
18.6199635451
 10
27.1710865434
 20
18.61872890349999
 10
26.64778457220001
 20
18.61196315789999
 10
26.08032934660001
 20
18.59946018029998
 10
25.46457482340001
 20
18.58096872429999
 10
24.79434054660001
 20
18.55612819949999
 10
24.0603312682
 20
18.52439439629998
 10
23.24888902340001
 20
18.4849554875
 10
22.3389979386
 20
18.43655389389999
  0
LWPOLYLINE
  5
DE
330
2
100
AcDbEntity
  8
0
100
AcDbPolyline
 90
        5
 70
     0
 43
0.0
 10
-1.861089602199996
 20
20.79347170189998
 10
0.416152903400004
 20
20.6915870427
 10
2.837583929000004
 20
20.5789061515
 10
5.493941265000003
 20
20.4508805019
 10
6.419510141800003
 20
20.40491361229999
  0
LWPOLYLINE
  5
DF
330
2
100
AcDbEntity
  8
0
100
AcDbPolyline
 90
        4
 70
     0
 43
0.0
 10
9.218316553000008
 20
20.26501790189999
 10
11.7721665978
 20
20.13499781709998
 10
15.22823027300001
 20
19.95486710669999
 10
15.32924099460001
 20
19.94948269549999
  0
LWPOLYLINE
  5
E0
330
2
100
AcDbEntity
  8
0
100
AcDbPolyline
 90
       22
 70
     0
 43
0.0
 10
15.97585065860001
 20
20.2195238523
 10
15.94992248260001
 20
20.22085201069998
 10
15.92371183460001
 20
20.22202853549998
 10
15.89735331140001
 20
20.22304202189999
 10
15.8708977322
 20
20.22388462829999
 10
15.84448378660001
 20
20.22454539629998
 10
15.8181809146
 20
20.22501534669999
 10
15.79215018820001
 20
20.22528365069999
 10
15.7665133386
 20
20.22534067629999
 10
15.74147396260001
 20
20.22517743789998
 10
15.71717994500001
 20
20.22478630029999
 10
15.6938304426
 20
20.2241615195
 10
15.67167415300001
 20
20.22330197389999
 10
15.6509413626
 20
20.22221100269999
 10
15.63175842980001
 20
20.22088996429999
 10
15.61431843620001
 20
20.2193466603
 10
15.5988519434
 20
20.21760001069998
 10
15.5855291322
 20
20.2156752395
 10
15.57439262340001
 20
20.21358972429999
 10
15.5654639386
 20
20.21136026829998
 10
15.55876947620001
 20
20.20901144589998
 10
15.554295905
 20
20.20656983149998
  0
LWPOLYLINE
  5
E1
330
2
100
AcDbEntity
  8
0
100
AcDbPolyline
 90
       26
 70
     0
 43
0.0
 10
6.807171565800004
 20
20.7181200331
 10
6.764499527400005
 20
20.7203286923
 10
6.723507314600013
 20
20.7222307483
 10
6.684249388200015
 20
20.72383603629998
 10
6.646671039400004
 20
20.72515822189998
 10
6.610784748200003
 20
20.7262070955
 10
6.576550167400014
 20
20.7269930171
 10
6.544011143400012
 20
20.7275234283
 10
6.513115629800012
 20
20.72780676109999
 10
6.483894311400007
 20
20.72784927789999
 10
6.456344604200012
 20
20.72765694669999
 10
6.430451745000013
 20
20.72723436909999
 10
6.406262575400006
 20
20.72658625709999
 10
6.383751778600014
 20
20.72571467149998
 10
6.362978345000001
 20
20.72462337869998
 10
6.343954876200015
 20
20.72331356589998
 10
6.326717125800001
 20
20.7217862747
 10
6.311327749800014
 20
20.72004444749998
 10
6.29781147780001
 20
20.71808585069999
 10
6.286247450600015
 20
20.71591417709999
 10
6.276683439400002
 20
20.7135273243
 10
6.26919443780001
 20
20.71092709229998
 10
6.263855655400007
 20
20.70811601709999
 10
6.26073786660001
 20
20.70509228110001
 10
6.259923997800015
 20
20.70186206829998
 10
6.260469317800001
 20
20.70003223789999
  0
LWPOLYLINE
  5
E2
330
2
100
AcDbEntity
  8
0
100
AcDbPolyline
 90
        3
 70
     0
 43
0.0
 10
17.42724030500001
 20
19.83764810509998
 10
18.7879315258
 20
19.7651159803
 10
22.44424448900001
 20
19.5660040891
  0
LINE
  5
E3
330
2
100
AcDbEntity
  8
0
100
AcDbLine
 10
16.99881765699999
 20
20.16389452589999
 30
0.0
 11
15.9758506586
 21
20.21952385229999
 31
0.0
  0
LINE
  5
E4
330
2
100
AcDbEntity
  8
0
100
AcDbLine
 10
8.465946045800002
 20
20.62791525869999
 30
0.0
 11
6.807171565799998
 21
20.7181200331
 31
0.0
  0
LWPOLYLINE
  5
E5
330
2
100
AcDbEntity
  8
0
100
AcDbPolyline
 90
        4
 70
     0
 43
0.0
 10
22.44424448900001
 20
19.5660040891
 10
24.3490962874
 20
19.46046963309999
 10
26.48809269220001
 20
19.33935921709999
 10
28.89444914500001
 20
19.2028707435
  0
LWPOLYLINE
  5
E6
330
2
100
AcDbEntity
  8
0
100
AcDbPolyline
 90
       18
 70
     0
 43
0.0
 10
28.89444914500001
 20
19.2028707435
 10
29.3057579274
 20
19.1681623563
 10
29.76704426180001
 20
19.10478599789999
 10
30.2704222906
 20
19.0095285147
 10
30.79958841540001
 20
18.88216571629999
 10
31.3262719962
 20
18.72806737709998
 10
31.8029797786
 20
18.56348260589999
 10
32.22984654340001
 20
18.39338315789999
 10
32.631931753
 20
18.21169738349999
 10
33.02410745860001
 20
18.01281452909998
 10
33.40437367620001
 20
17.7953827659
 10
33.75618751620001
 20
17.56852083789999
 10
34.09587893860001
 20
17.3231176955
 10
34.4337331866
 20
17.0507384171
 10
34.7782606346
 20
16.7417836571
 10
35.13174689860001
 20
16.39132356109999
 10
35.48426711140001
 20
16.00546735309998
 10
35.82307469060001
 20
15.5957042267
  0
LWPOLYLINE
  5
E7
330
2
100
AcDbEntity
  8
0
100
AcDbPolyline
 90
       22
 70
     0
 43
0.0
 10
8.945408877800005
 20
20.5659635675
 10
8.937549356200008
 20
20.56900982989998
 10
8.92743831460001
 20
20.57221383149999
 10
8.915037549800004
 20
20.57556018669998
 10
8.900373196200007
 20
20.57902133709998
 10
8.883549199400007
 20
20.58256009389998
 10
8.864637866600006
 20
20.5861529979
 10
8.843794172200006
 20
20.5897650027
 10
8.821213889000006
 20
20.5933601643
 10
8.797074873000013
 20
20.59691033069998
 10
8.771542937000006
 20
20.6003919259
 10
8.74493287940001
 20
20.60376502669999
 10
8.717507751400006
 20
20.60700220269998
 10
8.689508116200002
 20
20.61008233070001
 10
8.661134405800012
 20
20.61299117549998
 10
8.632600305000011
 20
20.61571499789999
 10
8.604043999400005
 20
20.6182487003
 10
8.57565906660001
 20
20.6205831563
 10
8.54753667300001
 20
20.62271869069999
 10
8.519827079400002
 20
20.6246513307
 10
8.492586842600005
 20
20.62638409869998
 10
8.465946045800009
 20
20.6279152587
  0
LWPOLYLINE
  5
E8
330
2
100
AcDbEntity
  8
0
100
AcDbPolyline
 90
        3
 70
     0
 43
0.0
 10
8.945408877800005
 20
20.5659635675
 10
8.994701717800012
 20
20.5451018427
 10
9.046679221800005
 20
20.5245781227
  0
LWPOLYLINE
  5
E9
330
2
100
AcDbEntity
  8
0
100
AcDbPolyline
 90
        3
 70
     0
 43
0.0
 10
-9.888071640599989
 20
18.2225759019
 10
-9.703518594199991
 20
18.2718053035
 10
-9.515849224599989
 20
18.31815671789999
  0
LWPOLYLINE
  5
EA
330
2
100
AcDbEntity
  8
0
100
AcDbPolyline
 90
       10
 70
     0
 43
0.0
 10
29.99578343300001
 20
20.1464167659
 10
28.33641009540001
 20
20.22317887309998
 10
26.59069154500001
 20
20.30804389549999
 10
24.73551094020001
 20
20.40236157070001
 10
22.73756741060001
 20
20.5081014779
 10
20.53855230500001
 20
20.6287009323
 10
18.04422413220001
 20
20.7697594283
 10
15.4746693098
 20
20.91849827629999
 10
13.1854044714
 20
21.05280463469998
 10
11.154127209
 20
21.1725509659
  0
LWPOLYLINE
  5
EB
330
2
100
AcDbEntity
  8
0
100
AcDbPolyline
 90
       10
 70
     0
 43
0.0
 10
-4.036036861399992
 20
22.07691800269998
 10
-4.138241934999996
 20
22.08211597549998
 10
-4.250044261399992
 20
22.08774303949999
 10
-4.372472461399993
 20
22.0938320299
 10
-4.506696253399994
 20
22.10041618989998
 10
-4.654069859799989
 20
22.1075286219
 10
-4.816194360599993
 20
22.11520134989999
 10
-4.994963870999995
 20
22.12346152269998
 10
-5.192626949399993
 20
22.1323252139
 10
-5.411897480599989
 20
22.14178823309998
  0
LINE
  5
EC
330
2
100
AcDbEntity
  8
0
100
AcDbLine
 10
-3.856867741400001
 20
22.0676834955
 30
0.0
 11
-4.036036861399998
 21
22.07691800269997
 31
0.0
  0
LINE
  5
ED
330
2
100
AcDbEntity
  8
0
100
AcDbLine
 10
-3.706389709399991
 20
22.05980599629998
 30
0.0
 11
-3.856867741400001
 21
22.0676834955
 31
0.0
  0
LINE
  5
EE
330
2
100
AcDbEntity
  8
0
100
AcDbLine
 10
-3.57969295579999
 20
22.0530821307
 30
0.0
 11
-3.706389709399991
 21
22.05980599629998
 31
0.0
  0
LINE
  5
EF
330
2
100
AcDbEntity
  8
0
100
AcDbLine
 10
-3.425697907799992
 20
22.04478283949998
 30
0.0
 11
-3.57969295579999
 21
22.0530821307
 31
0.0
  0
LINE
  5
F0
330
2
100
AcDbEntity
  8
0
100
AcDbLine
 10
-3.272105504599998
 20
22.03633409389999
 30
0.0
 11
-3.425697907799992
 21
22.04478283949998
 31
0.0
  0
LINE
  5
F1
330
2
100
AcDbEntity
  8
0
100
AcDbLine
 10
-3.118423951000003
 20
22.02763089069998
 30
0.0
 11
-3.272105504599998
 21
22.03633409389999
 31
0.0
  0
LWPOLYLINE
  5
F2
330
2
100
AcDbEntity
  8
0
100
AcDbPolyline
 90
        5
 70
     0
 43
0.0
 10
11.154127209
 20
21.1725509659
 10
-0.2503341717999916
 20
21.84511111309999
 10
-1.03348184699999
 20
21.89135062829998
 10
-1.74355938459999
 20
21.93456486349998
 10
-2.371385827799997
 20
21.97573334509999
  0
LINE
  5
F3
330
2
100
AcDbEntity
  8
0
100
AcDbLine
 10
-2.991234639000004
 20
22.02006676269999
 30
0.0
 11
-3.118423951000003
 21
22.02763089069998
 31
0.0
  0
LINE
  5
F4
330
2
100
AcDbEntity
  8
0
100
AcDbLine
 10
-2.945263101399993
 20
22.01712763309998
 30
0.0
 11
-2.991234639000004
 21
22.02006676269999
 31
0.0
  0
LINE
  5
F5
330
2
100
AcDbEntity
  8
0
100
AcDbLine
 10
-2.929132317399996
 20
22.0160200395
 30
0.0
 11
-2.945263101399993
 21
22.01712763309998
 31
0.0
  0
LINE
  5
F6
330
2
100
AcDbEntity
  8
0
100
AcDbLine
 10
-2.371385827800003
 20
21.97573334509999
 30
0.0
 11
-2.929132317399996
 21
22.0160200395
 31
0.0
  0
LINE
  5
F7
330
2
100
AcDbEntity
  8
0
100
AcDbLine
 10
33.31028838499999
 20
6.293967071499988
 30
0.0
 11
33.321448225
 21
6.304434433099995
 31
0.0
  0
LINE
  5
F8
330
2
100
AcDbEntity
  8
0
100
AcDbLine
 10
33.300680289
 20
6.285095649099982
 30
0.0
 11
33.31028838499999
 21
6.293967071499988
 31
0.0
  0
LINE
  5
F9
330
2
100
AcDbEntity
  8
0
100
AcDbLine
 10
33.2924145498
 20
6.277565423499989
 30
0.0
 11
33.300680289
 21
6.285095649099982
 31
0.0
  0
LINE
  5
FA
330
2
100
AcDbEntity
  8
0
100
AcDbLine
 10
33.28204622979999
 20
6.268240554699982
 30
0.0
 11
33.2924145498
 21
6.277565423499989
 31
0.0
  0
LINE
  5
FB
330
2
100
AcDbEntity
  8
0
100
AcDbLine
 10
33.27528522339999
 20
6.262218295499987
 30
0.0
 11
33.28204622979999
 21
6.268240554699982
 31
0.0
  0
LINE
  5
FC
330
2
100
AcDbEntity
  8
0
100
AcDbLine
 10
33.2670710666
 20
6.254982503499999
 30
0.0
 11
33.27528522339999
 21
6.262218295499987
 31
0.0
  0
LINE
  5
FD
330
2
100
AcDbEntity
  8
0
100
AcDbLine
 10
33.2574135962
 20
6.246586873099996
 30
0.0
 11
33.2670710666
 21
6.254982503499999
 31
0.0
  0
LINE
  5
FE
330
2
100
AcDbEntity
  8
0
100
AcDbLine
 10
-24.80252765819999
 20
25.24949652749998
 30
0.0
 11
39.97874341539999
 21
25.24949652749998
 31
0.0
  0
LINE
  5
FF
330
2
100
AcDbEntity
  8
0
100
AcDbLine
 10
40.090010529
 20
25.6098123163
 30
0.0
 11
-24.9137947734
 21
25.6098123163
 31
0.0
  0
LINE
  5
100
330
2
100
AcDbEntity
  8
0
100
AcDbLine
 10
33.2460275722
 20
8.982784164299996
 30
0.0
 11
33.257412081
 21
8.973039066699978
 31
0.0
  0
LINE
  5
101
330
2
100
AcDbEntity
  8
0
100
AcDbLine
 10
33.257412081
 20
8.973039066699978
 30
0.0
 11
33.2670697034
 21
8.964643322699995
 31
0.0
  0
LINE
  5
102
330
2
100
AcDbEntity
  8
0
100
AcDbLine
 10
33.2670697034
 20
8.964643322699995
 30
0.0
 11
33.2752840314
 21
8.957407393099995
 31
0.0
  0
LINE
  5
103
330
2
100
AcDbEntity
  8
0
100
AcDbLine
 10
33.2752840314
 20
8.957407393099995
 30
0.0
 11
33.2820451034
 21
8.951385087499996
 31
0.0
  0
LINE
  5
104
330
2
100
AcDbEntity
  8
0
100
AcDbLine
 10
33.2820451034
 20
8.951385087499996
 30
0.0
 11
33.2924131562
 21
8.942060469899981
 31
0.0
  0
LINE
  5
105
330
2
100
AcDbEntity
  8
0
100
AcDbLine
 10
33.2924131562
 20
8.942060469899981
 30
0.0
 11
33.30067859620001
 21
8.934530535499984
 31
0.0
  0
LINE
  5
106
330
2
100
AcDbEntity
  8
0
100
AcDbLine
 10
33.30067859620001
 20
8.934530535499984
 30
0.0
 11
33.3102863322
 21
8.925659469899979
 31
0.0
  0
LWPOLYLINE
  5
107
330
2
100
AcDbEntity
  8
0
100
AcDbPolyline
 90
       42
 70
     0
 43
0.0
 10
33.3102863322
 20
8.925659469899983
 10
33.3214457418
 20
8.915192548299984
 10
33.3276844522
 20
8.909263122699996
 10
33.33440784740001
 20
8.902809458700005
 10
33.3416532346
 20
8.89577979629999
 10
33.34946090660001
 20
8.888116148299985
 10
33.35787413700001
 20
8.87975358509999
 10
33.3669393354
 20
8.870619250700002
 10
33.3767061946
 20
8.860631183500004
 10
33.38722788100001
 20
8.849696860299985
 10
33.3985611498
 20
8.837711538700006
 10
33.41076644100001
 20
8.824556242699998
 10
33.4239078858
 20
8.810095364299996
 10
33.43805362660001
 20
8.794173333900005
 10
33.453274473
 20
8.776612354700006
 10
33.46964476580001
 20
8.757206693900002
 10
33.48724110980001
 20
8.735718007499997
 10
33.50614140420001
 20
8.711868605900008
 10
33.52642318980001
 20
8.685333149900003
 10
33.54816114340001
 20
8.6557281547
 10
33.57142332260001
 20
8.622598545100004
 10
33.59626555940001
 20
8.585400263499991
 10
33.6227232842
 20
8.543477247499993
 10
33.6507994394
 20
8.496027644299999
 10
33.6804362074
 20
8.44207770989999
 10
33.7114943146
 20
8.380413175499995
 10
33.743781529
 20
8.309315818699985
 10
33.7769293914
 20
8.226445101899997
 10
33.80498078340001
 20
8.145252325900003
 10
33.826562809
 20
8.072484282700003
 10
33.8430138762
 20
8.007779802699985
 10
33.85551602180001
 20
7.950268453900008
 10
33.8651161722
 20
7.898485461900008
 10
33.87253342180001
 20
7.851405911499995
 10
33.8782518442
 20
7.808496429900003
 10
33.88262764740001
 20
7.769543652300001
 10
33.88590618980001
 20
7.734298469899982
 10
33.88821177540001
 20
7.702978460299988
 10
33.8897054682
 20
7.675667957900003
 10
33.89059140900001
 20
7.651904890699995
 10
33.89105620740001
 20
7.630354103499996
 10
33.8912008826
 20
7.609812316300008
  0
LWPOLYLINE
  5
108
330
2
100
AcDbEntity
  8
0
100
AcDbPolyline
 90
       41
 70
     0
 43
0.0
 10
33.32144822500001
 20
6.304434433099999
 10
33.3276871818
 20
6.310364116300007
 10
33.3344108474
 20
6.316818068299994
 10
33.3416565306
 20
6.323848050700007
 10
33.3494645242
 20
6.331512058699985
 10
33.35787810820001
 20
6.339875021899985
 10
33.36694369060001
 20
6.349009802699981
 10
33.37671097060001
 20
6.358998372299993
 10
33.3872331162
 20
6.369933260300001
 10
33.39856688740001
 20
6.381919215500005
 10
33.41077272420001
 20
6.395075229899987
 10
33.4239147642
 20
6.409536919499998
 10
33.4380611498
 20
6.425459866700009
 10
33.4532826986
 20
6.443021890700009
 10
33.4696537498
 20
6.462428741899998
 10
33.48725091460001
 20
6.483918788300002
 10
33.50615209380001
 20
6.507769751500006
 10
33.52643483140001
 20
6.534307005899989
 10
33.5481737978
 20
6.563914082699994
 10
33.57143705380001
 20
6.597046111499992
 10
33.5962804186
 20
6.634247223499983
 10
33.62273931460001
 20
6.676173567500001
 10
33.6508166538
 20
6.723627111500007
 10
33.6804545786
 20
6.777581743500007
 10
33.711513777
 20
6.839251989899992
 10
33.74380194500001
 20
6.910356452299993
 10
33.77694855780001
 20
6.99323105869999
 10
33.80499643620001
 20
7.074421319500004
 10
33.826574953
 20
7.147184668299985
 10
33.84302323620001
 20
7.211884725900006
 10
33.8555232602
 20
7.269392301899983
 10
33.865121817
 20
7.321172249099987
 10
33.87253782980001
 20
7.368249201099985
 10
33.8782552714
 20
7.411156265100004
 10
33.8826302842
 20
7.450106719499984
 10
33.88590813220001
 20
7.485349529100005
 10
33.8882131018
 20
7.516666994699988
 10
33.8897063034
 20
7.543975023499996
 10
33.89059188740001
 20
7.56773620749999
 10
33.891056425
 20
7.589285993099991
 10
33.8912010714
 20
7.609812316300008
  0
LINE
  5
109
330
2
100
AcDbEntity
  8
0
100
AcDbLine
 10
38.1004858666
 20
8.793611922699991
 30
0.0
 11
38.08741644259999
 21
8.782433997899996
 31
0.0
  0
LWPOLYLINE
  5
10A
330
2
100
AcDbEntity
  8
0
100
AcDbPolyline
 90
       16
 70
     0
 43
0.0
 10
-24.91379477339999
 20
25.6098123163
 10
-24.96560764059999
 20
25.60671673869999
 10
-25.01687701499999
 20
25.59824665869999
 10
-25.06704602299999
 20
25.58448795629999
 10
-25.11556863579999
 20
25.56558387789999
 10
-25.16180503739999
 20
25.5417979787
 10
-25.20534796539999
 20
25.5133599339
 10
-25.24575147099999
 20
25.48055853709999
 10
-25.28257385659999
 20
25.4437431899
 10
-25.31541125659999
 20
25.4033072027
 10
-25.34390198139998
 20
25.35968362989999
 10
-25.36771772859999
 20
25.31336885869999
 10
-25.38657256379999
 20
25.2649517067
 10
-25.40031629339999
 20
25.2148436219
 10
-25.40879056059999
 20
25.16358115149998
 10
-25.41189212219999
 20
25.1117149675
  0
LWPOLYLINE
  5
10B
330
2
100
AcDbEntity
  8
0
100
AcDbPolyline
 90
       16
 70
     0
 43
0.0
 10
39.9787434154
 20
25.24949652749998
 10
40.00484998660001
 20
25.2481337707
 10
40.03064987140001
 20
25.24406070509999
 10
40.05586100420001
 20
25.23732316109999
 10
40.08020936100002
 20
25.22799587949998
 10
40.10343264580001
 20
25.21618097070001
 10
40.12528027780001
 20
25.2020071435
 10
40.1455167194
 20
25.1856281403
 10
40.16392367300001
 20
25.1672211899
 10
40.18030268100001
 20
25.14698475149998
 10
40.19447651140001
 20
25.12513712589998
 10
40.206291425
 20
25.10191384589998
 10
40.21561870980001
 20
25.07756549069998
 10
40.22235626020001
 20
25.05235436589998
 10
40.22642932900001
 20
25.02655446189999
 10
40.227792089
 20
25.0004478523
  0
LWPOLYLINE
  5
10C
330
2
100
AcDbEntity
  8
0
100
AcDbPolyline
 90
       19
 70
     0
 43
0.0
 10
38.1109695674
 20
8.793668505099986
 10
38.1239521194
 20
8.782608292299983
 10
38.13688583460001
 20
8.763980401099985
 10
38.14972916740001
 20
8.737567178700004
 10
38.162369017
 20
8.703279991499982
 10
38.17471742820001
 20
8.661021186699997
 10
38.1866039722
 20
8.611081137100001
 10
38.1978686778
 20
8.553987500299996
 10
38.2084271482
 20
8.490109025099997
 10
38.21817218340001
 20
8.420093194700001
 10
38.22706084740001
 20
8.344272357899995
 10
38.23501267940001
 20
8.263374405900009
 10
38.2419942714
 20
8.177808813899986
 10
38.24795948580001
 20
8.088186919500003
 10
38.25287061380001
 20
7.995150743500005
 10
38.25669193380001
 20
7.899553628299997
 10
38.25939338500001
 20
7.802777084300004
 10
38.2609887402
 20
7.705752554699984
 10
38.26150818820001
 20
7.609812316300008
  0
LINE
  5
10D
330
2
100
AcDbEntity
  8
0
100
AcDbLine
 10
38.087045705
 20
6.437618349899988
 30
0.0
 11
38.1003044202
 21
6.426116429899987
 31
0.0
  0
LWPOLYLINE
  5
10E
330
2
100
AcDbEntity
  8
0
100
AcDbPolyline
 90
       22
 70
     0
 43
0.0
 10
30.28639973540001
 20
7.609812316300008
 10
30.29125693700001
 20
7.477544503499984
 10
30.30605642500001
 20
7.3442497451
 10
30.33095181220001
 20
7.211357396300002
 10
30.36584756260001
 20
7.080279183499982
 10
30.41041888260001
 20
6.952339468299982
 10
30.46433398020001
 20
6.828336985100008
 10
30.52735921540001
 20
6.708728437899992
 10
30.59920035460001
 20
6.594093397899996
 10
30.67942621700001
 20
6.485149289100007
 10
30.7676259514
 20
6.382478698699998
 10
30.86320306660001
 20
6.2867827675
 10
30.9655147162
 20
6.198669447500009
 10
31.0740174026
 20
6.118567745099994
 10
31.1881193562
 20
6.046894085899992
 10
31.30721286020001
 20
5.984022821899998
 10
31.43066171460001
 20
5.93029377869999
 10
31.5577292602
 20
5.886030740299986
 10
31.68768867780001
 20
5.851483890699995
 10
31.8197903802
 20
5.826847173900006
 10
31.95321048580001
 20
5.812258553100008
 10
32.08711341700001
 20
5.807776202699983
  0
LWPOLYLINE
  5
10F
330
2
100
AcDbEntity
  8
0
100
AcDbPolyline
 90
       23
 70
     0
 43
0.0
 10
30.286399705
 20
7.609812316300008
 10
30.29082275460001
 20
7.736037001099987
 10
30.30429496900001
 20
7.863256829899995
 10
30.326964801
 20
7.990227557899999
 10
30.35877260580001
 20
8.115715113100009
 10
30.3994551578
 20
8.238524807499999
 10
30.44871446340001
 20
8.357879799499983
 10
30.5063333754
 20
8.473347809100005
 10
30.57208145860001
 20
8.584466293899993
 10
30.64561738660001
 20
8.690631146699985
 10
30.7265822298
 20
8.791300572300002
 10
30.814529945
 20
8.885904103499996
 10
30.9089048362
 20
8.973858969100007
 10
31.00918610500001
 20
9.054716201100006
 10
31.11489212100001
 20
9.128115233100004
 10
31.22550080100001
 20
9.193706565899987
 10
31.3404779578
 20
9.251176001099992
 10
31.45924807460001
 20
9.300231444299981
 10
31.58116430340001
 20
9.340604113099999
 10
31.70559334020001
 20
9.372087453900007
 10
31.83187651780001
 20
9.394520236299996
 10
31.95929222020001
 20
9.407789143499996
 10
32.08711341700001
 20
9.411848429900004
  0
LINE
  5
110
330
2
100
AcDbEntity
  8
0
100
AcDbLine
 10
32.0874842522
 20
5.756198335499984
 30
0.0
 11
32.087113417
 21
5.807776218699981
 31
0.0
  0
LWPOLYLINE
  5
111
330
2
100
AcDbEntity
  8
CENTER
 62
     1
 48
4.0
100
AcDbPolyline
 90
        3
 70
   128
 43
0.0
 10
32.08810787780001
 20
3.759812316299999
 10
32.08810787780001
 20
7.609812316300008
 10
32.08810787780001
 20
11.4598123163
  0
LINE
  5
115
330
2
100
AcDbEntity
  8
0
100
AcDbLine
 10
35.8230746906
 20
15.5957042267
 30
0.0
 11
35.8129342954
 21
15.54091115629998
 31
0.0
  0
LINE
  5
116
330
2
100
AcDbEntity
  8
0
100
AcDbLine
 10
35.8129171626
 20
15.54093387469998
 30
0.0
 11
35.78392471619999
 21
15.43025949069999
 31
0.0
  0
LWPOLYLINE
  5
117
330
2
100
AcDbEntity
  8
0
100
AcDbPolyline
 90
       18
 70
     0
 43
0.0
 10
38.0874164426
 20
8.7824339979
 10
38.0744127738
 20
8.763697097099992
 10
38.06150346660001
 20
8.737233554699997
 10
38.04878912740001
 20
8.70298879629999
 10
38.03634121540001
 20
8.660868007499999
 10
38.02430989540001
 20
8.611108593099999
 10
38.0128462234
 20
8.554177207500003
 10
38.00204100900001
 20
8.490433506699986
 10
37.99201773220001
 20
8.420576503500001
 10
37.98282711460001
 20
8.344955951499997
 10
37.9745527018
 20
8.264238452299991
 10
37.96724107460001
 20
8.178840882700001
 10
37.9609584714
 20
8.089465498700008
 10
37.95576186020001
 20
7.996908532299983
 10
37.951685425
 20
7.9017905595
 10
37.94876755300001
 20
7.805149477899988
 10
37.94701484580001
 20
7.707523417099992
 10
37.94643262020001
 20
7.609812316300008
  0
LINE
  5
118
330
2
100
AcDbEntity
  8
0
100
AcDbLine
 10
35.78392471619999
 20
-0.2106348581000113
 30
0.0
 11
35.8129171626
 21
-0.3213092421000034
 31
0.0
  0
LINE
  5
119
330
2
100
AcDbEntity
  8
0
100
AcDbLine
 10
35.8129342954
 20
-0.3212865237000138
 30
0.0
 11
35.8230746906
 21
-0.376079594100009
 31
0.0
  0
LWPOLYLINE
  5
11A
330
2
100
AcDbEntity
  8
0
100
AcDbPolyline
 90
       69
 70
     0
 43
0.0
 10
36.06683324900001
 20
9.121361773899991
 10
36.06657854020001
 20
9.23803658509999
 10
36.0660727946
 20
9.356539389900007
 10
36.0651429066
 20
9.477294404299982
 10
36.06445276740001
 20
9.538557613899996
 10
36.0635265946
 20
9.600950772299995
 10
36.06227886340001
 20
9.665094129099998
 10
36.06062404740001
 20
9.731607941899994
 10
36.05847455300001
 20
9.800828020300002
 10
36.0557344954
 20
9.871952409100003
 10
36.0522890442
 20
9.9442446523
 10
36.0479558922
 20
10.01836803309998
 10
36.0425605754
 20
10.09494238029998
 10
36.0360275114
 20
10.17301392909999
 10
36.02836876740001
 20
10.25111205869998
 10
36.01984813700001
 20
10.32727232269999
 10
36.01072400100001
 20
10.4000343195
 10
36.00098135140001
 20
10.47044765390001
 10
35.97939912740001
 20
10.60886365709998
 10
35.96754955140001
 20
10.67726064109999
 10
35.9551360698
 20
10.74469669069998
 10
35.94232530340001
 20
10.8106378779
 10
35.929283873
 20
10.87455027309999
 10
35.91615127460001
 20
10.93603246829999
 10
35.9029585258
 20
10.99521310669999
 10
35.88970951940001
 20
11.05235334669998
 10
35.87640815460001
 20
11.10771434669999
 10
35.85860770020001
 20
11.17911382509998
 10
35.84078682500001
 20
11.24784031629999
 10
35.8230112682
 20
11.3139196379
 10
35.8053387802
 20
11.3774011307
 10
35.787795153
 20
11.43842820430001
 10
35.7703981898
 20
11.4971677915
 10
35.7531657514
 20
11.5537736443
 10
35.7361159322
 20
11.60834680269999
 10
35.71926688740001
 20
11.66097512909999
 10
35.69440475780001
 20
11.73645958989999
 10
35.67006813860001
 20
11.80804039149998
 10
35.646287313
 20
11.87598300589999
 10
35.62308201220001
 20
11.9405166859
 10
35.60046748580001
 20
12.00185613389999
 10
35.57845163780001
 20
12.0601940827
 10
35.55703971620001
 20
12.11571348109998
 10
35.5362337418
 20
12.1685801275
 10
35.5160339338
 20
12.21895186029999
 10
35.496436537
 20
12.2669718267
 10
35.47743614020001
 20
12.3127762075
 10
35.45902466820001
 20
12.35648802829999
 10
35.44119294980001
 20
12.39822425549999
 10
35.42393008100001
 20
12.4380908075
 10
35.40722457700001
 20
12.47618867789998
 10
35.39106439300001
 20
12.51261020909999
 10
35.3754372682
 20
12.54744362989998
 10
35.3603306794
 20
12.5807693403
 10
35.3457317242
 20
12.61266459789999
 10
35.33162626820001
 20
12.6432019259
 10
35.3180000282
 20
12.67245027469999
 10
35.3048393658
 20
12.7004690411
 10
35.29213046020001
 20
12.72731481549999
 10
35.2798581514
 20
12.75304249389998
 10
35.26800748420001
 20
12.7777049755
 10
35.25656571460001
 20
12.8013488267
 10
35.2348571082
 20
12.84576145069999
 10
35.21462928100001
 20
12.88662881549998
 10
35.1958066346
 20
12.9242458459
 10
35.178323113
 20
12.95886756909999
 10
35.16216800740001
 20
12.9906112715
 10
35.14714238500001
 20
13.01994106029999
 10
35.1329502842
 20
13.04740940749999
  0
LINE
  5
11B
330
2
100
AcDbEntity
  8
0
100
AcDbLine
 10
36.0670235258
 20
8.937796053899997
 30
0.0
 11
36.066833249
 21
9.121361773899987
 31
0.0
  0
LINE
  5
11C
330
2
100
AcDbEntity
  8
0
100
AcDbLine
 10
36.06709970179999
 20
6.556418743499985
 30
0.0
 11
36.0666599354
 21
7.474603716300006
 31
0.0
  0
LINE
  5
11D
330
2
100
AcDbEntity
  8
0
100
AcDbLine
 10
36.0670997754
 20
8.675176177099981
 30
0.0
 11
36.0670235258
 21
8.937796053899997
 31
0.0
  0
LINE
  5
11E
330
2
100
AcDbEntity
  8
0
100
AcDbLine
 10
36.0666599354
 20
7.474603716300006
 30
0.0
 11
36.0666319722
 21
7.652743071499994
 31
0.0
  0
LINE
  5
11F
330
2
100
AcDbEntity
  8
0
100
AcDbLine
 10
36.0670329194
 20
6.298009879499996
 30
0.0
 11
36.06709970179999
 21
6.556418743499985
 31
0.0
  0
LINE
  5
120
330
2
100
AcDbEntity
  8
0
100
AcDbLine
 10
36.0666319722
 20
7.652743071499994
 30
0.0
 11
36.0670997754
 21
8.675176177099981
 31
0.0
  0
LWPOLYLINE
  5
121
330
2
100
AcDbEntity
  8
0
100
AcDbPolyline
 90
       70
 70
     0
 43
0.0
 10
35.13295020580001
 20
2.172215074699991
 10
35.14716251460001
 20
2.19972274829999
 10
35.16221146820001
 20
2.229098460299994
 10
35.17839395460001
 20
2.2608967691
 10
35.19590910820001
 20
2.295582583499992
 10
35.2147673978
 20
2.333273252299989
 10
35.23503531940001
 20
2.374225412299992
 10
35.25678892420001
 20
2.418735492300001
 10
35.2682552362
 20
2.442433441099993
 10
35.2801318986
 20
2.467153933899993
 10
35.29243172100001
 20
2.492943797899997
 10
35.30516975140001
 20
2.519856255500002
 10
35.3183612538
 20
2.54794655789999
 10
35.33202008580001
 20
2.577271650699998
 10
35.346159921
 20
2.607891300299996
 10
35.360795081
 20
2.639874852299996
 10
35.37593973540001
 20
2.673295247499993
 10
35.39160681220001
 20
2.708230217099995
 10
35.4078088634
 20
2.744760668299988
 10
35.42455819620001
 20
2.782975401099989
 10
35.44186690660001
 20
2.822967375499999
 10
35.45974648260001
 20
2.864838273099991
 10
35.47820782180001
 20
2.908694751499993
 10
35.497260097
 20
2.954654645899992
 10
35.51691135300001
 20
3.002841901899998
 10
35.5371668938
 20
3.053393732299994
 10
35.5580303466
 20
3.106454364299992
 10
35.57950140100001
 20
3.16218283629999
 10
35.60157793220001
 20
3.220746209099999
 10
35.6242544698
 20
3.282328847499996
 10
35.64752283460001
 20
3.347125063500001
 10
35.6713673402
 20
3.415351647499988
 10
35.6957678186
 20
3.487240097099999
 10
35.72069364740001
 20
3.563058268299997
 10
35.73758518980001
 20
3.615926069899998
 10
35.75467882500001
 20
3.670760049099996
 10
35.77195792900001
 20
3.727656756299992
 10
35.7894055354
 20
3.786724284299992
 10
35.80700333380001
 20
3.848116901899999
 10
35.82473268100001
 20
3.912000423499989
 10
35.84256810500001
 20
3.978525452300004
 10
35.86045684420001
 20
4.047781762699997
 10
35.87833931940001
 20
4.119843919499999
 10
35.891715337
 20
4.175818189899985
 10
35.90505386980001
 20
4.233692914699986
 10
35.91835447140001
 20
4.293748316299996
 10
35.93161669700001
 20
4.356264618700009
 10
35.944804977
 20
4.421374529100006
 10
35.9577432538
 20
4.488620709900004
 10
35.97022510820001
 20
4.557360282699988
 10
35.98206316580001
 20
4.626798273100007
 10
36.00338723780001
 20
4.766023329099994
 10
36.01294130020001
 20
4.836566775499989
 10
36.02186198660001
 20
4.9094960555
 10
36.03017268420001
 20
4.985955521099981
 10
36.037616065
 20
5.064436177099992
 10
36.04392847140001
 20
5.142863644300007
 10
36.04910166660001
 20
5.219555359499992
 10
36.05321789220001
 20
5.293393924300005
 10
36.05646590340001
 20
5.365130781900006
 10
36.05904105380001
 20
5.435623116300007
 10
36.061058545
 20
5.504282221899984
 10
36.06261100580001
 20
5.570408585099983
 10
36.06378090660001
 20
5.634305357899989
 10
36.0646481834
 20
5.696526361099984
 10
36.06529277060001
 20
5.757625412300001
 10
36.0661559162
 20
5.878003399499988
 10
36.0666213594
 20
5.996522212299993
 10
36.06685656740001
 20
6.113957693900005
 10
36.0670329194
 20
6.2980098795
  0
LWPOLYLINE
  5
122
330
2
100
AcDbEntity
  8
0
100
AcDbPolyline
 90
       18
 70
     0
 43
0.0
 10
35.82307469060001
 20
-0.3760795941000055
 10
35.48426711140001
 20
-0.7858427204999999
 10
35.13174689860001
 20
-1.171698928500006
 10
34.7782606346
 20
-1.522159024499998
 10
34.4337331866
 20
-1.831113784500004
 10
34.09587893860001
 20
-2.1034930629
 10
33.75618751620001
 20
-2.348896205300007
 10
33.40437367620001
 20
-2.575758133299999
 10
33.02410745860001
 20
-2.79318989650001
 10
32.631931753
 20
-2.992072750900007
 10
32.22984654340001
 20
-3.173758525300002
 10
31.8029797786
 20
-3.343857973300004
 10
31.3262719962
 20
-3.508442744500001
 10
30.79958841540001
 20
-3.662541083700006
 10
30.2704222906
 20
-3.789903882100006
 10
29.76704426180001
 20
-3.885161365300007
 10
29.3057579274
 20
-3.948537723699999
 10
28.89444914500001
 20
-3.983246110899997
  0
LWPOLYLINE
  5
123
330
2
100
AcDbEntity
  8
0
100
AcDbPolyline
 90
       24
 70
     0
 43
0.0
 10
35.7839247162
 20
15.43025949069999
 10
35.6380428858
 20
15.61214684749998
 10
35.501329009
 20
15.7681058075
 10
35.36341078020001
 20
15.91268644589999
 10
35.20920256740001
 20
16.0633875707
 10
35.02873599620001
 20
16.22969599949999
 10
34.82002641060001
 20
16.4124093595
 10
34.5805785082
 20
16.61179195629998
 10
34.30309561700001
 20
16.83057633389998
 10
33.99181180100001
 20
17.0602758315
 10
33.6883421194
 20
17.26613075949998
 10
33.3917966746
 20
17.44761442669999
 10
33.0777815162
 20
17.61773812589999
 10
32.74112753220001
 20
17.77664091629998
 10
32.35963328740001
 20
17.93278725069998
 10
31.91642915940001
 20
18.09005064589999
 10
31.48052014660001
 20
18.22191838989999
 10
31.08909782820001
 20
18.3199890283
 10
30.72269306820001
 20
18.3952306683
 10
30.364628889
 20
18.45489775949999
 10
30.0068038746
 20
18.50256866029999
 10
29.644913665
 20
18.54035342829999
 10
29.27550227140001
 20
18.56969291949999
 10
28.89444914500001
 20
18.59162108909998
  0
LWPOLYLINE
  5
124
330
2
100
AcDbEntity
  8
0
100
AcDbPolyline
 90
      105
 70
     0
 43
0.0
 10
35.1329502842
 20
13.04740940749999
 10
35.09883294820001
 20
13.1116063611
 10
35.06471621380001
 20
13.1735657515
 10
35.0307342666
 20
13.23259582989999
 10
34.9968341082
 20
13.28842220269999
 10
34.9622139978
 20
13.3424398811
 10
34.92588501860001
 20
13.39646123149998
 10
34.88702158820001
 20
13.4519972331
 10
34.84545150020001
 20
13.5093533211
 10
34.8011658858
 20
13.56853354989999
 10
34.754149025
 20
13.62954442349999
 10
34.70435777860001
 20
13.69240225069998
 10
34.65174215780001
 20
13.75712579149998
 10
34.59622534180001
 20
13.82374574509998
 10
34.5376232138
 20
13.89234056269998
 10
34.47572482820001
 20
13.96300063309999
 10
34.41028368260001
 20
14.03581257069999
 10
34.34091104900001
 20
14.1108478859
 10
34.2671826378
 20
14.1881743131
 10
34.1888960634
 20
14.26764795310001
 10
34.1067365242
 20
14.3482783819
 10
34.0216111178
 20
14.4288635403
 10
33.93436423620001
 20
14.50832542989999
 10
33.8455894666
 20
14.5860822843
 10
33.75581768900001
 20
14.6616763979
 10
33.6654255082
 20
14.73478527469998
 10
33.57417240420001
 20
14.80562725869998
 10
33.4816635802
 20
14.87455590509998
 10
33.38745991620001
 20
14.94192547629998
 10
33.29094500420001
 20
15.00809306829998
 10
33.19145811620001
 20
15.07341648429999
 10
33.08841646500001
 20
15.1381967995
 10
32.981549033
 20
15.20250818349998
 10
32.8706627498
 20
15.26636807949998
 10
32.75558766660001
 20
15.32977670989998
 10
32.6362463338
 20
15.3926654091
 10
32.51258442660001
 20
15.4549482907
 10
32.3845929178
 20
15.5165159851
 10
32.25244398180001
 20
15.5771652043
 10
32.11635509220001
 20
15.6366691723
 10
31.97643922180001
 20
15.69484887149999
 10
31.8323913466
 20
15.75171628269998
 10
31.68380194500001
 20
15.80733114509999
 10
31.56912424100001
 20
15.84825412429998
 10
31.45143526340001
 20
15.8885186491
 10
31.33050870980001
 20
15.92813721869998
 10
31.20611827140001
 20
15.96712233709999
 10
31.078085217
 20
16.0054675835
 10
30.94642110980001
 20
16.04309083789999
 10
30.8111850858
 20
16.07989105549998
 10
30.672436281
 20
16.11576719469999
 10
30.53025806820001
 20
16.1506203019
 10
30.384830769
 20
16.18435978349998
 10
30.2363589402
 20
16.2168971355
 10
30.0850471386
 20
16.24814385549998
 10
29.87921591460001
 20
16.2876776571
 10
29.66907652260001
 20
16.32474263629998
 10
29.45500597860001
 20
16.3593217707
 10
29.23739261060001
 20
16.39140600909999
 10
29.01667000580001
 20
16.42101819149999
 10
28.79328306660001
 20
16.4481891387
 10
28.5676737082
 20
16.47296013869999
 10
28.3402718986
 20
16.49541438989999
 10
28.1115046234
 20
16.5156455627
 10
27.88164932100001
 20
16.53375630509998
 10
27.65038524580001
 20
16.5498851643
 10
27.41724210980001
 20
16.5641796667
 10
27.18182798820001
 20
16.5767825259
 10
26.9440644266
 20
16.58781720909999
 10
26.7039513354
 20
16.59740237389999
 10
26.52216890020001
 20
16.60371621389998
 10
26.3381306618
 20
16.6093605147
 10
26.1510169162
 20
16.61440761549999
 10
25.960465721
 20
16.61890293869999
 10
25.76613634820001
 20
16.62288717229998
 10
25.56731520100001
 20
16.6264090139
 10
25.4318244842
 20
16.6285249627
 10
25.293443225
 20
16.6304723835
 10
25.15163581540001
 20
16.63226572109999
 10
25.0060165002
 20
16.6339187947
 10
24.8567989466
 20
16.63544292910001
 10
24.704346681
 20
16.6368488187
 10
24.54886518340001
 20
16.63814572269998
 10
24.38992778180001
 20
16.6393371355
 10
24.22694975940001
 20
16.6404251115
 10
24.0595407658
 20
16.6414102811
 10
23.8880879114
 20
16.6422875499
 10
23.7131726778
 20
16.64305039789999
 10
23.58014578020001
 20
16.64354389069998
 10
23.4462352202
 20
16.64396881869999
 10
23.17731058500001
 20
16.64461537069999
 10
22.90532523300001
 20
16.64500643950001
 10
22.6290956314
 20
16.64515460749998
 10
22.35207032260001
 20
16.64507224269999
 10
22.077734489
 20
16.6447827403
 10
21.806056241
 20
16.6443111323
 10
21.53654607620001
 20
16.6436784347
 10
21.2690155626
 20
16.64290503629999
 10
21.00404659460001
 20
16.6420127563
 10
20.74223451780001
 20
16.6410224891
 10
20.48345816260001
 20
16.6399499947
 10
20.22741723460001
 20
16.63880974829999
 10
19.97381143460001
 20
16.6376162235
 10
19.639040241
 20
16.63596579149998
 10
19.3079580378
 20
16.63427345549999
  0
LWPOLYLINE
  5
125
330
2
100
AcDbEntity
  8
0
100
AcDbPolyline
 90
       18
 70
     0
 43
0.0
 10
37.94643262020001
 20
7.609812316300008
 10
37.94699839140001
 20
7.513490597899988
 10
37.94870363620001
 20
7.417153781899997
 10
37.95155111780001
 20
7.321543369099998
 10
37.95554576420001
 20
7.227117186699985
 10
37.9606604938
 20
7.1349097147
 10
37.9668651706
 20
7.045642522700006
 10
37.97410603780001
 20
6.960170517899996
 10
37.98230617060001
 20
6.879355759499986
 10
37.9914182218
 20
6.803610399500001
 10
38.00135572580001
 20
6.733611322699999
 10
38.01207671940001
 20
6.669641169100003
 10
38.0234816602
 20
6.612300239500001
 10
38.03549599140001
 20
6.56194849869999
 10
38.0479879882
 20
6.519081447499985
 10
38.06080349060001
 20
6.484059431499986
 10
38.0738623514
 20
6.456892882700003
 10
38.08704570500001
 20
6.437618349899992
  0
LWPOLYLINE
  5
126
330
2
100
AcDbEntity
  8
0
100
AcDbPolyline
 90
      107
 70
     0
 43
0.0
 10
39.2400713962
 20
7.609812316300008
 10
39.24034965700001
 20
7.251782989899993
 10
39.2411214282
 20
6.8646631931
 10
39.24205277860001
 20
6.470644500299982
 10
39.24252135300001
 20
6.098965223499988
 10
39.241937641
 20
5.772952604300002
 10
39.23984592900001
 20
5.480388930700001
 10
39.23592133060001
 20
5.218924037899995
 10
39.23010170980001
 20
4.987489767499994
 10
39.22231241060001
 20
4.779288133899996
 10
39.21261788260001
 20
4.589711340299999
 10
39.2012733482
 20
4.416792997899989
 10
39.18818984580001
 20
4.254105015499987
 10
39.1732030474
 20
4.097212837900002
 10
39.1562077706
 20
3.9438245499
 10
39.13688282180001
 20
3.790629247499992
 10
39.11515183780001
 20
3.637104983499995
 10
39.0910849018
 20
3.483827634699991
 10
39.06471022020001
 20
3.330969252299993
 10
39.03602829380001
 20
3.178526343499996
 10
39.0050766714
 20
3.026689989899992
 10
38.971890657
 20
2.875604988299997
 10
38.9364997434
 20
2.725369041099995
 10
38.8989376346
 20
2.576084804299995
 10
38.859242089
 20
2.427857009099994
 10
38.81745479940001
 20
2.280790565899991
 10
38.77362118980001
 20
2.134988986699994
 10
38.72778669380001
 20
1.99054245389999
 10
38.67997392900001
 20
1.847463631499991
 10
38.63019976740001
 20
1.705752906699999
 10
38.5785620026
 20
1.565630609099997
 10
38.52513828100001
 20
1.427232047499998
 10
38.4699488138
 20
1.29053269869999
 10
38.4127110378
 20
1.154816297099998
 10
38.3529187098
 20
1.018938525899997
 10
38.29006975940001
 20
0.8818393882999941
 10
38.22384308740001
 20
0.7429726282999951
 10
38.154180025
 20
0.6024022026999916
 10
38.0810930842
 20
0.4603268218999972
 10
38.00460030500001
 20
0.3169388730999998
 10
37.92479569860001
 20
0.1725521338999982
 10
37.84180038180001
 20
0.0274982586999926
 10
37.75565623940001
 20
-0.1180522309000054
 10
37.66637149220001
 20
-0.2639903781000044
 10
37.5739997066
 20
-0.4101348405000067
 10
37.4788734346
 20
-0.5558892852999975
 10
37.381280145
 20
-0.7007789429000014
 10
37.28133939460001
 20
-0.8446072612999984
 10
37.17913450500001
 20
-0.987233795700007
 10
37.0750597258
 20
-1.128102282100002
 10
36.96969801380001
 20
-1.2664596165
 10
36.863288273
 20
-1.402055862899999
 10
36.7558511546
 20
-1.534921022900007
 10
36.64767521860001
 20
-1.664750104500001
 10
36.53963594020001
 20
-1.790584165300003
 10
36.43263743300001
 20
-1.911534517299998
 10
36.327244673
 20
-2.027153320500005
 10
36.22386091780001
 20
-2.137170536500008
 10
36.12248634340001
 20
-2.241770456500006
 10
36.0228113002
 20
-2.341462006900002
 10
35.92442532420001
 20
-2.436823821300009
 10
35.8267860122
 20
-2.528516603699998
 10
35.72935684740001
 20
-2.617140949300008
 10
35.6318396986
 20
-2.703034795700006
 10
35.53408311460001
 20
-2.786384198900009
 10
35.43594623460001
 20
-2.867358318900002
 10
35.33715818340001
 20
-2.946222486899998
 10
35.23715922340001
 20
-3.023441483699997
 10
35.13547785700001
 20
-3.099367251700002
 10
35.0318801498
 20
-3.174146506100001
 10
34.92611483140001
 20
-3.247926266100009
 10
34.81785840900001
 20
-3.320889202100005
 10
34.70661406340001
 20
-3.393311358900007
 10
34.59175194020001
 20
-3.4655199253
 10
34.4729215242
 20
-3.537635979699999
 10
34.3498303898
 20
-3.60973483730001
 10
34.2214085594
 20
-3.68231842610001
 10
34.0861675194
 20
-3.756046814900003
 10
33.9447561946
 20
-3.830392750900003
 10
33.79995722660001
 20
-3.903802763699999
 10
33.6542094346
 20
-3.974994517300004
 10
33.5089088298
 20
-4.043290928499999
 10
33.3643531482
 20
-4.10860900050001
 10
33.220211257
 20
-4.171151242100009
 10
33.076134737
 20
-4.23110193490001
 10
32.9322229514
 20
-4.288446598900009
 10
32.788441097
 20
-4.343231240500003
 10
32.64467778660001
 20
-4.395526554100001
 10
32.50100931780001
 20
-4.445327968500009
 10
32.3576224218
 20
-4.492597421300004
 10
32.2145545002
 20
-4.537351886899998
 10
32.0718467498
 20
-4.579607037300007
 10
31.9295530682
 20
-4.619375384500003
 10
31.78773030820001
 20
-4.656669978099998
 10
31.6464235354
 20
-4.691508362100009
 10
31.5056527482
 20
-4.723914773300009
 10
31.36543181060001
 20
-4.753914350900004
 10
31.22577647620001
 20
-4.781531294900005
 10
31.0867030154
 20
-4.806789376500006
 10
30.94822552900001
 20
-4.829712422900001
 10
30.81035217860001
 20
-4.8503247461
 10
30.6730793322
 20
-4.868651550899997
 10
30.53640031460001
 20
-4.884717141300001
 10
30.400323201
 20
-4.898543064500003
 10
30.26487107940001
 20
-4.910149269300006
 10
30.13004360740001
 20
-4.919557677300005
 10
29.99578343300001
 20
-4.926792133299997
  0
LWPOLYLINE
  5
127
330
2
100
AcDbEntity
  8
0
100
AcDbPolyline
 90
      108
 70
     0
 43
0.0
 10
39.2400713962
 20
7.609812316300008
 10
39.2403444042
 20
7.96425162189999
 10
39.24110385060001
 20
8.347544836299988
 10
39.24202975780001
 20
8.738115433100006
 10
39.24251990340001
 20
9.107470610700005
 10
39.24199560740001
 20
9.432107841099991
 10
39.24001079460001
 20
9.723578837899992
 10
39.2362380474
 20
9.984446837900009
 10
39.23060820100001
 20
10.21559195309998
 10
39.22304665060001
 20
10.42350236909999
 10
39.2136023978
 20
10.6128605115
 10
39.20252497860001
 20
10.78551268749998
 10
39.18975576900001
 20
10.94754554349998
 10
39.17513543300001
 20
11.10351164109999
 10
39.1585653994
 20
11.25572671309998
 10
39.13974106660001
 20
11.40746490029999
 10
39.11855632580001
 20
11.55953430669998
 10
39.095069401
 20
11.71143253229999
 10
39.0693151658
 20
11.8629323499
 10
39.04129484900001
 20
12.01403371469999
 10
39.0110400906
 20
12.16457255629998
 10
38.97858637860001
 20
12.31439701229999
 10
38.94396292900001
 20
12.46340670029999
 10
38.9072015258
 20
12.6115033275
 10
38.8683380618
 20
12.75858532109998
 10
38.8274122442
 20
12.90455058509999
 10
38.78446765540001
 20
13.04929730349999
 10
38.739550065
 20
13.19272992269998
 10
38.69268634340001
 20
13.33482080269999
 10
38.6438879994
 20
13.47558479149998
 10
38.59323382820001
 20
13.61484784109998
 10
38.5408100986
 20
13.75244244109998
 10
38.48667073060001
 20
13.88830674669998
 10
38.43063031780001
 20
14.0229440619
 10
38.3722434122
 20
14.15738622029999
 10
38.310999065
 20
14.2927367611
 10
38.24651863140001
 20
14.42971013869998
 10
38.1786698602
 20
14.56840835149998
 10
38.10745341060001
 20
14.70865552429998
 10
38.03288256740001
 20
14.85026673389998
 10
37.95502265380001
 20
14.9929766443
 10
37.87399127460001
 20
15.13645187149998
 10
37.78985985380001
 20
15.2804671531
 10
37.7026415034
 20
15.42490738349999
 10
37.61235092100001
 20
15.56965494669998
 10
37.5192118554
 20
15.71427156109999
 10
37.4235466442
 20
15.8582098171
 10
37.32553852100001
 20
16.00117144589998
 10
37.22525382180001
 20
16.14304008109999
 10
37.12293062340001
 20
16.28346394349998
 10
37.01909368100001
 20
16.42173876429998
 10
36.91415263620001
 20
16.5573717787
 10
36.80819001700001
 20
16.6903163467
 10
36.701312169
 20
16.82048837869999
 10
36.59410441540001
 20
16.94724062029999
 10
36.48748773700001
 20
17.0696080859
 10
36.38219377700001
 20
17.1869315323
 10
36.27869889540001
 20
17.29885921229998
 10
36.1772184042
 20
17.40532468429998
 10
36.07759734340001
 20
17.50667742670001
 10
35.97947745700001
 20
17.60345859789998
 10
35.8823978842
 20
17.6962731403
 10
35.78581238820001
 20
17.78575804109999
 10
35.6892861114
 20
17.8723968795
 10
35.5926013338
 20
17.95644240429999
 10
35.4956311418
 20
18.03805394509998
 10
35.39820578020001
 20
18.1174205275
 10
35.2999484874
 20
18.1948822123
 10
35.20031350980001
 20
18.2708754139
 10
35.09892674180001
 20
18.34566652429998
 10
34.99557579940001
 20
18.4193822075
 10
34.88999962660001
 20
18.49217276749999
 10
34.7818324186
 20
18.56424422029999
 10
34.67053126820001
 20
18.63589371789998
 10
34.5555474938
 20
18.70738770189999
 10
34.4366003866
 20
18.77880296749998
 10
34.31322818500001
 20
18.85031322829999
 10
34.18417304740001
 20
18.92251122190001
 10
34.0483888202
 20
18.9957985675
 10
33.9071422618
 20
19.0693457323
 10
33.76324765860001
 20
19.14161317229999
 10
33.6188651786
 20
19.21147717709999
 10
33.4750839354
 20
19.2784336235
 10
33.3320023002
 20
19.34249469869999
 10
33.1892432986
 20
19.40387729069999
 10
33.0465411306
 20
19.46272515309999
 10
32.9040037146
 20
19.51902040749999
 10
32.76157480740001
 20
19.57281667949999
 10
32.61916468100001
 20
19.62417408429999
 10
32.47687503140001
 20
19.6730786011
 10
32.33487686820001
 20
19.71949791309998
 10
32.19319782340001
 20
19.76345155949999
 10
32.05187941220001
 20
19.80495436909999
 10
31.9109751098
 20
19.84401835469998
 10
31.770539529
 20
19.88065657229998
 10
31.63061399780001
 20
19.91488683629998
 10
31.4912162858
 20
19.9467330891
 10
31.35235969700001
 20
19.97621975309999
 10
31.21405966980001
 20
20.00337029229999
 10
31.0763319546
 20
20.02820780429999
 10
30.93918995940001
 20
20.05075547629999
 10
30.80264101220001
 20
20.07103699469999
 10
30.66668110500001
 20
20.08907686509999
 10
30.5313039722
 20
20.10489862989999
 10
30.39651808100001
 20
20.11852314029999
 10
30.26234596420001
 20
20.1299697915
 10
30.12878658340001
 20
20.1392599323
 10
29.99578343300001
 20
20.1464167659
  0
LWPOLYLINE
  5
128
330
2
100
AcDbEntity
  8
0
100
AcDbPolyline
 90
       19
 70
     0
 43
0.0
 10
38.26150818820001
 20
7.609812316300008
 10
38.26100770820001
 20
7.515636221899995
 10
38.2594694042
 20
7.420319857099997
 10
38.256854489
 20
7.324917599499997
 10
38.253135169
 20
7.230240100299994
 10
38.2483273162
 20
7.137664999500003
 10
38.24245781380001
 20
7.048135007500007
 10
38.23556502180001
 20
6.962450324299993
 10
38.2277058346
 20
6.881396637899996
 10
38.21891718340001
 20
6.805402217099981
 10
38.20928005860001
 20
6.735181873100003
 10
38.19882875460001
 20
6.670999876299987
 10
38.18764389860001
 20
6.613390993099983
 10
38.17578780420001
 20
6.562709164300002
 10
38.16339691140001
 20
6.51951844429999
 10
38.1506371674
 20
6.484237778699991
 10
38.1376047594
 20
6.456909719500004
 10
38.12443863780001
 20
6.437577604300003
 10
38.1112060618
 20
6.426090801100002
  0
LWPOLYLINE
  5
129
330
2
100
AcDbEntity
  8
0
100
AcDbPolyline
 90
       20
 70
     0
 43
0.0
 10
37.9309217242
 20
7.609812316300008
 10
37.93148777700001
 20
7.706161220300003
 10
37.9331936362
 20
7.802514221899997
 10
37.93604229700001
 20
7.8981459723
 10
37.94003860420001
 20
7.9925915723
 10
37.94515491140001
 20
8.084807407499994
 10
37.95136222660001
 20
8.174091677900008
 10
37.9586046362
 20
8.259560961099992
 10
37.966806801
 20
8.340375789900008
 10
37.97592036100001
 20
8.416114562699988
 10
37.98585960260001
 20
8.486107815499991
 10
37.9965826266
 20
8.550072815499987
 10
38.00798933540001
 20
8.607406173899988
 10
38.0200061098
 20
8.657752159500006
 10
38.03249802020001
 20
8.700603857099991
 10
38.045312569
 20
8.735610015499986
 10
38.0583698586
 20
8.7627618331
 10
38.0715498634
 20
8.782022149900001
 10
38.08480401700001
 20
8.793513441100003
 10
38.0980285578
 20
8.797312316300008
  0
LWPOLYLINE
  5
12A
330
2
100
AcDbEntity
  8
0
100
AcDbPolyline
 90
       16
 70
     0
 43
0.0
 10
40.58810787780001
 20
25.1117149675
 10
40.5850123002
 20
25.1635278347
 10
40.5765422202
 20
25.21479720909999
 10
40.56278351780001
 20
25.26496621869998
 10
40.54387943940001
 20
25.31348882989999
 10
40.5200935402
 20
25.35972523309999
 10
40.49165549540001
 20
25.40326815949998
 10
40.45885409860001
 20
25.44367166509999
 10
40.42203875140001
 20
25.4804940507
 10
40.38160276420001
 20
25.5133314507
 10
40.33797919140001
 20
25.54182217709998
 10
40.29166442020001
 20
25.5656379227
 10
40.2432472682
 20
25.58449275789999
 10
40.1931391834
 20
25.5982364875
 10
40.141876713
 20
25.6067107547
 10
40.09001052900001
 20
25.6098123163
  0
LINE
  5
12B
330
2
100
AcDbEntity
  8
0
100
AcDbLine
 10
40.227792089
 20
-9.780823219700014
 30
0.0
 11
40.227792089
 21
25.00044785229999
 31
0.0
  0
LINE
  5
12C
330
2
100
AcDbEntity
  8
0
100
AcDbLine
 10
40.5881078778
 20
25.1117149675
 30
0.0
 11
40.5881078778
 21
-9.892090334900007
 31
0.0
  0
LWPOLYLINE
  5
12D
330
2
100
AcDbEntity
  8
0
100
AcDbPolyline
 90
       16
 70
     0
 43
0.0
 10
40.227792089
 20
-9.78082321970001
 10
40.22642932900001
 20
-9.806929829300003
 10
40.22235626020001
 20
-9.832729733299998
 10
40.21561870980001
 20
-9.857940858100008
 10
40.206291425
 20
-9.882289213299998
 10
40.19447651140001
 20
-9.905512493300008
 10
40.18030268100001
 20
-9.927360118899997
 10
40.16392367300001
 20
-9.947596557300002
 10
40.1455167194
 20
-9.966003507700008
 10
40.12528027780001
 20
-9.982382510900009
 10
40.10343264580001
 20
-9.996556338100006
 10
40.08020936100002
 20
-10.00837124689999
 10
40.05586100420001
 20
-10.0176985285
 10
40.03064987140001
 20
-10.0244360709
 10
40.00484998660001
 20
-10.0285091381
 10
39.9787434154
 20
-10.02987189489999
  0
LWPOLYLINE
  5
12E
330
2
100
AcDbEntity
  8
0
100
AcDbPolyline
 90
       16
 70
     0
 43
0.0
 10
40.58810787780001
 20
-9.892090334900004
 10
40.5850123002
 20
-9.943903202100003
 10
40.5765422202
 20
-9.99517257650001
 10
40.56278351780001
 20
-10.0453415845
 10
40.54387943940001
 20
-10.0938641973
 10
40.5200935402
 20
-10.1401006005
 10
40.49165549540001
 20
-10.18364352689999
 10
40.45885409860001
 20
-10.2240470325
 10
40.42203875140001
 20
-10.2608694181
 10
40.38160276420001
 20
-10.2937068181
 10
40.33797919140001
 20
-10.3221975445
 10
40.29166442020001
 20
-10.3460132901
 10
40.2432472682
 20
-10.3648681253
 10
40.1931391834
 20
-10.3786118549
 10
40.141876713
 20
-10.3870861221
 10
40.09001052900001
 20
-10.3901876837
  0
CIRCLE
  5
12F
330
2
100
AcDbEntity
  8
0
100
AcDbCircle
 10
32.0881078778
 20
7.609812316300004
 30
0.0
 40
1.2714466096
  0
LWPOLYLINE
  5
130
330
2
100
AcDbEntity
  8
CENTER
 62
     1
 48
4.0
100
AcDbPolyline
 90
        3
 70
   128
 43
0.0
 10
35.93810787780002
 20
7.609812316300008
 10
32.08810787780001
 20
7.609812316300008
 10
28.23810787780002
 20
7.609812316300008
  0
ENDSEC
  0
SECTION
  2
OBJECTS
  0
DICTIONARY
  5
C
330
0
100
AcDbDictionary
  3
ACAD_COLOR
350
2E
  3
ACAD_GROUP
350
29
  3
ACAD_LAYOUT
350
B
  3
ACAD_MATERIAL
350
2D
  3
ACAD_MLINESTYLE
350
2A
  3
ACAD_PLOTSETTINGS
350
2B
  3
ACAD_PLOTSTYLENAME
350
2C
  3
ACAD_TABLESTYLE
350
2F
  3
ACDBHEADERROUNDTRIPXREC
350
1E7
  3
ACDBVARIABLEDICTIONARY
350
136
  0
DICTIONARY
  5
12
330
11
100
AcDbDictionary
280
     1
  3
ACAD_LAYERFILTERS
360
13
  3
ACLYDICTIONARY
360
14
  0
DICTIONARY
  5
3
330
2
100
AcDbDictionary
280
     1
  3
ACAD_LAYOUTSELFREF
360
208
  3
ACAD_SORTENTS
360
131
  0
DICTIONARY
  5
19F
330
D
100
AcDbDictionary
280
     1
  3
ACAD_LAYOUTSELFREF
360
209
  0
DICTIONARY
  5
2E
102
{ACAD_REACTORS
330
C
102
}
330
C
100
AcDbDictionary
  0
DICTIONARY
  5
29
102
{ACAD_REACTORS
330
C
102
}
330
C
100
AcDbDictionary
  0
DICTIONARY
  5
B
102
{ACAD_REACTORS
330
C
102
}
330
C
100
AcDbDictionary
  0
DICTIONARY
  5
2D
102
{ACAD_REACTORS
330
C
102
}
330
C
100
AcDbDictionary
  0
DICTIONARY
  5
2A
102
{ACAD_REACTORS
330
C
102
}
330
C
100
AcDbDictionary
  3
STANDARD
350
30
  0
DICTIONARY
  5
2B
102
{ACAD_REACTORS
330
C
102
}
330
C
100
AcDbDictionary
  0
ACDBDICTIONARYWDFLT
  5
2C
102
{ACAD_REACTORS
330
C
102
}
330
C
100
AcDbDictionary
281
     1
  3
Normal
350
7
100
AcDbDictionaryWithDefault
340
7
  0
DICTIONARY
  5
2F
102
{ACAD_REACTORS
330
C
102
}
330
C
100
AcDbDictionary
  3
STANDARD
350
31
  0
DICTIONARY
  5
1E7
102
{ACAD_REACTORS
330
C
102
}
330
C
100
AcDbDictionary
  3
CEPSNTYPE
350
1F1
  3
DIMSTYLEDATA
350
1F5
  3
FINGERPRINTGUID
350
1F2
  3
HYPERLINKBASE
350
1EA
  3
INSUNITS
350
1F0
  3
LAYOUTDICT
350
1EC
  3
LWETCUNION
350
1EF
  3
PLOTSETDICT
350
1ED
  3
PLOTSTYLNAMDICT
350
1EE
  3
PSVPSCALE
350
1F4
  3
PUCSBASE
350
1F8
  3
PUCSORGBACK
350
1FE
  3
PUCSORGBOTTOM
350
1FA
  3
PUCSORGFRONT
350
1FD
  3
PUCSORGLEFT
350
1FB
  3
PUCSORGRIGHT
350
1FC
  3
PUCSORGTOP
350
1F9
  3
PUCSORTHOREF
350
1F6
  3
PUCSORTHOVIEW
350
1F7
  3
STYLESHEET
350
1EB
  3
TSTACKALIGN
350
1E8
  3
TSTACKSIZE
350
1E9
  3
UCSBASE
350
201
  3
UCSORGBACK
350
207
  3
UCSORGBOTTOM
350
203
  3
UCSORGFRONT
350
206
  3
UCSORGLEFT
350
204
  3
UCSORGRIGHT
350
205
  3
UCSORGTOP
350
202
  3
UCSORTHOREF
350
1FF
  3
UCSORTHOVIEW
350
200
  3
VERSIONGUID
350
1F3
  0
DICTIONARY
  5
136
102
{ACAD_REACTORS
330
C
102
}
330
C
100
AcDbDictionary
  3
CTABLESTYLE
350
137
  3
DIMASSOC
350
16B
  3
HIDETEXT
350
16A
  3
PROJECTNAME
350
16C
  0
DICTIONARY
  5
13
102
{ACAD_REACTORS
330
12
102
}
330
12
100
AcDbDictionary
  0
DICTIONARY
  5
14
102
{ACAD_REACTORS
330
12
102
}
330
12
100
AcDbDictionary
1001
ACAD
1000
<All
  0
XRECORD
  5
208
102
{ACAD_REACTORS
330
3
102
}
330
3
100
AcDbXrecord
340
2
  0
SORTENTSTABLE
  5
131
102
{ACAD_REACTORS
330
3
102
}
330
3
100
AcDbSortentsTable
330
2
  0
XRECORD
  5
209
102
{ACAD_REACTORS
330
19F
102
}
330
19F
100
AcDbXrecord
340
D
  0
MLINESTYLE
  5
30
102
{ACAD_REACTORS
330
2A
102
}
330
2A
100
AcDbMlineStyle
  2
STANDARD
 70
     0
  3

 62
   256
 51
90.0
 52
90.0
 71
     2
 49
0.5
 62
   256
  6
BYLAYER
 49
-0.5
 62
   256
  6
BYLAYER
  0
ACDBPLACEHOLDER
  5
7
102
{ACAD_REACTORS
330
2C
102
}
330
0
100
AcDbPlaceHolder
280
     0
  0
ACAD_PROXY_OBJECT
  5
31
102
{ACAD_REACTORS
330
2F
102
}
330
2F
100
AcDbProxyObject
 90
      499
 91
      525
 93
     1841
310
4214DD185B99185C9928B81E85EB51B8AE3F2E07A17AD46E2B8FC02B5E8DC0F42B1CFD028000000C1008070000C3001FDFF8000000C1003FBFF000000182007F7FE00000030400FEFFC00000060801FDFF8000000C1003FBFF00000018200000000000000681FA0B0000001820100E000186003FBFF000000182007F7FE000
310
00030400FEFFC00000060801FDFF8000000C1003FBFF000000182007F7FE000000304000AD7A3703D0AC73F4160000003040201C00030C007F7FE00000030400FEFFC00000060801FDFF8000000C1003FBFF000000182007F7FE00000030400FEFFC000000608018
340
17
340
17
340
17
 94
        0
1001
ACAD
1000
AcadProxyRoundTripData
1071
      524
1071
   851991
1070
     0
  0
XRECORD
  5
1F1
102
{ACAD_REACTORS
330
1E7
102
}
330
1E7
100
AcDbXrecord
 90
        0
  0
XRECORD
  5
1F5
102
{ACAD_REACTORS
330
1E7
102
}
330
1E7
100
AcDbXrecord
1000
DSTYLE
1002
{
1070
   341
340
23
1070
   342
340
23
1070
   343
340
23
1070
   344
340
23
1002
}
  0
XRECORD
  5
1F2
102
{ACAD_REACTORS
330
1E7
102
}
330
1E7
100
AcDbXrecord
  1
{36CE48CC-99F4-4395-B1EF-94E61DC07BFA}
  0
XRECORD
  5
1EA
102
{ACAD_REACTORS
330
1E7
102
}
330
1E7
100
AcDbXrecord
  1

  0
XRECORD
  5
1F0
102
{ACAD_REACTORS
330
1E7
102
}
330
1E7
100
AcDbXrecord
 90
        1
  0
XRECORD
  5
1EC
102
{ACAD_REACTORS
330
1E7
102
}
330
1E7
100
AcDbXrecord
340
B
  0
XRECORD
  5
1EF
102
{ACAD_REACTORS
330
1E7
102
}
330
1E7
100
AcDbXrecord
 90
    10781
  0
XRECORD
  5
1ED
102
{ACAD_REACTORS
330
1E7
102
}
330
1E7
100
AcDbXrecord
340
2B
  0
XRECORD
  5
1EE
102
{ACAD_REACTORS
330
1E7
102
}
330
1E7
100
AcDbXrecord
340
2C
  0
XRECORD
  5
1F4
102
{ACAD_REACTORS
330
1E7
102
}
330
1E7
100
AcDbXrecord
 40
0.0
  0
XRECORD
  5
1F8
102
{ACAD_REACTORS
330
1E7
102
}
330
1E7
100
AcDbXrecord
340
0
  0
XRECORD
  5
1FE
102
{ACAD_REACTORS
330
1E7
102
}
330
1E7
100
AcDbXrecord
 10
0.0
 20
0.0
 30
0.0
  0
XRECORD
  5
1FA
102
{ACAD_REACTORS
330
1E7
102
}
330
1E7
100
AcDbXrecord
 10
0.0
 20
0.0
 30
0.0
  0
XRECORD
  5
1FD
102
{ACAD_REACTORS
330
1E7
102
}
330
1E7
100
AcDbXrecord
 10
0.0
 20
0.0
 30
0.0
  0
XRECORD
  5
1FB
102
{ACAD_REACTORS
330
1E7
102
}
330
1E7
100
AcDbXrecord
 10
0.0
 20
0.0
 30
0.0
  0
XRECORD
  5
1FC
102
{ACAD_REACTORS
330
1E7
102
}
330
1E7
100
AcDbXrecord
 10
0.0
 20
0.0
 30
0.0
  0
XRECORD
  5
1F9
102
{ACAD_REACTORS
330
1E7
102
}
330
1E7
100
AcDbXrecord
 10
0.0
 20
0.0
 30
0.0
  0
XRECORD
  5
1F6
102
{ACAD_REACTORS
330
1E7
102
}
330
1E7
100
AcDbXrecord
340
0
  0
XRECORD
  5
1F7
102
{ACAD_REACTORS
330
1E7
102
}
330
1E7
100
AcDbXrecord
 70
     0
  0
XRECORD
  5
1EB
102
{ACAD_REACTORS
330
1E7
102
}
330
1E7
100
AcDbXrecord
  1

  0
XRECORD
  5
1E8
102
{ACAD_REACTORS
330
1E7
102
}
330
1E7
100
AcDbXrecord
 90
        1
  0
XRECORD
  5
1E9
102
{ACAD_REACTORS
330
1E7
102
}
330
1E7
100
AcDbXrecord
 90
       70
  0
XRECORD
  5
201
102
{ACAD_REACTORS
330
1E7
102
}
330
1E7
100
AcDbXrecord
340
0
  0
XRECORD
  5
207
102
{ACAD_REACTORS
330
1E7
102
}
330
1E7
100
AcDbXrecord
 10
0.0
 20
0.0
 30
0.0
  0
XRECORD
  5
203
102
{ACAD_REACTORS
330
1E7
102
}
330
1E7
100
AcDbXrecord
 10
0.0
 20
0.0
 30
0.0
  0
XRECORD
  5
206
102
{ACAD_REACTORS
330
1E7
102
}
330
1E7
100
AcDbXrecord
 10
0.0
 20
0.0
 30
0.0
  0
XRECORD
  5
204
102
{ACAD_REACTORS
330
1E7
102
}
330
1E7
100
AcDbXrecord
 10
0.0
 20
0.0
 30
0.0
  0
XRECORD
  5
205
102
{ACAD_REACTORS
330
1E7
102
}
330
1E7
100
AcDbXrecord
 10
0.0
 20
0.0
 30
0.0
  0
XRECORD
  5
202
102
{ACAD_REACTORS
330
1E7
102
}
330
1E7
100
AcDbXrecord
 10
0.0
 20
0.0
 30
0.0
  0
XRECORD
  5
1FF
102
{ACAD_REACTORS
330
1E7
102
}
330
1E7
100
AcDbXrecord
340
0
  0
XRECORD
  5
200
102
{ACAD_REACTORS
330
1E7
102
}
330
1E7
100
AcDbXrecord
 70
     0
  0
XRECORD
  5
1F3
102
{ACAD_REACTORS
330
1E7
102
}
330
1E7
100
AcDbXrecord
  1
{B5CD54B9-1908-4D4F-8BFF-9DF47A092EBF}
  0
DICTIONARYVAR
  5
137
102
{ACAD_REACTORS
330
136
102
}
330
136
100
DictionaryVariables
280
     0
  1
STANDARD
  0
DICTIONARYVAR
  5
16B
102
{ACAD_REACTORS
330
136
102
}
330
136
100
DictionaryVariables
280
     0
  1
1
  0
DICTIONARYVAR
  5
16A
102
{ACAD_REACTORS
330
136
102
}
330
136
100
DictionaryVariables
280
     0
  1
1
  0
DICTIONARYVAR
  5
16C
102
{ACAD_REACTORS
330
136
102
}
330
136
100
DictionaryVariables
280
     0
  1

  0
ENDSEC
  0
EOF
