  0
SECTION
  2
HEADER
  9
$ACADVER
  1
AC1014
  9
$ACADMAINTVER
 70
     9
  9
$DWGCODEPAGE
  3
ANSI_1252
  9
$INSBASE
 10
4.96456866355
 20
2.6482724472
 30
0.0
  9
$EXTMIN
 10
-31.3535283615792
 20
-13.29447638717668
 30
-0.0000000349181948
  9
$EXTMAX
 10
40.65526096915192
 20
12.87940911631763
 30
0.0000000814935746
  9
$LIMMIN
 10
0.0
 20
0.0
  9
$LIMMAX
 10
17.0
 20
11.0
  9
$ORTHOMODE
 70
     1
  9
$REGENMODE
 70
     1
  9
$FILLMODE
 70
     1
  9
$QTEXTMODE
 70
     0
  9
$MIRRTEXT
 70
     1
  9
$DRAGMODE
 70
     2
  9
$LTSCALE
 40
2.0
  9
$OSMODE
 70
    55
  9
$ATTMODE
 70
     1
  9
$TEXTSIZE
 40
0.2
  9
$TRACEWID
 40
0.05
  9
$TEXTSTYLE
  7
STANDARD
  9
$CLAYER
  8
0
  9
$CELTYPE
  6
BYLAYER
  9
$CECOLOR
 62
   256
  9
$CELTSCALE
 40
1.0
  9
$DELOBJ
 70
     1
  9
$DISPSILH
 70
     0
  9
$DIMSCALE
 40
1.0
  9
$DIMASZ
 40
0.1875
  9
$DIMEXO
 40
0.0625
  9
$DIMDLI
 40
0.38
  9
$DIMRND
 40
0.0
  9
$DIMDLE
 40
0.0
  9
$DIMEXE
 40
0.18
  9
$DIMTP
 40
0.00001
  9
$DIMTM
 40
0.00001
  9
$DIMTXT
 40
0.125
  9
$DIMCEN
 40
0.09
  9
$DIMTSZ
 40
0.0
  9
$DIMTOL
 70
     0
  9
$DIMLIM
 70
     0
  9
$DIMTIH
 70
     1
  9
$DIMTOH
 70
     1
  9
$DIMSE1
 70
     0
  9
$DIMSE2
 70
     0
  9
$DIMTAD
 70
     0
  9
$DIMZIN
 70
     4
  9
$DIMBLK
  1
_FILLED
  9
$DIMASO
 70
     1
  9
$DIMSHO
 70
     1
  9
$DIMPOST
  1

  9
$DIMAPOST
  1

  9
$DIMALT
 70
     0
  9
$DIMALTD
 70
     2
  9
$DIMALTF
 40
25.4
  9
$DIMLFAC
 40
1.0
  9
$DIMTOFL
 70
     0
  9
$DIMTVP
 40
0.0
  9
$DIMTIX
 70
     0
  9
$DIMSOXD
 70
     0
  9
$DIMSAH
 70
     0
  9
$DIMBLK1
  1

  9
$DIMBLK2
  1

  9
$DIMSTYLE
  2
STANDARD
  9
$DIMCLRD
 70
     0
  9
$DIMCLRE
 70
     0
  9
$DIMCLRT
 70
     0
  9
$DIMTFAC
 40
1.0
  9
$DIMGAP
 40
0.09
  9
$DIMJUST
 70
     0
  9
$DIMSD1
 70
     0
  9
$DIMSD2
 70
     0
  9
$DIMTOLJ
 70
     1
  9
$DIMTZIN
 70
     4
  9
$DIMALTZ
 70
     0
  9
$DIMALTTZ
 70
     0
  9
$DIMFIT
 70
     3
  9
$DIMUPT
 70
     0
  9
$DIMUNIT
 70
     2
  9
$DIMDEC
 70
     2
  9
$DIMTDEC
 70
     2
  9
$DIMALTU
 70
     2
  9
$DIMALTTD
 70
     2
  9
$DIMTXSTY
  7
STANDARD
  9
$DIMAUNIT
 70
     0
  9
$LUNITS
 70
     2
  9
$LUPREC
 70
     4
  9
$SKETCHINC
 40
0.1
  9
$FILLETRAD
 40
0.0
  9
$AUNITS
 70
     0
  9
$AUPREC
 70
     0
  9
$MENU
  1
acad
  9
$ELEVATION
 40
0.0
  9
$PELEVATION
 40
0.0
  9
$THICKNESS
 40
0.0
  9
$LIMCHECK
 70
     0
  9
$BLIPMODE
 70
     0
  9
$CHAMFERA
 40
0.0
  9
$CHAMFERB
 40
0.0
  9
$CHAMFERC
 40
0.0
  9
$CHAMFERD
 40
0.0
  9
$SKPOLY
 70
     0
  9
$TDCREATE
 40
2453676.830066007
  9
$TDUPDATE
 40
2453685.531812430
  9
$TDINDWG
 40
0.0280536806
  9
$TDUSRTIMER
 40
0.0280536806
  9
$USRTIMER
 70
     1
  9
$ANGBASE
 50
0.0
  9
$ANGDIR
 70
     0
  9
$PDMODE
 70
     3
  9
$PDSIZE
 40
0.3125
  9
$PLINEWID
 40
0.0
  9
$COORDS
 70
     1
  9
$SPLFRAME
 70
     0
  9
$SPLINETYPE
 70
     6
  9
$SPLINESEGS
 70
     8
  9
$ATTDIA
 70
     0
  9
$ATTREQ
 70
     1
  9
$HANDLING
 70
 22529
  9
$HANDSEED
  5
51C
  9
$SURFTAB1
 70
     6
  9
$SURFTAB2
 70
     6
  9
$SURFTYPE
 70
     6
  9
$SURFU
 70
     6
  9
$SURFV
 70
     6
  9
$UCSNAME
  2

  9
$UCSORG
 10
0.0
 20
0.0
 30
0.0
  9
$UCSXDIR
 10
1.0
 20
0.0
 30
0.0
  9
$UCSYDIR
 10
0.0
 20
1.0
 30
0.0
  9
$PUCSNAME
  2

  9
$PUCSORG
 10
0.0
 20
0.0
 30
0.0
  9
$PUCSXDIR
 10
1.0
 20
0.0
 30
0.0
  9
$PUCSYDIR
 10
0.0
 20
1.0
 30
0.0
  9
$USERI1
 70
     0
  9
$USERI2
 70
     0
  9
$USERI3
 70
     0
  9
$USERI4
 70
     0
  9
$USERI5
 70
     0
  9
$USERR1
 40
0.0
  9
$USERR2
 40
0.0
  9
$USERR3
 40
0.0
  9
$USERR4
 40
0.0
  9
$USERR5
 40
0.0
  9
$WORLDVIEW
 70
     1
  9
$SHADEDGE
 70
     3
  9
$SHADEDIF
 70
    70
  9
$TILEMODE
 70
     1
  9
$MAXACTVP
 70
    16
  9
$PINSBASE
 10
0.0
 20
0.0
 30
0.0
  9
$PLIMCHECK
 70
     0
  9
$PEXTMIN
 10
1.000000000000000E+20
 20
1.000000000000000E+20
 30
1.000000000000000E+20
  9
$PEXTMAX
 10
-1.000000000000000E+20
 20
-1.000000000000000E+20
 30
-1.000000000000000E+20
  9
$PLIMMIN
 10
0.0
 20
0.0
  9
$PLIMMAX
 10
12.0
 20
9.0
  9
$UNITMODE
 70
     0
  9
$VISRETAIN
 70
     0
  9
$PLINEGEN
 70
     1
  9
$PSLTSCALE
 70
     0
  9
$TREEDEPTH
 70
  3020
  9
$PICKSTYLE
 70
     1
  9
$CMLSTYLE
  2
STANDARD
  9
$CMLJUST
 70
     0
  9
$CMLSCALE
 40
1.0
  9
$PROXYGRAPHICS
 70
     0
  9
$MEASUREMENT
 70
     0
  0
ENDSEC
  0
SECTION
  2
CLASSES
  0
CLASS
  1
ACDBDICTIONARYWDFLT
  2
AcDbDictionaryWithDefault
  3
AutoCAD 2000
 90
        0
280
     0
281
     0
  0
CLASS
  1
ACDBPLACEHOLDER
  2
AcDbPlaceHolder
  3
AutoCAD 2000
 90
        0
280
     0
281
     0
  0
CLASS
  1
LAYOUT
  2
AcDbLayout
  3
AutoCAD 2000
 90
        0
280
     0
281
     0
  0
CLASS
  1
LWPOLYLINE
  2
AcDbPolyline
  3
AutoCAD 2000
 90
        0
280
     0
281
     1
  0
CLASS
  1
IMAGE
  2
AcDbRasterImage
  3
ISM
 90
      127
280
     1
281
     1
  0
CLASS
  1
OLE2FRAME
  2
AcDbOle2Frame
  3
AutoCAD 2000
 90
        0
280
     0
281
     1
  0
CLASS
  1
HATCH
  2
AcDbHatch
  3
AutoCAD 2000
 90
        0
280
     0
281
     1
  0
CLASS
  1
DICTIONARYVAR
  2
AcDbDictionaryVar
  3
AutoCAD 2000
 90
        0
280
     0
281
     0
  0
CLASS
  1
RASTERVARIABLES
  2
AcDbRasterVariables
  3
ISM
 90
        0
280
     1
281
     0
  0
CLASS
  1
IMAGEDEF
  2
AcDbRasterImageDef
  3
ISM
 90
        0
280
     1
281
     0
  0
CLASS
  1
IMAGEDEF_REACTOR
  2
AcDbRasterImageDefReactor
  3
ISM
 90
        1
280
     1
281
     0
  0
CLASS
  1
IDBUFFER
  2
AcDbIdBuffer
  3
AutoCAD 2000
 90
        0
280
     0
281
     0
  0
CLASS
  1
SPATIAL_FILTER
  2
AcDbSpatialFilter
  3
AutoCAD 2000
 90
        0
280
     0
281
     0
  0
CLASS
  1
XRECORD
  2
AcDbXrecord
  3
AutoCAD 2000
 90
        0
280
     0
281
     0
  0
CLASS
  1
SORTENTSTABLE
  2
AcDbSortentsTable
  3
AutoCAD 2000
 90
        0
280
     0
281
     0
  0
CLASS
  1
LAYER_INDEX
  2
AcDbLayerIndex
  3
AutoCAD 2000
 90
        0
280
     0
281
     0
  0
CLASS
  1
SPATIAL_INDEX
  2
AcDbSpatialIndex
  3
AutoCAD 2000
 90
        0
280
     0
281
     0
  0
CLASS
  1
OBJECT_PTR
  2
CAseDLPNTableRecord
  3
ASE-LPNTableRecord
 90
        1
280
     1
281
     0
  0
CLASS
  1
PLOTSETTINGS
  2
AcDbPlotSettings
  3
AutoCAD 2000
 90
        0
280
     0
281
     0
  0
CLASS
  1
VBA_PROJECT
  2
AcDbVbaProject
  3
acadvba
 90
        0
280
     0
281
     0
  0
CLASS
  1
WIPEOUT
  2
AcDbWipeout
  3
"WipeOut|Product Desc: Object Enabler for WipeOut entity^I^I^I^I^I^I|Company: Autodesk, Inc.^I^I^I^I^I^I|WEB Address: www.autodesk.com"
 90
      127
280
     1
281
     1
  0
CLASS
  1
WIPEOUTVARIABLES
  2
AcDbWipeoutVariables
  3
"WipeOut|Product Desc:     WipeOut Dbx Application|Company:          Autodesk, Inc.|WEB Address:      www.autodesk.com"
 90
        0
280
     1
281
     0
  0
CLASS
  1
RTEXT
  2
RText
  3
RText|AutoCAD Express Tool|expresstools@autodesk.com
 90
        0
280
     1
281
     1
  0
CLASS
  1
ARCALIGNEDTEXT
  2
AcDbArcAlignedText
  3
ATEXT|AutoCAD Express Tool|expresstools@autodesk.com
 90
        0
280
     1
281
     1
  0
CLASS
  1
TABLESTYLE
  2
AcDbTableStyle
  3
ObjectDBX Classes
 90
     2047
280
     0
281
     0
  0
CLASS
  1
ACAD_PROXY_OBJECT_WRAPPER
  2
AcDbProxyObjectWrapper
  3
AutoCAD 2000
 90
        0
280
     0
281
     0
  0
CLASS
  1
LONG_TRANSACTION
  2
AcDbLongTransaction
  3
AutoCAD 2000
 90
        0
280
     0
281
     0
  0
CLASS
  1
LWPOLYLINE
  2
AcDbPolyline
  3
AutoCAD 2000
 90
        0
280
     0
281
     1
  0
CLASS
  1
HATCH
  2
AcDbHatch
  3
AutoCAD 2000
 90
        0
280
     0
281
     1
  0
CLASS
  1
XRECORD
  2
AcDbXrecord
  3
AutoCAD 2000
 90
        0
280
     0
281
     0
  0
CLASS
  1
LONG_TRANSACTION
  2
AcDbLongTransaction
  3
AutoCAD 2000
 90
        0
280
     0
281
     0
  0
CLASS
  1
LWPOLYLINE
  2
AcDbPolyline
  3
AutoCAD 2000
 90
        0
280
     0
281
     1
  0
CLASS
  1
HATCH
  2
AcDbHatch
  3
AutoCAD 2000
 90
        0
280
     0
281
     1
  0
CLASS
  1
XRECORD
  2
AcDbXrecord
  3
AutoCAD 2000
 90
        0
280
     0
281
     0
  0
CLASS
  1
LONG_TRANSACTION
  2
AcDbLongTransaction
  3
AutoCAD 2000
 90
        0
280
     0
281
     0
  0
CLASS
  1
LWPOLYLINE
  2
AcDbPolyline
  3
AutoCAD 2000
 90
        0
280
     0
281
     1
  0
CLASS
  1
HATCH
  2
AcDbHatch
  3
AutoCAD 2000
 90
        0
280
     0
281
     1
  0
CLASS
  1
XRECORD
  2
AcDbXrecord
  3
AutoCAD 2000
 90
        0
280
     0
281
     0
  0
CLASS
  1
LONG_TRANSACTION
  2
AcDbLongTransaction
  3
AutoCAD 2000
 90
        0
280
     0
281
     0
  0
CLASS
  1
LWPOLYLINE
  2
AcDbPolyline
  3
AutoCAD 2000
 90
        0
280
     0
281
     1
  0
CLASS
  1
HATCH
  2
AcDbHatch
  3
AutoCAD 2000
 90
        0
280
     0
281
     1
  0
CLASS
  1
XRECORD
  2
AcDbXrecord
  3
AutoCAD 2000
 90
        0
280
     0
281
     0
  0
CLASS
  1
LONG_TRANSACTION
  2
AcDbLongTransaction
  3
AutoCAD 2000
 90
        0
280
     0
281
     0
  0
CLASS
  1
LWPOLYLINE
  2
AcDbPolyline
  3
AutoCAD 2000
 90
        0
280
     0
281
     1
  0
CLASS
  1
HATCH
  2
AcDbHatch
  3
AutoCAD 2000
 90
        0
280
     0
281
     1
  0
CLASS
  1
XRECORD
  2
AcDbXrecord
  3
AutoCAD 2000
 90
        0
280
     0
281
     0
  0
ENDSEC
  0
SECTION
  2
TABLES
  0
TABLE
  2
VPORT
  5
1E
330
0
100
AcDbSymbolTable
 70
     3
  0
VPORT
  5
4F8
330
1E
100
AcDbSymbolTableRecord
100
AcDbViewportTableRecord
  2
*ACTIVE
 70
     0
 10
0.0
 20
0.0
 11
1.0
 21
1.0
 12
4.650866177074718
 22
-0.207533705047517
 13
0.0
 23
0.0
 14
1.0
 24
1.0
 15
0.0
 25
0.0
 16
0.0
 26
0.0
 36
1.0
 17
0.0
 27
0.0
 37
0.0
 40
47.04431649149994
 41
1.786792452830188
 42
50.0
 43
0.0
 44
0.0
 50
0.0
 51
0.0
 71
     0
 72
   100
 73
     1
 74
     1
 75
     0
 76
     0
 77
     0
 78
     0
  0
ENDTAB
  0
TABLE
  2
LTYPE
  5
19
330
0
100
AcDbSymbolTable
 70
     3
  0
LTYPE
  5
1A
330
19
100
AcDbSymbolTableRecord
100
AcDbLinetypeTableRecord
  2
BYBLOCK
 70
     0
  3

 72
    65
 73
     0
 40
0.0
  0
LTYPE
  5
1B
330
19
100
AcDbSymbolTableRecord
100
AcDbLinetypeTableRecord
  2
BYLAYER
 70
     0
  3

 72
    65
 73
     0
 40
0.0
  0
LTYPE
  5
8
330
19
100
AcDbSymbolTableRecord
100
AcDbLinetypeTableRecord
  2
CONTINUOUS
 70
     0
  3
Solid line
 72
    65
 73
     0
 40
0.0
  0
LTYPE
  5
113
330
19
100
AcDbSymbolTableRecord
100
AcDbLinetypeTableRecord
  2
CENTER
 70
     0
  3
____ _ ____ _ ____ _ ____ _ ____ _ ____ _ ____
 72
    65
 73
     4
 40
0.6
 49
0.375
 74
     0
 49
-0.075
 74
     0
 49
0.075
 74
     0
 49
-0.075
 74
     0
  0
LTYPE
  5
271
330
19
100
AcDbSymbolTableRecord
100
AcDbLinetypeTableRecord
  2
HIDDEN
 70
     0
  3
Hidden __ __ __ __ __ __ __ __ __ __ __ __ __ _
 72
    65
 73
     2
 40
0.375
 49
0.25
 74
     0
 49
-0.125
 74
     0
  0
ENDTAB
  0
TABLE
  2
LAYER
  5
11
102
{ACAD_XDICTIONARY
360
12
102
}
330
0
100
AcDbSymbolTable
 70
     3
  0
LAYER
  5
6
330
11
100
AcDbSymbolTableRecord
100
AcDbLayerTableRecord
  2
0
 70
     0
 62
     7
  6
CONTINUOUS
  0
LAYER
  5
112
330
11
100
AcDbSymbolTableRecord
100
AcDbLayerTableRecord
  2
CENTER
 70
     0
 62
     1
  6
CENTER
1001
ACAECLAYERSTANDARD
1000

1000

  0
LAYER
  5
282
330
11
100
AcDbSymbolTableRecord
100
AcDbLayerTableRecord
  2
DEFPOINTS
 70
     0
 62
     7
  6
CONTINUOUS
  0
ENDTAB
  0
TABLE
  2
STYLE
  5
16
330
0
100
AcDbSymbolTable
 70
     1
  0
STYLE
  5
17
330
16
100
AcDbSymbolTableRecord
100
AcDbTextStyleTableRecord
  2
STANDARD
 70
     0
 40
0.0
 41
0.8
 50
0.0
 71
     0
 42
0.2
  3
txt
  4

  0
ENDTAB
  0
TABLE
  2
VIEW
  5
1C
330
0
100
AcDbSymbolTable
 70
     0
  0
ENDTAB
  0
TABLE
  2
UCS
  5
1D
330
0
100
AcDbSymbolTable
 70
     0
  0
ENDTAB
  0
TABLE
  2
APPID
  5
20
330
0
100
AcDbSymbolTable
 70
     3
  0
APPID
  5
15
330
20
100
AcDbSymbolTableRecord
100
AcDbRegAppTableRecord
  2
ACAD
 70
     0
  0
APPID
  5
114
330
20
100
AcDbSymbolTableRecord
100
AcDbRegAppTableRecord
  2
ACAECLAYERSTANDARD
 70
     0
  0
APPID
  5
261
330
20
100
AcDbSymbolTableRecord
100
AcDbRegAppTableRecord
  2
DCO15
 70
     0
  0
ENDTAB
  0
TABLE
  2
DIMSTYLE
  5
21
330
0
100
AcDbSymbolTable
 70
     1
  0
DIMSTYLE
105
27
330
21
100
AcDbSymbolTableRecord
100
AcDbDimStyleTableRecord
  2
STANDARD
 70
     0
  3

  4

  5
_FILLED
  6

  7

 40
1.0
 41
0.1875
 42
0.0625
 43
0.38
 44
0.18
 45
0.0
 46
0.0
 47
0.00001
 48
0.00001
140
0.125
141
0.09
142
0.0
143
25.4
144
1.0
145
0.0
146
1.0
147
0.09
 71
     0
 72
     0
 73
     1
 74
     1
 75
     0
 76
     0
 77
     0
 78
     4
170
     0
171
     2
172
     0
173
     0
174
     0
175
     0
176
     0
177
     0
178
     0
270
     2
271
     2
272
     2
273
     2
274
     2
340
17
275
     0
280
     0
281
     0
282
     0
283
     1
284
     4
285
     0
286
     0
287
     3
288
     0
  0
ENDTAB
  0
TABLE
  2
BLOCK_RECORD
  5
1
330
0
100
AcDbSymbolTable
 70
     2
  0
BLOCK_RECORD
  5
2
102
{ACAD_XDICTIONARY
360
3
102
}
330
1
100
AcDbSymbolTableRecord
100
AcDbBlockTableRecord
  2
*MODEL_SPACE
  0
BLOCK_RECORD
  5
D
102
{ACAD_XDICTIONARY
360
2CF
102
}
330
1
100
AcDbSymbolTableRecord
100
AcDbBlockTableRecord
  2
*PAPER_SPACE
  0
BLOCK_RECORD
  5
23
330
1
100
AcDbSymbolTableRecord
100
AcDbBlockTableRecord
  2
_FILLED
  0
BLOCK_RECORD
  5
38F
330
1
100
AcDbSymbolTableRecord
100
AcDbBlockTableRecord
  2
TMU-AMMA-OVAL-7242-PLAT-EL
1001
ACAD
1000
DesignCenter Data
1002
{
1070
     1
1070
     1
1002
}
  0
ENDTAB
  0
ENDSEC
  0
SECTION
  2
BLOCKS
  0
BLOCK
  5
5
330
2
100
AcDbEntity
  8
0
100
AcDbBlockBegin
  2
*MODEL_SPACE
 70
     0
 10
0.0
 20
0.0
 30
0.0
  3
*MODEL_SPACE
  1

  0
ENDBLK
  5
9
330
2
100
AcDbEntity
  8
0
100
AcDbBlockEnd
  0
BLOCK
  5
E
330
D
100
AcDbEntity
 67
     1
  8
0
100
AcDbBlockBegin
  2
*PAPER_SPACE
 70
     0
 10
0.0
 20
0.0
 30
0.0
  3
*PAPER_SPACE
  1

  0
ENDBLK
  5
F
330
D
100
AcDbEntity
 67
     1
  8
0
100
AcDbBlockEnd
  0
BLOCK
  5
24
330
23
100
AcDbEntity
  8
0
100
AcDbBlockBegin
  2
_FILLED
 70
     0
 10
0.0
 20
0.0
 30
0.0
  3
_FILLED
  1

  0
SOLID
  5
25
330
23
100
AcDbEntity
  8
0
  6
BYBLOCK
 62
     0
100
AcDbTrace
 10
0.0
 20
0.0
 30
0.0
 11
-1.0
 21
0.1666666667
 31
0.0
 12
-1.0
 22
-0.1666666667
 32
0.0
 13
-1.0
 23
-0.1666666667
 33
0.0
  0
ENDBLK
  5
26
330
23
100
AcDbEntity
  8
0
  6
BYBLOCK
 62
     0
100
AcDbBlockEnd
  0
BLOCK
  5
41B
330
38F
100
AcDbEntity
  8
0
100
AcDbBlockBegin
  2
TMU-AMMA-OVAL-7242-PLAT-EL
 70
     0
 10
0.0
 20
0.0
 30
0.0
  3
TMU-AMMA-OVAL-7242-PLAT-EL
  1

  0
LINE
  5
390
330
38F
100
AcDbEntity
  8
CENTER
 48
4.0
100
AcDbLine
 10
0.0000000256000448
 20
22.09696945306677
 30
0.0
 11
0.0000000256000448
 21
14.94178424933323
 31
0.0
  0
LWPOLYLINE
  5
391
330
38F
100
AcDbEntity
  8
0
100
AcDbPolyline
 90
        7
 70
     0
 43
0.0
 10
28.6327060448
 20
15.9020572064
 10
28.90288816480001
 20
16.5353202432
 10
29.2078854272
 20
17.218992152
 10
29.56348268960001
 20
17.976965168
 10
29.98764721279998
 20
18.8288977888
 10
30.47979702240001
 20
19.7492199776
 10
30.63276701280001
 20
20.0125
  0
LWPOLYLINE
  5
392
330
38F
100
AcDbEntity
  8
0
100
AcDbPolyline
 90
        7
 70
     0
 43
0.0
 10
-28.63270599359999
 20
15.9020572112
 10
-28.90288810879999
 20
16.5353202432
 10
-29.20788537599999
 20
17.2189921504
 10
-29.5634826416
 20
17.9769651664
 10
-29.98764716319999
 20
18.8288977888
 10
-30.47979696960001
 20
19.858207616
 10
-30.63276695840001
 20
20.12148763519999
  0
LWPOLYLINE
  5
393
330
38F
100
AcDbEntity
  8
0
100
AcDbPolyline
 90
       31
 70
     0
 43
0.0
 10
11.14500002559999
 20
13.225634712
 10
11.31012552
 20
13.2078482448
 10
11.47121993439999
 20
13.1902280624
 10
11.6282114208
 20
13.1728101472
 10
11.7810281296
 20
13.1556304768
 10
11.9295982128
 20
13.1387250336
 10
12.07389919679999
 20
13.1221226592
 10
12.21410611199999
 20
13.1058236352
 10
12.350443368
 20
13.0898211008
 10
12.483135368
 20
13.0741082
 10
12.61240652
 20
13.058678072
 10
12.7384680208
 20
13.0435238448
 10
12.86147821280001
 20
13.028638584
 10
12.9815822336
 20
13.014015336
 10
13.09892521439999
 20
12.9996471536
 10
13.2136522912
 20
12.9855270864
 10
13.353610344
 20
12.9682129168
 10
13.49003161279999
 20
12.9512475408
 10
13.623239888
 20
12.934602936
 10
13.7535589648
 20
12.9182510768
 10
13.8813090544
 20
12.9021634096
 10
14.00679603359999
 20
12.8863092688
 10
14.1303221984
 20
12.870657464
 10
14.2521898448
 20
12.8551767968
 10
14.4126394208
 20
12.834744456
 10
14.5714953648
 20
12.81446443360001
 10
14.7295751072
 20
12.7942402528
 10
15.2039920896
 20
12.7333564032
 10
15.68006461919999
 20
12.672146184
 10
16.15614869280001
 20
12.6112340048
 10
16.63062191999999
 20
12.5516484384
  0
LINE
  5
394
330
38F
100
AcDbEntity
  8
0
100
AcDbLine
 10
8.319278342399996
 20
2.165393217599998
 30
0.0
 11
14.47416497759999
 21
2.249567686399991
 31
0.0
  0
LINE
  5
395
330
38F
100
AcDbEntity
  8
CENTER
 48
4.0
100
AcDbLine
 10
0.0
 20
3.702592601866761
 30
0.0
 11
0.0
 21
-3.577592601866776
 31
0.0
  0
LWPOLYLINE
  5
396
330
38F
100
AcDbEntity
  8
0
100
AcDbPolyline
 90
       31
 70
     0
 43
0.0
 10
-16.63062187039999
 20
12.5516484384
 10
-16.15515081279998
 20
12.6113608912
 10
-15.67799039039999
 20
12.6724126288
 10
-15.20082732479998
 20
12.7337632304
 10
-14.72537923999999
 20
12.7947775056
 10
-14.56703777279999
 20
12.815034112
 10
-14.4079790672
 20
12.8353387104
 10
-14.247388872
 20
12.855787336
 10
-14.1254580672
 20
12.8712745648
 10
-14.00190450559999
 20
12.8869281664
 10
-13.87642490559999
 20
12.9027794752
 10
-13.7487159904
 20
12.9188598288
 10
-13.6184709984
 20
12.9352000272
 10
-13.48536924319999
 20
12.951828728
 10
-13.3490865616
 20
12.9687740528
 10
-13.20929878399999
 20
12.9860641232
 10
-13.09473049279999
 20
13.0001620688
 10
-12.97756612319999
 20
13.0145056864
 10
-12.85766032479999
 20
13.0291020112
 10
-12.7348677504
 20
13.04395808
 10
-12.609043048
 20
13.0590809296
 10
-12.48002763199998
 20
13.0744775936
 10
-12.34760998239998
 20
13.090155088
 10
-12.21156534719999
 20
13.1061204304
 10
-12.07166897119999
 20
13.1223806352
 10
-11.92769609919999
 20
13.1389427184
 10
-11.77947143359999
 20
13.1558065568
 10
-11.62701750399999
 20
13.1729434832
 10
-11.4704062944
 20
13.190317688
 10
-11.30970979039999
 20
13.2078933664
 10
-11.14499997439999
 20
13.225634712
  0
LINE
  5
397
330
38F
100
AcDbEntity
  8
0
100
AcDbLine
 10
-8.319278291200006
 20
2.165393217599998
 30
0.0
 11
-14.4741649264
 21
2.249567686399991
 31
0.0
  0
LWPOLYLINE
  5
398
330
38F
100
AcDbEntity
  8
0
100
AcDbPolyline
 90
       18
 70
     0
 43
0.0
 10
-27.2888403152
 20
10.9276508704
 10
-27.267254592
 20
10.8333079776
 10
-27.15254667039999
 20
10.3087338384
 10
-27.03463518559999
 20
9.726297952000003
 10
-26.9174604272
 20
9.098159180800003
 10
-26.81200802400001
 20
8.479639516800006
 10
-26.72693642719998
 20
7.929282571200005
 10
-26.65892603039999
 20
7.564430019200003
 10
-26.6053743344
 20
7.240713596799992
 10
-26.56431996319999
 20
6.852455108799993
 10
-26.53438971519999
 20
6.507402532799993
 10
-26.51386156799999
 20
6.192806534399991
 10
-26.4998102064
 20
5.896671659199995
 10
-26.4878871744
 20
5.627511443199992
 10
-26.47356404319999
 20
5.383396307199994
 10
-26.45330928319999
 20
5.160592667199992
 10
-26.42550623359999
 20
4.960122703999992
 10
-26.39897395999999
 20
4.821082334399996
  0
LWPOLYLINE
  5
399
330
38F
100
AcDbEntity
  8
0
100
AcDbPolyline
 90
       15
 70
     0
 43
0.0
 10
-27.22972923199999
 20
10.6660561328
 10
-27.1309332176
 20
10.2053664352
 10
-27.04412117919999
 20
9.774885360000006
 10
-26.96657705279999
 20
9.368059353600003
 10
-26.8960784896
 20
8.977347379200004
 10
-26.83146074239999
 20
8.598331443200002
 10
-26.772514504
 20
8.231049670400004
 10
-26.7191669904
 20
7.875979937600007
 10
-26.67142437919999
 20
7.658851569600003
 10
-26.62916526720001
 20
7.441765772799996
 10
-26.5922597088
 20
7.123467799999993
 10
-26.56084165599999
 20
6.816031353599996
 10
-26.53529006399999
 20
6.519148838399992
 10
-26.516051184
 20
6.232218980799991
 10
-26.5024011104
 20
5.956285355199995
  0
LWPOLYLINE
  5
39A
330
38F
100
AcDbEntity
  8
0
100
AcDbPolyline
 90
       27
 70
     0
 43
0.0
 10
-26.39897357439998
 20
4.821080547199997
 10
-26.38952824319999
 20
4.778649439999995
 10
-26.3447687344
 20
4.607300031999997
 10
-26.28925545279999
 20
4.436706259199993
 10
-26.22349287359999
 20
4.269236177599992
 10
-26.1481525696
 20
4.106480183999991
 10
-26.06385333919999
 20
3.949508846399993
 10
-25.97103697600001
 20
3.798960990399997
 10
-25.87010852639998
 20
3.655261404799993
 10
-25.7618898688
 20
3.519262876799992
 10
-25.6476487984
 20
3.392186887999997
 10
-25.5284894272
 20
3.274811172799992
 10
-25.4051233152
 20
3.167333846399998
 10
-25.27766525599999
 20
3.069398686399992
 10
-25.145619432
 20
2.980399820799995
 10
-25.0084522736
 20
2.899873020799994
 10
-24.86570710879999
 20
2.827580734399994
 10
-24.71670444
 20
2.763353689599995
 10
-24.56093535359999
 20
2.707269582399995
 10
-24.39763192959999
 20
2.659485163199995
 10
-24.22570269439999
 20
2.620257703999996
 10
-24.04656243359998
 20
2.590395793599995
 10
-23.862321248
 20
2.570701023999994
 10
-23.6878159104
 20
2.560775814399995
 10
-23.52656087839999
 20
2.555678174399993
 10
-23.38259746239999
 20
2.551905375999993
 10
-23.2610195568
 20
2.548189863999994
  0
LWPOLYLINE
  5
39B
330
38F
100
AcDbEntity
  8
0
100
AcDbPolyline
 90
        6
 70
     0
 43
0.0
 10
-26.5024011104
 20
5.956285355199995
 10
-26.49080515359999
 20
5.689463959999997
 10
-26.476872424
 20
5.431381239999993
 10
-26.45586834879999
 20
5.183810886399996
 10
-26.4234288368
 20
4.947865011199994
 10
-26.39897357439998
 20
4.821080547199997
  0
LWPOLYLINE
  5
39C
330
38F
100
AcDbEntity
  8
0
100
AcDbPolyline
 90
        8
 70
     0
 43
0.0
 10
-19.14425151839999
 20
2.405504687999993
 10
-18.67886404319999
 20
2.389294147199997
 10
-18.19176352159999
 20
2.372473027199994
 10
-17.68756329119999
 20
2.355256379199992
 10
-17.16528771679999
 20
2.337657391999997
 10
-16.62478817919999
 20
2.319714487999995
 10
-16.06484180159999
 20
2.301429699199992
 10
-15.47985257919999
 20
2.282655007999991
  0
LINE
  5
39D
330
38F
100
AcDbEntity
  8
0
100
AcDbLine
 10
-15.8681475952
 20
0.0124999999999958
 30
0.0
 11
-18.73015235359999
 21
0.0124999999999958
 31
0.0
  0
LINE
  5
39E
330
38F
100
AcDbEntity
  8
0
100
AcDbLine
 10
-20.12413502239999
 20
2.399999999999998
 30
0.0
 11
-14.4741649264
 21
2.202698695999991
 31
0.0
  0
LINE
  5
39F
330
38F
100
AcDbEntity
  8
0
100
AcDbLine
 10
-19.5475938288
 20
2.114344377599998
 30
0.0
 11
-19.09237453919999
 21
0.2904428575999915
 31
0.0
  0
ARC
  5
3A0
330
38F
100
AcDbEntity
  8
0
100
AcDbCircle
 10
-18.73015235359999
 20
0.3874999999999957
 30
0.0
 40
0.375
100
AcDbArc
 50
194.9999999999999
 51
270.0
  0
LINE
  5
3A1
330
38F
100
AcDbEntity
  8
0
100
AcDbLine
 10
-21.27502778559998
 20
2.480123631999994
 30
0.0
 11
-20.3391575264
 21
2.447456966399997
 31
0.0
  0
LINE
  5
3A2
330
38F
100
AcDbEntity
  8
0
100
AcDbLine
 10
-21.74022190719999
 20
2.496233950399997
 30
0.0
 11
-21.27502778559998
 21
2.480123631999994
 31
0.0
  0
LINE
  5
3A3
330
38F
100
AcDbEntity
  8
0
100
AcDbLine
 10
-23.10786253279999
 20
2.543307283199993
 30
0.0
 11
-22.98355029279999
 21
2.539084934399994
 31
0.0
  0
LINE
  5
3A4
330
38F
100
AcDbEntity
  8
0
100
AcDbLine
 10
-22.98355029279999
 20
2.539084934399994
 30
0.0
 11
-22.6543878528
 21
2.527870679999992
 31
0.0
  0
LINE
  5
3A5
330
38F
100
AcDbEntity
  8
0
100
AcDbLine
 10
-23.2610195568
 20
2.548189863999994
 30
0.0
 11
-22.12463963359999
 21
2.509549982399995
 31
0.0
  0
LINE
  5
3A6
330
38F
100
AcDbEntity
  8
0
100
AcDbLine
 10
-22.2670734416
 20
2.514485111999995
 30
0.0
 11
-22.24311722559999
 21
2.513655105599994
 31
0.0
  0
LINE
  5
3A7
330
38F
100
AcDbEntity
  8
0
100
AcDbLine
 10
-22.65221966399999
 20
2.527796942399994
 30
0.0
 11
-22.2670734416
 21
2.514485111999995
 31
0.0
  0
LWPOLYLINE
  5
3A8
330
38F
100
AcDbEntity
  8
0
100
AcDbPolyline
 90
        3
 70
     0
 43
0.0
 10
-22.12460322559999
 20
2.509548807999998
 10
-21.93491166399999
 20
2.502976151999995
 10
-21.74022190719999
 20
2.496233950399997
  0
ARC
  5
3A9
330
38F
100
AcDbEntity
  8
0
100
AcDbCircle
 10
-19.90980127679999
 20
2.017286721599994
 30
0.0
 40
0.3749929488
100
AcDbArc
 50
15.00065875329995
 51
88.00225305169966
  0
LINE
  5
3AA
330
38F
100
AcDbEntity
  8
0
100
AcDbLine
 10
-20.12413502239999
 20
2.439896371199992
 30
0.0
 11
-20.12413502239999
 21
2.399999999999998
 31
0.0
  0
LWPOLYLINE
  5
3AB
330
38F
100
AcDbEntity
  8
0
100
AcDbPolyline
 90
        3
 70
     0
 43
0.0
 10
-20.3391575264
 20
2.447456966399997
 10
-19.9731182784
 20
2.434586340799995
 10
-19.14425151839999
 20
2.405504687999993
  0
LINE
  5
3AC
330
38F
100
AcDbEntity
  8
0
100
AcDbLine
 10
-15.099109176
 20
1.933701716799994
 30
0.0
 11
-15.50592540959999
 21
0.2904428575999915
 31
0.0
  0
ARC
  5
3AD
330
38F
100
AcDbEntity
  8
0
100
AcDbCircle
 10
-15.8681475952
 20
0.3874999999999957
 30
0.0
 40
0.375
100
AcDbArc
 50
270.0
 51
345.0
  0
ARC
  5
3AE
330
38F
100
AcDbEntity
  8
0
100
AcDbCircle
 10
-14.73689292159998
 20
1.836644780799993
 30
0.0
 40
0.3749971088
100
AcDbArc
 50
87.99999999999961
 51
164.9997960013998
  0
LWPOLYLINE
  5
3AF
330
38F
100
AcDbEntity
  8
0
100
AcDbPolyline
 90
        3
 70
     0
 43
0.0
 10
-15.47985257919999
 20
2.282655007999991
 10
-14.863246496
 20
2.263213407999998
 10
-14.556962528
 20
2.253682478399994
  0
LINE
  5
3B0
330
38F
100
AcDbEntity
  8
0
100
AcDbLine
 10
-14.4741649264
 20
2.251122550399998
 30
0.0
 11
-14.4741649264
 21
2.202698695999991
 31
0.0
  0
LWPOLYLINE
  5
3B1
330
38F
100
AcDbEntity
  8
0
100
AcDbPolyline
 90
       49
 70
     0
 43
0.0
 10
-24.77333082399999
 20
10.47739512
 10
-24.754073816
 20
10.5276279808
 10
-24.733397288
 20
10.5765825408
 10
-24.7112563488
 20
10.6242804304
 10
-24.68761039999999
 20
10.6707366496
 10
-24.6624360304
 20
10.7159396464
 10
-24.6357141216
 20
10.7598712336
 10
-24.60742281919999
 20
10.8025191808
 10
-24.5775293264
 20
10.8438950736
 10
-24.54599811039999
 20
10.8840164544
 10
-24.5127991728
 20
10.9228949648
 10
-24.4779246544
 20
10.9605186224
 10
-24.441372232
 20
10.9968695472
 10
-24.4031335248
 20
11.0319371824
 10
-24.36317592479999
 20
11.0657402672
 10
-24.32146077119999
 20
11.0983048656
 10
-24.27795031999998
 20
11.1296561696
 10
-24.23261051519999
 20
11.1598158672
 10
-24.1854082208
 20
11.1888047712
 10
-24.1363063216
 20
11.2166457184
 10
-24.08525178399999
 20
11.2433696224
 10
-24.0321875984
 20
11.2690094128
 10
-23.97705915679999
 20
11.2935973664
 10
-23.9198214464
 20
11.3171631152
 10
-23.8604318608
 20
11.33973564
 10
-23.79884780799998
 20
11.3613468096
 10
-23.73502678399999
 20
11.3820400672
 10
-23.66892630079999
 20
11.401861752
 10
-23.60051078080001
 20
11.420858424
 10
-23.52977228159998
 20
11.43907752
 10
-23.45670976959999
 20
11.4565666976
 10
-23.38133417279999
 20
11.4733741312
 10
-23.30370426879999
 20
11.4895500672
 10
-23.2238907968
 20
11.5051452656
 10
-23.14195725759999
 20
11.520215048
 10
-23.05793820319999
 20
11.5348329728
 10
-22.9718609472
 20
11.5490771616
 10
-22.88376490399998
 20
11.5630184656
 10
-22.79373789279999
 20
11.5766986752
 10
-22.70187983039999
 20
11.5901523088
 10
-22.6082818064
 20
11.6034125632
 10
-22.512999576
 20
11.6165073344
 10
-22.41608006079999
 20
11.6294631904
 10
-22.31758451999999
 20
11.642305472
 10
-22.2176315584
 20
11.6550546144
 10
-22.11635411199999
 20
11.6677298224
 10
-22.01386504959999
 20
11.6803522912
 10
-21.91019695519999
 20
11.6929511632
 10
-21.80536234719999
 20
11.7055575648
  0
LWPOLYLINE
  5
3B2
330
38F
100
AcDbEntity
  8
0
100
AcDbPolyline
 90
       13
 70
     0
 43
0.0
 10
-28.45989575519999
 20
14.8989220192
 10
-28.39074182079999
 20
14.6752426192
 10
-28.30735640799998
 20
14.4355778624
 10
-28.21395647359999
 20
14.1782823744
 10
-28.11453944
 20
13.8994696096
 10
-28.01177532
 20
13.5934517488
 10
-27.9064102544
 20
13.2547594128
 10
-27.7947629216
 20
12.872465584
 10
-27.68668832319999
 20
12.4852525488
 10
-27.5856194416
 20
12.112530688
 10
-27.4851413504
 20
11.730377208
 10
-27.3782718016
 20
11.3046707328
 10
-27.2888406512
 20
10.9276523264
  0
LINE
  5
3B3
330
38F
100
AcDbEntity
  8
0
100
AcDbLine
 10
-27.2888403152
 20
10.9276508704
 30
0.0
 11
-27.22972923199999
 21
10.6660561328
 31
0.0
  0
LWPOLYLINE
  5
3B4
330
38F
100
AcDbEntity
  8
0
100
AcDbPolyline
 90
        8
 70
     0
 43
0.0
 10
-28.45989575519999
 20
14.8989220192
 10
-28.50745999039999
 20
15.0831326656
 10
-28.54396676
 20
15.2591884736
 10
-28.5666574048
 20
15.4070200544
 10
-28.5823427328
 20
15.5420180224
 10
-28.5956296272
 20
15.67110213120001
 10
-28.61210925439999
 20
15.8128257808
 10
-28.6327214928
 20
15.9021093632
  0
LWPOLYLINE
  5
3B5
330
38F
100
AcDbEntity
  8
0
100
AcDbPolyline
 90
       27
 70
     0
 43
0.0
 10
-21.80536234719999
 20
11.7055575648
 10
-21.7016577936
 20
11.7183927664
 10
-21.59571460159999
 20
11.732322952
 10
-21.48745597279999
 20
11.7473399088
 10
-21.3768051056
 20
11.763435432
 10
-21.26372338399999
 20
11.780590056
 10
-21.14832493120001
 20
11.798739304
 10
-21.030762056
 20
11.8178074432
 10
-20.9111870656
 20
11.837718744
 10
-20.74886694879999
 20
11.8654510096
 10
-20.58348101759999
 20
11.8943871216
 10
-20.41526978399998
 20
11.924366608
 10
-20.2444860736
 20
11.9552296992
 10
-20.0714319824
 20
11.9868194576
 10
-19.89642192639999
 20
12.018979648
 10
-19.63086687359999
 20
12.0679544368
 10
-19.36231759999999
 20
12.1173740976
 10
-19.0914838784
 20
12.1667580048
 10
-18.8191174544
 20
12.2156513328
 10
-18.5458910832
 20
12.26363053920001
 10
-18.2721195424
 20
12.3103713904
 10
-17.9980253568
 20
12.3555867952
 10
-17.7238199968
 20
12.3990389088
 10
-17.44972427679999
 20
12.440514488
 10
-17.17600743999999
 20
12.4798494832
 10
-16.9029240944
 20
12.5169118544
 10
-16.63062187039999
 20
12.5516484384
  0
LINE
  5
3B6
330
38F
100
AcDbEntity
  8
0
100
AcDbLine
 10
-1.270300993600002
 20
0.0
 30
0.0
 11
1.270300993600002
 21
0.0
 31
0.0
  0
LINE
  5
3B7
330
38F
100
AcDbEntity
  8
0
100
AcDbLine
 10
4.540249156800001
 20
0.0125000000000029
 30
0.0
 11
-4.540249083199995
 21
0.0125000000000029
 31
0.0
  0
ARC
  5
3B8
330
38F
100
AcDbEntity
  8
0
100
AcDbCircle
 10
-5.041834387199912
 20
0.5125000000000029
 30
0.0
 40
0.5
100
AcDbArc
 50
186.4461102475998
 51
270.0
  0
LWPOLYLINE
  5
3B9
330
38F
100
AcDbEntity
  8
0
100
AcDbPolyline
 90
       21
 70
     0
 43
0.0
 10
-6.990829326400003
 20
0.9012857136000036
 10
-6.841847340800001
 20
0.8861714016000021
 10
-6.697272550400001
 20
0.8717236479999996
 10
-6.549547078399996
 20
0.8572499216000011
 10
-6.390585443199995
 20
0.8420461183999989
 10
-6.215564592000006
 20
0.8258066320000025
 10
-6.025070391999989
 20
0.8087797728000012
 10
-5.820968713599995
 20
0.7912849248000029
 10
-5.605594283200005
 20
0.7736272400000033
 10
-5.377741335999999
 20
0.7558685472000022
 10
-5.134756979199991
 20
0.738064276800003
 10
-4.876774419200003
 20
0.7205568736000032
 10
-4.607091627200006
 20
0.7038861312000009
 10
-4.330853135999987
 20
0.6884883008000032
 10
-4.054437499200005
 20
0.6746912848000051
 10
-3.784832347199994
 20
0.6627138288000012
 10
-3.528674767999987
 20
0.6526280080000007
 10
-3.287295948800007
 20
0.6442297200000056
 10
-3.058130480000002
 20
0.6372146783999995
 10
-2.838290132799997
 20
0.6313536432000007
 10
-2.665423363199991
 20
0.627404851200005
  0
LWPOLYLINE
  5
3BA
330
38F
100
AcDbEntity
  8
0
100
AcDbPolyline
 90
       22
 70
     0
 43
0.0
 10
-1.891248073599911
 20
0.5894714048000012
 10
-2.83832652319991
 20
0.6313545792
 10
-3.058169428799914
 20
0.6372158304000024
 10
-3.287338380799909
 20
0.6442311424000025
 10
-3.528722073599908
 20
0.6526297935999992
 10
-3.78488611999991
 20
0.6627161104000053
 10
-4.054497329599911
 20
0.6746941343999993
 10
-4.330916380799919
 20
0.6884916688000047
 10
-4.607153790399905
 20
0.7038898095999997
 10
-4.876830273599907
 20
0.7205605247999998
 10
-5.134803847999918
 20
0.7380676128000019
 10
-5.377779495999917
 20
0.7558714560000013
 10
-5.605625459199913
 20
0.773629750400005
 10
-5.820994099199907
 20
0.7912870640000023
 10
-6.025090137599917
 20
0.8087815104000029
 10
-6.215578799999917
 20
0.8258079312000035
 10
-6.390594612799915
 20
0.8420469855999996
 10
-6.549552185599907
 20
0.8572504159999994
 10
-6.69727489439991
 20
0.8717238800000046
 10
-6.841847473599912
 20
0.8861714144000032
 10
-6.990827233599915
 20
0.9012855008000002
 10
-7.129025947199906
 20
0.9154098976
  0
LWPOLYLINE
  5
3BB
330
38F
100
AcDbEntity
  8
0
100
AcDbPolyline
 90
        4
 70
     0
 43
0.0
 10
-5.657506214399916
 20
0.6899068784000022
 10
-5.704929833599919
 20
0.7267196000000027
 10
-5.820994099199907
 20
0.7912870640000023
 10
-5.753358686399906
 20
0.7532127919999994
  0
LWPOLYLINE
  5
3BC
330
38F
100
AcDbEntity
  8
0
100
AcDbPolyline
 90
        3
 70
     0
 43
0.0
 10
-5.538672311999917
 20
0.4563704720000033
 10
-5.550020286399913
 20
0.5147290224000045
 10
-5.576289110399912
 20
0.5826259152000049
  0
LINE
  5
3BD
330
38F
100
AcDbEntity
  8
0
100
AcDbLine
 10
-5.576289110399912
 20
0.5826259152000049
 30
0.0
 11
-5.657506214399916
 21
0.6899068784000022
 31
0.0
  0
LINE
  5
3BE
330
38F
100
AcDbEntity
  8
0
100
AcDbLine
 10
-8.3012469568
 20
2.164345198399992
 30
0.0
 11
-8.280859139199989
 21
2.162090988799995
 31
0.0
  0
LINE
  5
3BF
330
38F
100
AcDbEntity
  8
0
100
AcDbLine
 10
-8.319278286400006
 20
2.165393217599998
 30
0.0
 11
-8.3012469568
 21
2.164345198399992
 31
0.0
  0
LINE
  5
3C0
330
38F
100
AcDbEntity
  8
0
100
AcDbLine
 10
-7.961652737600005
 20
1.849401385599996
 30
0.0
 11
-7.958442406399996
 21
1.823292935999994
 31
0.0
  0
LINE
  5
3C1
330
38F
100
AcDbEntity
  8
0
100
AcDbLine
 10
-7.958442406399996
 20
1.823292935999994
 30
0.0
 11
-7.945211663999998
 21
1.547115238400003
 31
0.0
  0
LINE
  5
3C2
330
38F
100
AcDbEntity
  8
0
100
AcDbLine
 10
-8.301147623999909
 20
2.164337006399996
 30
0.0
 11
-8.319278286399907
 21
2.165393217599998
 31
0.0
  0
LINE
  5
3C3
330
38F
100
AcDbEntity
  8
0
100
AcDbLine
 10
-7.945118460799918
 20
1.546102622399999
 30
0.0
 11
-7.95844240639991
 21
1.823292935999994
 31
0.0
  0
LINE
  5
3C4
330
38F
100
AcDbEntity
  8
0
100
AcDbLine
 10
-7.95844240479991
 20
1.823292935999994
 30
0.0
 11
-7.961507737599916
 21
1.848480563199991
 31
0.0
  0
LWPOLYLINE
  5
3C5
330
38F
100
AcDbEntity
  8
0
100
AcDbPolyline
 90
       18
 70
     0
 43
0.0
 10
-8.280859139199989
 20
2.162090988799995
 10
-8.260461726399995
 20
2.158719726399993
 10
-8.238952695999998
 20
2.153878543999994
 10
-8.216885735999994
 20
2.147499150399994
 10
-8.194406555199989
 20
2.139448812799997
 10
-8.171689455999995
 20
2.129608982399993
 10
-8.148924350399994
 20
2.117875020799992
 10
-8.126316899200006
 20
2.104158820799995
 10
-8.104089012800002
 20
2.088392319999996
 10
-8.0824772096
 20
2.070530439999991
 10
-8.061729593599991
 20
2.050552991999992
 10
-8.042076283199989
 20
2.028433678399991
 10
-8.023734728000007
 20
2.004123089599993
 10
-8.006953582399987
 20
1.977584993599997
 10
-7.992016894399995
 20
1.948805676799992
 10
-7.979244884799996
 20
1.917802155199993
 10
-7.968993563199987
 20
1.884631551999994
 10
-7.961652766400007
 20
1.849401625599995
  0
LWPOLYLINE
  5
3C6
330
38F
100
AcDbEntity
  8
0
100
AcDbPolyline
 90
       19
 70
     0
 43
0.0
 10
-7.961507737599916
 20
1.848480563199991
 10
-7.96877588479991
 20
1.883787047999994
 10
-7.978969713599909
 20
1.917036363199997
 10
-7.991698100799908
 20
1.948118708799995
 10
-8.006603739199917
 20
1.976975460799998
 10
-8.023365102399907
 20
2.003588419199992
 10
-8.041696884799918
 20
2.027970388799992
 10
-8.061349235199912
 20
2.050156921599992
 10
-8.08210358719991
 20
2.070196923199993
 10
-8.10372875999991
 20
2.088116231999997
 10
-8.125975596799918
 20
2.103934651199992
 10
-8.148606548799918
 20
2.117697022399994
 10
-8.171398719999913
 20
2.129471329599994
 10
-8.194145513599906
 20
2.139345724799994
 10
-8.216656187199916
 20
2.147425019199992
 10
-8.238755731199915
 20
2.153828027199992
 10
-8.260297631999918
 20
2.158687790399994
 10
-8.28118519519991
 20
2.162148675199993
 10
-8.301147617599909
 20
2.164337006399996
  0
LWPOLYLINE
  5
3C7
330
38F
100
AcDbEntity
  8
0
100
AcDbPolyline
 90
       28
 70
     0
 43
0.0
 10
-7.944650135999992
 20
1.541259318400001
 10
-7.934722097599987
 20
1.476329243200005
 10
-7.915152334399991
 20
1.4034585952
 10
-7.888254144000001
 20
1.335800678400005
 10
-7.855276737599993
 20
1.273962777600004
 10
-7.817594545599988
 20
1.218469016
 10
-7.776696241599992
 20
1.169666644800003
 10
-7.734079878399995
 20
1.127617927999999
 10
-7.691245025599997
 20
1.092166510400005
 10
-7.6494405344
 20
1.062820542400004
 10
-7.609500862399997
 20
1.038818339199998
 10
-7.5719525696
 20
1.019338409600003
 10
-7.5370062864
 20
1.003560019200001
 10
-7.504550559999998
 20
0.9907050528000027
 10
-7.474190705599994
 20
0.9800771168000039
 10
-7.445445641599988
 20
0.9711236127999995
 10
-7.417851601599991
 20
0.9634310672000054
 10
-7.39100634719999
 20
0.9566985968000025
 10
-7.364555600000002
 20
0.9507040080000024
 10
-7.338197161600007
 20
0.9452843504000014
 10
-7.3115977952
 20
0.9403063056000036
 10
-7.284413659199998
 20
0.9356647311999992
 10
-7.256326129599997
 20
0.9312824848000005
 10
-7.227051057600007
 20
0.9271050207999991
 10
-7.196297380800004
 20
0.9230894368000051
 10
-7.163752441599996
 20
0.919201649600005
 10
-7.129099471999992
 20
0.9154175712000025
 10
-6.990829326400003
 20
0.9012857136000036
  0
LWPOLYLINE
  5
3C8
330
38F
100
AcDbEntity
  8
0
100
AcDbPolyline
 90
       27
 70
     0
 43
0.0
 10
-7.129025947199906
 20
0.9154098976
 10
-7.163669167999913
 20
0.9191921359999994
 10
-7.196205441599914
 20
0.9230779536
 10
-7.226951180799915
 20
0.9270913904000011
 10
-7.256218636799914
 20
0.9312664512000026
 10
-7.284298667199905
 20
0.9356459712000031
 10
-7.311474870399919
 20
0.9402843471999986
 10
-7.338065385599918
 20
0.9452585264000035
 10
-7.364413556799917
 20
0.9506733856000053
 10
-7.390852342399909
 20
0.9566619376000033
 10
-7.417683451199906
 20
0.9633866879999999
 10
-7.445260452799914
 20
0.9710691615999991
 10
-7.473984703999917
 20
0.9800092672000033
 10
-7.504319081599916
 20
0.9906191152000047
 10
-7.536744220799917
 20
1.0034495648
 10
-7.571655838399905
 20
1.0191953056
 10
-7.609167859199914
 20
1.038633078400003
 10
-7.649073084799908
 20
1.062582771199998
 10
-7.690847697599906
 20
1.091864841599999
 10
-7.733661027199914
 20
1.127240992000004
 10
-7.776268563199906
 20
1.169204708800002
 10
-7.81717315519991
 20
1.217913540800005
 10
-7.854879948799919
 20
1.273308382400003
 10
-7.887902812799907
 20
1.335046473600002
 10
-7.914868379199916
 20
1.402607902399999
 10
-7.934527894399906
 20
1.475390443200005
 10
-7.94465068639991
 20
1.5412647968
  0
LINE
  5
3C9
330
38F
100
AcDbEntity
  8
0
100
AcDbLine
 10
-1.891248073599911
 20
0.5894714048000012
 30
0.0
 11
-1.536611627199917
 21
0.1098349568000003
 31
0.0
  0
LWPOLYLINE
  5
3CA
330
38F
100
AcDbEntity
  8
0
100
AcDbPolyline
 90
        7
 70
     0
 43
0.0
 10
-5.013407659199913
 20
0.3463151568000029
 10
-5.040865534399912
 20
0.4065936176000023
 10
-5.076816492799906
 20
0.4590105488000021
 10
-5.119261411199914
 20
0.5029385648000045
 10
-5.165301059199919
 20
0.537442334400005
 10
-5.210109118399913
 20
0.5617042671999997
 10
-5.230718382399913
 20
0.5697097984000053
  0
LINE
  5
3CB
330
38F
100
AcDbEntity
  8
0
100
AcDbLine
 10
-5.040249051199907
 20
0.0125000000000029
 30
0.0
 11
-4.541834387199912
 21
0.0125000000000029
 31
0.0
  0
ARC
  5
3CC
330
38F
100
AcDbEntity
  8
0
100
AcDbCircle
 10
-4.541834387199912
 20
0.5125000000000029
 30
0.0
 40
0.5
100
AcDbArc
 50
199.4154119011001
 51
270.0
  0
ARC
  5
3CD
330
38F
100
AcDbEntity
  8
0
100
AcDbCircle
 10
-1.271446583999917
 20
0.375
 30
0.0
 40
0.375
100
AcDbArc
 50
224.9999999999997
 51
270.0
  0
LWPOLYLINE
  5
3CE
330
38F
100
AcDbEntity
  8
0
100
AcDbPolyline
 90
       22
 70
     0
 43
0.0
 10
1.8912481248
 20
0.5894714048000012
 10
2.838326574399999
 20
0.6313545792
 10
3.058169480000003
 20
0.6372158304000024
 10
3.287338431999998
 20
0.6442311424000025
 10
3.528722124799998
 20
0.6526297935999992
 10
3.7848861712
 20
0.6627161104000053
 10
4.0544973808
 20
0.6746941343999993
 10
4.330916432000009
 20
0.6884916688000047
 10
4.607153841599995
 20
0.7038898095999997
 10
4.876830324799996
 20
0.7205605247999998
 10
5.134803899200008
 20
0.7380676128000019
 10
5.377779547200006
 20
0.7558714560000013
 10
5.605625510400003
 20
0.773629750400005
 10
5.820994150399997
 20
0.7912870640000023
 10
6.025090188800007
 20
0.8087815104000029
 10
6.215578851200007
 20
0.8258079312000035
 10
6.390594664000005
 20
0.8420469855999996
 10
6.549552236799996
 20
0.8572504159999994
 10
6.6972749456
 20
0.8717238800000046
 10
6.841847524800002
 20
0.8861714144000032
 10
6.990827284800005
 20
0.9012855008000002
 10
7.129025998399995
 20
0.9154098976
  0
ARC
  5
3CF
330
38F
100
AcDbEntity
  8
0
100
AcDbCircle
 10
5.041834438400002
 20
0.5125000000000029
 30
0.0
 40
0.5
100
AcDbArc
 50
270.0
 51
353.5538897524001
  0
LWPOLYLINE
  5
3D0
330
38F
100
AcDbEntity
  8
0
100
AcDbPolyline
 90
        7
 70
     0
 43
0.0
 10
5.013407710400002
 20
0.3463151568000029
 10
5.040865585600002
 20
0.4065936176000023
 10
5.076816543999996
 20
0.4590105488000021
 10
5.119261462400004
 20
0.5029385648000045
 10
5.165301110400008
 20
0.537442334400005
 10
5.210109169600002
 20
0.5617042671999997
 10
5.230718433600003
 20
0.5697097984000053
  0
LINE
  5
3D1
330
38F
100
AcDbEntity
  8
0
100
AcDbLine
 10
1.8912481248
 20
0.5894714048000012
 30
0.0
 11
1.536611678400007
 21
0.1098349568000003
 31
0.0
  0
ARC
  5
3D2
330
38F
100
AcDbEntity
  8
0
100
AcDbCircle
 10
1.271446635200007
 20
0.375
 30
0.0
 40
0.375
100
AcDbArc
 50
270.0
 51
315.0000000000003
  0
ARC
  5
3D3
330
38F
100
AcDbEntity
  8
0
100
AcDbCircle
 10
4.541834438400002
 20
0.5125000000000029
 30
0.0
 40
0.5
100
AcDbArc
 50
270.0
 51
340.5845880988998
  0
LINE
  5
3D4
330
38F
100
AcDbEntity
  8
0
100
AcDbLine
 10
5.040249102399997
 20
0.0125000000000029
 30
0.0
 11
4.541834438400002
 21
0.0125000000000029
 31
0.0
  0
LWPOLYLINE
  5
3D5
330
38F
100
AcDbEntity
  8
0
100
AcDbPolyline
 90
        4
 70
     0
 43
0.0
 10
5.657506265600005
 20
0.6899068784000022
 10
5.704929884800009
 20
0.7267196000000027
 10
5.820994150399997
 20
0.7912870640000023
 10
5.753358737599995
 20
0.7532127919999994
  0
LWPOLYLINE
  5
3D6
330
38F
100
AcDbEntity
  8
0
100
AcDbPolyline
 90
        3
 70
     0
 43
0.0
 10
5.538672363200006
 20
0.4563704720000033
 10
5.550020337600003
 20
0.5147290224000045
 10
5.576289161600001
 20
0.5826259152000049
  0
LINE
  5
3D7
330
38F
100
AcDbEntity
  8
0
100
AcDbLine
 10
5.576289161600001
 20
0.5826259152000049
 30
0.0
 11
5.657506265600005
 21
0.6899068784000022
 31
0.0
  0
LINE
  5
3D8
330
38F
100
AcDbEntity
  8
0
100
AcDbLine
 10
7.958442456
 20
1.823292935999994
 30
0.0
 11
7.961507788800005
 21
1.848480563199991
 31
0.0
  0
LINE
  5
3D9
330
38F
100
AcDbEntity
  8
0
100
AcDbLine
 10
7.945118512000007
 20
1.546102622399999
 30
0.0
 11
7.9584424576
 21
1.823292935999994
 31
0.0
  0
LINE
  5
3DA
330
38F
100
AcDbEntity
  8
0
100
AcDbLine
 10
8.301147675199999
 20
2.164337006399996
 30
0.0
 11
8.319278337599996
 21
2.165393217599998
 31
0.0
  0
LWPOLYLINE
  5
3DB
330
38F
100
AcDbEntity
  8
0
100
AcDbPolyline
 90
       19
 70
     0
 43
0.0
 10
7.961507788800005
 20
1.848480563199991
 10
7.968775936
 20
1.883787047999994
 10
7.978969764799998
 20
1.917036363199997
 10
7.991698151999997
 20
1.948118708799995
 10
8.006603790400006
 20
1.976975460799998
 10
8.023365153599996
 20
2.003588419199992
 10
8.041696936000008
 20
2.027970388799992
 10
8.061349286400002
 20
2.050156921599992
 10
8.082103638399999
 20
2.070196923199993
 10
8.103728811199999
 20
2.088116231999997
 10
8.125975648000007
 20
2.103934651199992
 10
8.148606600000007
 20
2.117697022399994
 10
8.171398771200003
 20
2.129471329599994
 10
8.194145564799995
 20
2.139345724799994
 10
8.216656238400005
 20
2.147425019199992
 10
8.238755782400005
 20
2.153828027199992
 10
8.260297683200008
 20
2.158687790399994
 10
8.281185246399999
 20
2.162148675199993
 10
8.301147668799998
 20
2.164337006399996
  0
LWPOLYLINE
  5
3DC
330
38F
100
AcDbEntity
  8
0
100
AcDbPolyline
 90
       27
 70
     0
 43
0.0
 10
7.129025998399995
 20
0.9154098976
 10
7.163669219200002
 20
0.9191921359999994
 10
7.196205492800004
 20
0.9230779536
 10
7.226951232000004
 20
0.9270913904000011
 10
7.256218688000004
 20
0.9312664512000026
 10
7.284298718399995
 20
0.9356459712000031
 10
7.311474921600009
 20
0.9402843471999986
 10
7.338065436800008
 20
0.9452585264000035
 10
7.364413608000006
 20
0.9506733856000053
 10
7.390852393599999
 20
0.9566619376000033
 10
7.417683502399995
 20
0.9633866879999999
 10
7.445260504000003
 20
0.9710691615999991
 10
7.473984755200007
 20
0.9800092672000033
 10
7.504319132800006
 20
0.9906191152000047
 10
7.536744272000007
 20
1.0034495648
 10
7.571655889599995
 20
1.0191953056
 10
7.609167910400003
 20
1.038633078400003
 10
7.649073135999998
 20
1.062582771199998
 10
7.690847748799995
 20
1.091864841599999
 10
7.733661078400004
 20
1.127240992000004
 10
7.776268614399995
 20
1.169204708800002
 10
7.817173206399999
 20
1.217913540800005
 10
7.854880000000008
 20
1.273308382400003
 10
7.887902863999997
 20
1.335046473600002
 10
7.914868430400005
 20
1.402607902399999
 10
7.934527945599995
 20
1.475390443200005
 10
7.944650737599999
 20
1.5412647968
  0
LWPOLYLINE
  5
3DD
330
38F
100
AcDbEntity
  8
0
100
AcDbPolyline
 90
       24
 70
     0
 43
0.0
 10
0.0000000256000021
 20
13.8972865744
 10
0.353541320000005
 20
13.8965347328
 10
0.7008547247999957
 20
13.894343392
 10
1.041639555200006
 20
13.890808832
 10
1.375795604800003
 20
13.8860205584
 10
1.704024576000009
 20
13.8800410112
 10
2.027228641600004
 20
13.8729258576
 10
2.346253660800002
 20
13.8647256016
 10
2.661720208000005
 20
13.8554700816
 10
2.974192532800003
 20
13.8451839712
 10
3.438616526399997
 20
13.8278551536
 10
3.900049646400006
 20
13.808218672
 10
4.360562742400006
 20
13.7862437056
 10
4.820603841600004
 20
13.7619535584
 10
5.280089779199997
 20
13.7353968208
 10
5.738435430400002
 20
13.7066690896
 10
6.195064783999995
 20
13.6758735424
 10
6.649940216000004
 20
13.6430966576
 10
7.103168225600001
 20
13.608421448
 10
7.554893401599997
 20
13.5719337744
 10
8.4546367648
 20
13.4938664
 10
9.351298792000008
 20
13.4095973008
 10
10.24727186079999
 20
13.31988292
 10
11.14500002559999
 20
13.225634712
  0
LWPOLYLINE
  5
3DE
330
38F
100
AcDbEntity
  8
0
100
AcDbPolyline
 90
       24
 70
     0
 43
0.0
 10
-11.14499997439999
 20
13.225634712
 10
-10.24368093759999
 20
13.3202520288
 10
-9.341340118399998
 20
13.4105654192
 10
-8.438502209600002
 20
13.4953261648
 10
-7.53574859359999
 20
13.573518176
 10
-7.084332524799989
 20
13.6099024352
 10
-6.632271247999995
 20
13.6444081344
 10
-6.17891003199999
 20
13.6769998096
 10
-5.7237634592
 20
13.7076228704
 10
-5.266609720000005
 20
13.7362077008
 10
-4.808112103999988
 20
13.7626437008
 10
-4.349008367999999
 20
13.7868238656
 10
-3.8894490176
 20
13.8086965632
 10
-3.429024988799994
 20
13.8282378304
 10
-2.965676200000004
 20
13.8454790272
 10
-2.653959880000002
 20
13.8557113648
 10
-2.3392852992
 20
13.864917168
 10
-2.021093136000004
 20
13.8730720672
 10
-1.698767927999995
 20
13.8801466016
 10
-1.371469668800003
 20
13.886090928
 10
-1.038302219199991
 20
13.8908501088
 10
-0.6985685727999993
 20
13.8943625088
 10
-0.3523682671999921
 20
13.896539704
 10
0.0000000256000021
 20
13.8972865744
  0
LWPOLYLINE
  5
3DF
330
38F
100
AcDbEntity
  8
0
100
AcDbPolyline
 90
       15
 70
     0
 43
0.0
 10
26.50240116160002
 20
5.956285355199995
 10
26.51605123520001
 20
6.232218980799991
 10
26.53529011519999
 20
6.519148838399992
 10
26.56084170719999
 20
6.816031353599996
 10
26.59225976
 20
7.123467799999993
 10
26.62916531840001
 20
7.441765772799996
 10
26.67142442879999
 20
7.658851569600003
 10
26.71916704159999
 20
7.875979937600007
 10
26.7725145536
 20
8.231049670400004
 10
26.83146079199998
 20
8.598331443200002
 10
26.89607854079999
 20
8.977347379200004
 10
26.96657710239999
 20
9.368059353600003
 10
27.04412122880002
 20
9.774885360000006
 10
27.13093326880001
 20
10.2053664352
 10
27.2297292832
 20
10.6660561328
  0
LWPOLYLINE
  5
3E0
330
38F
100
AcDbEntity
  8
0
100
AcDbPolyline
 90
       18
 70
     0
 43
0.0
 10
27.28884036640001
 20
10.9276508704
 10
27.26725464160002
 20
10.8333079776
 10
27.15254672160002
 20
10.3087338384
 10
27.03463523519998
 20
9.726297952000003
 10
26.9174604784
 20
9.098159180800003
 10
26.81200807519998
 20
8.479639516800006
 10
26.72693647680002
 20
7.929282571200005
 10
26.65892608
 20
7.564430019200003
 10
26.6053743856
 20
7.240713596799992
 10
26.56432001439999
 20
6.852455108799993
 10
26.53438976639999
 20
6.507402532799993
 10
26.5138616176
 20
6.192806534399991
 10
26.4998102576
 20
5.896671659199995
 10
26.4878872256
 20
5.627511443199992
 10
26.4735640944
 20
5.383396307199994
 10
26.4533093344
 20
5.160592667199992
 10
26.42550628480002
 20
4.960122703999992
 10
26.39897400959999
 20
4.821082334399996
  0
LWPOLYLINE
  5
3E1
330
38F
100
AcDbEntity
  8
0
100
AcDbPolyline
 90
       27
 70
     0
 43
0.0
 10
26.39897362559999
 20
4.821080547199997
 10
26.38952829440002
 20
4.778649439999995
 10
26.34476878559998
 20
4.607300031999997
 10
26.28925550399999
 20
4.436706259199993
 10
26.2234929232
 20
4.269236177599992
 10
26.14815262079999
 20
4.106480183999991
 10
26.06385338880001
 20
3.949508846399993
 10
25.97103702559998
 20
3.798960990399997
 10
25.87010857759999
 20
3.655261404799993
 10
25.76188992
 20
3.519262876799992
 10
25.6476488496
 20
3.392186887999997
 10
25.5284894784
 20
3.274811172799992
 10
25.40512336640002
 20
3.167333846399998
 10
25.27766530719999
 20
3.069398686399992
 10
25.1456194816
 20
2.980399820799995
 10
25.00845232479999
 20
2.899873020799994
 10
24.86570716000001
 20
2.827580734399994
 10
24.71670449120002
 20
2.763353689599995
 10
24.56093540320002
 20
2.707269582399995
 10
24.3976319808
 20
2.659485163199995
 10
24.225702744
 20
2.620257703999996
 10
24.04656248480002
 20
2.590395793599995
 10
23.86232129920001
 20
2.570701023999994
 10
23.68781596160001
 20
2.560775814399995
 10
23.52656092799999
 20
2.555678174399993
 10
23.3825975136
 20
2.551905375999993
 10
23.26101960799998
 20
2.548189863999994
  0
LINE
  5
3E2
330
38F
100
AcDbEntity
  8
0
100
AcDbLine
 10
19.54759388
 20
2.114344377599998
 30
0.0
 11
19.09237459039998
 21
0.2904428575999986
 31
0.0
  0
LINE
  5
3E3
330
38F
100
AcDbEntity
  8
0
100
AcDbLine
 10
14.47416497759999
 20
2.202698695999991
 30
0.0
 11
20.12413507359998
 21
2.399999999999998
 31
0.0
  0
LWPOLYLINE
  5
3E4
330
38F
100
AcDbEntity
  8
0
100
AcDbPolyline
 90
       11
 70
     0
 43
0.0
 10
14.5566462192
 20
2.253672675199993
 10
15.1505840944
 20
2.272230163199992
 10
15.74081859359999
 20
2.290989721599991
 10
16.30324609599999
 20
2.309176777599994
 10
16.84425768640001
 20
2.326965908799998
 10
17.36741337439998
 20
2.344438868799997
 10
17.87301839039999
 20
2.361564129599997
 10
18.36147294559999
 20
2.378314148799994
 10
18.8332812736
 20
2.394659742399994
 10
19.28073443519998
 20
2.410278545599993
 10
19.69501568479999
 20
2.424808115199994
  0
ARC
  5
3E5
330
38F
100
AcDbEntity
  8
0
100
AcDbCircle
 10
19.909801328
 20
2.017286721599994
 30
0.0
 40
0.3749929488
100
AcDbArc
 50
92.0000000000004
 51
164.9993412467
  0
LINE
  5
3E6
330
38F
100
AcDbEntity
  8
0
100
AcDbLine
 10
15.0991092256
 20
1.933701716799994
 30
0.0
 11
15.5059254608
 21
0.2904428575999986
 31
0.0
  0
LINE
  5
3E7
330
38F
100
AcDbEntity
  8
0
100
AcDbLine
 10
18.73015240479999
 20
0.0125000000000029
 30
0.0
 11
15.8681476464
 21
0.0125000000000029
 31
0.0
  0
ARC
  5
3E8
330
38F
100
AcDbEntity
  8
0
100
AcDbCircle
 10
15.8681476464
 20
0.3875000000000028
 30
0.0
 40
0.375
100
AcDbArc
 50
194.9999999999999
 51
270.0
  0
ARC
  5
3E9
330
38F
100
AcDbEntity
  8
0
100
AcDbCircle
 10
18.73015240479999
 20
0.3875000000000028
 30
0.0
 40
0.375
100
AcDbArc
 50
270.0
 51
345.0
  0
ARC
  5
3EA
330
38F
100
AcDbEntity
  8
0
100
AcDbCircle
 10
14.7368929728
 20
1.836644780799993
 30
0.0
 40
0.3749971088
100
AcDbArc
 50
15.00020399860014
 51
92.00090684349973
  0
LINE
  5
3EB
330
38F
100
AcDbEntity
  8
0
100
AcDbLine
 10
14.47416497759999
 20
2.202698695999991
 30
0.0
 11
14.47416497759999
 21
2.251122540799997
 31
0.0
  0
LINE
  5
3EC
330
38F
100
AcDbEntity
  8
0
100
AcDbLine
 10
22.58903534399998
 20
2.525618230399992
 30
0.0
 11
22.65222043199999
 21
2.527796967999996
 31
0.0
  0
LINE
  5
3ED
330
38F
100
AcDbEntity
  8
0
100
AcDbLine
 10
22.15460257439998
 20
2.510588164799997
 30
0.0
 11
23.26101960799998
 21
2.548189863999994
 31
0.0
  0
LWPOLYLINE
  5
3EE
330
38F
100
AcDbEntity
  8
0
100
AcDbPolyline
 90
        5
 70
     0
 43
0.0
 10
20.7527784784
 20
2.461913467199991
 10
21.3252037408
 20
2.481865046399995
 10
21.56248768960002
 20
2.490083289599994
 10
21.77125572799998
 20
2.497308318399994
 10
21.95976871839998
 20
2.503837289599992
  0
LINE
  5
3EF
330
38F
100
AcDbEntity
  8
0
100
AcDbLine
 10
21.95976871839998
 20
2.503837289599992
 30
0.0
 11
22.26703277119999
 21
2.514483700799992
 31
0.0
  0
LINE
  5
3F0
330
38F
100
AcDbEntity
  8
0
100
AcDbLine
 10
22.26703277119999
 20
2.514483700799992
 30
0.0
 11
22.35470879200001
 21
2.517519532799994
 31
0.0
  0
LINE
  5
3F1
330
38F
100
AcDbEntity
  8
0
100
AcDbLine
 10
22.35470879200001
 20
2.517519532799994
 30
0.0
 11
22.4347511456
 21
2.520289310399995
 31
0.0
  0
LINE
  5
3F2
330
38F
100
AcDbEntity
  8
0
100
AcDbLine
 10
22.4347511456
 20
2.520289310399995
 30
0.0
 11
22.58903534399998
 21
2.525618230399992
 31
0.0
  0
LINE
  5
3F3
330
38F
100
AcDbEntity
  8
0
100
AcDbLine
 10
19.69501568479999
 20
2.424808115199994
 30
0.0
 11
20.124840424
 21
2.439922212799991
 31
0.0
  0
LINE
  5
3F4
330
38F
100
AcDbEntity
  8
0
100
AcDbLine
 10
20.124840424
 20
2.439922212799991
 30
0.0
 11
20.7527784784
 21
2.461913467199991
 31
0.0
  0
LINE
  5
3F5
330
38F
100
AcDbEntity
  8
0
100
AcDbLine
 10
20.12413507359998
 20
2.439897433599995
 30
0.0
 11
20.12413507359998
 21
2.399999999999998
 31
0.0
  0
ARC
  5
3F6
330
38F
100
AcDbEntity
  8
0
100
AcDbCircle
 10
19.90981606559999
 20
2.017287236799994
 30
0.0
 40
0.4375
100
AcDbArc
 50
122.6221793589998
 51
124.8990953198996
  0
LINE
  5
3F7
330
38F
100
AcDbEntity
  8
0
100
AcDbLine
 10
22.65611606559998
 20
2.527931295999998
 30
0.0
 11
22.66542460320001
 21
2.528250751999998
 31
0.0
  0
LINE
  5
3F8
330
38F
100
AcDbEntity
  8
0
100
AcDbLine
 10
22.66542460320001
 20
2.528250751999998
 30
0.0
 11
22.76762113759998
 21
2.531752751999995
 31
0.0
  0
LWPOLYLINE
  5
3F9
330
38F
100
AcDbEntity
  8
0
100
AcDbPolyline
 90
        3
 70
     0
 43
0.0
 10
22.76762113759998
 20
2.531752751999995
 10
23.09758826399998
 20
2.542959105599997
 10
23.10786293439999
 20
2.543307295999994
  0
LINE
  5
3FA
330
38F
100
AcDbEntity
  8
0
100
AcDbLine
 10
26.39897400959999
 20
4.821082334399996
 30
0.0
 11
26.4234288864
 21
4.947865011199994
 31
0.0
  0
LWPOLYLINE
  5
3FB
330
38F
100
AcDbEntity
  8
0
100
AcDbPolyline
 90
        5
 70
     0
 43
0.0
 10
26.4234288864
 20
4.947865011199994
 10
26.45586839839999
 20
5.183810886399996
 10
26.47687247360001
 20
5.431381239999993
 10
26.4908052032
 20
5.689463959999997
 10
26.50240116160002
 20
5.956285355199995
  0
LWPOLYLINE
  5
3FC
330
38F
100
AcDbEntity
  8
0
100
AcDbPolyline
 90
       49
 70
     0
 43
0.0
 10
21.80536239840002
 20
11.7055575648
 10
21.91019700639999
 20
11.6929511632
 10
22.0138651008
 20
11.6803522912
 10
22.1163541632
 20
11.6677298224
 10
22.21763160960001
 20
11.6550546144
 10
22.31758457119998
 20
11.642305472
 10
22.41608011199998
 20
11.6294631904
 10
22.51299962560001
 20
11.6165073344
 10
22.6082818576
 20
11.6034125632
 10
22.70187988160002
 20
11.5901523088
 10
22.7937379424
 20
11.5766986752
 10
22.88376495360002
 20
11.5630184656
 10
22.9718609968
 20
11.5490771616
 10
23.05793825280001
 20
11.5348329728
 10
23.1419573072
 20
11.520215048
 10
23.22389084480001
 20
11.5051452656
 10
23.30370431839999
 20
11.4895500672
 10
23.38133422239998
 20
11.4733741312
 10
23.45670981759998
 20
11.4565666976
 10
23.52977233119999
 20
11.43907752
 10
23.60051083039998
 20
11.420858424
 10
23.66892635040001
 20
11.401861752
 10
23.7350268336
 20
11.3820400672
 10
23.79884785920002
 20
11.3613468096
 10
23.86043191040001
 20
11.33973564
 10
23.91982149600001
 20
11.3171631152
 10
23.97705920639999
 20
11.2935973664
 10
24.0321876496
 20
11.2690094128
 10
24.0852518336
 20
11.2433696224
 10
24.1363063712
 20
11.21664572
 10
24.185408272
 20
11.1888047712
 10
24.23261056639999
 20
11.1598158672
 10
24.27795037120002
 20
11.1296561696
 10
24.3214608208
 20
11.0983048672
 10
24.36317597440002
 20
11.0657402672
 10
24.4031335744
 20
11.0319371824
 10
24.44137228320001
 20
10.9968695472
 10
24.47792470560001
 20
10.9605186224
 10
24.512799224
 20
10.9228949648
 10
24.5459981616
 20
10.884016456
 10
24.57752937760001
 20
10.8438950736
 10
24.60742287040001
 20
10.8025191808
 10
24.6357141728
 20
10.7598712336
 10
24.6624360816
 20
10.7159396464
 10
24.6876104512
 20
10.6707366496
 10
24.71125639840001
 20
10.6242804304
 10
24.73339733759998
 20
10.5765825408
 10
24.7540738656
 20
10.5276279808
 10
24.77333087519999
 20
10.47739512
  0
LWPOLYLINE
  5
3FD
330
38F
100
AcDbEntity
  8
0
100
AcDbPolyline
 90
       27
 70
     0
 43
0.0
 10
16.63062191999999
 20
12.5516484384
 10
16.90292414559998
 20
12.5169118544
 10
17.17600749119999
 20
12.4798494832
 10
17.44972432800001
 20
12.440514488
 10
17.723820048
 20
12.3990389088
 10
17.998025408
 20
12.3555867952
 10
18.27211959199998
 20
12.3103713904
 10
18.54589113280001
 20
12.26363053920001
 10
18.8191175056
 20
12.2156513328
 10
19.09148392800001
 20
12.1667580048
 10
19.3623176512
 20
12.1173740976
 10
19.6308669232
 20
12.0679544368
 10
19.89642197600001
 20
12.018979648
 10
20.0714320336
 20
11.9868194576
 10
20.24448612319999
 20
11.9552296992
 10
20.41526983360002
 20
11.924366608
 10
20.5834810672
 20
11.8943871216
 10
20.7488669984
 20
11.8654510096
 10
20.9111871136
 20
11.8377187456
 10
21.030762104
 20
11.8178074432
 10
21.14832498080001
 20
11.798739304
 10
21.26372343200002
 20
11.780590056
 10
21.37680515360001
 20
11.763435432
 10
21.48745602239999
 20
11.7473399104
 10
21.59571465119999
 20
11.732322952
 10
21.70165784320001
 20
11.7183927664
 10
21.80536239840002
 20
11.7055575648
  0
LWPOLYLINE
  5
3FE
330
38F
100
AcDbEntity
  8
0
100
AcDbPolyline
 90
       13
 70
     0
 43
0.0
 10
28.45989580480001
 20
14.8989220192
 10
28.39074187040002
 20
14.6752426192
 10
28.30735645760002
 20
14.4355778624
 10
28.21395652319999
 20
14.1782823744
 10
28.1145394912
 20
13.8994696096
 10
28.01177537119999
 20
13.5934517488
 10
27.906410304
 20
13.2547594128
 10
27.7947629712
 20
12.872465584
 10
27.68668837439999
 20
12.4852525488
 10
27.5856194928
 20
12.112530688
 10
27.48514140160001
 20
11.730377208
 10
27.37827185279998
 20
11.3046707328
 10
27.28884070080001
 20
10.9276523264
  0
LINE
  5
3FF
330
38F
100
AcDbEntity
  8
0
100
AcDbLine
 10
27.2297292832
 20
10.6660561328
 30
0.0
 11
27.28884036640001
 21
10.9276508704
 31
0.0
  0
LWPOLYLINE
  5
400
330
38F
100
AcDbEntity
  8
0
100
AcDbPolyline
 90
        8
 70
     0
 43
0.0
 10
28.45989580480001
 20
14.8989220192
 10
28.50746004159999
 20
15.0831326656
 10
28.5439668096
 20
15.2591884736
 10
28.56665745599999
 20
15.4070200544
 10
28.5823427824
 20
15.5420180224
 10
28.59562967839998
 20
15.67110213120001
 10
28.61210930400001
 20
15.8128257808
 10
28.632721544
 20
15.9021093632
  0
LINE
  5
401
330
38F
100
AcDbEntity
  8
0
100
AcDbLine
 10
-35.99999378720001
 20
20.1375
 30
0.0
 11
35.9999938384001
 21
20.1375
 31
0.0
  0
LINE
  5
402
330
38F
100
AcDbEntity
  8
0
100
AcDbLine
 10
-35.8886403134578
 20
22.1375
 30
0.0
 11
35.88864036465777
 21
22.1375
 31
0.0
  0
LWPOLYLINE
  5
403
330
38F
100
AcDbEntity
  8
0
100
AcDbPolyline
 90
        4
 70
     0
 43
0.0
 10
-35.8886403134578
 20
22.1375
 10
-35.943987448
 20
21.53557348
 10
-35.9856993024
 20
20.891347944
 10
-35.99999378720001
 20
20.1375
  0
LINE
  5
404
330
38F
100
AcDbEntity
  8
CENTER
 48
4.0
100
AcDbLine
 10
3.577592627466813
 20
18.5193768512
 30
0.0
 11
-3.577592576266724
 21
18.5193768512
 31
0.0
  0
LWPOLYLINE
  5
405
330
38F
100
AcDbEntity
  8
0
  6
HIDDEN
100
AcDbPolyline
 90
       44
 70
     0
 43
0.0
 10
-7.059239604799998
 20
17.9448479904
 10
-6.980361883199989
 20
17.8961318368
 10
-6.899268763199998
 20
17.8543568528
 10
-6.816200747199999
 20
17.8188419504
 10
-6.731398347199998
 20
17.788906032
 10
-6.645102067199999
 20
17.763868008
 10
-6.525375009599997
 20
17.7363723856
 10
-6.4039253344
 20
17.7149976224
 10
-6.281364068799987
 20
17.6980133536
 10
-6.158302236799997
 20
17.6836892128
 10
-5.902448108799987
 20
17.657820224
 10
-5.646747620799999
 20
17.6380407584
 10
-5.3908766208
 20
17.6264186432
 10
-5.129576295999996
 20
17.6239620496
 10
-4.867970961599993
 20
17.6274370448
 10
-4.606269835199995
 20
17.6321457008
 10
-4.2625520176
 20
17.6345429552
 10
-3.918953951999995
 20
17.6336472976
 10
-3.575399604799997
 20
17.6321457008
 10
-2.813768814399992
 20
17.634187568
 10
-2.052047496
 20
17.640117976
 10
-1.290303928
 20
17.6435998144
 10
-0.6459983919999957
 20
17.641404536
 10
-0.0017161407999993
 20
17.6378727568
 10
0.8120809744000041
 20
17.6371412496
 10
1.625872774400008
 20
17.6398189664
 10
2.439675702399995
 20
17.6435505456
 10
3.253506203200004
 20
17.6459806224
 10
4.067380718400002
 20
17.6447538336
 10
4.881315692800001
 20
17.637514816
 10
5.155780235199998
 20
17.6339578864
 10
5.430214660800004
 20
17.6332782304
 10
5.704580112000002
 20
17.6393045216
 10
5.884306132800006
 20
17.6486675264
 10
6.063711427200004
 20
17.663254344
 10
6.242521588800002
 20
17.683763304
 10
6.420462217600004
 20
17.7108927328
 10
6.524732236800005
 20
17.7304548224
 10
6.628068027200001
 20
17.7538456592
 10
6.716102601599999
 20
17.778102624
 10
6.802695732800003
 20
17.8069986256
 10
6.887502110400006
 20
17.841361224
 10
6.970176417600001
 20
17.8820179776
 10
7.050373344000007
 20
17.9297964464
  0
LWPOLYLINE
  5
406
330
38F
100
AcDbEntity
  8
0
  6
HIDDEN
100
AcDbPolyline
 90
       40
 70
     0
 43
0.0
 10
-10.4784027088
 20
16.7160570448
 10
-10.25566624159999
 20
16.6369023728
 10
-10.03041780319999
 20
16.56899376
 10
-9.8029899008
 20
16.511121024
 10
-9.573715036799995
 20
16.4620739856
 10
-9.342925718399996
 20
16.4206424624
 10
-9.082139244799989
 20
16.3816617552
 10
-8.820331782400003
 20
16.3490542512
 10
-8.344121521600001
 20
16.3023628128
 10
-7.866676644799994
 20
16.2712506992
 10
-7.388567572799999
 20
16.2559895776
 10
-6.9625950896
 20
16.2552421744
 10
-6.536667868799995
 20
16.2631483984
 10
-5.8621847072
 20
16.2850672784
 10
-5.187921847999987
 20
16.3126488736
 10
-4.513685713599997
 20
16.3402175824
 10
-3.482472991999998
 20
16.3730608016
 10
-2.450940286399998
 20
16.3940529088
 10
-1.419157728000001
 20
16.40464272
 10
-0.3871954479999999
 20
16.4062790512
 10
0.6448764208000029
 20
16.40041072
 10
1.676987750400002
 20
16.3884865392
 10
2.709068409600007
 20
16.371955328
 10
3.741048265599999
 20
16.3522658992
 10
4.772857188800003
 20
16.3308670704
 10
5.346122155200006
 20
16.3168849984
 10
5.936726118400002
 20
16.2944400192
 10
6.5273617072
 20
16.2705122544
 10
6.867388531200006
 20
16.260299392
 10
7.207449707199998
 20
16.2561946128
 10
7.539227987200007
 20
16.260471512
 10
7.870918449599997
 20
16.2726984752
 10
8.202525832000006
 20
16.2919887168
 10
8.548292548800006
 20
16.3192287232
 10
8.893167830400003
 20
16.3554433808
 10
9.2363455232
 20
16.4028836336
 10
9.577019472000003
 20
16.4638004224
 10
9.815309604800006
 20
16.5160796112
 10
10.05167116639999
 20
16.5769687808
 10
10.28582147839999
 20
16.64725723360001
  0
LWPOLYLINE
  5
407
330
38F
100
AcDbEntity
  8
0
100
AcDbPolyline
 90
       19
 70
     0
 43
0.0
 10
0.0000000256000021
 20
19.6851054112
 10
0.1056521648000057
 20
19.680417992
 10
0.2106996448000018
 20
19.6663527568
 10
0.3137723664000021
 20
19.6430978256
 10
0.4137061136
 20
19.6110624128
 10
0.5091011055999957
 20
19.5709806512
 10
0.5982905376000076
 20
19.5241411872
 10
0.6803950112000053
 20
19.4718802912
 10
0.7552310000000091
 20
19.4153019728
 10
0.8233013680000027
 20
19.3549721536
 10
0.885165287999996
 20
19.2911370496
 10
0.9414766784000079
 20
19.223605072
 10
0.9925721823999964
 20
19.1521440816
 10
1.038836304
 20
19.0759713872
 10
1.080274155200001
 20
18.9942629184
 10
1.116517395200006
 20
18.9061143072
 10
1.146620952000006
 20
18.8113076416
 10
1.169222054399995
 20
18.71094773280001
 10
1.183119808
 20
18.6074042768
  0
LWPOLYLINE
  5
408
330
38F
100
AcDbEntity
  8
0
100
AcDbPolyline
 90
       20
 70
     0
 43
0.0
 10
1.187791697600005
 20
18.5022252512
 10
1.183454847999996
 20
18.4014941904
 10
1.170395920000004
 20
18.3007393216
 10
1.148440865600008
 20
18.2004564544
 10
1.117560948800004
 20
18.1015102752
 10
1.077926203200007
 20
18.0050787296
 10
1.031090363200007
 20
17.91454488320001
 10
0.9792875408000014
 20
17.8322323584
 10
0.9244492544000024
 20
17.7586912688
 10
0.8673099744000012
 20
17.6929676288
 10
0.8066671408000019
 20
17.63271588
 10
0.7407767328000006
 20
17.57617777120001
 10
0.6681590847999957
 20
17.5227533712
 10
0.5878097567999987
 20
17.4727961504
 10
0.4997482640000044
 20
17.4275497472
 10
0.4053348336000085
 20
17.3887418752
 10
0.3069556415999983
 20
17.3579068288
 10
0.2059988672000088
 20
17.335646256
 10
0.1033542256000004
 20
17.3222061136
 10
0.0000000256000021
 20
17.3177191968
  0
LWPOLYLINE
  5
409
330
38F
100
AcDbEntity
  8
0
100
AcDbPolyline
 90
       20
 70
     0
 43
0.0
 10
1.187059676800004
 20
18.502256344
 10
1.183251907200002
 20
18.4126114032
 10
1.170173816000001
 20
18.3112035568
 10
1.148155958399996
 20
18.2105271968
 10
1.117584120000003
 20
18.112568936
 10
1.0785074944
 20
18.0174045872
 10
1.032147308800006
 20
17.9275028
 10
0.9810601136000087
 20
17.8459686
 10
0.9266154831999955
 20
17.7727080128
 10
0.8699605999999988
 20
17.7073654768
 10
0.809345473600004
 20
17.6469468976
 10
0.7423630736000036
 20
17.5893333488
 10
0.6684898975999971
 20
17.534970864
 10
0.5873900896000066
 20
17.484625096
 10
0.4988300175999996
 20
17.4392456
 10
0.4043876048000073
 20
17.4005562368
 10
0.3059286656000069
 20
17.3698145344
 10
0.2051364848000077
 20
17.3476917936
 10
0.102891408000005
 20
17.3343708464
 10
0.0000000256000021
 20
17.3299268512
  0
LWPOLYLINE
  5
40A
330
38F
100
AcDbEntity
  8
0
  6
HIDDEN
100
AcDbPolyline
 90
       51
 70
     0
 43
0.0
 10
-7.7614782224
 20
18.3284352448
 10
-7.746685259199992
 20
18.3300698048
 10
-7.731855007999996
 20
18.3313472384
 10
-7.716997716799994
 20
18.3322671328
 10
-7.702065184000005
 20
18.3328307808
 10
-7.687123974399995
 20
18.3330345456
 10
-7.672182336000005
 20
18.3328792976
 10
-7.657147297599991
 20
18.3323613712
 10
-7.642128872
 20
18.3314822992
 10
-7.6271357456
 20
18.3302439472
 10
-7.612007935999997
 20
18.3286283232
 10
-7.596923267199997
 20
18.3266501472
 10
-7.581890126399997
 20
18.3243123872
 10
-7.566706849599995
 20
18.3215777808
 10
-7.551593339199996
 20
18.3184805152
 10
-7.536557747200006
 20
18.3150246352
 10
-7.521312347199994
 20
18.3111351568
 10
-7.506164318399996
 20
18.3068820672
 10
-7.491121508799992
 20
18.3022705328
 10
-7.475893947199992
 20
18.297202888
 10
-7.46079139839999
 20
18.2917739056
 10
-7.445821232
 20
18.2859898096
 10
-7.430703486399991
 20
18.2797341536
 10
-7.415737724799996
 20
18.273123056
 10
-7.400930686400002
 20
18.2661636784
 10
-7.385993660799996
 20
18.258711664
 10
-7.371234878399988
 20
18.2509125088
 10
-7.35666033759999
 20
18.2427741728
 10
-7.341888822399994
 20
18.2340706336
 10
-7.32732331999999
 20
18.2250264544
 10
-7.312969150400007
 20
18.2156504064
 10
-7.298448358399994
 20
18.205681864
 10
-7.284160793599994
 20
18.195381752
 10
-7.270111035200002
 20
18.1847594896
 10
-7.255945875199998
 20
18.1735345232
 10
-7.242039764799997
 20
18.16199012
 10
-7.228396534400005
 20
18.1501361408
 10
-7.21467024799999
 20
18.1376574176
 10
-7.201228102399994
 20
18.1248730592
 10
-7.188073254399995
 20
18.1117931936
 10
-7.174836934400005
 20
18.098032792
 10
-7.161910950399999
 20
18.0839804048
 10
-7.149297947199997
 20
18.0696463664
 10
-7.136696534400002
 20
18.054671656
 10
-7.124429036799995
 20
18.0394221536
 10
-7.112497734399994
 20
18.0239081488
 10
-7.100674342399997
 20
18.0078189248
 10
-7.089205367999994
 20
17.9914751392
 10
-7.078092953600005
 20
17.9748868144
 10
-7.068524048
 20
17.9599566752
 10
-7.059239604799998
 20
17.9448479904
  0
LWPOLYLINE
  5
40B
330
38F
100
AcDbEntity
  8
0
  6
HIDDEN
100
AcDbPolyline
 90
       10
 70
     0
 43
0.0
 10
-7.7614782224
 20
18.3284352448
 10
-8.057171190399998
 20
18.2914418176
 10
-8.352690089599988
 20
18.2530700912
 10
-8.648027281599993
 20
18.2133215536
 10
-8.943344847999995
 20
18.172173672
 10
-9.238467159999999
 20
18.129650264
 10
-9.533388532800003
 20
18.0857527088
 10
-9.828286246399997
 20
18.040453864
 10
-10.12296950719999
 20
17.9937823504
 10
-10.4174307472
 20
17.9457399824
  0
LWPOLYLINE
  5
40C
330
38F
100
AcDbEntity
  8
0
  6
HIDDEN
100
AcDbPolyline
 90
       70
 70
     0
 43
0.0
 10
-10.91056903679999
 20
17.1829317008
 10
-10.91508524319999
 20
17.1991195792
 10
-10.91922223679999
 20
17.2154108224
 10
-10.9229717312
 20
17.2317961584
 10
-10.9262298672
 20
17.2477663328
 10
-10.9291090384
 20
17.2638085152
 10
-10.93160244159999
 20
17.2799149568
 10
-10.93364707359999
 20
17.2956004896
 10
-10.9353159904
 20
17.3113305408
 10
-10.93660323999999
 20
17.3270964032
 10
-10.9374833824
 20
17.3424525312
 10
-10.93799220639999
 20
17.3578253664
 10
-10.93812488319999
 20
17.3732059904
 10
-10.93788761279999
 20
17.3882004864
 10
-10.937284504
 20
17.4031847024
 10
-10.93631186399999
 20
17.418149432
 10
-10.93500150239999
 20
17.432740544
 10
-10.9333324864
 20
17.4472949616
 10
-10.9313023296
 20
17.4618033728
 10
-10.92895809279998
 20
17.4759796816
 10
-10.9262628064
 20
17.4900934336
 10
-10.9232152272
 20
17.5041352944
 10
-10.9198739664
 20
17.5178636592
 10
-10.9161908896
 20
17.5315042784
 10
-10.9121660224
 20
17.5450479488
 10
-10.90786065279999
 20
17.5583053056
 10
-10.9032239424
 20
17.5714504304
 10
-10.8982571808
 20
17.5844744096
 10
-10.89300700639999
 20
17.5972622848
 10
-10.88743603199999
 20
17.6099136976
 10
-10.88154680639999
 20
17.6224201136
 10
-10.8753795024
 20
17.6347008688
 10
-10.86890395839999
 20
17.6468219232
 10
-10.8621239312
 20
17.658775312
 10
-10.855046688
 20
17.6705478288
 10
-10.84767392639999
 20
17.6821375776
 10
-10.84001058239999
 20
17.6935372656
 10
-10.83203029919999
 20
17.704782912
 10
-10.8237681792
 20
17.7158231728
 10
-10.81523026559999
 20
17.7266515568
 10
-10.80636086399999
 20
17.7373344016
 10
-10.79722499519999
 20
17.747790312
 10
-10.7878296928
 20
17.7580137472
 10
-10.778048368
 20
17.7681343424
 10
-10.7680156752
 20
17.778005856
 10
-10.75773959519999
 20
17.7876237712
 10
-10.7470567552
 20
17.7971326272
 10
-10.73613963519999
 20
17.8063716144
 10
-10.72499700639998
 20
17.8153373712
 10
-10.7133974256
 20
17.8242058352
 10
-10.70158138719999
 20
17.8327838592
 10
-10.68955834879999
 20
17.8410693072
 10
-10.6770152096
 20
17.8492655152
 10
-10.66427408159999
 20
17.8571505248
 10
-10.6513450032
 20
17.8647234848
 10
-10.63786315999999
 20
17.8721854048
 10
-10.6242035872
 20
17.879316888
 10
-10.61037672319999
 20
17.8861184224
 10
-10.59590760479999
 20
17.8928082
 10
-10.5812813504
 20
17.8991472496
 10
-10.5665086992
 20
17.90513744
 10
-10.5510622144
 20
17.9109771376
 10
-10.535481136
 20
17.916447672
 10
-10.5197764528
 20
17.9215522592
 10
-10.5033212592
 20
17.9264772384
 10
-10.4867547136
 20
17.9310144288
 10
-10.47008730719998
 20
17.9351684944
 10
-10.45261668159999
 20
17.9390960768
 10
-10.4350603344
 20
17.9426180304
 10
-10.4174307472
 20
17.9457399824
  0
LWPOLYLINE
  5
40D
330
38F
100
AcDbEntity
  8
0
  6
HIDDEN
100
AcDbPolyline
 90
        5
 70
     0
 43
0.0
 10
-10.8782398496
 20
17.0732016064
 10
-10.88636762719998
 20
17.1005706976
 10
-10.89445605919999
 20
17.1279514496
 10
-10.90253223519999
 20
17.1554358096
 10
-10.91056903679999
 20
17.1829317008
  0
LWPOLYLINE
  5
40E
330
38F
100
AcDbEntity
  8
0
  6
HIDDEN
100
AcDbPolyline
 90
       42
 70
     0
 43
0.0
 10
-10.4784027088
 20
16.7160570448
 10
-10.48760047039999
 20
16.7185565872
 10
-10.4967588864
 20
16.721196648
 10
-10.51138149119999
 20
16.72572844
 10
-10.5258890944
 20
16.7306158736
 10
-10.540273448
 20
16.735854992
 10
-10.55455057919999
 20
16.7414517888
 10
-10.5686873888
 20
16.7473940832
 10
-10.58267550719999
 20
16.753678456
 10
-10.5965120192
 20
16.76030428
 10
-10.61018259679998
 20
16.7672660112
 10
-10.62367849439999
 20
16.7745606192
 10
-10.63687906239999
 20
16.7821192496
 10
-10.6498901952
 20
16.7899994416
 10
-10.66270278719999
 20
16.7981984656
 10
-10.67507271519998
 20
16.8065506832
 10
-10.68723337759999
 20
16.8152046768
 10
-10.69917541599998
 20
16.8241578896
 10
-10.71060383999999
 20
16.8331765472
 10
-10.72180580639999
 20
16.8424749088
 10
-10.7327717552
 20
16.8520504384
 10
-10.7432242416
 20
16.8616483392
 10
-10.7534335568
 20
16.8715044416
 10
-10.76338985919998
 20
16.8816160128
 10
-10.77279188
 20
16.8916608608
 10
-10.7819368256
 20
16.9019402272
 10
-10.7908147056
 20
16.9124510464
 10
-10.79911183359999
 20
16.9228010944
 10
-10.80714147359999
 20
16.9333599248
 10
-10.81489367679999
 20
16.944124016
 10
-10.8220896272
 20
16.9546837952
 10
-10.8290090896
 20
16.96542672
 10
-10.8356422592
 20
16.976348728
 10
-10.84173995039999
 20
16.9870135696
 10
-10.84755443199999
 20
16.997835296
 10
-10.8530761568
 20
17.0088090336
 10
-10.8580925856
 20
17.0194820528
 10
-10.86282151359999
 20
17.0302856384
 10
-10.86725404159999
 20
17.04121476
 10
-10.8712066928
 20
17.0517769744
 10
-10.8748715296
 20
17.0624417808
 10
-10.8782398496
 20
17.0732016064
  0
LWPOLYLINE
  5
40F
330
38F
100
AcDbEntity
  8
0
100
AcDbPolyline
 90
       20
 70
     0
 43
0.0
 10
0.0000000256000021
 20
17.3177191968
 10
-0.1034169967999929
 20
17.3222116112
 10
-0.2060387679999991
 20
17.3356530464
 10
-0.3069481695999912
 20
17.3579047552
 10
-0.4053147151999923
 20
17.3887343392
 10
-0.499789897599996
 20
17.4275690208
 10
-0.5879769248000031
 20
17.4728906128
 10
-0.6684391392000038
 20
17.5229431472
 10
-0.7411086639999951
 20
17.5764418144
 10
-0.8069726207999963
 20
17.632999368
 10
-0.8675448751999965
 20
17.6932182784
 10
-0.9246005520000011
 20
17.7588772464
 10
-0.9793511615999932
 20
17.8323270416
 10
-1.0311146592
 20
17.914584184
 10
-1.077938935999995
 20
18.0051089408
 10
-1.117585951999998
 20
18.1015809632
 10
-1.148478966399991
 20
18.2005976912
 10
-1.170425691199994
 20
18.3009120176
 10
-1.183466307199992
 20
18.4016306128
 10
-1.1877916464
 20
18.5022252528
  0
LWPOLYLINE
  5
410
330
38F
100
AcDbEntity
  8
0
100
AcDbPolyline
 90
       20
 70
     0
 43
0.0
 10
0.0000000256000021
 20
17.3299268512
 10
-0.102476665599994
 20
17.3343350304
 10
-0.2042711312000023
 20
17.347541104
 10
-0.3043997135999916
 20
17.3694099632
 10
-0.4024011183999932
 20
17.3998422512
 10
-0.4972677311999974
 20
17.438527296
 10
-0.5870975616000039
 20
17.4844594768
 10
-0.6695367632
 20
17.5356814144
 10
-0.744501950399993
 20
17.5910426928
 10
-0.8121315279999947
 20
17.6495384544
 10
-0.872809347200004
 20
17.7104289792
 10
-0.9292885903999916
 20
17.776041344
 10
-0.9834628959999918
 20
17.849490832
 10
-1.034190800000004
 20
17.9310950176
 10
-1.0801255808
 20
18.020918
 10
-1.118715035199997
 20
18.1157199584
 10
-1.1489300928
 20
18.2134644048
 10
-1.170641718399991
 20
18.313922408
 10
-1.183416107200002
 20
18.414560512
 10
-1.187068196799998
 20
18.50225538240001
  0
LINE
  5
411
330
38F
100
AcDbEntity
  8
0
100
AcDbLine
 10
-1.1877916464
 20
18.5022252528
 30
0.0
 11
-1.187295678399991
 21
18.5365284496
 31
0.0
  0
LWPOLYLINE
  5
412
330
38F
100
AcDbEntity
  8
0
100
AcDbPolyline
 90
       20
 70
     0
 43
0.0
 10
-1.187295678399991
 20
18.5365284496
 10
-1.183125283199998
 20
18.6073390128
 10
-1.169211164800003
 20
18.7110122368
 10
-1.146548185599996
 20
18.8115758096
 10
-1.116366622399993
 20
18.9065274304
 10
-1.080084502399998
 20
18.9946714976
 10
-1.038699276800002
 20
19.0762184848
 10
-0.9926031087999973
 20
19.152094616
 10
-0.9417476927999928
 20
19.2232537968
 10
-0.8857024336000023
 20
19.2905387376
 10
-0.8241703023999917
 20
19.354137688
 10
-0.7564725967999948
 20
19.414282128
 10
-0.6819668063999984
 20
19.470783064
 10
-0.5999931199999935
 20
19.523152696
 10
-0.5105616991999966
 20
19.57028992
 10
-0.414662785600001
 20
19.6107068848
 10
-0.3142540447999949
 20
19.6429685536
 10
-0.210833283200003
 20
19.6663282
 10
-0.1056266591999986
 20
19.6804205504
 10
0.0000000256000021
 20
19.6851054112
  0
LWPOLYLINE
  5
413
330
38F
100
AcDbEntity
  8
0
  6
HIDDEN
100
AcDbPolyline
 90
       52
 70
     0
 43
0.0
 10
7.050373344000007
 20
17.9297964464
 10
7.059330604799995
 20
17.9449991392
 10
7.068570988800004
 20
17.9600313792
 10
7.078093003199995
 20
17.9748868144
 10
7.089205419199998
 20
17.9914751392
 10
7.100674392000001
 20
18.0078189248
 10
7.112497783999998
 20
18.0239081488
 10
7.124429087999999
 20
18.0394221536
 10
7.136696585600006
 20
18.054671656
 10
7.149297998400001
 20
18.0696463664
 10
7.161911001600003
 20
18.0839804048
 10
7.174836985599995
 20
18.0980327904
 10
7.188073303999999
 20
18.1117931936
 10
7.201228151999998
 20
18.1248730592
 10
7.214670297600008
 20
18.1376574176
 10
7.228396585599995
 20
18.1501361408
 10
7.242039814400001
 20
18.16199012
 10
7.255945924800002
 20
18.1735345232
 10
7.270111084800007
 20
18.1847594896
 10
7.284160844799998
 20
18.195381752
 10
7.298448409599998
 20
18.205681864
 10
7.312969199999997
 20
18.2156504064
 10
7.327323369600009
 20
18.2250264544
 10
7.341888871999998
 20
18.2340706336
 10
7.356660388800008
 20
18.2427741728
 10
7.371234928000006
 20
18.2509125088
 10
7.385993712000001
 20
18.258711664
 10
7.400930737600006
 20
18.2661636784
 10
7.415737776
 20
18.273123056
 10
7.430703535999995
 20
18.2797341536
 10
7.445821283200004
 20
18.2859898096
 10
7.460791448000009
 20
18.2917739056
 10
7.475893998399996
 20
18.297202888
 10
7.491121558399996
 20
18.3022705328
 10
7.506164368
 20
18.3068820672
 10
7.521312396799999
 20
18.3111351568
 10
7.536557798399996
 20
18.3150246352
 10
7.5515933888
 20
18.3184805152
 10
7.566706900799999
 20
18.3215777808
 10
7.581890176000001
 20
18.3243123872
 10
7.596923316800001
 20
18.3266501472
 10
7.612007985600001
 20
18.3286283232
 10
7.627135795200004
 20
18.3302439472
 10
7.642128923200004
 20
18.3314822992
 10
7.657147348799995
 20
18.3323613712
 10
7.672182385599995
 20
18.3328792976
 10
7.687124023999999
 20
18.3330345456
 10
7.702065235199995
 20
18.3328307808
 10
7.716997766399998
 20
18.3322671328
 10
7.7318550592
 20
18.3313472384
 10
7.746685310399996
 20
18.3300698048
 10
7.761478273600005
 20
18.3284352448
  0
LINE
  5
414
330
38F
100
AcDbEntity
  8
0
100
AcDbLine
 10
1.187292246400005
 20
18.5365443232
 30
0.0
 11
1.187791697600005
 21
18.5022252512
 31
0.0
  0
LINE
  5
415
330
38F
100
AcDbEntity
  8
0
100
AcDbLine
 10
1.183119808
 20
18.6074042768
 30
0.0
 11
1.187292246400005
 21
18.5365443232
 31
0.0
  0
LWPOLYLINE
  5
416
330
38F
100
AcDbEntity
  8
0
  6
HIDDEN
100
AcDbPolyline
 90
       10
 70
     0
 43
0.0
 10
10.4174307968
 20
17.9457399824
 10
10.1229695584
 20
17.9937823504
 10
9.828286296000001
 20
18.040453864
 10
9.533388584000007
 20
18.0857527088
 10
9.238467209600003
 20
18.129650264
 10
8.943344897599999
 20
18.172173672
 10
8.648027332799998
 20
18.2133215536
 10
8.352690140800007
 20
18.2530700912
 10
8.057171240000002
 20
18.2914418176
 10
7.761478273600005
 20
18.3284352448
  0
LWPOLYLINE
  5
417
330
38F
100
AcDbEntity
  8
0
  6
HIDDEN
100
AcDbPolyline
 90
       70
 70
     0
 43
0.0
 10
10.4174307968
 20
17.9457399824
 10
10.43506038399999
 20
17.9426180304
 10
10.45261673119999
 20
17.9390960768
 10
10.4700873568
 20
17.9351684944
 10
10.48675476319999
 20
17.9310144288
 10
10.50332130879999
 20
17.92647724
 10
10.5197765024
 20
17.9215522592
 10
10.5354811856
 20
17.916447672
 10
10.55106226400001
 20
17.9109771376
 10
10.5665087504
 20
17.90513744
 10
10.5812814016
 20
17.8991472496
 10
10.595907656
 20
17.8928082
 10
10.61037677439999
 20
17.8861184224
 10
10.6242036384
 20
17.879316888
 10
10.6378632112
 20
17.8721854048
 10
10.65134505439999
 20
17.8647234848
 10
10.6642741328
 20
17.8571505248
 10
10.6770152608
 20
17.8492655152
 10
10.68955839999999
 20
17.8410693072
 10
10.70158143839999
 20
17.8327838592
 10
10.71339747679999
 20
17.8242058352
 10
10.7249970576
 20
17.8153373712
 10
10.7361396864
 20
17.806371616
 10
10.74705680639999
 20
17.7971326288
 10
10.75773964639999
 20
17.7876237728
 10
10.7680157248
 20
17.7780058576
 10
10.7780484192
 20
17.7681343456
 10
10.7878297424
 20
17.7580137504
 10
10.7972250448
 20
17.7477903136
 10
10.8063609136
 20
17.7373344048
 10
10.81523031519999
 20
17.7266515584
 10
10.8237682304
 20
17.715823176
 10
10.8320303504
 20
17.7047829152
 10
10.8400106336
 20
17.6935372688
 10
10.84767397759999
 20
17.6821375808
 10
10.8550467392
 20
17.6705478304
 10
10.8621239824
 20
17.6587753136
 10
10.8689040096
 20
17.6468219264
 10
10.87537955519999
 20
17.634700872
 10
10.88154685759999
 20
17.6224201168
 10
10.8874360848
 20
17.6099137008
 10
10.8930070592
 20
17.5972622864
 10
10.8982572336
 20
17.5844744128
 10
10.9032239952
 20
17.5714504336
 10
10.9078607056
 20
17.5583053072
 10
10.9121660752
 20
17.545047952
 10
10.9161909424
 20
17.5315042816
 10
10.9198740176
 20
17.5178636624
 10
10.92321528
 20
17.50413529760001
 10
10.9262628576
 20
17.4900934384
 10
10.928958144
 20
17.4759796848
 10
10.9313023824
 20
17.4618033776
 10
10.9333325376
 20
17.447294968
 10
10.9350015552
 20
17.4327405504
 10
10.9363119152
 20
17.4181494384
 10
10.9372845568
 20
17.4031847088
 10
10.9378876656
 20
17.3882004944
 10
10.9381249344
 20
17.373206
 10
10.9379922592
 20
17.357825376
 10
10.9374834352
 20
17.3424525408
 10
10.9366032928
 20
17.3270964128
 10
10.9353160432
 20
17.311330552
 10
10.933647128
 20
17.2956005024
 10
10.93160249439999
 20
17.2799149696
 10
10.9291090928
 20
17.2638085296
 10
10.92622992159999
 20
17.2477663472
 10
10.92297178559999
 20
17.2317961728
 10
10.919222288
 20
17.2154108288
 10
10.9150852944
 20
17.1991195776
 10
10.9105690848
 20
17.1829316928
  0
LWPOLYLINE
  5
418
330
38F
100
AcDbEntity
  8
0
  6
HIDDEN
100
AcDbPolyline
 90
        5
 70
     0
 43
0.0
 10
10.9105690848
 20
17.1829316928
 10
10.9025322864
 20
17.1554358096
 10
10.894456112
 20
17.1279514592
 10
10.8863676848
 20
17.1005707232
 10
10.87823991359999
 20
17.0732016496
  0
LWPOLYLINE
  5
419
330
38F
100
AcDbEntity
  8
0
  6
HIDDEN
100
AcDbPolyline
 90
       39
 70
     0
 43
0.0
 10
10.87823991359999
 20
17.0732016496
 10
10.8748715808
 20
17.0624417888
 10
10.8712067328
 20
17.0517769472
 10
10.8672540656
 20
17.0412146976
 10
10.86282152639999
 20
17.0302855552
 10
10.8580925856
 20
17.0194819472
 10
10.853076144
 20
17.0088089072
 10
10.8475544048
 20
16.9978351472
 10
10.8417399056
 20
16.9870134
 10
10.83564219840001
 20
16.9763485408
 10
10.8290090112
 20
16.9654265136
 10
10.8220895312
 20
16.9546835712
 10
10.81489356
 20
16.944123776
 10
10.8071413376
 20
16.9333596704
 10
10.79911167519999
 20
16.9228008256
 10
10.79081452639999
 20
16.9124507648
 10
10.78193662239999
 20
16.9019399312
 10
10.77279165279999
 20
16.8916605536
 10
10.76338960639999
 20
16.8816156944
 10
10.75343327519999
 20
16.8715041104
 10
10.7432239296
 20
16.8616479968
 10
10.7327714112
 20
16.8520500832
 10
10.72180542559999
 20
16.8424745408
 10
10.71060341919999
 20
16.8331761648
 10
10.6991749552
 20
16.8241574976
 10
10.68723286879999
 20
16.8152042688
 10
10.67507215999999
 20
16.8065502624
 10
10.66270218239999
 20
16.7981980352
 10
10.649889544
 20
16.7899990064
 10
10.63687836639999
 20
16.7821188112
 10
10.623677752
 20
16.7745601792
 10
10.6101818256
 20
16.7672655808
 10
10.59651121919999
 20
16.7603038624
 10
10.58267467679999
 20
16.753678048
 10
10.5686865584
 20
16.7473937008
 10
10.55454974719999
 20
16.741451432
 10
10.54027261759999
 20
16.7358546592
 10
10.5289142736
 20
16.7316848816
 10
10.28582147839999
 20
16.64725723360001
  0
LWPOLYLINE
  5
41A
330
38F
100
AcDbEntity
  8
0
100
AcDbPolyline
 90
        4
 70
     0
 43
0.0
 10
35.88864036465789
 20
22.1375
 10
35.9439874992001
 20
21.53557348
 10
35.98569935360008
 20
20.891347944
 10
35.9999938384001
 20
20.1375
  0
ENDBLK
  5
41C
330
38F
100
AcDbEntity
  8
0
100
AcDbBlockEnd
  0
ENDSEC
  0
SECTION
  2
ENTITIES
  0
LWPOLYLINE
  5
37
330
2
100
AcDbEntity
  8
0
100
AcDbPolyline
 90
       30
 70
     0
 43
0.0
 10
27.1076313317
 20
-0.0746867512999998
 10
27.0422390373
 20
-0.0260661529000004
 10
26.9751558197
 20
0.0221830070999971
 10
26.9063337621
 20
0.070060978299999
 10
26.8357249429
 20
0.1175680086999975
 10
26.76329691890001
 20
0.1647031542999997
 10
26.6890791525
 20
0.2114606887000008
 10
26.6131165813
 20
0.2578336950999969
 10
26.5354541477
 20
0.3038152566999983
 10
26.4293325717
 20
0.3645117846999994
 10
26.32034481970001
 20
0.4245356070999975
 10
26.20856680370001
 20
0.4839222215000021
 10
26.0940797237
 20
0.5427028934999996
 10
25.97698592530001
 20
0.6008919686999974
 10
25.8573930373
 20
0.6584995623000012
 10
25.7354211077
 20
0.7155284823000017
 10
25.6112398277
 20
0.7719522983000005
 10
25.48503130770001
 20
0.8277372694999982
 10
25.3569801925
 20
0.882844443899998
 10
25.22728129650001
 20
0.9372140086999962
 10
25.0961319733
 20
0.9907809350999983
 10
24.96370804850001
 20
1.043490976699999
 10
24.8300992325
 20
1.095333000700001
 10
24.6953737125
 20
1.146306655099998
 10
24.4913375877
 20
1.221134645500001
 10
24.2851533525
 20
1.293985643900001
 10
24.07703852210001
 20
1.364828327099999
 10
23.8672364037
 20
1.4335955799
 10
23.65597212690001
 20
1.500219325499998
 10
23.4433723157
 20
1.564663456699996
  0
LWPOLYLINE
  5
38
330
2
100
AcDbEntity
  8
0
100
AcDbPolyline
 90
       34
 70
     0
 43
0.0
 10
19.93694339890001
 20
2.323516615099997
 10
19.2144128549
 20
2.426814071099997
 10
18.4908565717
 20
2.529788515900001
 10
17.7670285653
 20
2.629284183099997
 10
17.04386594770001
 20
2.723890175099995
 10
16.6816155317
 20
2.769249335099999
 10
16.31701746450001
 20
2.813455770299995
 10
15.94835079570001
 20
2.856660687099996
 10
15.5747854341
 20
2.898905560700001
 10
15.1959929317
 20
2.9401789367
 10
14.81276054610001
 20
2.980367346299999
 10
14.4260083957
 20
3.0193508503
 10
14.03607233650001
 20
3.057085663099996
 10
13.64306888050001
 20
3.093552728699997
 10
13.2468214405
 20
3.128755765499995
 10
12.8471399877
 20
3.162696245500001
 10
12.44407384530001
 20
3.195343864699999
 10
12.0377532021
 20
3.226657491899999
 10
11.6283924165
 20
3.256584423100001
 10
11.2162271045
 20
3.285069138299995
 10
10.80149377490001
 20
3.312056403900001
 10
9.965262960500012
 20
3.361324232699999
 10
9.1219954309
 20
3.403959747899996
 10
8.275408195700009
 20
3.439528866300001
 10
7.851259458100003
 20
3.4546066535
 10
7.424139947700012
 20
3.467920082299997
 10
6.99128101490001
 20
3.479504082299996
 10
6.5502829861
 20
3.489315674300002
 10
6.250556509300011
 20
3.4948362023
 10
5.945103872500013
 20
3.499492613499995
 10
5.632841818100004
 20
3.503236291900002
 10
5.312927808500006
 20
3.5060123863
 10
4.985482174899999
 20
3.507741119099996
 10
4.650865968499999
 20
3.508336475900001
  0
LWPOLYLINE
  5
39
330
2
100
AcDbEntity
  8
0
100
AcDbPolyline
 90
       37
 70
     0
 43
0.0
 10
-27.75982683469999
 20
12.8583292599
 10
-27.71765713549999
 20
12.84934240549999
 10
-27.67584950029999
 20
12.8387987511
 10
-27.62663115949999
 20
12.8242235239
 10
-27.57811707949999
 20
12.8074543383
 10
-27.53104203309999
 20
12.7887652711
 10
-27.48485782349999
 20
12.76797166629999
 10
-27.44013853709999
 20
12.7453548327
 10
-27.39649021869999
 20
12.7207356375
 10
-27.35454298029999
 20
12.6944963879
 10
-27.3138297771
 20
12.6663796919
 10
-27.27483420589999
 20
12.63673885829999
 10
-27.23724333069999
 20
12.60533796229999
 10
-27.20024928749999
 20
12.5713686887
 10
-27.16485106029999
 20
12.5357377655
 10
-27.12756040109999
 20
12.49460881829999
 10
-27.09207966029999
 20
12.4519040791
 10
-27.05338091949999
 20
12.4012707895
 10
-27.01660755469999
 20
12.34922029349999
 10
-26.97692902509999
 20
12.2888840967
 10
-26.93899031629999
 20
12.22743647909999
 10
-26.89801965389999
 20
12.1575049031
 10
-26.85836819789999
 20
12.0868172551
 10
-26.81511527789999
 20
12.00705878149999
 10
-26.77271388589999
 20
11.92684432229999
 10
-26.67897659629999
 20
11.7460356615
 10
-26.57330537229999
 20
11.54324565509999
 10
-26.45408922029999
 20
11.3184713399
 10
-26.32136088109999
 20
11.0707092711
 10
-26.17271262509999
 20
10.79378414309999
 10
-26.00927092909999
 20
10.4875825687
 10
-25.83971337549999
 20
10.1651469639
 10
-25.74643801069999
 20
9.984985735099996
 10
-25.65409264749999
 20
9.804346026299995
 10
-25.55105558509999
 20
9.599834624700001
 10
-25.44932103629999
 20
9.394672043900001
 10
-25.38091405069999
 20
9.254844053500001
  0
LWPOLYLINE
  5
3A
330
2
100
AcDbEntity
  8
0
100
AcDbPolyline
 90
       17
 70
     0
 43
0.0
 10
23.4433723157
 20
1.564663456699996
 10
23.2782084021
 20
1.613088645499999
 10
23.1128896869
 20
1.6602805463
 10
22.94749395410001
 20
1.7062164887
 10
22.7820818981
 20
1.750879528699996
 10
22.6166458581
 20
1.794275619899998
 10
22.4511610869
 20
1.836416440699998
 10
22.20276483090001
 20
1.897299002300002
 10
21.9539781893
 20
1.955419392700001
 10
21.70461963090001
 20
2.010802571900001
 10
21.4546817093
 20
2.063429659900002
 10
21.20415435890001
 20
2.113285368699997
 10
20.9528429493
 20
2.160412610299999
 10
20.70053054290001
 20
2.204878650299995
 10
20.4470955397
 20
2.2467899719
 10
20.19249976690001
 20
2.286275738299998
 10
19.93694339890001
 20
2.323516615099997
  0
LWPOLYLINE
  5
3D
330
2
100
AcDbEntity
  8
0
100
AcDbPolyline
 90
       33
 70
     0
 43
0.0
 10
4.650865968499999
 20
3.508336475900001
 10
4.315136043700007
 20
3.507737136700001
 10
3.986671850100009
 20
3.505997381500002
 10
3.665839226100004
 20
3.503204603900002
 10
3.352760101300006
 20
3.4994398535
 10
3.046580760500006
 20
3.494758816699999
 10
2.746203576500008
 20
3.489210839099996
 10
2.304342912500004
 20
3.479354058299996
 10
1.870725699700003
 20
3.467720776699998
 10
1.442919360499999
 20
3.454354394299997
 10
1.018127933300007
 20
3.439219533500001
 10
0.1703690213000044
 20
3.403525411899998
 10
-0.6737443722999928
 20
3.360764259900001
 10
-1.510603089099987
 20
3.311372402300001
 10
-2.338648269899991
 20
3.255731197499997
 10
-2.748934737099986
 20
3.225686727099997
 10
-3.156314151499998
 20
3.194238547899999
 10
-3.560439269899987
 20
3.1614481095
 10
-3.961106529099993
 20
3.127362939899995
 10
-4.358220044299997
 20
3.092018147899999
 10
-4.751970961099999
 20
3.055413122299995
 10
-5.142549116299989
 20
3.017544029500001
 10
-5.529852092299989
 20
2.978429914300001
 10
-5.913586777099993
 20
2.938111072699996
 10
-6.292989511499996
 20
2.896689962300001
 10
-6.667400087499999
 20
2.8542653095
 10
-7.037042637899986
 20
2.8108587575
 10
-7.402505226699986
 20
2.766457359100002
 10
-7.764947295499993
 20
2.720986882299996
 10
-8.484915711499994
 20
2.6266467911
 10
-9.201652932299992
 20
2.528030314299996
 10
-9.9175433467
 20
2.426115482299998
 10
-10.6352114635
 20
2.323516615099997
  0
LWPOLYLINE
  5
40
330
2
100
AcDbEntity
  8
0
100
AcDbPolyline
 90
       17
 70
     0
 43
0.0
 10
-10.6352114635
 20
2.323516615099997
 10
-10.89076783149999
 20
2.286275738299998
 10
-11.14536360269999
 20
2.2467899719
 10
-11.39879860429999
 20
2.204878650299995
 10
-11.65111101229999
 20
2.160412610299999
 10
-11.90242242189999
 20
2.113285368699997
 10
-12.15294977229999
 20
2.063429659900002
 10
-12.40288769229999
 20
2.010802571900001
 10
-12.65224625069999
 20
1.955419392700001
 10
-12.90103289229999
 20
1.897299002300002
 10
-13.14942914829999
 20
1.836416442299999
 10
-13.31491392109999
 20
1.794275621499998
 10
-13.48034996109999
 20
1.750879528699996
 10
-13.64576201709999
 20
1.7062164887
 10
-13.81115774989999
 20
1.6602805463
 10
-13.97647646509999
 20
1.613088645499999
 10
-14.14164037869999
 20
1.564663456699996
  0
LWPOLYLINE
  5
44
330
2
100
AcDbEntity
  8
0
100
AcDbPolyline
 90
       30
 70
     0
 43
0.0
 10
-14.14164037869999
 20
1.564663456699996
 10
-14.35424019149999
 20
1.500219325499998
 10
-14.56550446829999
 20
1.4335955799
 10
-14.77530658669999
 20
1.364828327099999
 10
-14.98342141549999
 20
1.293985643900001
 10
-15.18960565069999
 20
1.221134645500001
 10
-15.39364177549999
 20
1.146306655099998
 10
-15.52836729549999
 20
1.095333000700001
 10
-15.66197611149999
 20
1.043490976699999
 10
-15.79440003629999
 20
0.9907809350999983
 10
-15.92554936109999
 20
0.9372140086999962
 10
-16.05524825709998
 20
0.882844443899998
 10
-16.18329937229999
 20
0.8277372694999982
 10
-16.30950789229999
 20
0.7719522983000005
 10
-16.43368917069999
 20
0.7155284839000018
 10
-16.55566110029999
 20
0.6584995639000013
 10
-16.67525398829999
 20
0.6008919686999974
 10
-16.79234778669999
 20
0.5427028934999996
 10
-16.90683486669999
 20
0.4839222215000021
 10
-17.01861288269999
 20
0.4245356070999975
 10
-17.12760063469999
 20
0.3645117846999994
 10
-17.23372221069999
 20
0.3038152582999984
 10
-17.31138464429999
 20
0.257833696699997
 10
-17.38734721389999
 20
0.2114606887000008
 10
-17.46156498189999
 20
0.1647031542999997
 10
-17.53399300589999
 20
0.1175680102999976
 10
-17.60460182509999
 20
0.070060978299999
 10
-17.67342388429999
 20
0.0221830070999971
 10
-17.74050710029999
 20
-0.0260661529000004
 10
-17.80589939469999
 20
-0.0746867512999998
  0
LWPOLYLINE
  5
46
330
2
100
AcDbEntity
  8
0
100
AcDbPolyline
 90
       35
 70
     0
 43
0.0
 10
36.99527373170001
 20
12.84566897189999
 10
36.9531835653
 20
12.8327668471
 10
36.91162264849999
 20
12.8182514759
 10
36.8645476021
 20
12.79956240869999
 10
36.8183633941
 20
12.77876880389999
 10
36.7736441077
 20
12.75615197029999
 10
36.7299957893
 20
12.73153277509999
 10
36.6880485509
 20
12.70529352709999
 10
36.6473353477
 20
12.67717682949999
 10
36.6083397765
 20
12.6475359975
 10
36.5707488997
 20
12.61613509989999
 10
36.53375485650001
 20
12.5821658263
 10
36.4983566309
 20
12.54653490309999
 10
36.46106597170001
 20
12.5054059575
 10
36.42558522930001
 20
12.46270121669999
 10
36.38688648850001
 20
12.41206792709999
 10
36.35011312530001
 20
12.3600174311
 10
36.3104345941
 20
12.29968123429999
 10
36.2724958869
 20
12.2382336167
 10
36.2315252245
 20
12.16830204229999
 10
36.1918737685
 20
12.09761439269999
 10
36.1486208469
 20
12.0178559191
 10
36.1062194565
 20
11.93764145989999
 10
36.0124821653
 20
11.75683279909999
 10
35.90681094290001
 20
11.5540427927
 10
35.7875947909
 20
11.3292684775
 10
35.6548664517
 20
11.0815064087
 10
35.5062181941
 20
10.80458128069999
 10
35.3427764997
 20
10.4983797063
 10
35.17321894450001
 20
10.1759441015
 10
35.0799435813
 20
9.995782874299997
 10
34.9875982165
 20
9.815143163899996
 10
34.88456115410001
 20
9.610631763900002
 10
34.7828266069
 20
9.405469181499995
 10
34.71441962130001
 20
9.265641191100002
  0
LINE
  5
49
330
2
100
AcDbEntity
  8
0
100
AcDbLine
 10
-31.34913403149999
 20
9.256242368700004
 30
0.0
 11
-31.23786547629999
 21
10.5280477847
 31
0.0
  0
LWPOLYLINE
  5
4A
330
2
100
AcDbEntity
  8
0
100
AcDbPolyline
 90
       27
 70
     0
 43
0.0
 10
-29.28789136109999
 20
10.86361195589999
 10
-29.23122798989999
 20
11.15417163909999
 10
-29.17303936909999
 20
11.4078947495
 10
-29.11469511949999
 20
11.63042444069999
 10
-29.05703571789999
 20
11.8263567047
 10
-28.9996196331
 20
11.99889456229999
 10
-28.94182542189999
 20
12.1501705415
 10
-28.88352372109999
 20
12.28140542789999
 10
-28.82490830189999
 20
12.3936587559
 10
-28.76639122669999
 20
12.48813495429999
 10
-28.70848083149999
 20
12.5663216887
 10
-28.65127167309999
 20
12.6303825639
 10
-28.59311796909999
 20
12.6840936775
 10
-28.53225399949999
 20
12.7302461159
 10
-28.46777581549999
 20
12.76987395109999
 10
-28.39876607149999
 20
12.8034995671
 10
-28.32386604269998
 20
12.83140616549999
 10
-28.24133949069999
 20
12.85350571269999
 10
-28.14878934349999
 20
12.86931705189999
 10
-28.04314341869999
 20
12.8778116135
 10
-27.92682397549999
 20
12.87743333829999
 10
-27.81002999309999
 20
12.8673443191
 10
-27.69832837549999
 20
12.84809888229999
 10
-27.59308431789999
 20
12.82053680069999
 10
-27.49504910509999
 20
12.78552880549999
 10
-27.40435205229999
 20
12.74380488869999
 10
-27.32079976109999
 20
12.6959027047
  0
LINE
  5
4C
330
2
100
AcDbEntity
  8
0
100
AcDbLine
 10
-23.86264147629999
 20
5.183077810300002
 30
0.0
 11
-23.86507474349999
 21
5.197051239100002
 31
0.0
  0
LWPOLYLINE
  5
4D
330
2
100
AcDbEntity
  8
0
100
AcDbPolyline
 90
        9
 70
     0
 43
0.0
 10
-23.86507468269999
 20
5.197050874299996
 10
-23.88284986989999
 20
5.346048728699997
 10
-23.89334838349999
 20
5.510682031099996
 10
-23.90832681229999
 20
5.666962851899995
 10
-23.93311108109999
 20
5.808580679099996
 10
-23.96177577229999
 20
5.934039083899996
 10
-23.98862976429999
 20
6.038733818299995
 10
-24.01896033389999
 20
6.145253031099997
 10
-24.05037188429999
 20
6.232044751099998
  0
LINE
  5
4E
330
2
100
AcDbEntity
  8
0
100
AcDbLine
 10
-23.55024062509999
 20
4.311978077500004
 30
0.0
 11
-23.48953487469999
 21
4.157334744700005
 31
0.0
  0
LINE
  5
4F
330
2
100
AcDbEntity
  8
0
100
AcDbLine
 10
-23.55024062509999
 20
4.311978077500004
 30
0.0
 11
-23.45736669709999
 21
4.071521653500003
 31
0.0
  0
LWPOLYLINE
  5
50
330
2
100
AcDbEntity
  8
0
100
AcDbPolyline
 90
        3
 70
     0
 43
0.0
 10
-23.48953487469999
 20
4.157334744700001
 10
-23.42293862189999
 20
3.976171074299998
 10
-23.35466230509999
 20
3.7765069991
  0
LINE
  5
51
330
2
100
AcDbEntity
  8
0
100
AcDbLine
 10
-23.45736669709999
 20
4.071521653500003
 30
0.0
 11
-23.32762133069999
 21
3.6937553879
 31
0.0
  0
LINE
  5
52
330
2
100
AcDbEntity
  8
0
100
AcDbLine
 10
-23.35466230509999
 20
3.776506999100003
 30
0.0
 11
-23.28283872589999
 21
3.552344645500002
 31
0.0
  0
LINE
  5
53
330
2
100
AcDbEntity
  8
0
100
AcDbLine
 10
-23.32762133069999
 20
3.6937553879
 30
0.0
 11
-23.28824145709999
 21
3.569404939899999
 31
0.0
  0
LWPOLYLINE
  5
54
330
2
100
AcDbEntity
  8
0
100
AcDbPolyline
 90
        8
 70
     0
 43
0.0
 10
-23.28283721869999
 20
3.552339797499996
 10
-23.21164330189998
 20
3.3170136743
 10
-23.13545223149999
 20
3.052522442299995
 10
-23.05364555469999
 20
2.757800829499998
 10
-22.96294811949999
 20
2.426420666299996
 10
-22.86238052589999
 20
2.057031034299996
 10
-22.75352031309999
 20
1.647185922299996
 10
-22.63590049709999
 20
1.181996899899999
  0
LWPOLYLINE
  5
55
330
2
100
AcDbEntity
  8
0
100
AcDbPolyline
 90
       36
 70
     0
 43
0.0
 10
-20.68287137709999
 20
-5.435865429700001
 10
-20.64384170989999
 20
-5.585515869700003
 10
-20.59471372749999
 20
-5.733967520900002
 10
-20.53573789709999
 20
-5.879956892100004
 10
-20.46725215309999
 20
-6.0222906025
 10
-20.38909745069999
 20
-6.1609294617
 10
-20.30042263949999
 20
-6.296806045700002
 10
-20.20055181869999
 20
-6.430280122500001
 10
-20.09004347469999
 20
-6.559933071300001
 10
-19.96899502189999
 20
-6.685003544899998
 10
-19.83768488749999
 20
-6.804483397700003
 10
-19.69543036429999
 20
-6.9182144265
 10
-19.54066531149999
 20
-7.026474802500004
 10
-19.37193374829999
 20
-7.129295748099998
 10
-19.18976792589999
 20
-7.225367309699997
 10
-19.00718679949999
 20
-7.308317079300003
 10
-18.83737189549999
 20
-7.374930780100001
 10
-18.68205009229999
 20
-7.427894626499998
 10
-18.53979348429999
 20
-7.470362863300003
 10
-18.40896948109999
 20
-7.504753514500002
 10
-18.28854784749999
 20
-7.532751940099998
 10
-18.17748040749999
 20
-7.5556596057
 10
-18.07485517229999
 20
-7.574485588100003
 10
-17.97991539789999
 20
-7.5900135161
 10
-17.89199417389999
 20
-7.6028625673
 10
-17.81050392589999
 20
-7.6135238313
 10
-17.73492734189999
 20
-7.622389311300004
 10
-17.66480376109999
 20
-7.629774389700003
 10
-17.59969804429999
 20
-7.635936540099997
 10
-17.53919982509999
 20
-7.641087245699999
 10
-17.48298833389999
 20
-7.645396722500002
 10
-17.43078646029999
 20
-7.6490065033
 10
-17.38233302989999
 20
-7.652032325699998
 10
-17.33736888109999
 20
-7.654570272900002
 10
-17.29566481069999
 20
-7.656699575300002
 10
-17.22158169389999
 20
-7.659982437700001
  0
LWPOLYLINE
  5
56
330
2
100
AcDbEntity
  8
0
100
AcDbPolyline
 90
       21
 70
     0
 43
0.0
 10
-22.63590025549999
 20
1.181995909499995
 10
-22.58128387949999
 20
0.954681258299999
 10
-22.48644976429999
 20
0.5408903159000005
 10
-22.40154387469999
 20
0.1491629126999996
 10
-22.32418742669999
 20
-0.2266084152999994
 10
-22.25240736909999
 20
-0.5932392393000044
 10
-22.18518469549999
 20
-0.9545061753000041
 10
-22.12251466509999
 20
-1.310036804100001
 10
-22.06448186189999
 20
-1.659163285700003
 10
-22.01116969069999
 20
-2.001047524100002
 10
-21.96270505069999
 20
-2.334617600900003
 10
-21.91938356109999
 20
-2.658705687299999
 10
-21.88149080909999
 20
-2.973695272900002
 10
-21.84943158829999
 20
-3.279735056900001
 10
-21.82346382029999
 20
-3.576435420099997
 10
-21.80369745229999
 20
-3.862920140100001
 10
-21.78989458029999
 20
-4.138630893700003
 10
-21.77856000429998
 20
-4.402253367299998
 10
-21.76431815789999
 20
-4.902957877700004
 10
-21.74241805869999
 20
-5.138726218500003
 10
-21.70969837709999
 20
-5.3570591673
  0
LWPOLYLINE
  5
57
330
2
100
AcDbEntity
  8
0
100
AcDbPolyline
 90
       26
 70
     0
 43
0.0
 10
-21.69332494989999
 20
-5.439166636099997
 10
-21.66196940749999
 20
-5.569959320900004
 10
-21.61338322669999
 20
-5.733570762500001
 10
-21.55353556429999
 20
-5.8988351753
 10
-21.48317483309999
 20
-6.062621949700002
 10
-21.40309801229999
 20
-6.222683320900003
 10
-21.31399215309999
 20
-6.377525930499999
 10
-21.21660609869999
 20
-6.5260297401
 10
-21.11196865389999
 20
-6.666923247299997
 10
-21.00213610349999
 20
-6.797966736900001
 10
-20.88899912429999
 20
-6.9177503465
 10
-20.77417230349999
 20
-7.0255217865
 10
-20.65870563469999
 20
-7.1212658297
 10
-20.54297149229999
 20
-7.205594216900003
 10
-20.42615009069999
 20
-7.2798348265
 10
-20.30670407789999
 20
-7.345392837700003
 10
-20.18303030989998
 20
-7.403250687300001
 10
-20.05309254029999
 20
-7.454172856900001
 10
-19.91446972429999
 20
-7.498593109700003
 10
-19.76428467469999
 20
-7.5366018713
 10
-19.59913133229999
 20
-7.5679282169
 10
-19.41377486029999
 20
-7.591930592899998
 10
-19.21081109229999
 20
-7.606801324100004
 10
-19.00175725229999
 20
-7.6140255273
 10
-18.79826135149999
 20
-7.618239388100001
 10
-18.60473659469999
 20
-7.622963028100002
  0
LWPOLYLINE
  5
58
330
2
100
AcDbEntity
  8
0
100
AcDbPolyline
 90
        8
 70
     0
 43
0.0
 10
-23.86264147629999
 20
5.183077810299998
 10
-23.84137222829999
 20
5.0842096935
 10
-23.81150871949999
 20
4.977575671099998
 10
-23.77322302189999
 20
4.8632695111
 10
-23.72715632909998
 20
4.741250981500002
 10
-23.67436532109999
 20
4.611163104699997
 10
-23.61621707949999
 20
4.472057253499997
 10
-23.55024261389999
 20
4.311983011899997
  0
LWPOLYLINE
  5
59
330
2
100
AcDbEntity
  8
0
100
AcDbPolyline
 90
        6
 70
     0
 43
0.0
 10
-21.01549923149999
 20
-3.599036341699999
 10
-20.96211972909999
 20
-3.865692021699999
 10
-20.90356989229999
 20
-4.154277903299998
 10
-20.83898586189999
 20
-4.717265244099998
 10
-20.76638478029999
 20
-5.059829109700004
 10
-20.68287137229999
 20
-5.4358654169
  0
LINE
  5
5A
330
2
100
AcDbEntity
  8
0
100
AcDbLine
 10
-21.70969837709999
 20
-5.357059167299997
 30
0.0
 11
-21.69332494989999
 21
-5.439166636099994
 31
0.0
  0
LWPOLYLINE
  5
5B
330
2
100
AcDbEntity
  8
0
100
AcDbPolyline
 90
        3
 70
     0
 43
0.0
 10
-21.18764905549999
 20
-2.727673543299999
 10
-21.10769244749999
 20
-3.132551655299998
 10
-21.01549923149999
 20
-3.599036341699999
  0
LWPOLYLINE
  5
5C
330
2
100
AcDbEntity
  8
0
100
AcDbPolyline
 90
        3
 70
     0
 43
0.0
 10
-21.70189362509999
 20
-5.396197484099999
 10
-21.70001671789999
 20
-5.407093733700001
 10
-21.69332514349999
 20
-5.439165733700001
  0
LWPOLYLINE
  5
5D
330
2
100
AcDbEntity
  8
0
100
AcDbPolyline
 90
        6
 70
     0
 43
0.0
 10
-25.41500428109999
 20
9.250795135099998
 10
-25.32296016589999
 20
9.061424813499996
 10
-25.15219613229999
 20
8.701793251899999
 10
-24.99682379469999
 20
8.368760599099999
 10
-24.84846984909999
 20
8.046548344699999
 10
-24.70435718669999
 20
7.730406895099996
  0
LINE
  5
5E
330
2
100
AcDbEntity
  8
0
100
AcDbLine
 10
-24.05037188429999
 20
6.232044751100001
 30
0.0
 11
-24.03837714829999
 21
6.206104923900003
 31
0.0
  0
LINE
  5
5F
330
2
100
AcDbEntity
  8
0
100
AcDbLine
 10
-24.03837714829999
 20
6.206104923900003
 30
0.0
 11
-24.00488681229999
 21
6.132789103100005
 31
0.0
  0
LINE
  5
60
330
2
100
AcDbEntity
  8
0
100
AcDbLine
 10
-24.00488681229999
 20
6.132789103100005
 30
0.0
 11
-23.96971055309999
 21
6.054872928700003
 31
0.0
  0
LINE
  5
61
330
2
100
AcDbEntity
  8
0
100
AcDbLine
 10
-23.96971055309999
 20
6.054872928700003
 30
0.0
 11
-23.92427081869999
 21
5.9529762503
 31
0.0
  0
LWPOLYLINE
  5
62
330
2
100
AcDbEntity
  8
0
100
AcDbPolyline
 90
       43
 70
     0
 43
0.0
 10
-23.92427081869999
 20
5.952976250299997
 10
-23.86641515469999
 20
5.821365474300002
 10
-23.83257771789999
 20
5.743464709499995
 10
-23.79715175149999
 20
5.661139506299996
 10
-23.76346554669999
 20
5.5820789351
 10
-23.73302010349999
 20
5.509888095099995
 10
-23.70361455629999
 20
5.439361541499998
 10
-23.67220172749999
 20
5.363132224699995
 10
-23.63691058029999
 20
5.276561744699996
 10
-23.59774740109999
 20
5.179554951100001
 10
-23.55535498349999
 20
5.0736714887
 10
-23.50964111949999
 20
4.958627207100001
 10
-23.46048517549998
 20
4.8339962087
 10
-23.40767078509999
 20
4.699106243899997
 10
-23.35088861549999
 20
4.552988458299999
 10
-23.28974990029999
 20
4.394405186299998
 10
-23.22381705869999
 20
4.221933943099998
 10
-23.15261690669999
 20
4.033991459900001
 10
-23.07564209069999
 20
3.828770920700002
 10
-22.99230982989999
 20
3.6041748855
 10
-22.90176016589999
 20
3.357153912699999
 10
-22.80295001389999
 20
3.083785978299999
 10
-22.69479064109999
 20
2.779718826299998
 10
-22.57675143469999
 20
2.441546384699996
 10
-22.44913181549999
 20
2.067710103099997
 10
-22.32243332109999
 20
1.6869600407
 10
-22.20359117869999
 20
1.319779791099996
 10
-22.09407110989999
 20
0.9712357351000022
 10
-21.99309686189999
 20
0.6395854806999992
 10
-21.89920610509999
 20
0.3204868886999961
 10
-21.81137127149999
 20
0.0101425798999984
 10
-21.72947545069999
 20
-0.2928942905000014
 10
-21.65467641869999
 20
-0.584432436100002
 10
-21.58846560749999
 20
-0.8553260345000026
 10
-21.53089114509999
 20
-1.100699135299997
 10
-21.48042794349999
 20
-1.323118028099997
 10
-21.43469754669999
 20
-1.5304072009
 10
-21.39163385549999
 20
-1.7303407849
 10
-21.34951683949999
 20
-1.930005352900003
 10
-21.30800787309999
 20
-2.1304083001
 10
-21.26711315629999
 20
-2.330952301700001
 10
-21.22700466989999
 20
-2.530196325700003
 10
-21.18764905549999
 20
-2.727673543299999
  0
LWPOLYLINE
  5
63
330
2
100
AcDbEntity
  8
0
100
AcDbPolyline
 90
        4
 70
     0
 43
0.0
 10
-24.05039294509999
 20
6.2321025735
 10
-24.24805351149999
 20
6.697313621500001
 10
-24.46576642029999
 20
7.197229501499997
 10
-24.70435406509999
 20
7.730398197500001
  0
LINE
  5
64
330
2
100
AcDbEntity
  8
0
100
AcDbLine
 10
-15.47326907949999
 20
-7.921257631299997
 30
0.0
 11
-15.47326907949999
 21
-7.9812576313
 31
0.0
  0
LINE
  5
65
330
2
100
AcDbEntity
  8
0
100
AcDbLine
 10
-14.89672788589999
 20
-8.2669132537
 30
0.0
 11
-14.44150859629999
 21
-9.9658147737
 31
0.0
  0
LINE
  5
66
330
2
100
AcDbEntity
  8
0
100
AcDbLine
 10
-30.98944356749999
 20
10.7568684199
 30
0.0
 11
-30.98883466189999
 21
10.7562588471
 31
0.0
  0
LINE
  5
67
330
2
100
AcDbEntity
  8
0
100
AcDbLine
 10
-9.823298983499995
 20
-8.118558935299997
 30
0.0
 11
-9.823298983499995
 21
-8.178558935299999
 31
0.0
  0
LINE
  5
68
330
2
100
AcDbEntity
  8
0
100
AcDbLine
 10
-10.44824323309998
 20
-8.447555916099997
 30
0.0
 11
-10.85505946829999
 21
-9.9658147737
 31
0.0
  0
LWPOLYLINE
  5
69
330
2
100
AcDbEntity
  8
0
100
AcDbPolyline
 90
        4
 70
     0
 43
0.0
 10
7.681025909300004
 20
-9.734653373699998
 10
7.674926389300011
 20
-9.736227138499998
 10
7.660310275700012
 20
-9.737560980099999
 10
7.649310869300009
 20
-9.7379922633
  0
LWPOLYLINE
  5
6A
330
2
100
AcDbEntity
  8
0
100
AcDbPolyline
 90
        8
 70
     0
 43
0.0
 10
8.036538005300002
 20
-9.800950292099997
 10
8.021949909300005
 20
-9.8038168713
 10
7.983688323700008
 20
-9.806529556100002
 10
7.923624699699999
 20
-9.808955978500002
 10
7.844694422900005
 20
-9.8109778345
 10
7.750751005300003
 20
-9.812496644100001
 10
7.646376341300012
 20
-9.813438508099999
 10
7.536656992500013
 20
-9.813757631299999
  0
LINE
  5
6B
330
2
100
AcDbEntity
  8
0
100
AcDbLine
 10
7.654708693300008
 20
-9.739249151299997
 30
0.0
 11
7.681010789300003
 21
-9.734674967299998
 31
0.0
  0
LWPOLYLINE
  5
6D
330
2
100
AcDbEntity
  8
0
100
AcDbPolyline
 90
       25
 70
     0
 43
0.0
 10
11.7542794853
 20
-9.2713416729
 10
11.7937227685
 20
-9.267222484100003
 10
11.8304726405
 20
-9.2629510617
 10
11.8648780981
 20
-9.258506308100002
 10
11.8973181653
 20
-9.253851824900003
 10
11.92818467890001
 20
-9.248933975299998
 10
11.9578773285
 20
-9.243677530500001
 10
11.98680858450001
 20
-9.2379785257
 10
12.01539250290001
 20
-9.231698343300003
 10
12.0439850309
 20
-9.224669154499999
 10
12.0729832021
 20
-9.216660226500003
 10
12.1027939157
 20
-9.207365832900002
 10
12.1338461893
 20
-9.196375143300002
 10
12.1665497173
 20
-9.183148559300001
 10
12.2014128085
 20
-9.166913984899998
 10
12.2387706085
 20
-9.146724183300001
 10
12.2784112341
 20
-9.121640663299999
 10
12.31968238610001
 20
-9.0907547913
 10
12.36134814290001
 20
-9.053422658500004
 10
12.4022814725
 20
-9.0088062409
 10
12.44085312050001
 20
-8.956611186499998
 10
12.4748626261
 20
-8.897645952899999
 10
12.5025876181
 20
-8.832681237700001
 10
12.52277217010001
 20
-8.762310712900003
 10
12.5331012197
 20
-8.698464096900003
  0
LWPOLYLINE
  5
6E
330
2
100
AcDbEntity
  8
0
100
AcDbPolyline
 90
        7
 70
     0
 43
0.0
 10
7.65442325650001
 20
-9.737607855299998
 10
7.653950904500007
 20
-9.737651018500002
 10
7.649310869300009
 20
-9.7379922633
 10
7.640355962100002
 20
-9.7385130953
 10
7.628165178100005
 20
-9.739068410500003
 10
7.612139557300011
 20
-9.7396381625
 10
7.59275248690001
 20
-9.740210607299999
  0
LWPOLYLINE
  5
71
330
2
100
AcDbEntity
  8
0
100
AcDbPolyline
 90
       15
 70
     0
 43
0.0
 10
9.052994976500002
 20
-9.480194141700003
 10
9.2939018661
 20
-9.466438551300001
 10
9.528076410100013
 20
-9.451799109699997
 10
9.751762509300007
 20
-9.436630028099997
 10
9.962109182900007
 20
-9.421419469699998
 10
10.1591633669
 20
-9.406565210499998
 10
10.3476853493
 20
-9.3919983977
 10
10.53893061490001
 20
-9.376921703299998
 10
10.7382790101
 20
-9.360830632900004
 10
10.9365307573
 20
-9.344377965699997
 10
11.1230550117
 20
-9.328455903300003
 10
11.2957118181
 20
-9.313324551299999
 10
11.4562004885
 20
-9.298920916100001
 10
11.60615329010001
 20
-9.285192037699999
 10
11.7542794853
 20
-9.2713416729
  0
LINE
  5
74
330
2
100
AcDbEntity
  8
0
100
AcDbLine
 10
7.611674629300011
 20
-9.546007696899994
 30
0.0
 11
7.968295850100005
 21
-9.529674364099999
 31
0.0
  0
LWPOLYLINE
  5
75
330
2
100
AcDbEntity
  8
0
100
AcDbPolyline
 90
        4
 70
     0
 43
0.0
 10
1.179999509300003
 20
-9.522166978500003
 10
1.1374031621
 20
-9.523998317699998
 10
1.10174165170001
 20
-9.526820765700001
 10
1.091221098100007
 20
-9.529491424900001
  0
LINE
  5
76
330
2
100
AcDbEntity
  8
0
100
AcDbLine
 10
26.5973967477
 20
-7.656699575299999
 30
0.0
 11
26.5233136293
 21
-7.659982437699998
 31
0.0
  0
LINE
  5
78
330
2
100
AcDbEntity
  8
0
100
AcDbLine
 10
7.271606106100009
 20
-9.559973799299999
 30
0.0
 11
7.611674629300011
 21
-9.546007696899994
 31
0.0
  0
LWPOLYLINE
  5
79
330
2
100
AcDbEntity
  8
0
100
AcDbPolyline
 90
        8
 70
     0
 43
0.0
 10
3.796510992500003
 20
-9.566431183300004
 10
3.986861611700007
 20
-9.5590354793
 10
4.088402246900002
 20
-9.5555571513
 10
4.194174330100011
 20
-9.552395517699999
 10
4.303858824500011
 20
-9.549700692100003
 10
4.416974942900012
 20
-9.547620872899997
 10
4.532896750900007
 20
-9.546291381700001
 10
4.650868974900006
 20
-9.545823853699999
  0
LINE
  5
7A
330
2
100
AcDbEntity
  8
0
100
AcDbLine
 10
7.64053399410001
 20
-9.7386928873
 30
0.0
 11
7.628165178100005
 21
-9.739068410499999
 31
0.0
  0
LWPOLYLINE
  5
7B
330
2
100
AcDbEntity
  8
0
100
AcDbPolyline
 90
        5
 70
     0
 43
0.0
 10
8.154427331700006
 20
-9.520533826499999
 10
8.272658019700003
 20
-9.516296952899999
 10
8.544823870900003
 20
-9.505110276099998
 10
8.804174013300013
 20
-9.493069754499998
 10
9.052994976500002
 20
-9.480194141700003
  0
LINE
  5
7C
330
2
100
AcDbEntity
  8
0
100
AcDbLine
 10
19.1250309205
 20
-8.178558935299999
 30
0.0
 11
24.77500101650001
 21
-7.9812576313
 31
0.0
  0
LINE
  5
7D
330
2
100
AcDbEntity
  8
0
100
AcDbLine
 10
19.1250309205
 20
-8.118558935299997
 30
0.0
 11
24.77500101650001
 21
-7.921257631299997
 31
0.0
  0
LINE
  5
7E
330
2
100
AcDbEntity
  8
0
100
AcDbLine
 10
7.003494429300005
 20
-9.569703276099996
 30
0.0
 11
7.271606106100009
 21
-9.559973799299999
 31
0.0
  0
LINE
  5
81
330
2
100
AcDbEntity
  8
0
100
AcDbLine
 10
6.771668165299999
 20
-9.577062303299999
 30
0.0
 11
7.003494429300005
 21
-9.569703276099996
 31
0.0
  0
LINE
  5
82
330
2
100
AcDbEntity
  8
0
100
AcDbLine
 10
7.6151581413
 20
-9.739607160899996
 30
0.0
 11
7.612139557300011
 21
-9.739638162499996
 31
0.0
  0
LINE
  5
83
330
2
100
AcDbEntity
  8
0
100
AcDbLine
 10
7.59275248690001
 20
-9.740210607299996
 30
0.0
 11
7.588830755700001
 21
-9.7403697833
 31
0.0
  0
LINE
  5
85
330
2
100
AcDbEntity
  8
0
100
AcDbLine
 10
6.531964667700009
 20
-9.583498621699998
 30
0.0
 11
6.771668165299999
 21
-9.577062303299999
 31
0.0
  0
LINE
  5
87
330
2
100
AcDbEntity
  8
0
100
AcDbLine
 10
6.30904574130001
 20
-9.588332295299995
 30
0.0
 11
6.531964667700009
 21
-9.583498621699998
 31
0.0
  0
LINE
  5
88
330
2
100
AcDbEntity
  8
0
100
AcDbLine
 10
6.308568518900003
 20
-9.588357440899994
 30
0.0
 11
6.309046875700005
 21
-9.588348288899997
 31
0.0
  0
LINE
  5
89
330
2
100
AcDbEntity
  8
0
100
AcDbLine
 10
7.59275248690001
 20
-9.740210607299996
 30
0.0
 11
7.544555755700002
 21
-9.741207399299998
 31
0.0
  0
LINE
  5
8B
330
2
100
AcDbEntity
  8
0
100
AcDbLine
 10
7.556657950900003
 20
-9.741019764099998
 30
0.0
 11
7.544555755700002
 21
-9.741207399299998
 31
0.0
  0
LINE
  5
8D
330
2
100
AcDbEntity
  8
0
100
AcDbLine
 10
7.544555755700002
 20
-9.741207399299998
 30
0.0
 11
7.485541859700006
 21
-9.741957068099996
 31
0.0
  0
LINE
  5
8E
330
2
100
AcDbEntity
  8
0
100
AcDbLine
 10
7.517522307700005
 20
-9.7416323401
 30
0.0
 11
7.485541859700006
 21
-9.741957068099996
 31
0.0
  0
LWPOLYLINE
  5
8F
330
2
100
AcDbEntity
  8
0
100
AcDbPolyline
 90
        7
 70
     0
 43
0.0
 10
7.646376341300012
 20
-9.750938508099999
 10
7.750751005300003
 20
-9.749996644100001
 10
7.844694422900005
 20
-9.7484778345
 10
7.923624699699999
 20
-9.746455978500002
 10
7.983688323700008
 20
-9.744029556100002
 10
8.021949909300005
 20
-9.7413168713
 10
8.036538005300002
 20
-9.738450292099997
  0
LINE
  5
92
330
2
100
AcDbEntity
  8
0
100
AcDbLine
 10
7.485541859700006
 20
-9.741957068099996
 30
0.0
 11
7.41842038930001
 21
-9.742419772099996
 31
0.0
  0
LINE
  5
93
330
2
100
AcDbEntity
  8
0
100
AcDbLine
 10
7.424800586100005
 20
-9.742383909699999
 30
0.0
 11
7.41842038930001
 21
-9.742419772099996
 31
0.0
  0
LINE
  5
95
330
2
100
AcDbEntity
  8
0
100
AcDbLine
 10
7.536656992500013
 20
-9.751257631299996
 30
0.0
 11
7.646376341300012
 21
-9.750938508099995
 31
0.0
  0
LINE
  5
96
330
2
100
AcDbEntity
  8
0
100
AcDbLine
 10
23.3810183477
 20
-10.24375763129999
 30
0.0
 11
20.5190135893
 21
-10.24375763129999
 31
0.0
  0
LINE
  5
97
330
2
100
AcDbEntity
  8
0
100
AcDbLine
 10
7.175871992500006
 20
-10.24375763129999
 30
0.0
 11
5.309344326900003
 21
-10.24375763129999
 31
0.0
  0
LINE
  5
98
330
2
100
AcDbEntity
  8
0
100
AcDbLine
 10
3.99238760850001
 20
-10.24375763129999
 30
0.0
 11
2.125859942900007
 21
-10.24375763129999
 31
0.0
  0
LINE
  5
99
330
2
100
AcDbEntity
  8
0
100
AcDbLine
 10
-11.21728165229999
 20
-10.24375763129999
 30
0.0
 11
-14.07928641069999
 21
-10.24375763129999
 31
0.0
  0
LINE
  5
9A
330
2
100
AcDbEntity
  8
0
100
AcDbLine
 10
5.922312578100004
 20
-10.05625763129999
 30
0.0
 11
5.921166986100004
 21
-10.05625763129999
 31
0.0
  0
LINE
  5
9B
330
2
100
AcDbEntity
  8
0
100
AcDbLine
 10
3.380565000500013
 20
-10.05625763129999
 30
0.0
 11
3.379420907700009
 21
-10.05625763129999
 31
0.0
  0
LINE
  5
9C
330
2
100
AcDbEntity
  8
0
100
AcDbLine
 10
3.380565000500013
 20
-10.05625763129999
 30
0.0
 11
5.921166986100004
 21
-10.05625763129999
 31
0.0
  0
LINE
  5
9D
330
2
100
AcDbEntity
  8
0
100
AcDbLine
 10
7.536656992500013
 20
-9.813757631299996
 30
0.0
 11
6.294254315700001
 21
-9.813757631299996
 31
0.0
  0
LINE
  5
9E
330
2
100
AcDbEntity
  8
0
100
AcDbLine
 10
3.007477619700011
 20
-9.813757631299996
 30
0.0
 11
1.7650749445
 21
-9.813757631299996
 31
0.0
  0
LINE
  5
9F
330
2
100
AcDbEntity
  8
0
100
AcDbLine
 10
1.7650749445
 20
-9.751257631299996
 30
0.0
 11
2.944977619700011
 21
-9.751257631299996
 31
0.0
  0
LINE
  5
A0
330
2
100
AcDbEntity
  8
0
100
AcDbLine
 10
6.356754315700001
 20
-9.751257631299996
 30
0.0
 11
7.536656992500013
 21
-9.751257631299996
 31
0.0
  0
LINE
  5
A1
330
2
100
AcDbEntity
  8
0
100
AcDbLine
 10
6.36543993970001
 20
-9.742572007299994
 30
0.0
 11
7.41842038930001
 21
-9.742419772099996
 31
0.0
  0
LINE
  5
A4
330
2
100
AcDbEntity
  8
0
100
AcDbLine
 10
2.936318277300003
 20
-9.742598288899994
 30
0.0
 11
1.899012267700001
 21
-9.742475450499998
 31
0.0
  0
LWPOLYLINE
  5
A5
330
2
100
AcDbEntity
  8
0
100
AcDbPolyline
 90
        8
 70
     0
 43
0.0
 10
1.7650749445
 20
-9.813757631299999
 10
1.655355594100001
 20
-9.813438508099999
 10
1.55098093010001
 20
-9.812496644100001
 10
1.457037512500008
 20
-9.8109778345
 10
1.378107235699999
 20
-9.808955978500002
 10
1.318043611700005
 20
-9.806529556100002
 10
1.279782026100008
 20
-9.8038168713
 10
1.265193930100011
 20
-9.800950292099997
  0
LINE
  5
A6
330
2
100
AcDbEntity
  8
0
100
AcDbLine
 10
1.655355594100001
 20
-9.750938508099995
 30
0.0
 11
1.7650749445
 21
-9.751257631299996
 31
0.0
  0
LWPOLYLINE
  5
A8
330
2
100
AcDbEntity
  8
0
100
AcDbPolyline
 90
        7
 70
     0
 43
0.0
 10
4.650868974900006
 20
-9.545823628100002
 10
4.768833730100013
 20
-9.546291549700001
 10
4.884755062900012
 20
-9.547621036100004
 10
4.997871421300004
 20
-9.549700866500003
 10
5.107556013300012
 20
-9.5523957097
 10
5.213328232500003
 20
-9.555557375299997
 10
5.314869067700001
 20
-9.5590357449
  0
LINE
  5
A9
330
2
100
AcDbEntity
  8
0
100
AcDbLine
 10
1.899012267700001
 20
-9.742475450499998
 30
0.0
 11
1.832857397300003
 21
-9.742104026499998
 31
0.0
  0
LINE
  5
AB
330
2
100
AcDbEntity
  8
0
100
AcDbLine
 10
1.55098093010001
 20
-9.749996644099997
 30
0.0
 11
1.655355594100001
 21
-9.750938508099995
 31
0.0
  0
LINE
  5
AC
330
2
100
AcDbEntity
  8
0
100
AcDbLine
 10
1.832857397300003
 20
-9.742104026499998
 30
0.0
 11
1.7738928917
 21
-9.741467495299996
 31
0.0
  0
LWPOLYLINE
  5
AD
330
2
100
AcDbEntity
  8
0
100
AcDbPolyline
 90
        9
 70
     0
 43
0.0
 10
2.993040312499999
 20
-9.588355090500002
 10
3.045435170100006
 20
-9.589026047300002
 10
3.108655325300006
 20
-9.5890722281
 10
3.174280432500012
 20
-9.588408063300001
 10
3.24225622450001
 20
-9.587113365699998
 10
3.312652211700012
 20
-9.585263685699999
 10
3.385637437300005
 20
-9.582929525700002
 10
3.46134422610001
 20
-9.580181071300003
 10
3.796510992500003
 20
-9.566431183300004
  0
LINE
  5
AE
330
2
100
AcDbEntity
  8
0
100
AcDbLine
 10
1.792635747700003
 20
-9.741805488899995
 30
0.0
 11
1.7738928917
 21
-9.741467495299996
 31
0.0
  0
LWPOLYLINE
  5
AF
330
2
100
AcDbEntity
  8
0
100
AcDbPolyline
 90
        3
 70
     0
 43
0.0
 10
1.747743424500001
 20
-9.741040496899998
 10
1.732674411700003
 20
-9.740873847300001
 10
1.724035862900009
 20
-9.740571018499998
  0
LINE
  5
B1
330
2
100
AcDbEntity
  8
0
100
AcDbLine
 10
2.992679048500008
 20
-9.588348173699994
 30
0.0
 11
2.993040312499999
 21
-9.588355090499998
 31
0.0
  0
LWPOLYLINE
  5
B2
330
2
100
AcDbEntity
  8
0
100
AcDbPolyline
 90
        8
 70
     0
 43
0.0
 10
1.7738928917
 20
-9.7414674953
 10
1.724035862900009
 20
-9.740571018499998
 10
1.703204757299999
 20
-9.740052304900004
 10
1.685054104500011
 20
-9.739488453699998
 10
1.670270128500007
 20
-9.738932218500004
 10
1.658806496500005
 20
-9.7383734601
 10
1.650745205300012
 20
-9.737880181699999
 10
1.64886466770001
 20
-9.7377413305
  0
LINE
  5
B4
330
2
100
AcDbEntity
  8
0
100
AcDbLine
 10
2.805631496500012
 20
-9.584351919299994
 30
0.0
 11
2.992680075700008
 21
-9.5883321897
 31
0.0
  0
LWPOLYLINE
  5
B5
330
2
100
AcDbEntity
  8
0
100
AcDbPolyline
 90
        3
 70
     0
 43
0.0
 10
1.703204757299999
 20
-9.740052304900004
 10
1.685363432500011
 20
-9.739684408900004
 10
1.685054104500011
 20
-9.739488453699998
  0
LINE
  5
B7
330
2
100
AcDbEntity
  8
0
100
AcDbLine
 10
2.543436466100004
 20
-9.577454194499996
 30
0.0
 11
2.805631496500012
 21
-9.584351919299994
 31
0.0
  0
LWPOLYLINE
  5
B9
330
2
100
AcDbEntity
  8
0
100
AcDbPolyline
 90
        7
 70
     0
 43
0.0
 10
5.9160938805
 20
-9.5829294969
 10
5.989078934900007
 20
-9.585263671299998
 10
6.05947494770001
 20
-9.587113360899998
 10
6.12745092530001
 20
-9.5884080585
 10
6.193076160500012
 20
-9.5890722249
 10
6.256296363700002
 20
-9.589026048900002
 10
6.308568518900003
 20
-9.588357440899997
  0
LINE
  5
BA
330
2
100
AcDbEntity
  8
0
100
AcDbLine
 10
2.289704443700003
 20
-9.569412994499995
 30
0.0
 11
2.543436466100004
 21
-9.577454194499996
 31
0.0
  0
LINE
  5
BB
330
2
100
AcDbEntity
  8
0
100
AcDbLine
 10
-15.47326907949999
 20
-7.9812576313
 30
0.0
 11
-9.823298983499995
 21
-8.178558935299999
 31
0.0
  0
LINE
  5
BC
330
2
100
AcDbEntity
  8
0
100
AcDbLine
 10
-15.47326907949999
 20
-7.921257631299997
 30
0.0
 11
-9.823298983499995
 21
-8.118558935299997
 31
0.0
  0
LINE
  5
BD
330
2
100
AcDbEntity
  8
0
100
AcDbLine
 10
1.997204251700011
 20
-9.558697295299996
 30
0.0
 11
2.289704443700003
 21
-9.569412994499995
 31
0.0
  0
LINE
  5
BE
330
2
100
AcDbEntity
  8
0
100
AcDbLine
 10
5.761677718900003
 20
-9.577083792899994
 30
0.0
 11
5.9160938805
 21
-9.582929496899996
 31
0.0
  0
LINE
  5
BF
330
2
100
AcDbEntity
  8
0
100
AcDbLine
 10
5.314869067700001
 20
-9.559035744899997
 30
0.0
 11
5.505221024500002
 21
-9.566431274499993
 31
0.0
  0
LINE
  5
C0
330
2
100
AcDbEntity
  8
0
100
AcDbLine
 10
1.670270128500007
 20
-9.7389322185
 30
0.0
 11
1.6497741429
 21
-9.738242663299995
 31
0.0
  0
LINE
  5
C1
330
2
100
AcDbEntity
  8
0
100
AcDbLine
 10
5.505221024500002
 20
-9.566431274499993
 30
0.0
 11
5.761677718900003
 21
-9.577083792899994
 31
0.0
  0
LINE
  5
C3
330
2
100
AcDbEntity
  8
0
100
AcDbLine
 10
1.677293037300003
 20
-9.545451485699995
 30
0.0
 11
1.997204251700011
 21
-9.558697295299996
 31
0.0
  0
LINE
  5
C4
330
2
100
AcDbEntity
  8
0
100
AcDbLine
 10
1.2959280277
 20
-9.527865058499994
 30
0.0
 11
1.677293037300003
 21
-9.545451485699995
 31
0.0
  0
LWPOLYLINE
  5
C6
330
2
100
AcDbEntity
  8
0
100
AcDbPolyline
 90
        6
 70
     0
 43
0.0
 10
0.0077441493000094
 20
-9.466433324100002
 10
0.2485883429000069
 20
-9.480185960900001
 10
0.4973396405000017
 20
-9.493058943299999
 10
0.7566356245000066
 20
-9.505098255299998
 10
1.028785923700013
 20
-9.516285794499999
 10
1.1473879861
 20
-9.520536578499999
  0
LWPOLYLINE
  5
C9
330
2
100
AcDbEntity
  8
0
100
AcDbPolyline
 90
        3
 70
     0
 43
0.0
 10
1.6497741429
 20
-9.738242663299999
 10
1.62670724210001
 20
-9.7365525529
 10
1.619305315700003
 20
-9.7346756329
  0
LWPOLYLINE
  5
CA
330
2
100
AcDbEntity
  8
0
100
AcDbPolyline
 90
       12
 70
     0
 43
0.0
 10
-2.154425157899993
 20
-9.298924839299999
 10
-1.993895503499999
 20
-9.313332026499999
 10
-1.821196855499991
 20
-9.328466812100003
 10
-1.634640737099999
 20
-9.344391261700003
 10
-1.436383111499992
 20
-9.360844029700004
 10
-1.237055274699997
 20
-9.376933104900004
 10
-1.045846641099998
 20
-9.392006688900004
 10
-0.857361669899987
 20
-9.406570490500001
 10
-0.660341090699987
 20
-9.421422082500001
 10
-0.4500281866999956
 20
-9.436630120899998
 10
-0.2263813834999979
 20
-9.451796618499997
 10
0.0077441493000094
 20
-9.466433324100002
  0
LINE
  5
CC
330
2
100
AcDbEntity
  8
0
100
AcDbLine
 10
1.648556482100005
 20
-9.739514066499996
 30
0.0
 11
1.620721136500009
 21
-9.734674952899997
 31
0.0
  0
LWPOLYLINE
  5
CD
330
2
100
AcDbEntity
  8
0
100
AcDbPolyline
 90
        6
 70
     0
 43
0.0
 10
1.265193930100011
 20
-9.738450292099997
 10
1.279782026100008
 20
-9.7413168713
 10
1.318043611700005
 20
-9.744029556100002
 10
1.378107235699999
 20
-9.746455978500002
 10
1.457037512500008
 20
-9.7484778345
 10
1.55098093010001
 20
-9.749996644100001
  0
LWPOLYLINE
  5
CE
330
2
100
AcDbEntity
  8
0
100
AcDbPolyline
 90
        5
 70
     0
 43
0.0
 10
1.679444952500006
 20
-9.813508572099998
 10
1.680837507700005
 20
-9.814171778500003
 10
1.698817685299999
 20
-9.8268478313
 10
1.715677437300001
 20
-9.844228562499999
 10
1.720287403700012
 20
-9.850397594500002
  0
LWPOLYLINE
  5
CF
330
2
100
AcDbEntity
  8
0
100
AcDbPolyline
 90
        5
 70
     0
 43
0.0
 10
2.769743885300002
 20
-9.5834911273
 10
2.774146434100003
 20
-9.586109252100001
 10
2.786489754100003
 20
-9.5948467961
 10
2.799079526900001
 20
-9.605530900099999
 10
2.803868032500005
 20
-9.6101484681
  0
LINE
  5
D0
330
2
100
AcDbEntity
  8
0
100
AcDbLine
 10
-3.231370972299998
 20
-8.6984554265
 30
0.0
 11
-3.231374229899998
 21
-8.698424218499997
 31
0.0
  0
LINE
  5
D1
330
2
100
AcDbEntity
  8
0
100
AcDbLine
 10
-3.232297201099996
 20
-8.688802719299996
 30
0.0
 11
-3.231374229899998
 21
-8.698424218499997
 31
0.0
  0
LINE
  5
D2
330
2
100
AcDbEntity
  8
0
100
AcDbLine
 10
-3.232297201099996
 20
-8.688802720899996
 30
0.0
 11
-3.252143449099989
 21
-8.461959076099997
 31
0.0
  0
LINE
  5
D3
330
2
100
AcDbEntity
  8
0
100
AcDbLine
 10
26.5233136293
 20
-7.659982437699998
 30
0.0
 11
26.46100780050001
 21
-7.662291052099998
 31
0.0
  0
LINE
  5
D5
330
2
100
AcDbEntity
  8
0
100
AcDbLine
 10
25.3098725141
 20
-7.696680087299998
 30
0.0
 11
23.1629948405
 21
-7.7619022953
 31
0.0
  0
LINE
  5
D6
330
2
100
AcDbEntity
  8
0
100
AcDbLine
 10
23.1629948405
 20
-7.7619022953
 30
0.0
 11
22.8637400549
 21
-7.770919711299999
 31
0.0
  0
LINE
  5
D7
330
2
100
AcDbEntity
  8
0
100
AcDbLine
 10
25.5044334309
 20
-7.690815756099997
 30
0.0
 11
25.3098725141
 21
-7.696680087299998
 31
0.0
  0
LINE
  5
D8
330
2
100
AcDbEntity
  8
0
100
AcDbLine
 10
22.8637400549
 20
-7.770919711299999
 30
0.0
 11
22.54001522770001
 21
-7.780626988099999
 31
0.0
  0
LINE
  5
D9
330
2
100
AcDbEntity
  8
0
100
AcDbLine
 10
25.74239245650001
 20
-7.683680026499995
 30
0.0
 11
25.5044334309
 21
-7.690815756099997
 31
0.0
  0
LINE
  5
DA
330
2
100
AcDbEntity
  8
0
100
AcDbLine
 10
22.54001522770001
 20
-7.780626988099999
 30
0.0
 11
22.1973674853
 21
-7.790843642499996
 31
0.0
  0
LINE
  5
DB
330
2
100
AcDbEntity
  8
0
100
AcDbLine
 10
22.1973674853
 20
-7.790843642499996
 30
0.0
 11
21.8320169957
 21
-7.801666871299996
 31
0.0
  0
LINE
  5
DC
330
2
100
AcDbEntity
  8
0
100
AcDbLine
 10
26.0940620213
 20
-7.673225847299999
 30
0.0
 11
25.74239245650001
 21
-7.683680026499995
 31
0.0
  0
LINE
  5
DD
330
2
100
AcDbEntity
  8
0
100
AcDbLine
 10
27.9064685317
 20
-7.622963028099999
 30
0.0
 11
12.97682772050001
 21
-8.062779432899997
 31
0.0
  0
LWPOLYLINE
  5
DE
330
2
100
AcDbEntity
  8
0
100
AcDbPolyline
 90
        4
 70
     0
 43
0.0
 10
26.3901791349
 20
-7.664516159299999
 10
26.3240055093
 20
-7.666454504900002
 10
26.2535440805
 20
-7.6685236697
 10
26.0940620213
 20
-7.673225847300003
  0
LINE
  5
DF
330
2
100
AcDbEntity
  8
0
100
AcDbLine
 10
21.8320169957
 20
-7.801666871299996
 30
0.0
 11
21.02985177810001
 21
-7.825152477699997
 31
0.0
  0
LINE
  5
E0
330
2
100
AcDbEntity
  8
0
100
AcDbLine
 10
21.02985177810001
 20
-7.825152477699997
 30
0.0
 11
20.3070986869
 21
-7.8459583353
 31
0.0
  0
LINE
  5
E1
330
2
100
AcDbEntity
  8
0
100
AcDbLine
 10
26.3901526581
 20
-7.664516943299997
 30
0.0
 11
26.9101179525
 21
-7.6494990377
 31
0.0
  0
LINE
  5
E2
330
2
100
AcDbEntity
  8
0
100
AcDbLine
 10
20.3070986869
 20
-7.8459583353
 30
0.0
 11
19.4807426901
 21
-7.869325644099998
 31
0.0
  0
LINE
  5
E3
330
2
100
AcDbEntity
  8
0
100
AcDbLine
 10
19.4807426901
 20
-7.869325644099998
 30
0.0
 11
18.5112466725
 21
-7.896217093699998
 31
0.0
  0
LINE
  5
E4
330
2
100
AcDbEntity
  8
0
100
AcDbLine
 10
26.9101179525
 20
-7.6494990377
 30
0.0
 11
27.3834310997
 21
-7.636306496899994
 31
0.0
  0
LINE
  5
E5
330
2
100
AcDbEntity
  8
0
100
AcDbLine
 10
18.5112466725
 20
-7.896217093699998
 30
0.0
 11
17.7638496917
 21
-7.9165349833
 31
0.0
  0
LINE
  5
E6
330
2
100
AcDbEntity
  8
0
100
AcDbLine
 10
17.7638496917
 20
-7.9165349833
 30
0.0
 11
16.9362880309
 21
-7.938603407299996
 31
0.0
  0
LINE
  5
E7
330
2
100
AcDbEntity
  8
0
100
AcDbLine
 10
16.9362880309
 20
-7.938603407299996
 30
0.0
 11
16.0339744565
 21
-7.962133245699998
 31
0.0
  0
LINE
  5
E8
330
2
100
AcDbEntity
  8
0
100
AcDbLine
 10
27.3834310997
 20
-7.636306496899994
 30
0.0
 11
27.69171789970001
 21
-7.628139853699995
 31
0.0
  0
LINE
  5
E9
330
2
100
AcDbEntity
  8
0
100
AcDbLine
 10
16.0339744565
 20
-7.962133245699998
 30
0.0
 11
15.0698685237
 21
-7.986619845699994
 31
0.0
  0
LINE
  5
EB
330
2
100
AcDbEntity
  8
0
100
AcDbLine
 10
27.69171789970001
 20
-7.628139853699995
 30
0.0
 11
27.89918879250001
 21
-7.623116540099996
 31
0.0
  0
LINE
  5
EC
330
2
100
AcDbEntity
  8
0
100
AcDbLine
 10
27.89918879250001
 20
-7.623116540099996
 30
0.0
 11
27.9064685317
 21
-7.622963028099999
 31
0.0
  0
LINE
  5
F2
330
2
100
AcDbEntity
  8
0
100
AcDbLine
 10
-5.267634370699994
 20
-7.9990473113
 30
0.0
 11
-4.237808527499993
 21
-8.023972840899997
 31
0.0
  0
LINE
  5
F3
330
2
100
AcDbEntity
  8
0
100
AcDbLine
 10
-18.47788051469999
 20
-7.625929663299995
 30
0.0
 11
-18.60473659469999
 21
-7.622963028099999
 31
0.0
  0
LINE
  5
F4
330
2
100
AcDbEntity
  8
0
100
AcDbLine
 10
-6.257016725899987
 20
-7.974291160899998
 30
0.0
 11
-5.267634370699994
 21
-7.9990473113
 31
0.0
  0
LINE
  5
F5
330
2
100
AcDbEntity
  8
0
100
AcDbLine
 10
-7.191997012299992
 20
-7.950215156099996
 30
0.0
 11
-6.257016725899987
 21
-7.974291160899998
 31
0.0
  0
LINE
  5
F6
330
2
100
AcDbEntity
  8
0
100
AcDbLine
 10
-8.46211725869999
 20
-7.9165349945
 30
0.0
 11
-7.191997012299992
 21
-7.950215156099996
 31
0.0
  0
LINE
  5
F7
330
2
100
AcDbEntity
  8
0
100
AcDbLine
 10
-17.91922008109999
 20
-7.640769493699995
 30
0.0
 11
-18.47788771629999
 21
-7.625929453699999
 31
0.0
  0
LINE
  5
F8
330
2
100
AcDbEntity
  8
0
100
AcDbLine
 10
-9.873518607499988
 20
-7.877863010499996
 30
0.0
 11
-8.46211725869999
 21
-7.9165349945
 31
0.0
  0
LINE
  5
F9
330
2
100
AcDbEntity
  8
0
100
AcDbLine
 10
-11.48495697549999
 20
-7.832191282499994
 30
0.0
 11
-9.873518607499988
 21
-7.877863010499996
 31
0.0
  0
LINE
  5
FA
330
2
100
AcDbEntity
  8
0
100
AcDbLine
 10
-17.08842072109999
 20
-7.664516943299997
 30
0.0
 11
-17.91922008109999
 21
-7.640769493699995
 31
0.0
  0
LINE
  5
FB
330
2
100
AcDbEntity
  8
0
100
AcDbLine
 10
-18.60473659469999
 20
-7.622963028099999
 30
0.0
 11
-3.675095785099998
 21
-8.062779432899997
 31
0.0
  0
LINE
  5
FC
330
2
100
AcDbEntity
  8
0
100
AcDbLine
 10
-12.71596082829999
 20
-7.796175727299999
 30
0.0
 11
-11.48495697549999
 21
-7.832191282499994
 31
0.0
  0
LINE
  5
FD
330
2
100
AcDbEntity
  8
0
100
AcDbLine
 10
-17.08844719789999
 20
-7.664516159299996
 30
0.0
 11
-16.31359469229999
 21
-7.687484749699994
 31
0.0
  0
LINE
  5
FE
330
2
100
AcDbEntity
  8
0
100
AcDbLine
 10
-14.07467467629999
 20
-7.755448277699994
 30
0.0
 11
-12.71596082829999
 21
-7.796175727299999
 31
0.0
  0
LINE
  5
FF
330
2
100
AcDbEntity
  8
0
100
AcDbLine
 10
-16.31359469229999
 20
-7.687484749699994
 30
0.0
 11
-14.07467467629999
 21
-7.755448277699994
 31
0.0
  0
LWPOLYLINE
  5
101
330
2
100
AcDbEntity
  8
0
100
AcDbPolyline
 90
        3
 70
     0
 43
0.0
 10
-17.22158169389999
 20
-7.659982437700001
 10
-17.18900385869999
 20
-7.661237354500002
 10
-17.13238023309999
 20
-7.663176215299998
  0
LWPOLYLINE
  5
102
330
2
100
AcDbEntity
  8
0
100
AcDbPolyline
 90
        4
 70
     0
 43
0.0
 10
8.210510837300006
 20
-9.529491424900001
 10
8.199990291700004
 20
-9.526820765700001
 10
8.1643287893
 20
-9.523998319299998
 10
8.121740797300006
 20
-9.522167338500004
  0
LINE
  5
103
330
2
100
AcDbEntity
  8
0
100
AcDbLine
 10
-27.32079976109999
 20
12.6959027047
 30
0.0
 11
-27.27339901549999
 21
12.66270557350001
 31
0.0
  0
LINE
  5
104
330
2
100
AcDbEntity
  8
0
100
AcDbLine
 10
3.158448490099999
 20
-9.964728500099997
 30
0.0
 11
2.803994008500012
 21
-9.610274020099996
 31
0.0
  0
LINE
  5
105
330
2
100
AcDbEntity
  8
0
100
AcDbLine
 10
1.091315187700004
 20
-9.592281229699995
 30
0.0
 11
1.265193930100011
 21
-9.800950292099994
 31
0.0
  0
LINE
  5
106
330
2
100
AcDbEntity
  8
0
100
AcDbLine
 10
1.265193930100011
 20
-9.738450292099994
 30
0.0
 11
1.091315187700004
 21
-9.529781229699995
 31
0.0
  0
LINE
  5
107
330
2
100
AcDbEntity
  8
0
100
AcDbLine
 10
1.480614392500001
 20
-9.536608551299995
 30
0.0
 11
1.619305315700003
 21
-9.734675632899996
 31
0.0
  0
LINE
  5
108
330
2
100
AcDbEntity
  8
0
100
AcDbLine
 10
1.7202415637
 20
-9.850336250499996
 30
0.0
 11
1.921071931700012
 21
-10.13715174009999
 31
0.0
  0
LINE
  5
109
330
2
100
AcDbEntity
  8
0
100
AcDbLine
 10
1.63233951570001
 20
-9.6158336921
 30
0.0
 11
1.719604264500006
 21
-9.740460668099995
 31
0.0
  0
LWPOLYLINE
  5
10A
330
2
100
AcDbEntity
  8
0
100
AcDbPolyline
 90
       26
 70
     0
 43
0.0
 10
-3.23137018349999
 20
-8.698455477700001
 10
-3.2208858491
 20
-8.7630111689
 10
-3.200653546699996
 20
-8.833247514500001
 10
-3.172919029899986
 20
-8.898067829700003
 10
-3.138931255499997
 20
-8.956899999299999
 10
-3.100409079499996
 20
-9.008975877700002
 10
-3.059540125899999
 20
-9.053497480899999
 10
-3.017941039499987
 20
-9.090762424899999
 10
-2.976734141899996
 20
-9.121603008900002
 10
-2.937151276299999
 20
-9.146658498500002
 10
-2.899843437899988
 20
-9.166832626500003
 10
-2.865022871499988
 20
-9.183059741699999
 10
-2.832359183499988
 20
-9.196282634500001
 10
-2.801344541899993
 20
-9.207272096899998
 10
-2.771571617099994
 20
-9.2165663193
 10
-2.742613298699993
 20
-9.224575365699998
 10
-2.7140643643
 20
-9.2316045385
 10
-2.685529265099987
 20
-9.237884376899998
 10
-2.65665412429999
 20
-9.243582506499997
 10
-2.627027977099999
 20
-9.2488373097
 10
-2.596240239499991
 20
-9.253752848899999
 10
-2.563893273099992
 20
-9.258404472900004
 10
-2.529597153099999
 20
-9.262845983300003
 10
-2.492973586699989
 20
-9.267114068099999
 10
-2.453673957899994
 20
-9.271230093699998
 10
-2.154425157899993
 20
-9.298924839299999
  0
LINE
  5
10C
330
2
100
AcDbEntity
  8
0
100
AcDbLine
 10
1.091315187700004
 20
-9.592281229699995
 30
0.0
 11
1.091221098100007
 21
-9.591991424899998
 31
0.0
  0
LINE
  5
10D
330
2
100
AcDbEntity
  8
0
100
AcDbLine
 10
1.091221098100007
 20
-9.529491424899998
 30
0.0
 11
1.091315187700004
 21
-9.529781229699995
 31
0.0
  0
LINE
  5
10E
330
2
100
AcDbEntity
  8
0
100
AcDbLine
 10
1.091196200500007
 20
-9.591997405699995
 30
0.0
 11
1.091196200500007
 21
-9.529497405699995
 31
0.0
  0
LINE
  5
10F
330
2
100
AcDbEntity
  8
0
100
AcDbLine
 10
1.091315187700004
 20
-9.592281229699995
 30
0.0
 11
1.091196200500007
 21
-9.591997405699995
 31
0.0
  0
LINE
  5
110
330
2
100
AcDbEntity
  8
0
100
AcDbLine
 10
1.265193930100011
 20
-9.738450292099994
 30
0.0
 11
1.265193930100011
 21
-9.800950292099994
 31
0.0
  0
LINE
  5
111
330
2
100
AcDbEntity
  8
CENTER
 62
     1
 48
4.0
100
AcDbLine
 10
4.650768154100006
 20
10.5104386731917
 30
0.0
 11
4.650768154100006
 21
4.0371956795917
 31
0.0
  0
LWPOLYLINE
  5
115
330
2
100
AcDbEntity
  8
0
100
AcDbPolyline
 90
       90
 70
     1
 43
0.0
 10
3.463365968499999
 20
7.250653344699998
 10
3.467870509300013
 20
7.353614063099996
 10
3.481363352500011
 20
7.4558843111
 10
3.5030775317
 20
7.554116856699998
 10
3.531576547700012
 20
7.645946023100002
 10
3.565006936500012
 20
7.729684144700001
 10
3.602162882100003
 20
7.805845986299999
 10
3.643093435700009
 20
7.876619779899996
 10
3.687805770100013
 20
7.9430033175
 10
3.736634970100013
 20
8.005890464700001
 10
3.789996627700006
 20
8.065791757500001
 10
3.848429490100002
 20
8.122988573500002
 10
3.913142861300002
 20
8.177985607099998
 10
3.985319723700001
 20
8.2307161927
 10
4.064980502900013
 20
8.279981839099995
 10
4.151747523700009
 20
8.324432167099999
 10
4.245137482100005
 20
8.362818874299996
 10
4.343960326900003
 20
8.393825346299998
 10
4.445384125300009
 20
8.416176923899996
 10
4.5478523461
 20
8.429565483899999
 10
4.650866430900009
 20
8.434026055099998
 10
4.754361122100007
 20
8.429523605500001
 10
4.857272325300002
 20
8.416014701499996
 10
4.958980341300005
 20
8.393502440699997
 10
5.058058546099999
 20
8.362287423099999
 10
5.152098522100004
 20
8.323453848699998
 10
5.240070990900008
 20
8.2780985431
 10
5.32118450290001
 20
8.227481123899998
 10
5.394787826099999
 20
8.173054920699996
 10
5.460704571700006
 20
8.116168967100001
 10
5.519670096500007
 20
8.057388131899998
 10
5.57264732690001
 20
7.996720523900002
 10
5.620488781300011
 20
7.933846106300002
 10
5.663912523700005
 20
7.8681072567
 10
5.70324627410001
 20
7.798892053499997
 10
5.738629802100007
 20
7.725372768699998
 10
5.770710278900011
 20
7.6443821095
 10
5.79852933490001
 20
7.554586266299999
 10
5.820164214900003
 20
7.4570374631
 10
5.8338087013
 20
7.354213800700001
 10
5.838365968499999
 20
7.250653344699998
 10
5.837509078900012
 20
7.205719325499998
 10
5.834926043700008
 20
7.160677367099999
 10
5.830636931700013
 20
7.115913312700001
 10
5.824684259700006
 20
7.071620621499995
 10
5.816943691700004
 20
7.027009344699997
 10
5.806883621300002
 20
6.980131336699997
 10
5.793796078900001
 20
6.929695530300001
 10
5.777313000500001
 20
6.876358635899997
 10
5.7572784245
 20
6.8211915607
 10
5.732907694900006
 20
6.763523536699999
 10
5.703311720500011
 20
6.7030258375
 10
5.668012162100012
 20
6.640504047100002
 10
5.626591544500001
 20
6.576811019899999
 10
5.578670587700003
 20
6.512798632699997
 10
5.523883494900005
 20
6.449302547899996
 10
5.46220110290001
 20
6.387474888699998
 10
5.393399350900011
 20
6.328170184699999
 10
5.31751621810001
 20
6.2724417879
 10
5.234584258099999
 20
6.2212773607
 10
5.145415222900012
 20
6.176010187899997
 10
5.051433074100003
 20
6.137912072699997
 10
4.953985320500009
 20
6.107795610300001
 10
4.85415323570001
 20
6.086090251899996
 10
4.7527742101
 20
6.073003530299999
 10
4.650864149300005
 20
6.068643359100001
 10
4.548405947700004
 20
6.073050963900001
 10
4.446490499700004
 20
6.086278955899999
 10
4.346160680500005
 20
6.108213480700001
 10
4.248271510900011
 20
6.138637107899995
 10
4.153931158900007
 20
6.177100872700002
 10
4.064507653300012
 20
6.222764731899999
 10
3.981439296499999
 20
6.274321754299997
 10
3.905460317300011
 20
6.330467586299995
 10
3.836631672500004
 20
6.390183240699997
 10
3.774994898100004
 20
6.452392971899996
 10
3.720300243700009
 20
6.516251165500001
 10
3.672469758900007
 20
6.580658338299997
 10
3.63113158290001
 20
6.644799496699995
 10
3.595957045300011
 20
6.7077423319
 10
3.566559029300009
 20
6.768541011899998
 10
3.542450000500011
 20
6.826342976699997
 10
3.5226303349
 20
6.881737424699998
 10
3.506355106100002
 20
6.935329656699998
 10
3.493558205300004
 20
6.985657464699997
 10
3.483828587700003
 20
7.032030098299998
 10
3.476394010100008
 20
7.075924595899998
 10
3.470707496500011
 20
7.119323127099995
 10
3.466631061300006
 20
7.162990176699999
 10
3.464180874100009
 20
7.206833482299998
  0
LINE
  5
116
330
2
100
AcDbEntity
  8
0
100
AcDbLine
 10
36.61734121650001
 20
12.67657680710001
 30
0.0
 11
36.6156867989
 21
12.67598257829999
 31
0.0
  0
LINE
  5
117
330
2
100
AcDbEntity
  8
0
100
AcDbLine
 10
36.6156867989
 20
12.67598257829999
 30
0.0
 11
36.6136261157
 21
12.6752540759
 31
0.0
  0
LINE
  5
118
330
2
100
AcDbEntity
  8
0
100
AcDbLine
 10
36.6136261157
 20
12.6752540759
 30
0.0
 11
36.61115421810001
 21
12.6743935799
 31
0.0
  0
LINE
  5
119
330
2
100
AcDbEntity
  8
0
100
AcDbLine
 10
36.61115421810001
 20
12.6743935799
 30
0.0
 11
36.60826516050001
 21
12.67340283909999
 31
0.0
  0
LINE
  5
11A
330
2
100
AcDbEntity
  8
0
100
AcDbLine
 10
36.60826516050001
 20
12.67340283909999
 30
0.0
 11
36.60405653330001
 21
12.6719831095
 31
0.0
  0
LINE
  5
11B
330
2
100
AcDbEntity
  8
0
100
AcDbLine
 10
36.60405653330001
 20
12.6719831095
 30
0.0
 11
36.5991694629
 21
12.67036317989999
 31
0.0
  0
LINE
  5
11C
330
2
100
AcDbEntity
  8
0
100
AcDbLine
 10
36.5991694629
 20
12.67036317989999
 30
0.0
 11
36.5935859013
 21
12.6685433671
 31
0.0
  0
LINE
  5
11D
330
2
100
AcDbEntity
  8
0
100
AcDbLine
 10
36.5935859013
 20
12.6685433671
 30
0.0
 11
36.5872855093
 21
12.66652297349999
 31
0.0
  0
LINE
  5
11E
330
2
100
AcDbEntity
  8
0
100
AcDbLine
 10
36.5872855093
 20
12.66652297349999
 30
0.0
 11
36.5787469077
 21
12.6638313415
 31
0.0
  0
LINE
  5
11F
330
2
100
AcDbEntity
  8
0
100
AcDbLine
 10
36.5787469077
 20
12.6638313415
 30
0.0
 11
36.5691004309
 21
12.6608438775
 31
0.0
  0
LINE
  5
120
330
2
100
AcDbEntity
  8
0
100
AcDbLine
 10
36.5691004309
 20
12.6608438775
 30
0.0
 11
36.55829844370001
 21
12.6575541415
 31
0.0
  0
LINE
  5
121
330
2
100
AcDbEntity
  8
0
100
AcDbLine
 10
36.55829844370001
 20
12.6575541415
 30
0.0
 11
36.5456048709
 21
12.65375041829999
 31
0.0
  0
LINE
  5
122
330
2
100
AcDbEntity
  8
0
100
AcDbLine
 10
36.5456048709
 20
12.65375041829999
 30
0.0
 11
36.5299700453
 21
12.6491410327
 31
0.0
  0
LINE
  5
123
330
2
100
AcDbEntity
  8
0
100
AcDbLine
 10
36.5299700453
 20
12.6491410327
 30
0.0
 11
36.50957280850001
 21
12.64322850310001
 31
0.0
  0
LINE
  5
124
330
2
100
AcDbEntity
  8
0
100
AcDbLine
 10
36.50957280850001
 20
12.64322850310001
 30
0.0
 11
36.4937717429
 21
12.6387115719
 31
0.0
  0
LINE
  5
125
330
2
100
AcDbEntity
  8
0
100
AcDbLine
 10
-27.30653322349999
 20
12.67340283909999
 30
0.0
 11
-27.30942228269999
 21
12.6743935799
 31
0.0
  0
LINE
  5
126
330
2
100
AcDbEntity
  8
0
100
AcDbLine
 10
-27.30942228269999
 20
12.6743935799
 30
0.0
 11
-27.31189417869999
 21
12.6752540759
 31
0.0
  0
LINE
  5
127
330
2
100
AcDbEntity
  8
0
100
AcDbLine
 10
-27.31189417869999
 20
12.6752540759
 30
0.0
 11
-27.31395486189999
 21
12.67598257829999
 31
0.0
  0
LWPOLYLINE
  5
128
330
2
100
AcDbEntity
  8
0
100
AcDbPolyline
 90
        3
 70
     0
 43
0.0
 10
-27.31395486189999
 20
12.67598257829999
 10
-27.31483258509999
 20
12.6762966423
 10
-27.31826445069999
 20
12.67755862309999
  0
LINE
  5
129
330
2
100
AcDbEntity
  8
0
100
AcDbLine
 10
36.6199910901
 20
12.6775565831
 30
0.0
 11
36.6199624901
 21
12.6775456071
 31
0.0
  0
LINE
  5
12A
330
2
100
AcDbEntity
  8
0
100
AcDbLine
 10
36.61983128370001
 20
12.6774956071
 30
0.0
 11
36.6194493669
 21
12.6773516743
 31
0.0
  0
LINE
  5
12B
330
2
100
AcDbEntity
  8
0
100
AcDbLine
 10
36.6192726517
 20
12.6772856151
 30
0.0
 11
36.6183181333
 21
12.6769327799
 31
0.0
  0
LINE
  5
12C
330
2
100
AcDbEntity
  8
0
100
AcDbLine
 10
36.6183181333
 20
12.6769327799
 30
0.0
 11
36.61734121650001
 21
12.67657680710001
 31
0.0
  0
LINE
  5
12D
330
2
100
AcDbEntity
  8
0
100
AcDbLine
 10
36.4937717429
 20
12.6387115719
 30
0.0
 11
36.4590780277
 21
12.6289420471
 31
0.0
  0
LINE
  5
12E
330
2
100
AcDbEntity
  8
0
100
AcDbLine
 10
36.4590780277
 20
12.6289420471
 30
0.0
 11
36.4122082085
 21
12.6159739671
 31
0.0
  0
LINE
  5
12F
330
2
100
AcDbEntity
  8
0
100
AcDbLine
 10
36.4122082085
 20
12.6159739671
 30
0.0
 11
36.3610837413
 21
12.6020669703
 31
0.0
  0
LINE
  5
130
330
2
100
AcDbEntity
  8
0
100
AcDbLine
 10
36.3610837413
 20
12.6020669703
 30
0.0
 11
36.3055852005
 21
12.5872434199
 31
0.0
  0
LINE
  5
131
330
2
100
AcDbEntity
  8
0
100
AcDbLine
 10
36.3055852005
 20
12.5872434199
 30
0.0
 11
36.25045897170001
 21
12.5727944647
 31
0.0
  0
LINE
  5
132
330
2
100
AcDbEntity
  8
0
100
AcDbLine
 10
36.25045897170001
 20
12.5727944647
 30
0.0
 11
36.23996642130001
 21
12.5700747799
 31
0.0
  0
LINE
  5
133
330
2
100
AcDbEntity
  8
0
100
AcDbLine
 10
-26.93823448429998
 20
12.5700747799
 30
0.0
 11
-26.99414519789999
 21
12.58467917349999
 31
0.0
  0
LINE
  5
134
330
2
100
AcDbEntity
  8
0
100
AcDbLine
 10
-26.99414519789999
 20
12.58467917349999
 30
0.0
 11
-27.04590519629999
 21
12.5984495223
 31
0.0
  0
LINE
  5
135
330
2
100
AcDbEntity
  8
0
100
AcDbLine
 10
-27.04590519629999
 20
12.5984495223
 30
0.0
 11
-27.09808071149999
 21
12.61257965509999
 31
0.0
  0
LINE
  5
136
330
2
100
AcDbEntity
  8
0
100
AcDbLine
 10
-27.09808071149999
 20
12.61257965509999
 30
0.0
 11
-27.14990971949999
 21
12.6268693607
 31
0.0
  0
LINE
  5
137
330
2
100
AcDbEntity
  8
0
100
AcDbLine
 10
-27.14990971949999
 20
12.6268693607
 30
0.0
 11
-27.18543148909999
 21
12.6368363319
 31
0.0
  0
LINE
  5
138
330
2
100
AcDbEntity
  8
0
100
AcDbLine
 10
-27.18543148909999
 20
12.6368363319
 30
0.0
 11
-27.21087787949999
 21
12.64410256070001
 31
0.0
  0
LINE
  5
139
330
2
100
AcDbEntity
  8
0
100
AcDbLine
 10
-27.21087787309999
 20
12.64410255910001
 30
0.0
 11
-27.23098775629999
 21
12.6499463127
 31
0.0
  0
LINE
  5
13A
330
2
100
AcDbEntity
  8
0
100
AcDbLine
 10
-27.23098776269999
 20
12.6499463143
 30
0.0
 11
-27.24621542029999
 21
12.6544478535
 31
0.0
  0
LINE
  5
13B
330
2
100
AcDbEntity
  8
0
100
AcDbLine
 10
-27.24621542029999
 20
12.6544478535
 30
0.0
 11
-27.25844948109999
 21
12.6581238231
 31
0.0
  0
LINE
  5
13C
330
2
100
AcDbEntity
  8
0
100
AcDbLine
 10
-27.25844948589999
 20
12.6581238247
 30
0.0
 11
-27.26905513229999
 21
12.6613625799
 31
0.0
  0
LINE
  5
13D
330
2
100
AcDbEntity
  8
0
100
AcDbLine
 10
-27.26905513549999
 20
12.6613625815
 30
0.0
 11
-27.27851379149999
 21
12.66430034469999
 31
0.0
  0
LINE
  5
13E
330
2
100
AcDbEntity
  8
0
100
AcDbLine
 10
-27.27851379149999
 20
12.66430034469999
 30
0.0
 11
-27.28555357229999
 21
12.66652297349999
 31
0.0
  0
LINE
  5
13F
330
2
100
AcDbEntity
  8
0
100
AcDbLine
 10
-27.28555357229999
 20
12.66652297349999
 30
0.0
 11
-27.29185396589999
 21
12.6685433671
 31
0.0
  0
LINE
  5
140
330
2
100
AcDbEntity
  8
0
100
AcDbLine
 10
-27.29185396589999
 20
12.6685433671
 30
0.0
 11
-27.29743752749999
 21
12.67036317989999
 31
0.0
  0
LINE
  5
141
330
2
100
AcDbEntity
  8
0
100
AcDbLine
 10
-27.29743752749999
 20
12.67036317989999
 30
0.0
 11
-27.30232459629999
 21
12.6719831095
 31
0.0
  0
LINE
  5
142
330
2
100
AcDbEntity
  8
0
100
AcDbLine
 10
-27.30232459629999
 20
12.6719831095
 30
0.0
 11
-27.30653322349999
 21
12.67340283909999
 31
0.0
  0
LINE
  5
143
330
2
100
AcDbEntity
  8
0
100
AcDbLine
 10
8.036538005300002
 20
-9.800950292099994
 30
0.0
 11
8.036538005300002
 21
-9.738450292099994
 31
0.0
  0
LINE
  5
144
330
2
100
AcDbEntity
  8
0
100
AcDbLine
 10
8.210416749300009
 20
-9.592281229699995
 30
0.0
 11
8.210535734900005
 21
-9.591997405699995
 31
0.0
  0
LINE
  5
145
330
2
100
AcDbEntity
  8
0
100
AcDbLine
 10
8.210535734900005
 20
-9.591997405699995
 30
0.0
 11
8.210535734900005
 21
-9.529497405699995
 31
0.0
  0
LINE
  5
146
330
2
100
AcDbEntity
  8
0
100
AcDbLine
 10
36.23996642130001
 20
12.5700747799
 30
0.0
 11
36.1851852005
 21
12.5560306391
 31
0.0
  0
LINE
  5
147
330
2
100
AcDbEntity
  8
0
100
AcDbLine
 10
36.1851852005
 20
12.5560306391
 30
0.0
 11
36.1288444517
 21
12.54185306949999
 31
0.0
  0
LINE
  5
148
330
2
100
AcDbEntity
  8
0
100
AcDbLine
 10
36.1288444405
 20
12.54185306789999
 30
0.0
 11
36.0697158453
 21
12.52725633829999
 31
0.0
  0
LINE
  5
149
330
2
100
AcDbEntity
  8
0
100
AcDbLine
 10
36.0697158453
 20
12.52725633829999
 30
0.0
 11
36.0060621285
 21
12.5118563031
 31
0.0
  0
LINE
  5
14A
330
2
100
AcDbEntity
  8
0
100
AcDbLine
 10
36.0060621285
 20
12.5118563031
 30
0.0
 11
35.9378652037
 21
12.4957070615
 31
0.0
  0
LINE
  5
14B
330
2
100
AcDbEntity
  8
0
100
AcDbLine
 10
35.9378652037
 20
12.4957070615
 30
0.0
 11
35.8740273029
 21
12.4809080423
 31
0.0
  0
LINE
  5
14C
330
2
100
AcDbEntity
  8
0
100
AcDbLine
 10
35.8740273029
 20
12.4809080423
 30
0.0
 11
35.80574880690001
 21
12.4654070599
 31
0.0
  0
LINE
  5
14D
330
2
100
AcDbEntity
  8
0
100
AcDbLine
 10
35.80574880690001
 20
12.4654070599
 30
0.0
 11
35.7323899557
 21
12.4491000375
 31
0.0
  0
LINE
  5
14E
330
2
100
AcDbEntity
  8
0
100
AcDbLine
 10
35.7323899557
 20
12.4491000375
 30
0.0
 11
35.6417168325
 21
12.42939292069999
 31
0.0
  0
LINE
  5
14F
330
2
100
AcDbEntity
  8
0
100
AcDbLine
 10
35.6417168325
 20
12.42939292069999
 30
0.0
 11
35.55359881170001
 21
12.4106704295
 31
0.0
  0
LINE
  5
150
330
2
100
AcDbEntity
  8
0
100
AcDbLine
 10
35.55359881170001
 20
12.4106704295
 30
0.0
 11
35.4519902981
 21
12.3895553671
 31
0.0
  0
LINE
  5
151
330
2
100
AcDbEntity
  8
0
100
AcDbLine
 10
35.4519902981
 20
12.3895553671
 30
0.0
 11
35.33824259730001
 21
12.36646159909999
 31
0.0
  0
LINE
  5
152
330
2
100
AcDbEntity
  8
0
100
AcDbLine
 10
35.33824259730001
 20
12.36646159909999
 30
0.0
 11
35.23200757490001
 21
12.3453634311
 31
0.0
  0
LINE
  5
153
330
2
100
AcDbEntity
  8
0
100
AcDbLine
 10
35.23200759410001
 20
12.3453634359
 30
0.0
 11
35.1163078949
 21
12.3228561639
 31
0.0
  0
LINE
  5
154
330
2
100
AcDbEntity
  8
0
100
AcDbLine
 10
35.1163078949
 20
12.3228561639
 30
0.0
 11
34.9893920421
 21
12.2986832919
 31
0.0
  0
LINE
  5
155
330
2
100
AcDbEntity
  8
0
100
AcDbLine
 10
34.9893920421
 20
12.2986832919
 30
0.0
 11
34.84933231890001
 21
12.2725806711
 31
0.0
  0
LINE
  5
156
330
2
100
AcDbEntity
  8
0
100
AcDbLine
 10
34.84933234290001
 20
12.2725806759
 30
0.0
 11
34.72107556690001
 21
12.2491636439
 31
0.0
  0
LINE
  5
157
330
2
100
AcDbEntity
  8
0
100
AcDbLine
 10
34.72107556690001
 20
12.2491636439
 30
0.0
 11
34.6101823509
 21
12.2292650295
 31
0.0
  0
LINE
  5
15D
330
2
100
AcDbEntity
  8
0
100
AcDbLine
 10
-25.30845041389999
 20
12.2292650295
 30
0.0
 11
-25.44589756429999
 21
12.25397549029999
 31
0.0
  0
LINE
  5
15E
330
2
100
AcDbEntity
  8
0
100
AcDbLine
 10
-25.44589758829999
 20
12.25397549509999
 30
0.0
 11
-25.57194303309999
 21
12.27707636549999
 31
0.0
  0
LINE
  5
15F
330
2
100
AcDbEntity
  8
0
100
AcDbLine
 10
-25.57194303309999
 20
12.27707636549999
 30
0.0
 11
-25.70967162349999
 21
12.3028389815
 31
0.0
  0
LINE
  5
160
330
2
100
AcDbEntity
  8
0
100
AcDbLine
 10
-25.70967162349999
 20
12.3028389815
 30
0.0
 11
-25.83458850669999
 21
12.3267159703
 31
0.0
  0
LINE
  5
161
330
2
100
AcDbEntity
  8
0
100
AcDbLine
 10
-25.83458850669999
 20
12.3267159703
 30
0.0
 11
-25.94859414989999
 21
12.34897089189999
 31
0.0
  0
LINE
  5
162
330
2
100
AcDbEntity
  8
0
100
AcDbLine
 10
-25.94859414989999
 20
12.34897089189999
 30
0.0
 11
-26.07009568429999
 21
12.3732238183
 31
0.0
  0
LINE
  5
163
330
2
100
AcDbEntity
  8
0
100
AcDbLine
 10
-26.07009568429999
 20
12.3732238183
 30
0.0
 11
-26.18064451949999
 21
12.3958195495
 31
0.0
  0
LINE
  5
164
330
2
100
AcDbEntity
  8
0
100
AcDbLine
 10
-26.18064451949999
 20
12.3958195495
 30
0.0
 11
-26.27831534989999
 21
12.4162480375
 31
0.0
  0
LINE
  5
165
330
2
100
AcDbEntity
  8
0
100
AcDbLine
 10
-26.27831534989999
 20
12.4162480375
 30
0.0
 11
-26.37489082349999
 21
12.4369238487
 31
0.0
  0
LINE
  5
166
330
2
100
AcDbEntity
  8
0
100
AcDbLine
 10
-26.37489082349999
 20
12.4369238487
 30
0.0
 11
-26.45216275629999
 21
12.45384508389999
 31
0.0
  0
LINE
  5
167
330
2
100
AcDbEntity
  8
0
100
AcDbLine
 10
-26.45216275629999
 20
12.45384508389999
 30
0.0
 11
-26.52402349549999
 21
12.4699153799
 31
0.0
  0
LINE
  5
168
330
2
100
AcDbEntity
  8
0
100
AcDbLine
 10
-26.52402349549999
 20
12.4699153799
 30
0.0
 11
-26.59095669069999
 21
12.4852028983
 31
0.0
  0
LINE
  5
169
330
2
100
AcDbEntity
  8
0
100
AcDbLine
 10
-26.59095669069999
 20
12.4852028983
 30
0.0
 11
-26.65363806669999
 21
12.4998183463
 31
0.0
  0
LINE
  5
16A
330
2
100
AcDbEntity
  8
0
100
AcDbLine
 10
-26.65363806669999
 20
12.4998183463
 30
0.0
 11
-26.72064890189999
 21
12.5157738887
 31
0.0
  0
LINE
  5
16B
330
2
100
AcDbEntity
  8
0
100
AcDbLine
 10
-26.72064890189999
 20
12.5157738887
 30
0.0
 11
-26.78324785709999
 21
12.5309972279
 31
0.0
  0
LINE
  5
16C
330
2
100
AcDbEntity
  8
0
100
AcDbLine
 10
-26.78324786829999
 20
12.5309972311
 30
0.0
 11
-26.84075594509999
 21
12.5452619127
 31
0.0
  0
LINE
  5
16D
330
2
100
AcDbEntity
  8
0
100
AcDbLine
 10
-26.84075594509999
 20
12.5452619127
 30
0.0
 11
-26.90030498509999
 21
12.56032334949999
 31
0.0
  0
LINE
  5
16E
330
2
100
AcDbEntity
  8
0
100
AcDbLine
 10
-26.90030498509999
 20
12.56032334949999
 30
0.0
 11
-26.93823448429998
 21
12.5700747799
 31
0.0
  0
LINE
  5
170
330
2
100
AcDbEntity
  8
0
100
AcDbLine
 10
8.210416749300009
 20
-9.529781229699995
 30
0.0
 11
8.210510837300006
 21
-9.529491424899998
 31
0.0
  0
LINE
  5
171
330
2
100
AcDbEntity
  8
0
100
AcDbLine
 10
8.210510837300006
 20
-9.591991424899998
 30
0.0
 11
8.210416749300009
 21
-9.592281229699995
 31
0.0
  0
LINE
  5
172
330
2
100
AcDbEntity
  8
0
100
AcDbLine
 10
34.6101823509
 20
12.2292650295
 30
0.0
 11
34.46068074290001
 21
12.2029161223
 31
0.0
  0
LINE
  5
173
330
2
100
AcDbEntity
  8
0
100
AcDbLine
 10
34.46068074290001
 20
12.2029161223
 30
0.0
 11
34.2985095301
 21
12.17491389670001
 31
0.0
  0
LINE
  5
174
330
2
100
AcDbEntity
  8
0
100
AcDbLine
 10
34.2985095029
 20
12.1749138919
 30
0.0
 11
34.15924607250001
 21
12.1513177687
 31
0.0
  0
LINE
  5
175
330
2
100
AcDbEntity
  8
0
100
AcDbLine
 10
34.15924607250001
 20
12.1513177687
 30
0.0
 11
34.01125150610001
 21
12.1266718903
 31
0.0
  0
LINE
  5
176
330
2
100
AcDbEntity
  8
0
100
AcDbLine
 10
34.01125150610001
 20
12.1266718903
 30
0.0
 11
33.8542985141
 21
12.10099186469999
 31
0.0
  0
LINE
  5
177
330
2
100
AcDbEntity
  8
0
100
AcDbLine
 10
33.8542985141
 20
12.10099186469999
 30
0.0
 11
33.68813258130001
 21
12.0742824359
 31
0.0
  0
LINE
  5
178
330
2
100
AcDbEntity
  8
0
100
AcDbLine
 10
33.68813258130001
 20
12.0742824359
 30
0.0
 11
33.5126151061
 21
12.0465557287
 31
0.0
  0
LINE
  5
179
330
2
100
AcDbEntity
  8
0
100
AcDbLine
 10
33.5126151061
 20
12.0465557287
 30
0.0
 11
33.3276481813
 21
12.0178274455
 31
0.0
  0
LINE
  5
17A
330
2
100
AcDbEntity
  8
0
100
AcDbLine
 10
33.3276481813
 20
12.0178274455
 30
0.0
 11
33.1331552437
 21
11.9881142695
 31
0.0
  0
LINE
  5
17B
330
2
100
AcDbEntity
  8
0
100
AcDbLine
 10
33.1331552437
 20
11.9881142695
 30
0.0
 11
32.9290820213
 21
11.9574339367
 31
0.0
  0
LINE
  5
17C
330
2
100
AcDbEntity
  8
0
100
AcDbLine
 10
32.9290820213
 20
11.9574339367
 30
0.0
 11
32.7153971173
 21
11.9258052839
 31
0.0
  0
LINE
  5
17D
330
2
100
AcDbEntity
  8
0
100
AcDbLine
 10
32.7153971173
 20
11.9258052839
 30
0.0
 11
32.49204651730001
 21
11.8932418743
 31
0.0
  0
LINE
  5
17E
330
2
100
AcDbEntity
  8
0
100
AcDbLine
 10
32.49204651730001
 20
11.8932418743
 30
0.0
 11
32.25856835570001
 21
11.8597055175
 31
0.0
  0
LINE
  5
17F
330
2
100
AcDbEntity
  8
0
100
AcDbLine
 10
32.25856835570001
 20
11.8597055175
 30
0.0
 11
32.0141923621
 21
11.8251297255
 31
0.0
  0
LINE
  5
180
330
2
100
AcDbEntity
  8
0
100
AcDbLine
 10
32.0141923621
 20
11.8251297255
 30
0.0
 11
31.7581013653
 21
11.7894503751
 31
0.0
  0
LINE
  5
181
330
2
100
AcDbEntity
  8
0
100
AcDbLine
 10
31.7581013653
 20
11.7894503751
 30
0.0
 11
31.4894484901
 21
11.7526086135
 31
0.0
  0
LINE
  5
182
330
2
100
AcDbEntity
  8
0
100
AcDbLine
 10
31.4894484901
 20
11.7526086135
 30
0.0
 11
31.2073678693
 21
11.71455389349999
 31
0.0
  0
LINE
  5
183
330
2
100
AcDbEntity
  8
0
100
AcDbLine
 10
31.2073678693
 20
11.71455389349999
 30
0.0
 11
30.98668819890001
 21
11.68522182789999
 31
0.0
  0
LINE
  5
184
330
2
100
AcDbEntity
  8
0
100
AcDbLine
 10
30.98668819890001
 20
11.68522182789999
 30
0.0
 11
30.75819119890001
 21
11.6552536455
 31
0.0
  0
LINE
  5
185
330
2
100
AcDbEntity
  8
0
100
AcDbLine
 10
30.75819119890001
 20
11.6552536455
 30
0.0
 11
30.5218681509
 21
11.6246934231
 31
0.0
  0
LINE
  5
186
330
2
100
AcDbEntity
  8
0
100
AcDbLine
 10
30.5218681509
 20
11.6246934231
 30
0.0
 11
30.27771673650001
 21
11.5935901495
 31
0.0
  0
LINE
  5
187
330
2
100
AcDbEntity
  8
0
100
AcDbLine
 10
30.27771673650001
 20
11.5935901495
 30
0.0
 11
30.0257474805
 21
11.56199858309999
 31
0.0
  0
LWPOLYLINE
  5
188
330
2
100
AcDbEntity
  8
0
100
AcDbPolyline
 90
        7
 70
     0
 43
0.0
 10
24.0522878965
 20
10.8734959927
 10
23.8622408037
 20
10.85018991749999
 10
23.6684967029
 20
10.8270202343
 10
23.47098332690001
 20
10.8043658295
 10
23.2692270677
 20
10.78263034309999
 10
23.0610579461
 20
10.76216228229999
 10
22.9571956005
 20
10.7532417799
  0
LINE
  5
189
330
2
100
AcDbEntity
  8
0
100
AcDbLine
 10
30.0257474805
 20
11.56199858309999
 30
0.0
 11
29.7658030949
 21
11.5299575735
 31
0.0
  0
LWPOLYLINE
  5
18A
330
2
100
AcDbEntity
  8
0
100
AcDbPolyline
 90
        3
 70
     0
 43
0.0
 10
24.60241663570001
 20
10.9414115367
 10
24.42215739090001
 20
10.9193274311
 10
24.0522878965
 20
10.8734959927
  0
LINE
  5
18B
330
2
100
AcDbEntity
  8
0
100
AcDbLine
 10
29.7658030949
 20
11.5299575735
 30
0.0
 11
29.4965716197
 21
11.4973742471
 31
0.0
  0
LINE
  5
18C
330
2
100
AcDbEntity
  8
0
100
AcDbLine
 10
24.9543226229
 20
10.9837775351
 30
0.0
 11
24.60241663570001
 21
10.9414115367
 31
0.0
  0
LINE
  5
18D
330
2
100
AcDbEntity
  8
0
100
AcDbLine
 10
29.4965716197
 20
11.4973742471
 30
0.0
 11
29.2162183781
 21
11.46410887269999
 31
0.0
  0
LINE
  5
18E
330
2
100
AcDbEntity
  8
0
100
AcDbLine
 10
25.2957830581
 20
11.0240049015
 30
0.0
 11
24.9543226229
 21
10.9837775351
 31
0.0
  0
LINE
  5
18F
330
2
100
AcDbEntity
  8
0
100
AcDbLine
 10
29.2162183781
 20
11.46410887269999
 30
0.0
 11
28.92270993970001
 21
11.4299546327
 31
0.0
  0
LINE
  5
190
330
2
100
AcDbEntity
  8
0
100
AcDbLine
 10
25.6277718277
 20
11.0623777527
 30
0.0
 11
25.2957830581
 21
11.0240049015
 31
0.0
  0
LINE
  5
191
330
2
100
AcDbEntity
  8
0
100
AcDbLine
 10
28.92270993970001
 20
11.4299546327
 30
0.0
 11
28.6140201141
 21
11.3946564039
 31
0.0
  0
LINE
  5
192
330
2
100
AcDbEntity
  8
0
100
AcDbLine
 10
25.9503956437
 20
11.0990710071
 30
0.0
 11
25.6277718277
 21
11.0623777527
 31
0.0
  0
LINE
  5
193
330
2
100
AcDbEntity
  8
0
100
AcDbLine
 10
28.6140201141
 20
11.3946564039
 30
0.0
 11
28.2877149429
 21
11.3578996119
 31
0.0
  0
LINE
  5
194
330
2
100
AcDbEntity
  8
0
100
AcDbLine
 10
26.4167609781
 20
11.1512903239
 30
0.0
 11
25.9503956437
 21
11.0990710071
 31
0.0
  0
LINE
  5
195
330
2
100
AcDbEntity
  8
0
100
AcDbLine
 10
28.2877149429
 20
11.3578996119
 30
0.0
 11
27.9368586293
 21
11.3188507559
 31
0.0
  0
LINE
  5
196
330
2
100
AcDbEntity
  8
0
100
AcDbLine
 10
27.9368586293
 20
11.3188507559
 30
0.0
 11
27.4225162469
 21
11.2621420343
 31
0.0
  0
LWPOLYLINE
  5
197
330
2
100
AcDbEntity
  8
0
100
AcDbPolyline
 90
        3
 70
     0
 43
0.0
 10
27.4225162469
 20
11.26214203429999
 10
27.14746231250001
 20
11.23191927429999
 10
26.4167609781
 20
11.1512903239
  0
LINE
  5
199
330
2
100
AcDbEntity
  8
0
100
AcDbLine
 10
40.15276861970001
 20
9.256242368700004
 30
0.0
 11
-30.85103668269999
 21
9.256242368700004
 31
0.0
  0
LWPOLYLINE
  5
19A
330
2
100
AcDbEntity
  8
0
100
AcDbPolyline
 90
        9
 70
     0
 43
0.0
 10
-13.65546365069999
 20
10.7532417783
 10
-13.75932601069999
 20
10.76216228229999
 10
-13.96749513069999
 20
10.78263034309999
 10
-14.16925138989999
 20
10.8043658295
 10
-14.36676476589999
 20
10.8270202343
 10
-14.56050886829999
 20
10.85018991749999
 10
-14.75055595949999
 20
10.8734959927
 10
-14.93711359949999
 20
10.8966291703
 10
-15.30068470029999
 20
10.9414115367
  0
LINE
  5
19B
330
2
100
AcDbEntity
  8
0
100
AcDbLine
 10
-17.84573037709999
 20
11.2319192743
 30
0.0
 11
-18.63512669229999
 21
11.3188507559
 31
0.0
  0
LINE
  5
19C
330
2
100
AcDbEntity
  8
0
100
AcDbLine
 10
-16.96191244429999
 20
11.1342359527
 30
0.0
 11
-17.84573037709999
 21
11.2319192743
 31
0.0
  0
LINE
  5
19D
330
2
100
AcDbEntity
  8
0
100
AcDbLine
 10
-18.63512669229999
 20
11.3188507559
 30
0.0
 11
-18.98598300749999
 21
11.3578996119
 31
0.0
  0
LINE
  5
19E
330
2
100
AcDbEntity
  8
0
100
AcDbLine
 10
-18.98598300749999
 20
11.3578996119
 30
0.0
 11
-19.31228817709999
 21
11.3946564039
 31
0.0
  0
LINE
  5
19F
330
2
100
AcDbEntity
  8
0
100
AcDbLine
 10
-16.48852411949999
 20
11.0809247175
 30
0.0
 11
-16.96191244429999
 21
11.1342359527
 31
0.0
  0
LINE
  5
1A0
330
2
100
AcDbEntity
  8
0
100
AcDbLine
 10
-19.31228817709999
 20
11.3946564039
 30
0.0
 11
-19.62097800429999
 21
11.4299546327
 31
0.0
  0
LINE
  5
1A1
330
2
100
AcDbEntity
  8
0
100
AcDbLine
 10
-16.16121355789999
 20
11.0434109463
 30
0.0
 11
-16.48852411949999
 21
11.0809247175
 31
0.0
  0
LINE
  5
1A2
330
2
100
AcDbEntity
  8
0
100
AcDbLine
 10
-19.62097800429999
 20
11.4299546327
 30
0.0
 11
-19.91448644269999
 21
11.46410887269999
 31
0.0
  0
LINE
  5
1A3
330
2
100
AcDbEntity
  8
0
100
AcDbLine
 10
-15.82454798669999
 20
11.0041385287
 30
0.0
 11
-16.16121355789999
 21
11.0434109463
 31
0.0
  0
LINE
  5
1A4
330
2
100
AcDbEntity
  8
0
100
AcDbLine
 10
-19.91448644269999
 20
11.46410887269999
 30
0.0
 11
-20.19483968429999
 21
11.4973742471
 31
0.0
  0
LWPOLYLINE
  5
1A5
330
2
100
AcDbEntity
  8
0
100
AcDbPolyline
 90
        3
 70
     0
 43
0.0
 10
-15.30068470029999
 20
10.9414115367
 10
-15.47802161549999
 20
10.96288187589999
 10
-15.82454798669999
 20
11.00413852869999
  0
LINE
  5
1A6
330
2
100
AcDbEntity
  8
0
100
AcDbLine
 10
-20.19483968429999
 20
11.4973742471
 30
0.0
 11
-20.46407115949999
 21
11.5299575735
 31
0.0
  0
LINE
  5
1A7
330
2
100
AcDbEntity
  8
0
100
AcDbLine
 10
-20.46407115949999
 20
11.5299575735
 30
0.0
 11
-20.72401554349999
 21
11.56199858309999
 31
0.0
  0
LINE
  5
1A8
330
2
100
AcDbEntity
  8
0
100
AcDbLine
 10
-20.72401554349999
 20
11.56199858309999
 30
0.0
 11
-20.97598480109998
 21
11.5935901495
 31
0.0
  0
LINE
  5
1A9
330
2
100
AcDbEntity
  8
0
100
AcDbLine
 10
-20.97598480109998
 20
11.5935901495
 30
0.0
 11
-21.22013621389999
 21
11.6246934231
 31
0.0
  0
LINE
  5
1AA
330
2
100
AcDbEntity
  8
0
100
AcDbLine
 10
-21.22013621389999
 20
11.6246934231
 30
0.0
 11
-21.45645926349999
 21
11.6552536455
 31
0.0
  0
LINE
  5
1AB
330
2
100
AcDbEntity
  8
0
100
AcDbLine
 10
-21.45645926349999
 20
11.6552536455
 30
0.0
 11
-21.68495626189999
 21
11.68522182789999
 31
0.0
  0
LINE
  5
1AC
330
2
100
AcDbEntity
  8
0
100
AcDbLine
 10
-21.68495626189999
 20
11.68522182789999
 30
0.0
 11
-21.90563593389999
 21
11.71455389349999
 31
0.0
  0
LINE
  5
1AD
330
2
100
AcDbEntity
  8
0
100
AcDbLine
 10
-21.90563593389999
 20
11.71455389349999
 30
0.0
 11
-22.18771655309999
 21
11.7526086135
 31
0.0
  0
LINE
  5
1AE
330
2
100
AcDbEntity
  8
0
100
AcDbLine
 10
-22.18771655309999
 20
11.7526086135
 30
0.0
 11
-22.45636942829999
 21
11.7894503751
 31
0.0
  0
LINE
  5
1AF
330
2
100
AcDbEntity
  8
0
100
AcDbLine
 10
-22.45636942829999
 20
11.7894503751
 30
0.0
 11
-22.71246042509999
 21
11.8251297255
 31
0.0
  0
LINE
  5
1B0
330
2
100
AcDbEntity
  8
0
100
AcDbLine
 10
-22.71246042509999
 20
11.8251297255
 30
0.0
 11
-22.95683642029999
 21
11.8597055175
 31
0.0
  0
LINE
  5
1B1
330
2
100
AcDbEntity
  8
0
100
AcDbLine
 10
-22.95683642029999
 20
11.8597055175
 30
0.0
 11
-23.19031458189999
 21
11.8932418743
 31
0.0
  0
LINE
  5
1B2
330
2
100
AcDbEntity
  8
0
100
AcDbLine
 10
-23.19031458189999
 20
11.8932418743
 30
0.0
 11
-23.41366518029999
 21
11.9258052839
 31
0.0
  0
LINE
  5
1B3
330
2
100
AcDbEntity
  8
0
100
AcDbLine
 10
-23.41366518029999
 20
11.9258052839
 30
0.0
 11
-23.62735008429999
 21
11.9574339367
 31
0.0
  0
LINE
  5
1B4
330
2
100
AcDbEntity
  8
0
100
AcDbLine
 10
-23.62735008429999
 20
11.9574339367
 30
0.0
 11
-23.83142330829999
 21
11.9881142695
 31
0.0
  0
LINE
  5
1B5
330
2
100
AcDbEntity
  8
0
100
AcDbLine
 10
-23.83142330829999
 20
11.9881142695
 30
0.0
 11
-24.02591624589999
 21
12.0178274455
 31
0.0
  0
LINE
  5
1B6
330
2
100
AcDbEntity
  8
0
100
AcDbLine
 10
-24.02591624589999
 20
12.0178274455
 30
0.0
 11
-24.21088316909999
 21
12.0465557287
 31
0.0
  0
LINE
  5
1B7
330
2
100
AcDbEntity
  8
0
100
AcDbLine
 10
-24.21088316909999
 20
12.0465557287
 30
0.0
 11
-24.38640064429999
 21
12.0742824359
 31
0.0
  0
LINE
  5
1B8
330
2
100
AcDbEntity
  8
0
100
AcDbLine
 10
-24.38640064429999
 20
12.0742824359
 30
0.0
 11
-24.55256657869999
 21
12.10099186469999
 31
0.0
  0
LINE
  5
1B9
330
2
100
AcDbEntity
  8
0
100
AcDbLine
 10
-24.55256657869999
 20
12.10099186469999
 30
0.0
 11
-24.70951956909999
 21
12.1266718903
 31
0.0
  0
LINE
  5
1BA
330
2
100
AcDbEntity
  8
0
100
AcDbLine
 10
-24.70951956909999
 20
12.1266718903
 30
0.0
 11
-24.85751413709999
 21
12.1513177687
 31
0.0
  0
LINE
  5
1BB
330
2
100
AcDbEntity
  8
0
100
AcDbLine
 10
-24.85751413709999
 20
12.1513177687
 30
0.0
 11
-24.99677756589999
 21
12.1749138919
 31
0.0
  0
LINE
  5
1BC
330
2
100
AcDbEntity
  8
0
100
AcDbLine
 10
-24.99677759469999
 20
12.17491389670001
 30
0.0
 11
-25.15894880749999
 21
12.2029161223
 31
0.0
  0
LINE
  5
1BD
330
2
100
AcDbEntity
  8
0
100
AcDbLine
 10
-25.15894880749999
 20
12.2029161223
 30
0.0
 11
-25.30845041389999
 21
12.2292650295
 31
0.0
  0
LINE
  5
1BE
330
2
100
AcDbEntity
  8
0
100
AcDbLine
 10
12.53402913650001
 20
-8.688802720899996
 30
0.0
 11
12.5538753845
 21
-8.461959076099997
 31
0.0
  0
LINE
  5
1BF
330
2
100
AcDbEntity
  8
0
100
AcDbLine
 10
12.53362672850001
 20
-8.693207885699994
 30
0.0
 11
12.53400513650001
 21
-8.689052488899999
 31
0.0
  0
LINE
  5
1C0
330
2
100
AcDbEntity
  8
0
100
AcDbLine
 10
12.53402913650001
 20
-8.688802720899996
 30
0.0
 11
12.53400513650001
 21
-8.689052488899999
 31
0.0
  0
LINE
  5
1C1
330
2
100
AcDbEntity
  8
0
100
AcDbLine
 10
12.53310616690001
 20
-8.698424216899997
 30
0.0
 11
12.53362672850001
 21
-8.693207885699994
 31
0.0
  0
LINE
  5
1C2
330
2
100
AcDbEntity
  8
0
100
AcDbLine
 10
12.5331012197
 20
-8.6984640969
 30
0.0
 11
12.5331053845
 21
-8.698424268099994
 31
0.0
  0
LINE
  5
1C3
330
2
100
AcDbEntity
  8
0
100
AcDbLine
 10
7.581450307700009
 20
-9.850393469699998
 30
0.0
 11
7.3806600037
 21
-10.13715174009999
 31
0.0
  0
LINE
  5
1C4
330
2
100
AcDbEntity
  8
0
100
AcDbLine
 10
7.681025909300004
 20
-9.734653373699995
 30
0.0
 11
7.821113542900008
 21
-9.5366082729
 31
0.0
  0
LWPOLYLINE
  5
1C5
330
2
100
AcDbEntity
  8
0
100
AcDbPolyline
 90
        5
 70
     0
 43
0.0
 10
7.581446222900012
 20
-9.850395616900001
 10
7.586563600499999
 20
-9.843594162500004
 10
7.602171408500012
 20
-9.827482663300003
 10
7.617529024500001
 20
-9.816193053699997
 10
7.622600803700009
 20
-9.8135076601
  0
LINE
  5
1C6
330
2
100
AcDbEntity
  8
0
100
AcDbLine
 10
8.210416749300009
 20
-9.529781229699995
 30
0.0
 11
8.036538005300002
 21
-9.738450292099994
 31
0.0
  0
LINE
  5
1C7
330
2
100
AcDbEntity
  8
0
100
AcDbLine
 10
8.210416749300009
 20
-9.592281229699995
 30
0.0
 11
8.036538005300002
 21
-9.800950292099994
 31
0.0
  0
LINE
  5
1C8
330
2
100
AcDbEntity
  8
0
100
AcDbLine
 10
6.497768691700002
 20
-9.610243255299995
 30
0.0
 11
6.143283446899999
 21
-9.964728500099997
 31
0.0
  0
LWPOLYLINE
  5
1C9
330
2
100
AcDbEntity
  8
0
100
AcDbPolyline
 90
        5
 70
     0
 43
0.0
 10
6.497863710900006
 20
-9.610148660100001
 10
6.502196648500003
 20
-9.605956128900004
 10
6.514843654900005
 20
-9.595155813700003
 10
6.527168914100002
 20
-9.586379172100002
 10
6.531981461300006
 20
-9.583498207300003
  0
LINE
  5
1CA
330
2
100
AcDbEntity
  8
0
100
AcDbLine
 10
36.6225316965
 20
12.6959027047
 30
0.0
 11
36.5751309509
 21
12.66270557350001
 31
0.0
  0
LWPOLYLINE
  5
1CB
330
2
100
AcDbEntity
  8
0
100
AcDbPolyline
 90
        3
 70
     0
 43
0.0
 10
38.58855487410001
 20
10.86357123589999
 10
38.58938025490001
 20
10.86359333989999
 10
38.58962329810001
 20
10.86361195589999
  0
LWPOLYLINE
  5
1CC
330
2
100
AcDbEntity
  8
0
100
AcDbPolyline
 90
        3
 70
     0
 43
0.0
 10
38.7114090949
 20
10.76046323429999
 10
38.71224317170001
 20
10.76048170789999
 10
38.71248825490001
 20
10.76049940869999
  0
LWPOLYLINE
  5
1CD
330
2
100
AcDbEntity
  8
0
100
AcDbPolyline
 90
        8
 70
     0
 43
0.0
 10
24.3485025189
 20
10.7537091991
 10
24.5773076917
 20
10.75873693669999
 10
24.9968784773
 20
10.76637991589999
 10
25.46933002770001
 20
10.77338087749999
 10
26.0048605221
 20
10.77979096549999
 10
26.61544027410001
 20
10.78569003589999
 10
27.2218658645
 20
10.79051061349999
 10
27.78319925970001
 20
10.79433383749999
  0
LINE
  5
1CE
330
2
100
AcDbEntity
  8
0
100
AcDbLine
 10
38.5845018901
 20
10.8635137687
 30
0.0
 11
38.58855487410001
 21
10.8635712359
 31
0.0
  0
LINE
  5
1CF
330
2
100
AcDbEntity
  8
0
100
AcDbLine
 10
38.7073124021
 20
10.7604243159
 30
0.0
 11
38.7114090949
 21
10.7604632343
 31
0.0
  0
LINE
  5
1D0
330
2
100
AcDbEntity
  8
0
100
AcDbLine
 10
34.20448924210001
 20
10.8343985191
 30
0.0
 11
34.7741287589
 21
10.8388254647
 31
0.0
  0
LINE
  5
1D1
330
2
100
AcDbEntity
  8
0
100
AcDbLine
 10
33.91478505170001
 20
10.8321590519
 30
0.0
 11
34.20448924210001
 21
10.8343985191
 31
0.0
  0
LINE
  5
1D2
330
2
100
AcDbEntity
  8
0
100
AcDbLine
 10
34.7741287589
 20
10.8388254647
 30
0.0
 11
35.3278273557
 21
10.8430689671
 31
0.0
  0
LINE
  5
1D3
330
2
100
AcDbEntity
  8
0
100
AcDbLine
 10
35.3278273557
 20
10.8430689671
 30
0.0
 11
36.11763753490001
 21
10.8488347511
 31
0.0
  0
LINE
  5
1D4
330
2
100
AcDbEntity
  8
0
100
AcDbLine
 10
32.42634727570001
 20
10.8212449335
 30
0.0
 11
33.91478505170001
 21
10.8321590519
 31
0.0
  0
LINE
  5
1D5
330
2
100
AcDbEntity
  8
0
100
AcDbLine
 10
36.11763753490001
 20
10.8488347511
 30
0.0
 11
36.8401003269
 21
10.8536917367
 31
0.0
  0
LINE
  5
1D6
330
2
100
AcDbEntity
  8
0
100
AcDbLine
 10
31.4973365397
 20
10.81524310949999
 30
0.0
 11
32.42634727570001
 21
10.8212449335
 31
0.0
  0
LINE
  5
1D7
330
2
100
AcDbEntity
  8
0
100
AcDbLine
 10
38.5322371893
 20
10.8631439815
 30
0.0
 11
38.5845018901
 21
10.8635137687
 31
0.0
  0
LINE
  5
1D8
330
2
100
AcDbEntity
  8
0
100
AcDbLine
 10
36.8401003269
 20
10.8536917367
 30
0.0
 11
37.4671978501
 21
10.8575070567
 31
0.0
  0
LINE
  5
1D9
330
2
100
AcDbEntity
  8
0
100
AcDbLine
 10
27.78319925970001
 20
10.7943338375
 30
0.0
 11
28.79072442450001
 21
10.8002611783
 31
0.0
  0
LINE
  5
1DA
330
2
100
AcDbEntity
  8
0
100
AcDbLine
 10
30.0802080885
 20
10.8071901047
 30
0.0
 11
31.4973365397
 21
10.81524310949999
 31
0.0
  0
LINE
  5
1DB
330
2
100
AcDbEntity
  8
0
100
AcDbLine
 10
28.79072442450001
 20
10.8002611783
 30
0.0
 11
30.0802080885
 21
10.8071901047
 31
0.0
  0
LINE
  5
1DC
330
2
100
AcDbEntity
  8
0
100
AcDbLine
 10
37.4671978501
 20
10.8575070567
 30
0.0
 11
38.1055348805
 21
10.8609645735
 31
0.0
  0
LINE
  5
1DD
330
2
100
AcDbEntity
  8
0
100
AcDbLine
 10
38.4143333269
 20
10.8625134327
 30
0.0
 11
38.5322371893
 21
10.8631439815
 31
0.0
  0
LINE
  5
1DE
330
2
100
AcDbEntity
  8
0
100
AcDbLine
 10
38.1055348805
 20
10.8609645735
 30
0.0
 11
38.4143333269
 21
10.8625134327
 31
0.0
  0
LWPOLYLINE
  5
1DF
330
2
100
AcDbEntity
  8
0
100
AcDbPolyline
 90
        3
 70
     0
 43
0.0
 10
33.2537290565
 20
10.7500578407
 10
33.69925097490001
 20
10.7514248215
 10
33.9949325685
 20
10.75231831109999
  0
LINE
  5
1E0
330
2
100
AcDbEntity
  8
0
100
AcDbLine
 10
33.9949325685
 20
10.7523183111
 30
0.0
 11
34.5773526005
 21
10.7540251703
 31
0.0
  0
LWPOLYLINE
  5
1E1
330
2
100
AcDbEntity
  8
0
100
AcDbPolyline
 90
        3
 70
     0
 43
0.0
 10
-29.41075611309999
 20
10.76049940869999
 10
-29.92924739789999
 20
10.7595115031
 10
-30.98944356749999
 20
10.7568684199
  0
LINE
  5
1E2
330
2
100
AcDbEntity
  8
0
100
AcDbLine
 10
36.2196968309
 20
10.7580120087
 30
0.0
 11
36.94842467570001
 21
10.7591786823
 31
0.0
  0
LINE
  5
1E3
330
2
100
AcDbEntity
  8
0
100
AcDbLine
 10
38.6545178197
 20
10.7603008311
 30
0.0
 11
38.7073124021
 21
10.7604243159
 31
0.0
  0
LINE
  5
1E4
330
2
100
AcDbEntity
  8
0
100
AcDbLine
 10
36.94842467570001
 20
10.7591786823
 30
0.0
 11
37.7651715541
 21
10.7599601383
 31
0.0
  0
LINE
  5
1E5
330
2
100
AcDbEntity
  8
0
100
AcDbLine
 10
37.7651715541
 20
10.7599601383
 30
0.0
 11
38.0882179173
 21
10.7601128039
 31
0.0
  0
LINE
  5
1E6
330
2
100
AcDbEntity
  8
0
100
AcDbLine
 10
27.1453507045
 20
10.7546488199
 30
0.0
 11
14.5342317029
 21
10.7503581687
 31
0.0
  0
LINE
  5
1E7
330
2
100
AcDbEntity
  8
0
100
AcDbLine
 10
32.1599114037
 20
10.7558446439
 30
0.0
 11
24.10488486770001
 21
10.7536273543
 31
0.0
  0
LINE
  5
1E8
330
2
100
AcDbEntity
  8
0
100
AcDbLine
 10
15.3410445189
 20
10.7506830807
 30
0.0
 11
4.650823763700003
 21
10.7487314647
 31
0.0
  0
LINE
  5
1E9
330
2
100
AcDbEntity
  8
0
100
AcDbLine
 10
38.4833799685
 20
10.7602142487
 30
0.0
 11
38.6545178197
 21
10.7603008311
 31
0.0
  0
LINE
  5
1EA
330
2
100
AcDbEntity
  8
0
100
AcDbLine
 10
36.2196968309
 20
10.7580120087
 30
0.0
 11
34.5773526005
 21
10.7540251703
 31
0.0
  0
LWPOLYLINE
  5
1EB
330
2
100
AcDbEntity
  8
0
100
AcDbPolyline
 90
        3
 70
     0
 43
0.0
 10
38.0882179173
 20
10.7601128039
 10
38.33253646450001
 20
10.76018011269999
 10
38.4833799685
 20
10.7602142487
  0
LINE
  5
1EC
330
2
100
AcDbEntity
  8
0
100
AcDbLine
 10
35.36805367410001
 20
10.7562424423
 30
0.0
 11
32.1599114037
 21
10.7558446439
 31
0.0
  0
LINE
  5
1ED
330
2
100
AcDbEntity
  8
0
100
AcDbLine
 10
35.4970622789
 20
10.7562180871
 30
0.0
 11
27.1453507045
 21
10.7546488199
 31
0.0
  0
LINE
  5
1EE
330
2
100
AcDbEntity
  8
0
100
AcDbLine
 10
40.2905665989
 20
10.7562588471
 30
0.0
 11
35.4970622773
 21
10.7562507335
 31
0.0
  0
LINE
  5
1EF
330
2
100
AcDbEntity
  8
0
100
AcDbLine
 10
4.650865968499999
 20
10.7486010839
 30
0.0
 11
-6.039371540299995
 21
10.7506830983
 31
0.0
  0
LINE
  5
1F0
330
2
100
AcDbEntity
  8
0
100
AcDbLine
 10
-17.84364956269999
 20
10.7546488295
 30
0.0
 11
-26.14534042349999
 21
10.7562086935
 31
0.0
  0
LINE
  5
1F1
330
2
100
AcDbEntity
  8
0
100
AcDbLine
 10
-26.14534042349999
 20
10.7562086935
 30
0.0
 11
-30.98883466189999
 21
10.7562588471
 31
0.0
  0
LINE
  5
1F2
330
2
100
AcDbEntity
  8
0
100
AcDbLine
 10
-26.06632173709999
 20
10.7562424423
 30
0.0
 11
-22.85818367789999
 21
10.7558446455
 31
0.0
  0
LINE
  5
1F3
330
2
100
AcDbEntity
  8
0
100
AcDbLine
 10
-5.232514429899993
 20
10.7503581735
 30
0.0
 11
-17.84364956269999
 21
10.7546488295
 31
0.0
  0
LINE
  5
1F4
330
2
100
AcDbEntity
  8
0
100
AcDbLine
 10
-22.85818367789999
 20
10.7558446455
 30
0.0
 11
-14.80318252749999
 21
10.7536273623
 31
0.0
  0
LINE
  5
1F5
330
2
100
AcDbEntity
  8
0
100
AcDbLine
 10
-27.41284033549999
 20
10.7588505943
 30
0.0
 11
-28.63294705389998
 21
10.7600506247
 31
0.0
  0
LINE
  5
1F6
330
2
100
AcDbEntity
  8
0
100
AcDbLine
 10
-26.06632173709999
 20
10.7562424423
 30
0.0
 11
-27.41284033549999
 21
10.7588505943
 31
0.0
  0
LINE
  5
1F7
330
2
100
AcDbEntity
  8
0
100
AcDbLine
 10
38.7124880485
 20
10.7604994087
 30
0.0
 11
39.75725274610001
 21
10.7582748375
 31
0.0
  0
LINE
  5
1F8
330
2
100
AcDbEntity
  8
0
100
AcDbLine
 10
39.75725274610001
 20
10.7582748375
 30
0.0
 11
40.2911755045
 21
10.7568684199
 31
0.0
  0
LWPOLYLINE
  5
1F9
330
2
100
AcDbEntity
  8
0
100
AcDbPolyline
 90
        3
 70
     0
 43
0.0
 10
-23.94674117869999
 20
10.7500416055
 10
-24.39751903789999
 20
10.7514248215
 10
-26.06632199149998
 20
10.75614203589999
  0
LINE
  5
1FA
330
2
100
AcDbEntity
  8
0
100
AcDbLine
 10
-28.63294705389998
 20
10.7600506247
 30
0.0
 11
-29.40188850349999
 21
10.7604040455
 31
0.0
  0
LINE
  5
1FB
330
2
100
AcDbEntity
  8
0
100
AcDbLine
 10
-21.52208186349999
 20
10.8112900167
 30
0.0
 11
-22.51130490829999
 21
10.8172031351
 31
0.0
  0
LINE
  5
1FC
330
2
100
AcDbEntity
  8
0
100
AcDbLine
 10
-27.30647948269999
 20
10.8521835495
 30
0.0
 11
-28.3485038331
 21
10.8585431927
 31
0.0
  0
LINE
  5
1FD
330
2
100
AcDbEntity
  8
0
100
AcDbLine
 10
-28.3485038331
 20
10.8585431927
 30
0.0
 11
-29.25793248429999
 21
10.8633146391
 31
0.0
  0
LINE
  5
1FE
330
2
100
AcDbEntity
  8
0
100
AcDbLine
 10
-22.51130490829999
 20
10.8172031351
 30
0.0
 11
-23.42750993229999
 21
10.8233529735
 31
0.0
  0
LINE
  5
1FF
330
2
100
AcDbEntity
  8
0
100
AcDbLine
 10
-23.42750993229999
 20
10.8233529735
 30
0.0
 11
-24.32057597069999
 21
10.8299227431
 31
0.0
  0
LINE
  5
200
330
2
100
AcDbEntity
  8
0
100
AcDbLine
 10
-26.02609541869999
 20
10.8430689671
 30
0.0
 11
-27.30647948269999
 21
10.8521835495
 31
0.0
  0
LWPOLYLINE
  5
201
330
2
100
AcDbEntity
  8
0
100
AcDbPolyline
 90
        5
 70
     0
 43
0.0
 10
-29.40188850349999
 20
10.76040404549999
 10
-29.40809777069999
 20
10.76044407909999
 10
-29.40967715949999
 20
10.76046323429999
 10
-29.41051123629999
 20
10.76048170789999
 10
-29.41075631789999
 20
10.76049940869999
  0
LINE
  5
202
330
2
100
AcDbEntity
  8
0
100
AcDbLine
 10
-24.90275730509999
 20
10.8343985191
 30
0.0
 11
-26.02609541869999
 21
10.8430689671
 31
0.0
  0
LINE
  5
203
330
2
100
AcDbEntity
  8
0
100
AcDbLine
 10
-24.32057597069999
 20
10.8299227431
 30
0.0
 11
-24.90275730509999
 21
10.8343985191
 31
0.0
  0
LINE
  5
204
330
2
100
AcDbEntity
  8
0
100
AcDbLine
 10
-29.25793248429999
 20
10.8633146391
 30
0.0
 11
-29.28276995309999
 21
10.8635137687
 31
0.0
  0
LWPOLYLINE
  5
205
330
2
100
AcDbEntity
  8
0
100
AcDbPolyline
 90
        4
 70
     0
 43
0.0
 10
-29.28276995309999
 20
10.8635137687
 10
-29.28682293869999
 20
10.86357123589999
 10
-29.28764831789999
 20
10.86359333989999
 10
-29.28789136109999
 20
10.86361195589999
  0
LWPOLYLINE
  5
206
330
2
100
AcDbEntity
  8
0
100
AcDbPolyline
 90
       10
 70
     0
 43
0.0
 10
-15.04677052589999
 20
10.7537091975
 10
-15.27557575469999
 20
10.75873693669999
 10
-15.69514654189999
 20
10.76637991589999
 10
-16.16759809069999
 20
10.77338087749999
 10
-16.70312858509999
 20
10.77979096549999
 10
-17.31370833709999
 20
10.78569003589999
 10
-17.92013392749999
 20
10.79051061349999
 10
-18.48146732429999
 20
10.79433383749999
 10
-19.00315098349999
 20
10.79751200229999
 10
-21.52208186349999
 20
10.81129001669999
  0
LWPOLYLINE
  5
212
330
2
100
AcDbEntity
  8
0
100
AcDbPolyline
 90
       10
 70
     0
 43
0.0
 10
-29.41075636749999
 20
10.76049941189999
 10
-29.39148660269999
 20
10.7620254503
 10
-29.37268251469999
 20
10.76650421829999
 10
-29.35479378029999
 20
10.7738286151
 10
-29.33824819469999
 20
10.7838234887
 10
-29.32344142669999
 20
10.79624982469999
 10
-29.31072757069999
 20
10.81081046469999
 10
-29.30041066509999
 20
10.8271572055
 10
-29.29273742989999
 20
10.8448991287
 10
-29.28789136109999
 20
10.86361195589999
  0
LWPOLYLINE
  5
213
330
2
100
AcDbEntity
  8
0
100
AcDbPolyline
 90
       10
 70
     0
 43
0.0
 10
38.71248830290001
 20
10.76049941189999
 10
38.69321853970001
 20
10.7620254503
 10
38.6744144501
 20
10.76650421829999
 10
38.65652571730001
 20
10.7738286151
 10
38.6399801301
 20
10.7838234887
 10
38.6251733637
 20
10.79624982469999
 10
38.61245950770001
 20
10.81081046469999
 10
38.6021426021
 20
10.8271572055
 10
38.5944693669
 20
10.8448991287
 10
38.58962329810001
 20
10.86361195589999
  0
LINE
  5
21E
330
2
100
AcDbEntity
  8
0
100
AcDbLine
 10
19.7499751685
 20
-8.447555916099997
 30
0.0
 11
20.15679140370001
 21
-9.9658147737
 31
0.0
  0
LINE
  5
21F
330
2
100
AcDbEntity
  8
0
100
AcDbLine
 10
19.1250309205
 20
-8.178558935299999
 30
0.0
 11
19.1250309205
 21
-8.118558935299997
 31
0.0
  0
LINE
  5
220
330
2
100
AcDbEntity
  8
0
100
AcDbLine
 10
24.77500101650001
 20
-7.921257631299997
 30
0.0
 11
24.77500101650001
 21
-7.9812576313
 31
0.0
  0
LINE
  5
221
330
2
100
AcDbEntity
  8
0
100
AcDbLine
 10
40.2911755045
 20
10.7568684199
 30
0.0
 11
40.2905665989
 21
10.7562588471
 31
0.0
  0
LINE
  5
222
330
2
100
AcDbEntity
  8
0
100
AcDbLine
 10
24.1984598229
 20
-8.2669132537
 30
0.0
 11
23.7432405317
 21
-9.9658147737
 31
0.0
  0
LWPOLYLINE
  5
223
330
2
100
AcDbEntity
  8
0
100
AcDbPolyline
 90
        3
 70
     0
 43
0.0
 10
32.79126681010001
 20
4.157334744700001
 10
32.7246705573
 20
3.976171074299998
 10
32.6563942405
 20
3.7765069991
  0
LINE
  5
224
330
2
100
AcDbEntity
  8
0
100
AcDbLine
 10
32.75909863250001
 20
4.071521653500003
 30
0.0
 11
32.85197454930001
 21
4.3119830119
 31
0.0
  0
LINE
  5
225
330
2
100
AcDbEntity
  8
0
100
AcDbLine
 10
32.8519725605
 20
4.311978077500004
 30
0.0
 11
32.79126681010001
 21
4.157334744700005
 31
0.0
  0
LWPOLYLINE
  5
226
330
2
100
AcDbEntity
  8
0
100
AcDbPolyline
 90
        4
 70
     0
 43
0.0
 10
33.3521248853
 20
6.232102584700001
 10
33.5497854485
 20
6.697313621500001
 10
33.76749835730001
 20
7.197229499899997
 10
34.0060860069
 20
7.730398210300002
  0
LWPOLYLINE
  5
227
330
2
100
AcDbEntity
  8
0
100
AcDbPolyline
 90
       42
 70
     0
 43
0.0
 10
33.13430965170001
 20
5.743464704699995
 10
33.09888368690001
 20
5.661139504699995
 10
33.0651974821
 20
5.5820789335
 10
33.03475204050001
 20
5.509888095099995
 10
33.00534649330001
 20
5.439361543099998
 10
32.97393366450001
 20
5.363132226299995
 10
32.93864251730001
 20
5.276561746299996
 10
32.89947933810001
 20
5.179554952700001
 10
32.8570869205
 20
5.0736714903
 10
32.8113730565
 20
4.958627208700001
 10
32.76221711250001
 20
4.8339962087
 10
32.70940272050001
 20
4.699106242299997
 10
32.65262055090001
 20
4.552988456699999
 10
32.59148183570001
 20
4.394405186299998
 10
32.5255489957
 20
4.221933943099998
 10
32.4543488437
 20
4.033991461500001
 10
32.3773740261
 20
3.828770920700002
 10
32.29404176530001
 20
3.6041748855
 10
32.2034921029
 20
3.357153914299999
 10
32.1046819493
 20
3.083785978299999
 10
31.99652257650001
 20
2.779718827899998
 10
31.8784833717
 20
2.441546384699996
 10
31.75086375250001
 20
2.067710104699997
 10
31.6241652581
 20
1.6869600407
 10
31.50532311570001
 20
1.319779792699996
 10
31.39580304690001
 20
0.9712357351000022
 10
31.29482879730001
 20
0.6395854790999991
 10
31.2009380453
 20
0.3204869030999973
 10
31.1131032021
 20
0.0101425558999964
 10
31.0312073877
 20
-0.2928942905000014
 10
30.9564083557
 20
-0.5844324345000019
 10
30.89019754450001
 20
-0.8553260313000023
 10
30.8326230805
 20
-1.100699141699998
 10
30.7821598821
 20
-1.323118012100003
 10
30.7364294757
 20
-1.530407237700003
 10
30.6933657925
 20
-1.7303407737
 10
30.65124877490001
 20
-1.930005352900003
 10
30.6097398085
 20
-2.1304083001
 10
30.56884509330001
 20
-2.330952303300001
 10
30.52873660530001
 20
-2.530196327300004
 10
30.4893809909
 20
-2.727673543299999
 10
30.3656311589
 20
-3.354735189700001
  0
LINE
  5
228
330
2
100
AcDbEntity
  8
0
100
AcDbLine
 10
33.1988014597
 20
5.891347736700002
 30
0.0
 11
33.13430965170001
 21
5.743464704699999
 31
0.0
  0
LINE
  5
229
330
2
100
AcDbEntity
  8
0
100
AcDbLine
 10
33.2500815685
 20
6.007143056700005
 30
0.0
 11
33.1988014597
 21
5.891347736700002
 31
0.0
  0
LINE
  5
22A
330
2
100
AcDbEntity
  8
0
100
AcDbLine
 10
33.2903224149
 20
6.0967996183
 30
0.0
 11
33.2500815685
 21
6.007143056700005
 31
0.0
  0
LINE
  5
22B
330
2
100
AcDbEntity
  8
0
100
AcDbLine
 10
33.33127513170001
 20
6.186863960700005
 30
0.0
 11
33.2903224149
 21
6.0967996183
 31
0.0
  0
LWPOLYLINE
  5
22C
330
2
100
AcDbEntity
  8
0
100
AcDbPolyline
 90
        3
 70
     0
 43
0.0
 10
33.3521038197
 20
6.232044751099998
 10
33.3507261669
 20
6.229086552699996
 10
33.33127513170001
 20
6.186863960700001
  0
LWPOLYLINE
  5
22D
330
2
100
AcDbEntity
  8
0
100
AcDbPolyline
 90
        6
 70
     0
 43
0.0
 10
34.71673621810001
 20
9.250795135099998
 10
34.62469210130001
 20
9.061424813499996
 10
34.4539280677
 20
8.701793251899999
 10
34.2985557317
 20
8.368760599099999
 10
34.15020178450001
 20
8.046548344699999
 10
34.0060891237
 20
7.730406895099996
  0
LWPOLYLINE
  5
22E
330
2
100
AcDbEntity
  8
0
100
AcDbPolyline
 90
        9
 70
     0
 43
0.0
 10
33.16680661810001
 20
5.197050874299996
 10
33.18458180530001
 20
5.346048728699997
 10
33.19508032050001
 20
5.510682031099996
 10
33.2100587493
 20
5.666962851899995
 10
33.23484301650001
 20
5.808580679099996
 10
33.2635077077
 20
5.934039083899996
 10
33.2903617013
 20
6.038733818299995
 10
33.32069227090001
 20
6.145253031099997
 10
33.3521038197
 20
6.232044751099998
  0
LWPOLYLINE
  5
22F
330
2
100
AcDbEntity
  8
0
100
AcDbPolyline
 90
        3
 70
     0
 43
0.0
 10
31.00362556210001
 20
-5.396197484099999
 10
31.00174865330001
 20
-5.407093733700001
 10
30.9950570789
 20
-5.439165733700001
  0
LINE
  5
230
330
2
100
AcDbEntity
  8
0
100
AcDbLine
 10
33.16437341330001
 20
5.183077810300002
 30
0.0
 11
33.1668066805
 21
5.197051239100002
 31
0.0
  0
LWPOLYLINE
  5
231
330
2
100
AcDbEntity
  8
0
100
AcDbPolyline
 90
        7
 70
     0
 43
0.0
 10
30.3656311589
 20
-3.354735189700001
 10
30.3172311669
 20
-3.599036343299999
 10
30.26385166450001
 20
-3.865692021699999
 10
30.20530182930001
 20
-4.154277903299998
 10
30.14071779730001
 20
-4.717265244099998
 10
30.0681167157
 20
-5.059829108100004
 10
29.98460330770001
 20
-5.4358654169
  0
LWPOLYLINE
  5
232
330
2
100
AcDbEntity
  8
0
100
AcDbPolyline
 90
       21
 70
     0
 43
0.0
 10
30.9950570789
 20
-5.439165733700001
 10
31.01143031410001
 20
-5.3570591673
 10
31.04414999410001
 20
-5.138726218500003
 10
31.0660500949
 20
-4.902957877700004
 10
31.0802919413
 20
-4.402253367299998
 10
31.0916265173
 20
-4.138630893700003
 10
31.10542938770001
 20
-3.862920140100001
 10
31.1251957557
 20
-3.576435420099997
 10
31.1511635237
 20
-3.279735056900001
 10
31.1832227445
 20
-2.973695272900002
 10
31.2211154965
 20
-2.658705687299999
 10
31.26443698610001
 20
-2.334617600900003
 10
31.3129016261
 20
-2.001047524100002
 10
31.3662137973
 20
-1.659163285700003
 10
31.42424660050001
 20
-1.310036804100001
 10
31.48691663090001
 20
-0.9545061753000041
 10
31.55413930610001
 20
-0.5932392393000044
 10
31.62591936370001
 20
-0.2266084152999994
 10
31.70327581010001
 20
0.1491629126999996
 10
31.7881817013
 20
0.5408903159000005
 10
31.8830158149
 20
0.954681258299999
  0
LWPOLYLINE
  5
233
330
2
100
AcDbEntity
  8
0
100
AcDbPolyline
 90
        8
 70
     0
 43
0.0
 10
33.16437341330001
 20
5.183077810299998
 10
33.1431041653
 20
5.0842096935
 10
33.11324065650001
 20
4.977575671099998
 10
33.0749549573
 20
4.8632695111
 10
33.02888826610001
 20
4.741250981500002
 10
32.97609725810001
 20
4.611163104699997
 10
32.9179490149
 20
4.472057253499997
 10
32.85197454930001
 20
4.311983011899997
  0
LWPOLYLINE
  5
234
330
2
100
AcDbEntity
  8
0
100
AcDbPolyline
 90
       26
 70
     0
 43
0.0
 10
30.9950568853
 20
-5.439166636099997
 10
30.96370134450001
 20
-5.569959320900004
 10
30.91511516210001
 20
-5.733570762500001
 10
30.8552674997
 20
-5.8988351753
 10
30.7849067701
 20
-6.062621949700002
 10
30.7048299477
 20
-6.222683320900003
 10
30.6157240901
 20
-6.377525930499999
 10
30.51833803410001
 20
-6.5260297401
 10
30.41370058930001
 20
-6.666923247299997
 10
30.3038680389
 20
-6.797966736900001
 10
30.19073105970001
 20
-6.9177503465
 10
30.0759042405
 20
-7.0255217865
 10
29.96043757010001
 20
-7.1212658297
 10
29.84470342770001
 20
-7.205594216900003
 10
29.7278820277
 20
-7.2798348265
 10
29.60843601490001
 20
-7.345392837700003
 10
29.4847622453
 20
-7.403250687300001
 10
29.35482447570001
 20
-7.454172856900001
 10
29.2162016597
 20
-7.498593109700003
 10
29.0660166117
 20
-7.5366018713
 10
28.9008632677
 20
-7.5679282169
 10
28.71550679730001
 20
-7.591930592899998
 10
28.5125430293
 20
-7.606801324100004
 10
28.30348918930001
 20
-7.6140255273
 10
28.0999932869
 20
-7.618239388100001
 10
27.9064685317
 20
-7.622963028100002
  0
LINE
  5
235
330
2
100
AcDbEntity
  8
0
100
AcDbLine
 10
31.8830158149
 20
0.9546812583000022
 30
0.0
 11
31.93763243410001
 21
1.181996899900002
 31
0.0
  0
LWPOLYLINE
  5
236
330
2
100
AcDbEntity
  8
0
100
AcDbPolyline
 90
       35
 70
     0
 43
0.0
 10
29.98460331250001
 20
-5.435865429700001
 10
29.9455736469
 20
-5.585515869700003
 10
29.8964456629
 20
-5.733967520900002
 10
29.8374698325
 20
-5.879956892100004
 10
29.7689840885
 20
-6.0222906025
 10
29.6908293877
 20
-6.1609294617
 10
29.60215457490001
 20
-6.296806045700002
 10
29.5022837541
 20
-6.430280122500001
 10
29.39177541170001
 20
-6.559933071300001
 10
29.27072695730001
 20
-6.685003544899998
 10
29.1394168229
 20
-6.804483397700003
 10
28.99716230130001
 20
-6.9182144265
 10
28.8423972485
 20
-7.026474802500004
 10
28.6736656837
 20
-7.129295748099998
 10
28.49149986129999
 20
-7.225367309699997
 10
28.3089187349
 20
-7.308317079300003
 10
28.13910383090001
 20
-7.374930780100001
 10
27.9837820277
 20
-7.427894626499998
 10
27.8415254197
 20
-7.470362863300003
 10
27.7107014181
 20
-7.504753514500002
 10
27.59027978450001
 20
-7.532751940099998
 10
27.47921234290001
 20
-7.5556596057
 10
27.3765871093
 20
-7.574485588100003
 10
27.2816473349
 20
-7.5900135161
 10
27.1937261093
 20
-7.6028625673
 10
27.1122358613
 20
-7.6135238313
 10
27.0366592789
 20
-7.622389311300004
 10
26.9665356981
 20
-7.629774389700003
 10
26.90142997970001
 20
-7.635936540099997
 10
26.84093176050001
 20
-7.641087245699999
 10
26.78472027090001
 20
-7.645396722500002
 10
26.73251839570001
 20
-7.6490065033
 10
26.68406496690001
 20
-7.652032325699998
 10
26.6391008165
 20
-7.654570272900002
 10
26.5973967477
 20
-7.656699575300002
  0
LWPOLYLINE
  5
237
330
2
100
AcDbEntity
  8
0
100
AcDbPolyline
 90
        8
 70
     0
 43
0.0
 10
32.5845691541
 20
3.552339797499996
 10
32.51337523730001
 20
3.3170136743
 10
32.43718416850001
 20
3.052522442299995
 10
32.35537749010001
 20
2.757800829499998
 10
32.26468005650001
 20
2.426420666299996
 10
32.1641124613
 20
2.057031034299996
 10
32.05525224850001
 20
1.647185922299996
 10
31.93763243410001
 20
1.181996899899999
  0
LINE
  5
238
330
2
100
AcDbEntity
  8
0
100
AcDbLine
 10
32.5845706613
 20
3.552344647100003
 30
0.0
 11
32.62935326770001
 21
3.6937553879
 31
0.0
  0
LINE
  5
239
330
2
100
AcDbEntity
  8
0
100
AcDbLine
 10
32.6563942405
 20
3.776506999100003
 30
0.0
 11
32.5845706613
 21
3.552344645500002
 31
0.0
  0
LINE
  5
23A
330
2
100
AcDbEntity
  8
0
100
AcDbLine
 10
32.62935326770001
 20
3.6937553879
 30
0.0
 11
32.75909863250001
 21
4.071521653500003
 31
0.0
  0
LINE
  5
23B
330
2
100
AcDbEntity
  8
0
100
AcDbLine
 10
40.53959741169999
 20
10.5280477847
 30
0.0
 11
40.6508659685
 21
9.256242368700004
 31
0.0
  0
LWPOLYLINE
  5
23E
330
2
100
AcDbEntity
  8
0
100
AcDbPolyline
 90
       27
 70
     0
 43
0.0
 10
38.58962329810001
 20
10.86361195589999
 10
38.5329599253
 20
11.15417163909999
 10
38.4747713061
 20
11.4078947495
 10
38.41642705490001
 20
11.63042444069999
 10
38.35876765490001
 20
11.8263567047
 10
38.30135156850001
 20
11.99889456229999
 10
38.2435573573
 20
12.1501705415
 10
38.1852556581
 20
12.28140542789999
 10
38.1266402373
 20
12.3936587559
 10
38.06812316370001
 20
12.48813495429999
 10
38.01021276690001
 20
12.5663216887
 10
37.95300361010001
 20
12.6303825639
 10
37.8948499045
 20
12.6840936775
 10
37.8339859365
 20
12.7302461159
 10
37.7695077525
 20
12.76987395109999
 10
37.7004980085
 20
12.8034995671
 10
37.6255979797
 20
12.83140616549999
 10
37.54307142610001
 20
12.85350571269999
 10
37.45052128050001
 20
12.86931705189999
 10
37.34487535410001
 20
12.8778116135
 10
37.22855591250001
 20
12.87743333829999
 10
37.1117619285
 20
12.8673443191
 10
37.00006031250001
 20
12.84809888229999
 10
36.8948162549
 20
12.82053680069999
 10
36.79678104210001
 20
12.78552880549999
 10
36.70608398770001
 20
12.74380488869999
 10
36.6225316965
 20
12.6959027047
  0
ARC
  5
240
330
2
100
AcDbEntity
  8
0
100
AcDbCircle
 10
4.650865968499999
 20
-11.05625763129999
 30
0.0
 40
1.0
100
AcDbArc
 50
58.21121678229999
 51
121.7887909075
  0
ARC
  5
241
330
2
100
AcDbEntity
  8
0
100
AcDbCircle
 10
5.309344326900003
 20
-9.993757631299995
 30
0.0
 40
0.25
100
AcDbArc
 50
238.2134797855
 51
270.0
  0
ARC
  5
242
330
2
100
AcDbEntity
  8
0
100
AcDbCircle
 10
3.99238760850001
 20
-9.993757631299995
 30
0.0
 40
0.25
100
AcDbArc
 50
270.0
 51
301.7864894552
  0
ARC
  5
243
330
2
100
AcDbEntity
  8
0
100
AcDbCircle
 10
7.175871992500006
 20
-9.993757631299995
 30
0.0
 40
0.25
100
AcDbArc
 50
270.0
 51
324.9999999996
  0
ARC
  5
244
330
2
100
AcDbEntity
  8
0
100
AcDbCircle
 10
2.125859942900007
 20
-9.993757631299995
 30
0.0
 40
0.25
100
AcDbArc
 50
214.9999999999999
 51
270.0
  0
ARC
  5
245
330
2
100
AcDbEntity
  8
0
100
AcDbCircle
 10
-15.25894319149999
 20
-8.363970636099995
 30
0.0
 40
0.3749967088
100
AcDbArc
 50
15.0003075314
 51
88.0010518323
  0
ARC
  5
246
330
2
100
AcDbEntity
  8
0
100
AcDbCircle
 10
-10.08602636909999
 20
-8.5446128713
 30
0.0
 40
0.3749974064
100
AcDbArc
 50
87.99918636740001
 51
164.99981697
  0
ARC
  5
247
330
2
100
AcDbEntity
  8
0
100
AcDbCircle
 10
-14.07928641069999
 20
-9.868757631299995
 30
0.0
 40
0.375
100
AcDbArc
 50
195.0
 51
270.0
  0
ARC
  5
248
330
2
100
AcDbEntity
  8
0
100
AcDbCircle
 10
-11.21728165229999
 20
-9.868757631299995
 30
0.0
 40
0.375
100
AcDbArc
 50
270.0
 51
345.0
  0
ARC
  5
249
330
2
100
AcDbEntity
  8
0
100
AcDbCircle
 10
24.56068200690001
 20
-8.363970396099997
 30
0.0
 40
0.4375
100
AcDbArc
 50
122.6218948353
 51
124.9015754228999
  0
ARC
  5
24A
330
2
100
AcDbEntity
  8
0
100
AcDbCircle
 10
24.56067512690001
 20
-8.363970636099995
 30
0.0
 40
0.3749967088
100
AcDbArc
 50
91.99999999999999
 51
164.9996924686
  0
ARC
  5
24B
330
2
100
AcDbEntity
  8
0
100
AcDbCircle
 10
19.38775830610001
 20
-8.5446128713
 30
0.0
 40
0.3749974064
100
AcDbArc
 50
15.00018303
 51
92.00081363260002
  0
ARC
  5
24C
330
2
100
AcDbEntity
  8
0
100
AcDbCircle
 10
20.5190135893
 20
-9.868757631299995
 30
0.0
 40
0.375
100
AcDbArc
 50
195.0
 51
270.0
  0
ARC
  5
24D
330
2
100
AcDbEntity
  8
0
100
AcDbCircle
 10
23.3810183477
 20
-9.868757631299995
 30
0.0
 40
0.375
100
AcDbArc
 50
270.0
 51
345.0
  0
ARC
  5
24E
330
2
100
AcDbEntity
  8
0
100
AcDbCircle
 10
40.2904953253
 20
10.5068693447
 30
0.0
 40
0.25
100
AcDbArc
 50
4.9999999271
 51
89.8441144867
  0
ARC
  5
24F
330
2
100
AcDbEntity
  8
0
100
AcDbCircle
 10
-30.98876338989999
 20
10.5068693447
 30
0.0
 40
0.25
100
AcDbArc
 50
90.15588551330001
 51
175.0000000727999
  0
ARC
  5
250
330
2
100
AcDbEntity
  8
0
100
AcDbCircle
 10
40.2905486501
 20
10.5062588487
 30
0.0
 40
0.25
100
AcDbArc
 50
4.999998266899999
 51
89.9958866771
  0
ARC
  5
251
330
2
100
AcDbEntity
  8
0
100
AcDbCircle
 10
3.379419358900008
 20
-9.743757631299995
 30
0.0
 40
0.3125
100
AcDbArc
 50
225.0
 51
270.0
  0
ARC
  5
252
330
2
100
AcDbEntity
  8
0
100
AcDbCircle
 10
-30.98881671469999
 20
10.5062588487
 30
0.0
 40
0.25
100
AcDbArc
 50
90.00411332289999
 51
175.0000017330999
  0
ARC
  5
253
330
2
100
AcDbEntity
  8
0
100
AcDbCircle
 10
5.922312578100004
 20
-9.743757631299995
 30
0.0
 40
0.3125
100
AcDbArc
 50
270.0
 51
315.0
  0
ARC
  5
254
330
2
100
AcDbEntity
  8
0
100
AcDbCircle
 10
12.9897105733
 20
-8.500089714499996
 30
0.0
 40
0.4375
100
AcDbArc
 50
91.68740506179998
 51
175.0000000806999
  0
ARC
  5
255
330
2
100
AcDbEntity
  8
0
100
AcDbCircle
 10
-3.687978636299988
 20
-8.500089714499996
 30
0.0
 40
0.4375
100
AcDbArc
 50
4.9999999193
 51
88.31259493819999
  0
LINE
  5
256
330
2
100
AcDbEntity
  8
CENTER
 62
     1
 48
4.0
100
AcDbLine
 10
4.650865993300016
 20
-6.819636134499997
 30
0.0
 11
4.650865993300016
 21
-13.2928791281
 31
0.0
  0
LWPOLYLINE
  5
257
330
2
100
AcDbEntity
  8
CENTER
 62
     1
 48
4.0
100
AcDbPolyline
 90
        3
 70
   128
 43
0.0
 10
8.250768154100015
 20
7.273817176391702
 10
4.650768154100006
 20
7.273817176391702
 10
1.050768154100012
 20
7.273817176391702
  0
LWPOLYLINE
  5
4A9
330
2
100
AcDbEntity
  8
0
  6
HIDDEN
100
AcDbPolyline
 90
       44
 70
     0
 43
0.0
 10
-2.430687922846033
 20
7.286626597393656
 10
-2.351810201246024
 20
7.237910443793651
 10
-2.270717081246033
 20
7.196135459793651
 10
-2.187649065246034
 20
7.160620557393656
 10
-2.102846665246033
 20
7.130684638993656
 10
-2.016550385246034
 20
7.105646614993652
 10
-1.896823327646032
 20
7.078150992593656
 10
-1.775373652446035
 20
7.056776229393655
 10
-1.652812386846022
 20
7.039791960593653
 10
-1.529750554846032
 20
7.025467819793654
 10
-1.273896426846022
 20
6.999598830993654
 10
-1.018195938846034
 20
6.979819365393652
 10
-0.7623249388460352
 20
6.968197250193654
 10
-0.5010246140460311
 20
6.965740656593652
 10
-0.2394192796460288
 20
6.969215651793653
 10
0.0222818467539696
 20
6.973924307793652
 10
0.3659996643539642
 20
6.976321562193653
 10
0.7095977299539698
 20
6.975425904593656
 10
1.053152077153967
 20
6.973924307793652
 10
1.814782867553972
 20
6.975966174993651
 10
2.576504185953965
 20
6.981896582993655
 10
3.338247753953965
 20
6.985378421393654
 10
3.982553289953969
 20
6.983183142993652
 10
4.626835541153965
 20
6.979651363793657
 10
5.440632656353969
 20
6.978919856593655
 10
6.254424456353973
 20
6.981597573393656
 10
7.06822738435396
 20
6.985329152593656
 10
7.882057885153969
 20
6.987759229393653
 10
8.695932400353967
 20
6.986532440593656
 10
9.509867374753966
 20
6.979293422993656
 10
9.784331917153963
 20
6.975736493393654
 10
10.05876634275397
 20
6.975056837393651
 10
10.33313179395396
 20
6.981083128593652
 10
10.51285781475397
 20
6.990446133393653
 10
10.69226310915396
 20
7.005032950993651
 10
10.87107327075396
 20
7.025541910993652
 10
11.04901389955396
 20
7.052671339793654
 10
11.15328391875397
 20
7.072233429393655
 10
11.25661970915396
 20
7.095624266193652
 10
11.34465428355396
 20
7.119881230993655
 10
11.43124741475396
 20
7.148777232593651
 10
11.51605379235397
 20
7.183139830993653
 10
11.59872809955396
 20
7.223796584593657
 10
11.67892502595397
 20
7.271575053393654
  0
LWPOLYLINE
  5
4AA
330
2
100
AcDbEntity
  8
0
  6
HIDDEN
100
AcDbPolyline
 90
       40
 70
     0
 43
0.0
 10
-5.849851026846039
 20
6.057835651793652
 10
-5.627114559646031
 20
5.978680979793651
 10
-5.40186612124603
 20
5.910772366993654
 10
-5.174438218846034
 20
5.852899630993654
 10
-4.94516335484603
 20
5.803852592593656
 10
-4.714374036446031
 20
5.762421069393653
 10
-4.453587562846024
 20
5.723440362193656
 10
-4.191780100446038
 20
5.690832858193651
 10
-3.715569839646036
 20
5.644141419793655
 10
-3.238124962846029
 20
5.613029306193652
 10
-2.760015890846034
 20
5.597768184593654
 10
-2.334043407646035
 20
5.597020781393652
 10
-1.908116186846029
 20
5.604927005393655
 10
-1.233633025246035
 20
5.626845885393656
 10
-0.5593701660460227
 20
5.654427480593653
 10
0.1148659683539677
 20
5.681996189393657
 10
1.146078689953967
 20
5.714839408593654
 10
2.177611395553967
 20
5.735831515793655
 10
3.209393953953963
 20
5.746421326993655
 10
4.241356233953965
 20
5.748057658193651
 10
5.273428102753968
 20
5.742189326993653
 10
6.305539432353967
 20
5.730265146193652
 10
7.337620091553972
 20
5.713733934993655
 10
8.369599947553965
 20
5.694044506193655
 10
9.401408870753968
 20
5.672645677393653
 10
9.974673837153972
 20
5.658663605393655
 10
10.56527780035396
 20
5.636218626193652
 10
11.15591338915396
 20
5.612290861393653
 10
11.49594021315397
 20
5.602077998993657
 10
11.83600138915396
 20
5.597973219793651
 10
12.16777966915397
 20
5.602250118993651
 10
12.49947013155396
 20
5.614477082193651
 10
12.83107751395397
 20
5.633767323793655
 10
13.17684423075397
 20
5.661007330193655
 10
13.52171951235396
 20
5.697221987793653
 10
13.86489720515396
 20
5.744662240593655
 10
14.20557115395396
 20
5.805579029393655
 10
14.44386128675397
 20
5.857858218193655
 10
14.68022284835396
 20
5.918747387793651
 10
14.91437316035396
 20
5.989035840593658
  0
LWPOLYLINE
  5
4AB
330
2
100
AcDbEntity
  8
0
  6
HIDDEN
100
AcDbPolyline
 90
       51
 70
     0
 43
0.0
 10
-3.132926540446035
 20
7.670213851793654
 10
-3.118133577246027
 20
7.671848411793654
 10
-3.103303326046031
 20
7.673125845393656
 10
-3.088446034846029
 20
7.674045739793655
 10
-3.07351350204604
 20
7.674609387793651
 10
-3.058572292446029
 20
7.674813152593657
 10
-3.04363065404604
 20
7.674657904593651
 10
-3.028595615646025
 20
7.674139978193657
 10
-3.013577190046035
 20
7.673260906193654
 10
-2.998584063646035
 20
7.672022554193652
 10
-2.983456254046032
 20
7.670406930193657
 10
-2.968371585246032
 20
7.668428754193655
 10
-2.953338444446032
 20
7.666090994193652
 10
-2.93815516764603
 20
7.663356387793655
 10
-2.923041657246031
 20
7.660259122193657
 10
-2.908006065246041
 20
7.656803242193653
 10
-2.892760665246029
 20
7.652913763793655
 10
-2.877612636446031
 20
7.648660674193656
 10
-2.862569826846026
 20
7.644049139793651
 10
-2.847342265246027
 20
7.638981494993657
 10
-2.832239716446025
 20
7.633552512593652
 10
-2.817269550046034
 20
7.627768416593653
 10
-2.802151804446026
 20
7.621512760593653
 10
-2.78718604284603
 20
7.614901662993652
 10
-2.772379004446037
 20
7.607942285393654
 10
-2.757441978846031
 20
7.600490270993653
 10
-2.742683196446023
 20
7.592691115793655
 10
-2.728108655646025
 20
7.584552779793654
 10
-2.713337140446029
 20
7.575849240593655
 10
-2.698771638046025
 20
7.566805061393651
 10
-2.684417468446042
 20
7.557429013393651
 10
-2.669896676446029
 20
7.547460470993655
 10
-2.655609111646029
 20
7.537160358993652
 10
-2.641559353246037
 20
7.526538096593654
 10
-2.627394193246033
 20
7.515313130193653
 10
-2.613488082846032
 20
7.503768726993655
 10
-2.59984485244604
 20
7.491914747793657
 10
-2.586118566046025
 20
7.479436024593653
 10
-2.572676420446029
 20
7.466651666193655
 10
-2.55952157244603
 20
7.453571800593657
 10
-2.54628525244604
 20
7.439811398993654
 10
-2.533359268446034
 20
7.425759011793651
 10
-2.520746265246032
 20
7.411424973393657
 10
-2.508144852446037
 20
7.396450262993653
 10
-2.49587735484603
 20
7.381200760593657
 10
-2.483946052446029
 20
7.365686755793653
 10
-2.472122660446032
 20
7.349597531793655
 10
-2.460653686046029
 20
7.333253746193655
 10
-2.44954127164604
 20
7.316665421393658
 10
-2.439972366046035
 20
7.301735282193654
 10
-2.430687922846033
 20
7.286626597393656
  0
LWPOLYLINE
  5
4AC
330
2
100
AcDbEntity
  8
0
  6
HIDDEN
100
AcDbPolyline
 90
       10
 70
     0
 43
0.0
 10
-3.132926540446035
 20
7.670213851793654
 10
-3.428619508446033
 20
7.633220424593652
 10
-3.724138407646023
 20
7.594848698193651
 10
-4.019475599646028
 20
7.555100160593653
 10
-4.31479316604603
 20
7.513952278993656
 10
-4.609915478046033
 20
7.471428870993655
 10
-4.904836850846038
 20
7.427531315793657
 10
-5.199734564446032
 20
7.382232470993656
 10
-5.494417825246031
 20
7.335560957393653
 10
-5.788879065246035
 20
7.287518589393656
  0
LWPOLYLINE
  5
4AD
330
2
100
AcDbEntity
  8
0
  6
HIDDEN
100
AcDbPolyline
 90
       70
 70
     0
 43
0.0
 10
-6.282017354846033
 20
6.524710307793654
 10
-6.286533561246031
 20
6.540898186193658
 10
-6.29067055484603
 20
6.557189429393652
 10
-6.294420049246042
 20
6.573574765393651
 10
-6.297678185246041
 20
6.589544939793654
 10
-6.300557356446034
 20
6.605587122193654
 10
-6.303050759646026
 20
6.621693563793655
 10
-6.305095391646034
 20
6.637379096593654
 10
-6.306764308446034
 20
6.653109147793657
 10
-6.308051558046031
 20
6.668875010193652
 10
-6.308931700446038
 20
6.684231138193652
 10
-6.309440524446031
 20
6.699603973393656
 10
-6.309573201246024
 20
6.714984597393652
 10
-6.309335930846032
 20
6.729979093393652
 10
-6.308732822046039
 20
6.744963309393654
 10
-6.307760182046024
 20
6.759928038993656
 10
-6.306449820446033
 20
6.774519150993654
 10
-6.304780804446039
 20
6.789073568593657
 10
-6.302750647646035
 20
6.803581979793655
 10
-6.300406410846022
 20
6.817758288593651
 10
-6.297711124446038
 20
6.831872040593651
 10
-6.294663545246038
 20
6.845913901393657
 10
-6.291322284446039
 20
6.859642266193652
 10
-6.287639207646037
 20
6.873282885393656
 10
-6.283614340446035
 20
6.886826555793653
 10
-6.279308970846031
 20
6.900083912593657
 10
-6.274672260446038
 20
6.913229037393655
 10
-6.269705498846036
 20
6.926253016593655
 10
-6.264455324446032
 20
6.939040891793652
 10
-6.258884350046031
 20
6.951692304593656
 10
-6.25299512444603
 20
6.964198720593657
 10
-6.246827820446043
 20
6.976479475793652
 10
-6.240352276446031
 20
6.988600530193657
 10
-6.233572249246037
 20
7.000553918993652
 10
-6.226495006046036
 20
7.012326435793653
 10
-6.219122244446026
 20
7.023916184593652
 10
-6.211458900446032
 20
7.035315872593656
 10
-6.203478617246034
 20
7.046561518993655
 10
-6.195216497246036
 20
7.057601779793657
 10
-6.186678583646028
 20
7.068430163793657
 10
-6.177809182046033
 20
7.079113008593651
 10
-6.168673313246031
 20
7.089568918993656
 10
-6.159278010846037
 20
7.099792354193652
 10
-6.149496686046035
 20
7.109912949393653
 10
-6.139463993246039
 20
7.119784462993656
 10
-6.129187913246028
 20
7.129402378193653
 10
-6.118505073246041
 20
7.138911234193656
 10
-6.107587953246024
 20
7.148150221393656
 10
-6.096445324446023
 20
7.157115978193651
 10
-6.084845743646042
 20
7.165984442193654
 10
-6.073029705246028
 20
7.174562466193656
 10
-6.061006666846026
 20
7.182847914193651
 10
-6.048463527646035
 20
7.191044122193652
 10
-6.035722399646033
 20
7.198929131793654
 10
-6.022793321246041
 20
7.206502091793652
 10
-6.009311478046029
 20
7.213964011793656
 10
-5.995651905246035
 20
7.221095494993654
 10
-5.981825041246025
 20
7.227897029393652
 10
-5.967355922846024
 20
7.234586806993654
 10
-5.952729668446039
 20
7.240925856593655
 10
-5.937957017246034
 20
7.246916046993653
 10
-5.92251053244604
 20
7.252755744593656
 10
-5.906929454046036
 20
7.258226278993653
 10
-5.891224770846037
 20
7.263330866193655
 10
-5.874769577246041
 20
7.268255845393653
 10
-5.858203031646041
 20
7.272793035793654
 10
-5.841535625246024
 20
7.276947101393652
 10
-5.824064999646026
 20
7.280874683793655
 10
-5.806508652446041
 20
7.284396637393655
 10
-5.788879065246035
 20
7.287518589393656
  0
LWPOLYLINE
  5
4AE
330
2
100
AcDbEntity
  8
0
  6
HIDDEN
100
AcDbPolyline
 90
        5
 70
     0
 43
0.0
 10
-6.249688167646041
 20
6.414980213393654
 10
-6.257815945246022
 20
6.442349304593655
 10
-6.26590437724603
 20
6.469730056593654
 10
-6.273980553246033
 20
6.497214416593656
 10
-6.282017354846033
 20
6.524710307793654
  0
LWPOLYLINE
  5
4AF
330
2
100
AcDbEntity
  8
0
  6
HIDDEN
100
AcDbPolyline
 90
       42
 70
     0
 43
0.0
 10
-5.849851026846039
 20
6.057835651793652
 10
-5.859048788446031
 20
6.060335194193655
 10
-5.868207204446036
 20
6.062975254993652
 10
-5.882829809246032
 20
6.067507046993654
 10
-5.897337412446034
 20
6.072394480593651
 10
-5.911721766046042
 20
6.077633598993656
 10
-5.925998897246032
 20
6.083230395793655
 10
-5.940135706846035
 20
6.089172690193656
 10
-5.954123825246028
 20
6.095457062993652
 10
-5.96796033724604
 20
6.102082886993656
 10
-5.981630914846022
 20
6.109044618193657
 10
-5.995126812446031
 20
6.116339226193652
 10
-6.008327380446033
 20
6.123897856593657
 10
-6.021338513246035
 20
6.131778048593652
 10
-6.034151105246024
 20
6.139977072593651
 10
-6.046521033246023
 20
6.148329290193657
 10
-6.058681695646029
 20
6.156983283793657
 10
-6.070623734046023
 20
6.165936496593651
 10
-6.082052158046025
 20
6.174955154193654
 10
-6.093254124446033
 20
6.184253515793656
 10
-6.10422007324604
 20
6.193829045393655
 10
-6.114672559646038
 20
6.203426946193651
 10
-6.124881874846039
 20
6.213283048593652
 10
-6.134838177246024
 20
6.223394619793651
 10
-6.144240198046034
 20
6.233439467793651
 10
-6.153385143646033
 20
6.243718834193657
 10
-6.162263023646033
 20
6.254229653393657
 10
-6.170560151646029
 20
6.264579701393657
 10
-6.178589791646032
 20
6.275138531793658
 10
-6.186341994846031
 20
6.285902622993653
 10
-6.193537945246035
 20
6.296462402193654
 10
-6.200457407646041
 20
6.307205326993653
 10
-6.207090577246034
 20
6.318127334993654
 10
-6.213188268446032
 20
6.328792176593651
 10
-6.21900275004603
 20
6.339613902993654
 10
-6.224524474846035
 20
6.350587640593651
 10
-6.229540903646039
 20
6.361260659793657
 10
-6.234269831646031
 20
6.372064245393652
 10
-6.238702359646026
 20
6.382993366993652
 10
-6.242655010846036
 20
6.393555581393655
 10
-6.246319847646034
 20
6.404220387793657
 10
-6.249688167646041
 20
6.414980213393654
  0
LWPOLYLINE
  5
4B0
330
2
100
AcDbEntity
  8
0
  6
HIDDEN
100
AcDbPolyline
 90
       52
 70
     0
 43
0.0
 10
11.67892502595397
 20
7.271575053393654
 10
11.68788228675396
 20
7.286777746193656
 10
11.69712267075396
 20
7.301809986193653
 10
11.70664468515396
 20
7.316665421393658
 10
11.71775710115396
 20
7.333253746193655
 10
11.72922607395396
 20
7.349597531793655
 10
11.74104946595396
 20
7.365686755793653
 10
11.75298076995396
 20
7.381200760593657
 10
11.76524826755397
 20
7.396450262993653
 10
11.77784968035396
 20
7.411424973393657
 10
11.79046268355396
 20
7.425759011793651
 10
11.80338866755396
 20
7.439811397393654
 10
11.81662498595396
 20
7.453571800593657
 10
11.82977983395396
 20
7.466651666193655
 10
11.84322197955397
 20
7.479436024593653
 10
11.85694826755396
 20
7.491914747793657
 10
11.87059149635396
 20
7.503768726993655
 10
11.88449760675396
 20
7.515313130193653
 10
11.89866276675397
 20
7.526538096593654
 10
11.91271252675396
 20
7.537160358993652
 10
11.92700009155396
 20
7.547460470993655
 10
11.94152088195396
 20
7.557429013393651
 10
11.95587505155397
 20
7.566805061393651
 10
11.97044055395396
 20
7.575849240593655
 10
11.98521207075397
 20
7.584552779793654
 10
11.99978660995397
 20
7.592691115793655
 10
12.01454539395396
 20
7.600490270993653
 10
12.02948241955397
 20
7.607942285393654
 10
12.04428945795396
 20
7.614901662993652
 10
12.05925521795396
 20
7.621512760593653
 10
12.07437296515396
 20
7.627768416593653
 10
12.08934312995397
 20
7.633552512593652
 10
12.10444568035396
 20
7.638981494993657
 10
12.11967324035396
 20
7.644049139793651
 10
12.13471604995396
 20
7.648660674193656
 10
12.14986407875396
 20
7.652913763793655
 10
12.16510948035396
 20
7.656803242193653
 10
12.18014507075396
 20
7.660259122193657
 10
12.19525858275396
 20
7.663356387793655
 10
12.21044185795396
 20
7.666090994193652
 10
12.22547499875396
 20
7.668428754193655
 10
12.24055966755396
 20
7.670406930193657
 10
12.25568747715397
 20
7.672022554193652
 10
12.27068060515397
 20
7.673260906193654
 10
12.28569903075396
 20
7.674139978193657
 10
12.30073406755396
 20
7.674657904593651
 10
12.31567570595396
 20
7.674813152593657
 10
12.33061691715396
 20
7.674609387793651
 10
12.34554944835396
 20
7.674045739793655
 10
12.36040674115396
 20
7.673125845393656
 10
12.37523699235396
 20
7.671848411793654
 10
12.39002995555397
 20
7.670213851793654
  0
LWPOLYLINE
  5
4B1
330
2
100
AcDbEntity
  8
0
  6
HIDDEN
100
AcDbPolyline
 90
       10
 70
     0
 43
0.0
 10
15.04598247875397
 20
7.287518589393656
 10
14.75152124035396
 20
7.335560957393653
 10
14.45683797795396
 20
7.382232470993656
 10
14.16194026595397
 20
7.427531315793657
 10
13.86701889155396
 20
7.471428870993655
 10
13.57189657955396
 20
7.513952278993656
 10
13.27657901475396
 20
7.555100160593653
 10
12.98124182275397
 20
7.594848698193651
 10
12.68572292195396
 20
7.633220424593652
 10
12.39002995555397
 20
7.670213851793654
  0
LWPOLYLINE
  5
4B2
330
2
100
AcDbEntity
  8
0
  6
HIDDEN
100
AcDbPolyline
 90
       70
 70
     0
 43
0.0
 10
15.04598247875397
 20
7.287518589393656
 10
15.06361206595396
 20
7.284396637393655
 10
15.08116841315396
 20
7.280874683793655
 10
15.09863903875397
 20
7.276947101393652
 10
15.11530644515396
 20
7.272793035793654
 10
15.13187299075396
 20
7.268255846993653
 10
15.14832818435397
 20
7.263330866193655
 10
15.16403286755397
 20
7.258226278993653
 10
15.17961394595397
 20
7.252755744593656
 10
15.19506043235397
 20
7.246916046993653
 10
15.20983308355397
 20
7.240925856593655
 10
15.22445933795397
 20
7.234586806993654
 10
15.23892845635396
 20
7.227897029393652
 10
15.25275532035396
 20
7.221095494993654
 10
15.26641489315396
 20
7.213964011793656
 10
15.27989673635396
 20
7.206502091793652
 10
15.29282581475396
 20
7.198929131793654
 10
15.30556694275396
 20
7.191044122193652
 10
15.31811008195396
 20
7.182847914193651
 10
15.33013312035396
 20
7.174562466193656
 10
15.34194915875396
 20
7.165984442193654
 10
15.35354873955397
 20
7.157115978193651
 10
15.36469136835397
 20
7.148150222993656
 10
15.37560848835396
 20
7.138911235793656
 10
15.38629132835396
 20
7.129402379793653
 10
15.39656740675397
 20
7.119784464593656
 10
15.40660010115397
 20
7.109912952593653
 10
15.41638142435397
 20
7.099792357393653
 10
15.42577672675396
 20
7.089568920593656
 10
15.43491259555396
 20
7.079113011793651
 10
15.44378199715396
 20
7.068430165393657
 10
15.45231991235397
 20
7.057601782993657
 10
15.46058203235396
 20
7.046561522193655
 10
15.46856231555396
 20
7.035315875793656
 10
15.47622565955396
 20
7.023916187793652
 10
15.48359842115397
 20
7.012326437393653
 10
15.49067566435397
 20
7.000553920593652
 10
15.49745569155396
 20
6.988600533393658
 10
15.50393123715396
 20
6.976479478993653
 10
15.51009853955396
 20
6.964198723793657
 10
15.51598776675396
 20
6.951692307793656
 10
15.52155874115396
 20
6.939040893393652
 10
15.52680891555397
 20
6.926253019793655
 10
15.53177567715397
 20
6.913229040593655
 10
15.53641238755396
 20
6.900083914193658
 10
15.54071775715397
 20
6.886826558993654
 10
15.54474262435397
 20
6.873282888593656
 10
15.54842569955397
 20
6.859642269393653
 10
15.55176696195397
 20
6.845913904593658
 10
15.55481453955397
 20
6.831872045393652
 10
15.55750982595397
 20
6.817758291793651
 10
15.55985406435397
 20
6.803581984593655
 10
15.56188421955397
 20
6.789073574993658
 10
15.56355323715396
 20
6.774519157393655
 10
15.56486359715397
 20
6.759928045393657
 10
15.56583623875397
 20
6.744963315793654
 10
15.56643934755396
 20
6.729979101393652
 10
15.56667661635397
 20
6.714984606993652
 10
15.56654394115396
 20
6.699603982993657
 10
15.56603511715397
 20
6.684231147793653
 10
15.56515497475396
 20
6.668875019793652
 10
15.56386772515397
 20
6.653109158993657
 10
15.56219880995397
 20
6.637379109393656
 10
15.56015417635396
 20
6.621693576593656
 10
15.55766077475396
 20
6.605587136593655
 10
15.55478160355396
 20
6.589544954193655
 10
15.55152346755396
 20
6.573574779793652
 10
15.54777396995396
 20
6.557189435793652
 10
15.54363697635396
 20
6.540898184593658
 10
15.53912076675396
 20
6.524710299793653
  0
LWPOLYLINE
  5
4B3
330
2
100
AcDbEntity
  8
0
  6
HIDDEN
100
AcDbPolyline
 90
        5
 70
     0
 43
0.0
 10
15.53912076675396
 20
6.524710299793653
 10
15.53108396835396
 20
6.497214416593656
 10
15.52300779395396
 20
6.469730066193655
 10
15.51491936675397
 20
6.442349330193657
 10
15.50679159555396
 20
6.414980256593658
  0
LWPOLYLINE
  5
4B4
330
2
100
AcDbEntity
  8
0
  6
HIDDEN
100
AcDbPolyline
 90
       39
 70
     0
 43
0.0
 10
15.50679159555396
 20
6.414980256593658
 10
15.50342326275397
 20
6.404220395793657
 10
15.49975841475396
 20
6.393555554193653
 10
15.49580574755397
 20
6.382993304593654
 10
15.49137320835396
 20
6.372064162193652
 10
15.48664426755397
 20
6.361260554193655
 10
15.48162782595396
 20
6.350587514193655
 10
15.47610608675397
 20
6.339613754193656
 10
15.47029158755397
 20
6.328792006993651
 10
15.46419388035397
 20
6.318127147793653
 10
15.45756069315396
 20
6.307205120593657
 10
15.45064121315397
 20
6.296462178193657
 10
15.44344524195396
 20
6.285902382993654
 10
15.43569301955396
 20
6.275138277393651
 10
15.42766335715396
 20
6.264579432593656
 10
15.41936620835396
 20
6.254229371793655
 10
15.41048830435396
 20
6.243718538193654
 10
15.40134333475396
 20
6.233439160593654
 10
15.39194128835396
 20
6.223394301393653
 10
15.38198495715396
 20
6.213282717393653
 10
15.37177561155397
 20
6.203426603793651
 10
15.36132309315397
 20
6.193828690193655
 10
15.35035710755396
 20
6.184253147793654
 10
15.33915510115396
 20
6.174954771793657
 10
15.32772663715397
 20
6.165936104593654
 10
15.31578455075396
 20
6.156982875793651
 10
15.30362384195396
 20
6.148328869393651
 10
15.29125386435396
 20
6.139976642193651
 10
15.27844122595396
 20
6.131777613393651
 10
15.26543004835396
 20
6.123897418193656
 10
15.25222943395397
 20
6.116338786193651
 10
15.23873350755397
 20
6.109044187793656
 10
15.22506290115396
 20
6.102082469393657
 10
15.21122635875396
 20
6.095456654993654
 10
15.19723824035397
 20
6.089172307793653
 10
15.18310142915396
 20
6.083230038993654
 10
15.16882429955396
 20
6.077633266193657
 10
15.15746595555397
 20
6.073463488593652
 10
14.91437316035396
 20
5.989035840593658
  0
LINE
  5
4B8
330
2
100
AcDbEntity
  8
0
100
AcDbLine
 10
-30.85103668270004
 20
9.256242368700004
 30
0.0
 11
-31.34913400669998
 21
9.256242652165408
 31
0.0
  0
LINE
  5
4B9
330
2
100
AcDbEntity
  8
0
100
AcDbLine
 10
40.15276861970005
 20
9.256242368700004
 30
0.0
 11
40.65086599330001
 21
9.256242370869724
 31
0.0
  0
ENDSEC
  0
SECTION
  2
OBJECTS
  0
DICTIONARY
  5
C
330
0
100
AcDbDictionary
  3
ACAD_COLOR
350
2E
  3
ACAD_GROUP
350
29
  3
ACAD_LAYOUT
350
B
  3
ACAD_MATERIAL
350
2D
  3
ACAD_MLINESTYLE
350
2A
  3
ACAD_PLOTSETTINGS
350
2B
  3
ACAD_PLOTSTYLENAME
350
2C
  3
ACAD_TABLESTYLE
350
2F
  3
ACDBHEADERROUNDTRIPXREC
350
4F9
  3
ACDBVARIABLEDICTIONARY
350
259
  0
DICTIONARY
  5
12
330
11
100
AcDbDictionary
280
     1
  3
ACAD_LAYERFILTERS
360
13
  3
ACLYDICTIONARY
360
14
  0
DICTIONARY
  5
3
330
2
100
AcDbDictionary
280
     1
  3
ACAD_LAYOUTSELFREF
360
51A
  3
ACAD_SORTENTS
360
258
  0
DICTIONARY
  5
2CF
330
D
100
AcDbDictionary
280
     1
  3
ACAD_LAYOUTSELFREF
360
51B
  0
DICTIONARY
  5
2E
102
{ACAD_REACTORS
330
C
102
}
330
C
100
AcDbDictionary
  0
DICTIONARY
  5
29
102
{ACAD_REACTORS
330
C
102
}
330
C
100
AcDbDictionary
  0
DICTIONARY
  5
B
102
{ACAD_REACTORS
330
C
102
}
330
C
100
AcDbDictionary
  0
DICTIONARY
  5
2D
102
{ACAD_REACTORS
330
C
102
}
330
C
100
AcDbDictionary
  0
DICTIONARY
  5
2A
102
{ACAD_REACTORS
330
C
102
}
330
C
100
AcDbDictionary
  3
STANDARD
350
30
  0
DICTIONARY
  5
2B
102
{ACAD_REACTORS
330
C
102
}
330
C
100
AcDbDictionary
  0
ACDBDICTIONARYWDFLT
  5
2C
102
{ACAD_REACTORS
330
C
102
}
330
C
100
AcDbDictionary
281
     1
  3
Normal
350
7
100
AcDbDictionaryWithDefault
340
7
  0
DICTIONARY
  5
2F
102
{ACAD_REACTORS
330
C
102
}
330
C
100
AcDbDictionary
  3
STANDARD
350
31
  0
DICTIONARY
  5
4F9
102
{ACAD_REACTORS
330
C
102
}
330
C
100
AcDbDictionary
  3
CEPSNTYPE
350
503
  3
DIMSTYLEDATA
350
507
  3
FINGERPRINTGUID
350
504
  3
HYPERLINKBASE
350
4FC
  3
INSUNITS
350
502
  3
LAYOUTDICT
350
4FE
  3
LWETCUNION
350
501
  3
PLOTSETDICT
350
4FF
  3
PLOTSTYLNAMDICT
350
500
  3
PSVPSCALE
350
506
  3
PUCSBASE
350
50A
  3
PUCSORGBACK
350
510
  3
PUCSORGBOTTOM
350
50C
  3
PUCSORGFRONT
350
50F
  3
PUCSORGLEFT
350
50D
  3
PUCSORGRIGHT
350
50E
  3
PUCSORGTOP
350
50B
  3
PUCSORTHOREF
350
508
  3
PUCSORTHOVIEW
350
509
  3
STYLESHEET
350
4FD
  3
TSTACKALIGN
350
4FA
  3
TSTACKSIZE
350
4FB
  3
UCSBASE
350
513
  3
UCSORGBACK
350
519
  3
UCSORGBOTTOM
350
515
  3
UCSORGFRONT
350
518
  3
UCSORGLEFT
350
516
  3
UCSORGRIGHT
350
517
  3
UCSORGTOP
350
514
  3
UCSORTHOREF
350
511
  3
UCSORTHOVIEW
350
512
  3
VERSIONGUID
350
505
  0
DICTIONARY
  5
259
102
{ACAD_REACTORS
330
C
102
}
330
C
100
AcDbDictionary
  3
CTABLESTYLE
350
25A
  3
DIMASSOC
350
26A
  3
HIDETEXT
350
269
  3
PROJECTNAME
350
26B
  0
DICTIONARY
  5
13
102
{ACAD_REACTORS
330
12
102
}
330
12
100
AcDbDictionary
  0
DICTIONARY
  5
14
102
{ACAD_REACTORS
330
12
102
}
330
12
100
AcDbDictionary
1001
ACAD
1000
<All
  0
XRECORD
  5
51A
102
{ACAD_REACTORS
330
3
102
}
330
3
100
AcDbXrecord
340
2
  0
SORTENTSTABLE
  5
258
102
{ACAD_REACTORS
330
3
102
}
330
3
100
AcDbSortentsTable
330
2
  0
XRECORD
  5
51B
102
{ACAD_REACTORS
330
2CF
102
}
330
2CF
100
AcDbXrecord
340
D
  0
MLINESTYLE
  5
30
102
{ACAD_REACTORS
330
2A
102
}
330
2A
100
AcDbMlineStyle
  2
STANDARD
 70
     0
  3

 62
   256
 51
90.0
 52
90.0
 71
     2
 49
0.5
 62
   256
  6
BYLAYER
 49
-0.5
 62
   256
  6
BYLAYER
  0
ACDBPLACEHOLDER
  5
7
102
{ACAD_REACTORS
330
2C
102
}
330
0
100
AcDbPlaceHolder
280
     0
  0
ACAD_PROXY_OBJECT
  5
31
102
{ACAD_REACTORS
330
2F
102
}
330
2F
100
AcDbProxyObject
 90
      499
 91
      525
 93
     1841
310
4214DD185B99185C9928B81E85EB51B8AE3F2E07A17AD46E2B8FC02B5E8DC0F42B1CFD028000000C1008070000C3001FDFF8000000C1003FBFF000000182007F7FE00000030400FEFFC00000060801FDFF8000000C1003FBFF00000018200000000000000681FA0B0000001820100E000186003FBFF000000182007F7FE000
310
00030400FEFFC00000060801FDFF8000000C1003FBFF000000182007F7FE000000304000AD7A3703D0AC73F4160000003040201C00030C007F7FE00000030400FEFFC00000060801FDFF8000000C1003FBFF000000182007F7FE00000030400FEFFC000000608018
340
17
340
17
340
17
 94
        0
1001
ACAD
1000
AcadProxyRoundTripData
1071
      524
1071
   851991
1070
     0
  0
XRECORD
  5
503
102
{ACAD_REACTORS
330
4F9
102
}
330
4F9
100
AcDbXrecord
 90
        0
  0
XRECORD
  5
507
102
{ACAD_REACTORS
330
4F9
102
}
330
4F9
100
AcDbXrecord
1000
DSTYLE
1002
{
1070
   341
340
23
1070
   342
340
23
1002
}
  0
XRECORD
  5
504
102
{ACAD_REACTORS
330
4F9
102
}
330
4F9
100
AcDbXrecord
  1
{13B8BCAB-CBB9-445D-BE1F-44FE23524D18}
  0
XRECORD
  5
4FC
102
{ACAD_REACTORS
330
4F9
102
}
330
4F9
100
AcDbXrecord
  1

  0
XRECORD
  5
502
102
{ACAD_REACTORS
330
4F9
102
}
330
4F9
100
AcDbXrecord
 90
        1
  0
XRECORD
  5
4FE
102
{ACAD_REACTORS
330
4F9
102
}
330
4F9
100
AcDbXrecord
340
B
  0
XRECORD
  5
501
102
{ACAD_REACTORS
330
4F9
102
}
330
4F9
100
AcDbXrecord
 90
    10781
  0
XRECORD
  5
4FF
102
{ACAD_REACTORS
330
4F9
102
}
330
4F9
100
AcDbXrecord
340
2B
  0
XRECORD
  5
500
102
{ACAD_REACTORS
330
4F9
102
}
330
4F9
100
AcDbXrecord
340
2C
  0
XRECORD
  5
506
102
{ACAD_REACTORS
330
4F9
102
}
330
4F9
100
AcDbXrecord
 40
0.0
  0
XRECORD
  5
50A
102
{ACAD_REACTORS
330
4F9
102
}
330
4F9
100
AcDbXrecord
340
0
  0
XRECORD
  5
510
102
{ACAD_REACTORS
330
4F9
102
}
330
4F9
100
AcDbXrecord
 10
0.0
 20
0.0
 30
0.0
  0
XRECORD
  5
50C
102
{ACAD_REACTORS
330
4F9
102
}
330
4F9
100
AcDbXrecord
 10
0.0
 20
0.0
 30
0.0
  0
XRECORD
  5
50F
102
{ACAD_REACTORS
330
4F9
102
}
330
4F9
100
AcDbXrecord
 10
0.0
 20
0.0
 30
0.0
  0
XRECORD
  5
50D
102
{ACAD_REACTORS
330
4F9
102
}
330
4F9
100
AcDbXrecord
 10
0.0
 20
0.0
 30
0.0
  0
XRECORD
  5
50E
102
{ACAD_REACTORS
330
4F9
102
}
330
4F9
100
AcDbXrecord
 10
0.0
 20
0.0
 30
0.0
  0
XRECORD
  5
50B
102
{ACAD_REACTORS
330
4F9
102
}
330
4F9
100
AcDbXrecord
 10
0.0
 20
0.0
 30
0.0
  0
XRECORD
  5
508
102
{ACAD_REACTORS
330
4F9
102
}
330
4F9
100
AcDbXrecord
340
0
  0
XRECORD
  5
509
102
{ACAD_REACTORS
330
4F9
102
}
330
4F9
100
AcDbXrecord
 70
     0
  0
XRECORD
  5
4FD
102
{ACAD_REACTORS
330
4F9
102
}
330
4F9
100
AcDbXrecord
  1

  0
XRECORD
  5
4FA
102
{ACAD_REACTORS
330
4F9
102
}
330
4F9
100
AcDbXrecord
 90
        1
  0
XRECORD
  5
4FB
102
{ACAD_REACTORS
330
4F9
102
}
330
4F9
100
AcDbXrecord
 90
       70
  0
XRECORD
  5
513
102
{ACAD_REACTORS
330
4F9
102
}
330
4F9
100
AcDbXrecord
340
0
  0
XRECORD
  5
519
102
{ACAD_REACTORS
330
4F9
102
}
330
4F9
100
AcDbXrecord
 10
0.0
 20
0.0
 30
0.0
  0
XRECORD
  5
515
102
{ACAD_REACTORS
330
4F9
102
}
330
4F9
100
AcDbXrecord
 10
0.0
 20
0.0
 30
0.0
  0
XRECORD
  5
518
102
{ACAD_REACTORS
330
4F9
102
}
330
4F9
100
AcDbXrecord
 10
0.0
 20
0.0
 30
0.0
  0
XRECORD
  5
516
102
{ACAD_REACTORS
330
4F9
102
}
330
4F9
100
AcDbXrecord
 10
0.0
 20
0.0
 30
0.0
  0
XRECORD
  5
517
102
{ACAD_REACTORS
330
4F9
102
}
330
4F9
100
AcDbXrecord
 10
0.0
 20
0.0
 30
0.0
  0
XRECORD
  5
514
102
{ACAD_REACTORS
330
4F9
102
}
330
4F9
100
AcDbXrecord
 10
0.0
 20
0.0
 30
0.0
  0
XRECORD
  5
511
102
{ACAD_REACTORS
330
4F9
102
}
330
4F9
100
AcDbXrecord
340
0
  0
XRECORD
  5
512
102
{ACAD_REACTORS
330
4F9
102
}
330
4F9
100
AcDbXrecord
 70
     0
  0
XRECORD
  5
505
102
{ACAD_REACTORS
330
4F9
102
}
330
4F9
100
AcDbXrecord
  1
{A85DCF60-B114-48CD-A170-C7BB91E201BA}
  0
DICTIONARYVAR
  5
25A
102
{ACAD_REACTORS
330
259
102
}
330
259
100
DictionaryVariables
280
     0
  1
STANDARD
  0
DICTIONARYVAR
  5
26A
102
{ACAD_REACTORS
330
259
102
}
330
259
100
DictionaryVariables
280
     0
  1
1
  0
DICTIONARYVAR
  5
269
102
{ACAD_REACTORS
330
259
102
}
330
259
100
DictionaryVariables
280
     0
  1
1
  0
DICTIONARYVAR
  5
26B
102
{ACAD_REACTORS
330
259
102
}
330
259
100
DictionaryVariables
280
     0
  1

  0
ENDSEC
  0
EOF
