  0
SECTION
  2
HEADER
  9
$ACADVER
  1
AC1014
  9
$ACADMAINTVER
 70
     9
  9
$DWGCODEPAGE
  3
ANSI_1252
  9
$INSBASE
 10
217.7182370676101
 20
-40.32323679534168
 30
0.0
  9
$EXTMIN
 10
204.2053841759909
 20
-40.47008196890371
 30
-0.0015258207003583
  9
$EXTMAX
 10
246.2276681348658
 20
-12.62559848369326
 30
0.0000000349246037
  9
$LIMMIN
 10
0.0
 20
0.0
  9
$LIMMAX
 10
17.0
 20
11.0
  9
$ORTHOMODE
 70
     1
  9
$REGENMODE
 70
     1
  9
$FILLMODE
 70
     1
  9
$QTEXTMODE
 70
     0
  9
$MIRRTEXT
 70
     1
  9
$DRAGMODE
 70
     2
  9
$LTSCALE
 40
2.0
  9
$OSMODE
 70
    55
  9
$ATTMODE
 70
     1
  9
$TEXTSIZE
 40
0.2
  9
$TRACEWID
 40
0.05
  9
$TEXTSTYLE
  7
STANDARD
  9
$CLAYER
  8
0
  9
$CELTYPE
  6
BYLAYER
  9
$CECOLOR
 62
   256
  9
$CELTSCALE
 40
1.0
  9
$DELOBJ
 70
     1
  9
$DISPSILH
 70
     0
  9
$DIMSCALE
 40
16.0
  9
$DIMASZ
 40
0.1875
  9
$DIMEXO
 40
0.0625
  9
$DIMDLI
 40
0.38
  9
$DIMRND
 40
0.0
  9
$DIMDLE
 40
0.0
  9
$DIMEXE
 40
0.18
  9
$DIMTP
 40
0.0
  9
$DIMTM
 40
0.0
  9
$DIMTXT
 40
0.125
  9
$DIMCEN
 40
0.09
  9
$DIMTSZ
 40
0.0
  9
$DIMTOL
 70
     0
  9
$DIMLIM
 70
     0
  9
$DIMTIH
 70
     1
  9
$DIMTOH
 70
     1
  9
$DIMSE1
 70
     0
  9
$DIMSE2
 70
     0
  9
$DIMTAD
 70
     0
  9
$DIMZIN
 70
     4
  9
$DIMBLK
  1
_FILLED
  9
$DIMASO
 70
     1
  9
$DIMSHO
 70
     1
  9
$DIMPOST
  1

  9
$DIMAPOST
  1

  9
$DIMALT
 70
     0
  9
$DIMALTD
 70
     2
  9
$DIMALTF
 40
25.4
  9
$DIMLFAC
 40
1.0
  9
$DIMTOFL
 70
     0
  9
$DIMTVP
 40
0.0
  9
$DIMTIX
 70
     0
  9
$DIMSOXD
 70
     0
  9
$DIMSAH
 70
     0
  9
$DIMBLK1
  1

  9
$DIMBLK2
  1

  9
$DIMSTYLE
  2
S_TANDARD
  9
$DIMCLRD
 70
     0
  9
$DIMCLRE
 70
     0
  9
$DIMCLRT
 70
     0
  9
$DIMTFAC
 40
1.0
  9
$DIMGAP
 40
0.09
  9
$DIMJUST
 70
     0
  9
$DIMSD1
 70
     0
  9
$DIMSD2
 70
     0
  9
$DIMTOLJ
 70
     1
  9
$DIMTZIN
 70
     4
  9
$DIMALTZ
 70
     0
  9
$DIMALTTZ
 70
     0
  9
$DIMFIT
 70
     3
  9
$DIMUPT
 70
     0
  9
$DIMUNIT
 70
     2
  9
$DIMDEC
 70
     3
  9
$DIMTDEC
 70
     3
  9
$DIMALTU
 70
     2
  9
$DIMALTTD
 70
     2
  9
$DIMTXSTY
  7
STANDARD
  9
$DIMAUNIT
 70
     0
  9
$LUNITS
 70
     2
  9
$LUPREC
 70
     4
  9
$SKETCHINC
 40
0.1
  9
$FILLETRAD
 40
0.375
  9
$AUNITS
 70
     0
  9
$AUPREC
 70
     0
  9
$MENU
  1
acad
  9
$ELEVATION
 40
0.0
  9
$PELEVATION
 40
0.0
  9
$THICKNESS
 40
0.0
  9
$LIMCHECK
 70
     0
  9
$BLIPMODE
 70
     0
  9
$CHAMFERA
 40
0.0
  9
$CHAMFERB
 40
0.0
  9
$CHAMFERC
 40
0.0
  9
$CHAMFERD
 40
0.0
  9
$SKPOLY
 70
     0
  9
$TDCREATE
 40
2453681.666029074
  9
$TDUPDATE
 40
2453685.481898993
  9
$TDINDWG
 40
0.0315975347
  9
$TDUSRTIMER
 40
0.0315975347
  9
$USRTIMER
 70
     1
  9
$ANGBASE
 50
0.0
  9
$ANGDIR
 70
     0
  9
$PDMODE
 70
     3
  9
$PDSIZE
 40
0.3125
  9
$PLINEWID
 40
0.0
  9
$COORDS
 70
     1
  9
$SPLFRAME
 70
     0
  9
$SPLINETYPE
 70
     6
  9
$SPLINESEGS
 70
     8
  9
$ATTDIA
 70
     0
  9
$ATTREQ
 70
     1
  9
$HANDLING
 70
 22529
  9
$HANDSEED
  5
314
  9
$SURFTAB1
 70
     6
  9
$SURFTAB2
 70
     6
  9
$SURFTYPE
 70
     6
  9
$SURFU
 70
     6
  9
$SURFV
 70
     6
  9
$UCSNAME
  2

  9
$UCSORG
 10
0.0
 20
0.0
 30
0.0
  9
$UCSXDIR
 10
1.0
 20
0.0
 30
0.0
  9
$UCSYDIR
 10
0.0
 20
1.0
 30
0.0
  9
$PUCSNAME
  2

  9
$PUCSORG
 10
0.0
 20
0.0
 30
0.0
  9
$PUCSXDIR
 10
1.0
 20
0.0
 30
0.0
  9
$PUCSYDIR
 10
0.0
 20
1.0
 30
0.0
  9
$USERI1
 70
     0
  9
$USERI2
 70
     0
  9
$USERI3
 70
     0
  9
$USERI4
 70
     0
  9
$USERI5
 70
     0
  9
$USERR1
 40
0.0
  9
$USERR2
 40
0.0
  9
$USERR3
 40
0.0
  9
$USERR4
 40
0.0
  9
$USERR5
 40
0.0
  9
$WORLDVIEW
 70
     1
  9
$SHADEDGE
 70
     3
  9
$SHADEDIF
 70
    70
  9
$TILEMODE
 70
     1
  9
$MAXACTVP
 70
    16
  9
$PINSBASE
 10
0.0
 20
0.0
 30
0.0
  9
$PLIMCHECK
 70
     0
  9
$PEXTMIN
 10
1.000000000000000E+20
 20
1.000000000000000E+20
 30
1.000000000000000E+20
  9
$PEXTMAX
 10
-1.000000000000000E+20
 20
-1.000000000000000E+20
 30
-1.000000000000000E+20
  9
$PLIMMIN
 10
0.0
 20
0.0
  9
$PLIMMAX
 10
12.0
 20
9.0
  9
$UNITMODE
 70
     0
  9
$VISRETAIN
 70
     0
  9
$PLINEGEN
 70
     1
  9
$PSLTSCALE
 70
     0
  9
$TREEDEPTH
 70
  3020
  9
$PICKSTYLE
 70
     1
  9
$CMLSTYLE
  2
STANDARD
  9
$CMLJUST
 70
     0
  9
$CMLSCALE
 40
1.0
  9
$PROXYGRAPHICS
 70
     0
  9
$MEASUREMENT
 70
     0
  0
ENDSEC
  0
SECTION
  2
CLASSES
  0
CLASS
  1
ACDBDICTIONARYWDFLT
  2
AcDbDictionaryWithDefault
  3
AutoCAD 2000
 90
        0
280
     0
281
     0
  0
CLASS
  1
ACDBPLACEHOLDER
  2
AcDbPlaceHolder
  3
AutoCAD 2000
 90
        0
280
     0
281
     0
  0
CLASS
  1
LAYOUT
  2
AcDbLayout
  3
AutoCAD 2000
 90
        0
280
     0
281
     0
  0
CLASS
  1
LWPOLYLINE
  2
AcDbPolyline
  3
AutoCAD 2000
 90
        0
280
     0
281
     1
  0
CLASS
  1
IMAGE
  2
AcDbRasterImage
  3
ISM
 90
      127
280
     0
281
     1
  0
CLASS
  1
OLE2FRAME
  2
AcDbOle2Frame
  3
AutoCAD 2000
 90
        0
280
     0
281
     1
  0
CLASS
  1
HATCH
  2
AcDbHatch
  3
AutoCAD 2000
 90
        0
280
     0
281
     1
  0
CLASS
  1
DICTIONARYVAR
  2
AcDbDictionaryVar
  3
AutoCAD 2000
 90
        0
280
     0
281
     0
  0
CLASS
  1
RASTERVARIABLES
  2
AcDbRasterVariables
  3
ISM
 90
        0
280
     0
281
     0
  0
CLASS
  1
IMAGEDEF
  2
AcDbRasterImageDef
  3
ISM
 90
        0
280
     0
281
     0
  0
CLASS
  1
IMAGEDEF_REACTOR
  2
AcDbRasterImageDefReactor
  3
ISM
 90
        1
280
     0
281
     0
  0
CLASS
  1
IDBUFFER
  2
AcDbIdBuffer
  3
AutoCAD 2000
 90
        0
280
     0
281
     0
  0
CLASS
  1
SPATIAL_FILTER
  2
AcDbSpatialFilter
  3
AutoCAD 2000
 90
        0
280
     0
281
     0
  0
CLASS
  1
XRECORD
  2
AcDbXrecord
  3
AutoCAD 2000
 90
        0
280
     0
281
     0
  0
CLASS
  1
SORTENTSTABLE
  2
AcDbSortentsTable
  3
AutoCAD 2000
 90
        0
280
     0
281
     0
  0
CLASS
  1
LAYER_INDEX
  2
AcDbLayerIndex
  3
AutoCAD 2000
 90
        0
280
     0
281
     0
  0
CLASS
  1
SPATIAL_INDEX
  2
AcDbSpatialIndex
  3
AutoCAD 2000
 90
        0
280
     0
281
     0
  0
CLASS
  1
OBJECT_PTR
  2
CAseDLPNTableRecord
  3
ASE-LPNTableRecord
 90
        1
280
     0
281
     0
  0
CLASS
  1
PLOTSETTINGS
  2
AcDbPlotSettings
  3
AutoCAD 2000
 90
        0
280
     0
281
     0
  0
CLASS
  1
VBA_PROJECT
  2
AcDbVbaProject
  3
acadvba
 90
        0
280
     0
281
     0
  0
CLASS
  1
WIPEOUT
  2
AcDbWipeout
  3
WipeOut|AutoCAD Express Tool|expresstools@autodesk.com
 90
      127
280
     1
281
     1
  0
CLASS
  1
WIPEOUTVARIABLES
  2
AcDbWipeoutVariables
  3
WipeOut|AutoCAD Express Tool|expresstools@autodesk.com
 90
        0
280
     1
281
     0
  0
CLASS
  1
RTEXT
  2
RText
  3
RText|AutoCAD Express Tool|expresstools@autodesk.com
 90
        0
280
     1
281
     1
  0
CLASS
  1
ARCALIGNEDTEXT
  2
AcDbArcAlignedText
  3
ATEXT|AutoCAD Express Tool|expresstools@autodesk.com
 90
        0
280
     1
281
     1
  0
CLASS
  1
LONG_TRANSACTION
  2
AcDbLongTransaction
  3
AutoCAD 2000
 90
        0
280
     0
281
     0
  0
CLASS
  1
LWPOLYLINE
  2
AcDbPolyline
  3
AutoCAD 2000
 90
        0
280
     0
281
     1
  0
CLASS
  1
HATCH
  2
AcDbHatch
  3
AutoCAD 2000
 90
        0
280
     0
281
     1
  0
CLASS
  1
XRECORD
  2
AcDbXrecord
  3
AutoCAD 2000
 90
        0
280
     0
281
     0
  0
CLASS
  1
LONG_TRANSACTION
  2
AcDbLongTransaction
  3
AutoCAD 2000
 90
        0
280
     0
281
     0
  0
CLASS
  1
LWPOLYLINE
  2
AcDbPolyline
  3
AutoCAD 2000
 90
        0
280
     0
281
     1
  0
CLASS
  1
HATCH
  2
AcDbHatch
  3
AutoCAD 2000
 90
        0
280
     0
281
     1
  0
CLASS
  1
XRECORD
  2
AcDbXrecord
  3
AutoCAD 2000
 90
        0
280
     0
281
     0
  0
ENDSEC
  0
SECTION
  2
TABLES
  0
TABLE
  2
VPORT
  5
18
330
0
100
AcDbSymbolTable
 70
     3
  0
VPORT
  5
2F0
330
18
100
AcDbSymbolTableRecord
100
AcDbViewportTableRecord
  2
*ACTIVE
 70
     0
 10
0.0
 20
0.0
 11
1.0
 21
1.0
 12
225.2165261112407
 22
-26.54784023260503
 13
0.0
 23
0.0
 14
1.0
 24
1.0
 15
0.0
 25
0.0
 16
0.0
 26
0.0
 36
1.0
 17
0.0
 27
0.0
 37
0.0
 40
34.35411469170616
 41
1.786792452830188
 42
50.0
 43
0.0
 44
0.0
 50
0.0
 51
0.0
 71
     0
 72
   100
 73
     1
 74
     1
 75
     0
 76
     0
 77
     0
 78
     0
  0
ENDTAB
  0
TABLE
  2
LTYPE
  5
13
330
0
100
AcDbSymbolTable
 70
     3
  0
LTYPE
  5
14
330
13
100
AcDbSymbolTableRecord
100
AcDbLinetypeTableRecord
  2
BYBLOCK
 70
     0
  3

 72
    65
 73
     0
 40
0.0
  0
LTYPE
  5
15
330
13
100
AcDbSymbolTableRecord
100
AcDbLinetypeTableRecord
  2
BYLAYER
 70
     0
  3

 72
    65
 73
     0
 40
0.0
  0
LTYPE
  5
6
330
13
100
AcDbSymbolTableRecord
100
AcDbLinetypeTableRecord
  2
CONTINUOUS
 70
     0
  3
Solid line
 72
    65
 73
     0
 40
0.0
  0
LTYPE
  5
3D
330
13
100
AcDbSymbolTableRecord
100
AcDbLinetypeTableRecord
  2
CENTER
 70
     0
  3
____ _ ____ _ ____ _ ____ _ ____ _ ____ _ ____
 72
    65
 73
     4
 40
0.6
 49
0.375
 74
     0
 49
-0.075
 74
     0
 49
0.075
 74
     0
 49
-0.075
 74
     0
  0
LTYPE
  5
29
330
13
100
AcDbSymbolTableRecord
100
AcDbLinetypeTableRecord
  2
HIDDEN
 70
     0
  3
- - - - - - - - - - - - - - - - - - - -
 72
    65
 73
     2
 40
0.2
 49
0.1
 74
     0
 49
-0.1
 74
     0
  0
ENDTAB
  0
TABLE
  2
LAYER
  5
F
330
0
100
AcDbSymbolTable
 70
     2
  0
LAYER
  5
4
330
F
100
AcDbSymbolTableRecord
100
AcDbLayerTableRecord
  2
0
 70
     0
 62
     7
  6
CONTINUOUS
  0
LAYER
  5
3C
330
F
100
AcDbSymbolTableRecord
100
AcDbLayerTableRecord
  2
CENTER
 70
     0
 62
     1
  6
CENTER
  0
ENDTAB
  0
TABLE
  2
STYLE
  5
10
330
0
100
AcDbSymbolTable
 70
     1
  0
STYLE
  5
11
330
10
100
AcDbSymbolTableRecord
100
AcDbTextStyleTableRecord
  2
STANDARD
 70
     0
 40
0.0
 41
0.8
 50
0.0
 71
     0
 42
0.2
  3
txt
  4

  0
ENDTAB
  0
TABLE
  2
VIEW
  5
16
330
0
100
AcDbSymbolTable
 70
     0
  0
ENDTAB
  0
TABLE
  2
UCS
  5
17
330
0
100
AcDbSymbolTable
 70
     0
  0
ENDTAB
  0
TABLE
  2
APPID
  5
1A
330
0
100
AcDbSymbolTable
 70
     1
  0
APPID
  5
1B
330
1A
100
AcDbSymbolTableRecord
100
AcDbRegAppTableRecord
  2
ACAD
 70
     0
  0
ENDTAB
  0
TABLE
  2
DIMSTYLE
  5
1C
330
0
100
AcDbSymbolTable
 70
     1
  0
DIMSTYLE
105
1D
330
1C
100
AcDbSymbolTableRecord
100
AcDbDimStyleTableRecord
  2
S_TANDARD
 70
     0
  3

  4

  5
_FILLED
  6

  7

 40
16.0
 41
0.1875
 42
0.0625
 43
0.38
 44
0.18
 45
0.0
 46
0.0
 47
0.0
 48
0.0
140
0.125
141
0.09
142
0.0
143
25.4
144
1.0
145
0.0
146
1.0
147
0.09
 71
     0
 72
     0
 73
     1
 74
     1
 75
     0
 76
     0
 77
     0
 78
     4
170
     0
171
     2
172
     0
173
     0
174
     0
175
     0
176
     0
177
     0
178
     0
270
     2
271
     3
272
     3
273
     2
274
     2
340
11
275
     0
280
     0
281
     0
282
     0
283
     1
284
     4
285
     0
286
     0
287
     3
288
     0
  0
ENDTAB
  0
TABLE
  2
BLOCK_RECORD
  5
1
330
0
100
AcDbSymbolTable
 70
     1
  0
BLOCK_RECORD
  5
2
102
{ACAD_XDICTIONARY
360
2AB
102
}
330
1
100
AcDbSymbolTableRecord
100
AcDbBlockTableRecord
  2
*MODEL_SPACE
  0
BLOCK_RECORD
  5
B
102
{ACAD_XDICTIONARY
360
2B1
102
}
330
1
100
AcDbSymbolTableRecord
100
AcDbBlockTableRecord
  2
*PAPER_SPACE
  0
BLOCK_RECORD
  5
1E
330
1
100
AcDbSymbolTableRecord
100
AcDbBlockTableRecord
  2
_FILLED
  0
ENDTAB
  0
ENDSEC
  0
SECTION
  2
BLOCKS
  0
BLOCK
  5
3
330
2
100
AcDbEntity
  8
0
100
AcDbBlockBegin
  2
*MODEL_SPACE
 70
     0
 10
0.0
 20
0.0
 30
0.0
  3
*MODEL_SPACE
  1

  0
ENDBLK
  5
7
330
2
100
AcDbEntity
  8
0
100
AcDbBlockEnd
  0
BLOCK
  5
C
330
B
100
AcDbEntity
 67
     1
  8
0
100
AcDbBlockBegin
  2
*PAPER_SPACE
 70
     0
 10
0.0
 20
0.0
 30
0.0
  3
*PAPER_SPACE
  1

  0
ENDBLK
  5
D
330
B
100
AcDbEntity
 67
     1
  8
0
100
AcDbBlockEnd
  0
BLOCK
  5
20
330
1E
100
AcDbEntity
  8
0
100
AcDbBlockBegin
  2
_FILLED
 70
     0
 10
0.0
 20
0.0
 30
0.0
  3
_FILLED
  1

  0
SOLID
  5
1F
330
1E
100
AcDbEntity
  8
0
  6
BYBLOCK
 62
     0
100
AcDbTrace
 10
0.0
 20
0.0
 30
0.0
 11
-1.0
 21
0.1666666667
 31
0.0
 12
-1.0
 22
-0.1666666667
 32
0.0
 13
-1.0
 23
-0.1666666667
 33
0.0
  0
ENDBLK
  5
21
330
1E
100
AcDbEntity
  8
0
  6
BYBLOCK
 62
     0
100
AcDbBlockEnd
  0
ENDSEC
  0
SECTION
  2
ENTITIES
  0
LWPOLYLINE
  5
28
330
2
100
AcDbEntity
  8
0
  6
HIDDEN
100
AcDbPolyline
 90
       85
 70
     0
 43
0.0
 10
214.5317525444101
 20
-33.22543413934168
 10
214.4931573796101
 20
-32.77977139054168
 10
214.4564344676101
 20
-32.35394708334168
 10
214.4212052804101
 20
-31.94371491054168
 10
214.3871459124101
 20
-31.54543708654168
 10
214.3541148164101
 20
-31.15758521934167
 10
214.3221454356101
 20
-30.78070520974168
 10
214.2911476948101
 20
-30.41396767854168
 10
214.2608381748101
 20
-30.05435105294167
 10
214.2308482404101
 20
-29.69794820494168
 10
214.2007406932101
 20
-29.34018607694167
 10
214.1697312900101
 20
-28.97275192174168
 10
214.1363925940101
 20
-28.58059523694168
 10
214.0984069460101
 20
-28.14005698414168
 10
214.0542101348101
 20
-27.63942680814167
 10
214.0065024420101
 20
-27.11573575694168
 10
213.9606902980101
 20
-26.62819330574168
 10
213.9184023332101
 20
-26.18901902894168
 10
213.87599293481
 20
-25.75649590734168
 10
213.8299584452101
 20
-25.29048870894168
 10
213.7834444916101
 20
-24.81523781134168
 10
213.7416526260101
 20
-24.37840124494167
 10
213.7050489924101
 20
-23.98324684974168
 10
213.6733969732101
 20
-23.62711992334168
 10
213.6464706372101
 20
-23.30837122894168
 10
213.6238759860101
 20
-23.02396800174168
 10
213.60513349481
 20
-22.77048212494168
 10
213.5897191092101
 20
-22.54451081454168
 10
213.5771761988101
 20
-22.34295897454168
 10
213.5669827572101
 20
-22.16293061454167
 10
213.5570495428101
 20
-22.00211860334167
 10
213.5446578244101
 20
-21.85877721454168
 10
213.5276437924101
 20
-21.73184762734167
 10
213.50460719241
 20
-21.62146071374167
 10
213.47624573481
 20
-21.52714966414168
 10
213.4438413348101
 20
-21.44709053454167
 10
213.40801750441
 20
-21.37851385134168
 10
213.3688072836101
 20
-21.31885385614168
 10
213.3259511220101
 20
-21.26626463214167
 10
213.2793368868101
 20
-21.21979019214168
 10
213.2286728228101
 20
-21.17885048014167
 10
213.1723701140101
 20
-21.14238620174167
 10
213.1074073732101
 20
-21.10923463694168
 10
213.0306417716101
 20
-21.07908643854167
 10
212.9402384820101
 20
-21.05243949454167
 10
212.8357388004101
 20
-21.02974941934167
 10
212.7168183108101
 20
-21.01085076014168
 10
212.5831917476101
 20
-20.99529606094167
 10
212.4336715540101
 20
-20.98259202894168
 10
212.2664677764101
 20
-20.97226414894168
 10
212.0783444500101
 20
-20.96378216654167
 10
211.8636557540101
 20
-20.95644808654167
 10
211.6299240772101
 20
-20.94947247694168
 10
211.4046239604101
 20
-20.94209024174168
 10
211.2027687492101
 20
-20.93356882574167
 10
211.0222399508101
 20
-20.92316097614168
 10
210.8612215028101
 20
-20.91033776494167
 10
210.7180141716101
 20
-20.89469507534168
 10
210.5910370308101
 20
-20.87580344014168
 10
210.4793442052101
 20
-20.85317832974168
 10
210.3822184564101
 20
-20.82659845294168
 10
210.2992380484101
 20
-20.79642032494168
 10
210.2295459044101
 20
-20.76340917774167
 10
210.1708303156101
 20
-20.72794758414168
 10
210.1197907828101
 20
-20.68931105454167
 10
210.0738734996101
 20
-20.64620084334168
 10
210.0317444820101
 20
-20.59733860494167
 10
209.9927070772101
 20
-20.54115922254168
 10
209.9561453684101
 20
-20.47514098094168
 10
209.9219899060101
 20
-20.39635110094168
 10
209.8910239156101
 20
-20.30303540494168
 10
209.8640911060101
 20
-20.19455617294168
 10
209.8414475380101
 20
-20.07025402254168
 10
209.8226893556101
 20
-19.92956736494168
 10
209.8070489268101
 20
-19.77117857134167
 10
209.7935616084101
 20
-19.59331861294168
 10
209.7810431060101
 20
-19.39395202734167
 10
209.7680334004101
 20
-19.17062526414167
 10
209.7523265140101
 20
-18.91917408974168
 10
209.7315709604101
 20
-18.63583681454167
 10
209.7066921908101
 20
-18.33539195374167
 10
209.6812700660101
 20
-18.05194779854168
 10
209.6574923300101
 20
-17.79951679534168
 10
209.6359467940101
 20
-17.57730264334168
 10
209.61668042601
 20
-17.38080994574167
  0
LWPOLYLINE
  5
2A
330
2
100
AcDbEntity
  8
0
  6
HIDDEN
100
AcDbPolyline
 90
       85
 70
     0
 43
0.0
 10
235.9047215924101
 20
-33.22543413934168
 10
235.9433167572101
 20
-32.77977139054168
 10
235.9800396692101
 20
-32.35394708334168
 10
236.0152688564101
 20
-31.94371491054168
 10
236.0493282228101
 20
-31.54543708654168
 10
236.0823593188101
 20
-31.15758521934167
 10
236.1143287012101
 20
-30.78070520974168
 10
236.1453264404101
 20
-30.41396767854168
 10
236.1756359620101
 20
-30.05435105294167
 10
236.2056258948101
 20
-29.69794820494168
 10
236.2357334436101
 20
-29.34018607694167
 10
236.26674284521
 20
-28.97275192174168
 10
236.3000815412101
 20
-28.58059523694168
 10
236.3380671892101
 20
-28.14005698414168
 10
236.3822640020101
 20
-27.63942680814167
 10
236.4299716948101
 20
-27.11573575694168
 10
236.4757838372101
 20
-26.62819330574168
 10
236.5180718020101
 20
-26.18901902894168
 10
236.5604812004101
 20
-25.75649590734168
 10
236.6065156916101
 20
-25.29048870894168
 10
236.6530296436101
 20
-24.81523781134168
 10
236.6948215092101
 20
-24.37840124494167
 10
236.7314251444101
 20
-23.98324684974168
 10
236.7630771636101
 20
-23.62711992334168
 10
236.7900034980101
 20
-23.30837122894168
 10
236.8125981508101
 20
-23.02396800174168
 10
236.8313406420101
 20
-22.77048212494168
 10
236.8467550260101
 20
-22.54451081454168
 10
236.8592979364101
 20
-22.34295897454168
 10
236.86949137801
 20
-22.16293061454167
 10
236.8794245940101
 20
-22.00211860334167
 10
236.8918163108101
 20
-21.85877721454168
 10
236.9088303428101
 20
-21.73184762734167
 10
236.9318669444101
 20
-21.62146071374167
 10
236.9602284004101
 20
-21.52714966414168
 10
236.9926328004101
 20
-21.44709053454167
 10
237.0284566324101
 20
-21.37851385134168
 10
237.0676668516101
 20
-21.31885385614168
 10
237.1105230148101
 20
-21.26626463214167
 10
237.1571372484101
 20
-21.21979019214168
 10
237.2078013124101
 20
-21.17885048014167
 10
237.2641040212101
 20
-21.14238620174167
 10
237.3290667636101
 20
-21.10923463694168
 10
237.4058323636101
 20
-21.07908643854167
 10
237.4962356532101
 20
-21.05243949454167
 10
237.60073533481
 20
-21.02974941934167
 10
237.7196558244101
 20
-21.01085076014168
 10
237.8532823892101
 20
-20.99529606094167
 10
238.0028025812101
 20
-20.98259202894168
 10
238.1700063588101
 20
-20.97226414894168
 10
238.3581296868101
 20
-20.96378216654167
 10
238.5728183812101
 20
-20.95644808654167
 10
238.8065500596101
 20
-20.94947247694168
 10
239.0318501748101
 20
-20.94209024174168
 10
239.2337053876101
 20
-20.93356882574167
 10
239.4142341860101
 20
-20.92316097614168
 10
239.5752526324101
 20
-20.91033776494167
 10
239.7184599652101
 20
-20.89469507534168
 10
239.8454371044101
 20
-20.87580344014168
 10
239.9571299300101
 20
-20.85317832974168
 10
240.0542556788101
 20
-20.82659845294168
 10
240.1372360884101
 20
-20.79642032494168
 10
240.2069282324101
 20
-20.76340917774167
 10
240.2656438212101
 20
-20.72794758414168
 10
240.31668335241
 20
-20.68931105454167
 10
240.3626006372101
 20
-20.64620084334168
 10
240.4047296532101
 20
-20.59733860494167
 10
240.44376705801
 20
-20.54115922254168
 10
240.4803287668101
 20
-20.47514098094168
 10
240.5144842308101
 20
-20.39635110094168
 10
240.54545021961
 20
-20.30303540494168
 10
240.5723830292101
 20
-20.19455617294168
 10
240.5950265988101
 20
-20.07025402254168
 10
240.6137847796101
 20
-19.92956736494168
 10
240.6294252100101
 20
-19.77117857134167
 10
240.64291252681
 20
-19.59331861294168
 10
240.6554310308101
 20
-19.39395202734167
 10
240.66844073641
 20
-19.17062526414167
 10
240.6841476228101
 20
-18.91917408974168
 10
240.7049031764101
 20
-18.63583681454167
 10
240.7297819444101
 20
-18.33539195374167
 10
240.7552040692101
 20
-18.05194779854168
 10
240.7789818068101
 20
-17.79951679534168
 10
240.8005273412101
 20
-17.57730264334168
 10
240.8197937092101
 20
-17.38080994574167
  0
LWPOLYLINE
  5
2B
330
2
100
AcDbEntity
  8
0
100
AcDbPolyline
 90
        5
 70
     0
 43
0.0
 10
242.3358354164101
 20
-32.55444312174168
 10
242.9052611044101
 20
-31.82912737774167
 10
243.2651012820101
 20
-31.07817144334168
 10
243.4159470932101
 20
-30.48767743374168
 10
243.4491690900101
 20
-30.19179938094168
  0
LINE
  5
2C
330
2
100
AcDbEntity
  8
0
100
AcDbLine
 10
236.2599375140101
 20
-32.01676259694169
 30
0.0
 11
236.3426191092101
 21
-31.04751290254168
 31
0.0
  0
LINE
  5
2D
330
2
100
AcDbEntity
  8
0
100
AcDbLine
 10
236.3426191092101
 20
-31.04751290254168
 30
0.0
 11
236.2818129668101
 21
-31.76128034574169
 31
0.0
  0
LINE
  5
2E
330
2
100
AcDbEntity
  8
0
100
AcDbLine
 10
236.09350451401
 20
-31.02636141934169
 30
0.0
 11
236.0327101508101
 21
-31.73996972174168
 31
0.0
  0
LINE
  5
2F
330
2
100
AcDbEntity
  8
0
100
AcDbLine
 10
236.09350451401
 20
-31.02636141934169
 30
0.0
 11
236.0327101508101
 21
-31.73996972174168
 31
0.0
  0
LWPOLYLINE
  5
30
330
2
100
AcDbEntity
  8
0
100
AcDbPolyline
 90
       55
 70
     0
 43
0.0
 10
237.7029962196101
 20
-23.28826723374167
 10
237.6575691220101
 20
-23.51635804814168
 10
237.6179477428101
 20
-23.74521477934167
 10
237.58378477801
 20
-23.97475192014167
 10
237.5547329204101
 20
-24.20488396494167
 10
237.5304448660101
 20
-24.43552540334168
 10
237.5105733060101
 20
-24.66659073134167
 10
237.4943237364101
 20
-24.90548526094168
 10
237.4820287844101
 20
-25.14464634254167
 10
237.4733063364101
 20
-25.38397989934168
 10
237.4658944020101
 20
-25.75742631214168
 10
237.4645896788101
 20
-26.13100051694168
 10
237.4677387620101
 20
-26.50463960014167
 10
237.4736882436101
 20
-26.87828064974168
 10
237.4807847188101
 20
-27.25186075374168
 10
237.4873747796101
 20
-27.62531699854168
 10
237.4918050212101
 20
-27.99858647374168
 10
237.49242203561
 20
-28.37160626414168
 10
237.4879930580101
 20
-28.75010689774168
 10
237.4794777860101
 20
-29.12852596974168
 10
237.4684263908101
 20
-29.50710422734168
 10
237.4563890404101
 20
-29.88608241934167
 10
237.4449159044101
 20
-30.26570128974167
 10
237.4355571524101
 20
-30.64620158734168
 10
237.4331971412101
 20
-30.75662914254167
 10
237.4295980660101
 20
-30.86690016654168
 10
237.4232130852101
 20
-30.97676387694168
 10
237.4124953556101
 20
-31.08596949454168
 10
237.3958980356101
 20
-31.19426624014168
 10
237.3749155716101
 20
-31.29058063214167
 10
237.3481410564101
 20
-31.38569274414168
 10
237.3157785172101
 20
-31.47933659214167
 10
237.2780319780101
 20
-31.57124619694168
 10
237.23510546601
 20
-31.66115557614168
 10
237.1872030052101
 20
-31.74879874894168
 10
237.1284246532101
 20
-31.84316670254168
 10
237.0640853492101
 20
-31.93409713934168
 10
236.9945102836101
 20
-32.02127598574168
 10
236.92002464201
 20
-32.10438916174167
 10
236.8409536116101
 20
-32.18312259374167
 10
236.7576223796101
 20
-32.25716220174168
 10
236.6703561332101
 20
-32.32619390894168
 10
236.5794800580101
 20
-32.38990364014168
 10
236.4853193428101
 20
-32.44797731534168
 10
236.3881991732101
 20
-32.50010085934167
 10
236.3012122548101
 20
-32.54060820654167
 10
236.2124400692101
 20
-32.57671558414168
 10
236.1221067092101
 20
-32.60880121134167
 10
236.0304362644101
 20
-32.63724330894167
 10
235.8901697108101
 20
-32.67407900974168
 10
235.7481407172101
 20
-32.70478663374167
 10
235.6051176660101
 20
-32.73066305774168
 10
235.4618689396101
 20
-32.75300516014168
 10
235.3191629220101
 20
-32.77310981614167
 10
235.17776799561
 20
-32.79227390254168
  0
LWPOLYLINE
  5
31
330
2
100
AcDbEntity
  8
0
100
AcDbPolyline
 90
       19
 70
     0
 43
0.0
 10
227.2504896820101
 20
-32.27938528974168
 10
227.2167530948101
 20
-32.27596813934168
 10
227.1833280788101
 20
-32.27197228974168
 10
227.1494643380101
 20
-32.26660088494168
 10
227.1148710372101
 20
-32.25772169614168
 10
227.0795945412101
 20
-32.24104650734167
 10
227.0437158548101
 20
-32.21062499694168
 10
227.0099900964101
 20
-32.16577752014168
 10
226.9798551524101
 20
-32.10988852974168
 10
226.9517397108101
 20
-32.04253123054167
 10
226.9249521668101
 20
-31.96431731054168
 10
226.89904413801
 20
-31.87555991854168
 10
226.8737010292101
 20
-31.77650172654168
 10
226.8482753332101
 20
-31.66569589294168
 10
226.8219499060101
 20
-31.54029944174168
 10
226.7945544212101
 20
-31.40025824014168
 10
226.7660536260101
 20
-31.24653414094167
 10
226.7364739140101
 20
-31.08063798734168
 10
226.7058864020101
 20
-30.90482374414168
  0
LWPOLYLINE
  5
32
330
2
100
AcDbEntity
  8
0
100
AcDbPolyline
 90
       20
 70
     0
 43
0.0
 10
223.1859844548101
 20
-32.27938528974168
 10
223.2197210404101
 20
-32.27596813934168
 10
223.2531460580101
 20
-32.27197228974168
 10
223.2870097972101
 20
-32.26660088494168
 10
223.3216030996101
 20
-32.25772169614168
 10
223.35687959401
 20
-32.24104650734167
 10
223.39275828041
 20
-32.21062499694168
 10
223.4264840388101
 20
-32.16577752014168
 10
223.4566189828101
 20
-32.10988852974168
 10
223.4847344244101
 20
-32.04253123054167
 10
223.5115219684101
 20
-31.96431731054168
 10
223.5374299972101
 20
-31.87555991854168
 10
223.5627731076101
 20
-31.77650172654168
 10
223.5881988020101
 20
-31.66569589294168
 10
223.6145242292101
 20
-31.54029944174168
 10
223.6419197140101
 20
-31.40025824014168
 10
223.6704205092101
 20
-31.24653414094167
 10
223.70000022281
 20
-31.08063798734168
 10
223.7305877348101
 20
-30.90482374414168
 10
223.7968581700101
 20
-30.51810944014167
  0
LWPOLYLINE
  5
33
330
2
100
AcDbEntity
  8
0
100
AcDbPolyline
 90
       23
 70
     0
 43
0.0
 10
221.7090766868101
 20
-30.09994500814168
 10
221.6319678020101
 20
-30.27800154894168
 10
221.5514800100101
 20
-30.45416651054168
 10
221.4676734660101
 20
-30.62668765454167
 10
221.3800612516101
 20
-30.79503099534167
 10
221.2877965796101
 20
-30.95929930414168
 10
221.1905592628101
 20
-31.11870174574168
 10
221.0880658708101
 20
-31.27221597454168
 10
220.9798113012101
 20
-31.41920424174168
 10
220.8652680068101
 20
-31.55893475854168
 10
220.7435606148101
 20
-31.69123889774168
 10
220.6147272964101
 20
-31.81528343374167
 10
220.4799518516101
 20
-31.92916530574168
 10
220.3422642596101
 20
-32.02997402414168
 10
220.2150872644101
 20
-32.11022279854168
 10
220.1066227140101
 20
-32.16965181294168
 10
220.0145506436101
 20
-32.21380080974167
 10
219.9368059652101
 20
-32.24664293454168
 10
219.8721476660101
 20
-32.27090976174167
 10
219.8197595012101
 20
-32.28854401934167
 10
219.7792519572101
 20
-32.30093098734168
 10
219.7502083588101
 20
-32.30910894574167
 10
219.7323303124101
 20
-32.31380749134167
  0
LINE
  5
34
330
2
100
AcDbEntity
  8
0
100
AcDbLine
 10
214.4037639844101
 20
-31.73996972174168
 30
0.0
 11
214.3429696212101
 21
-31.02636141934169
 31
0.0
  0
LINE
  5
35
330
2
100
AcDbEntity
  8
0
100
AcDbLine
 10
214.4037639844101
 20
-31.73996972174168
 30
0.0
 11
214.3429696212101
 21
-31.02636141934169
 31
0.0
  0
LINE
  5
36
330
2
100
AcDbEntity
  8
0
100
AcDbLine
 10
214.1546611684101
 20
-31.76128034574169
 30
0.0
 11
214.0938550308101
 21
-31.04751294414168
 31
0.0
  0
LINE
  5
37
330
2
100
AcDbEntity
  8
0
100
AcDbLine
 10
214.1131694980101
 20
-31.27481489934168
 30
0.0
 11
214.1937949668101
 21
-32.21784470254169
 31
0.0
  0
LWPOLYLINE
  5
38
330
2
100
AcDbEntity
  8
0
100
AcDbPolyline
 90
        5
 70
     0
 43
0.0
 10
206.9872844260101
 20
-30.19146420174168
 10
207.0206731380101
 20
-30.48857914574168
 10
207.17184219721
 20
-31.07951768654167
 10
207.5317527492101
 20
-31.82999892814168
 10
208.1006396932101
 20
-32.55444412494168
  0
LWPOLYLINE
  5
39
330
2
100
AcDbEntity
  8
0
100
AcDbPolyline
 90
       55
 70
     0
 43
0.0
 10
212.7334779156101
 20
-23.28826723374167
 10
212.7789050148101
 20
-23.51635804814168
 10
212.8185263924101
 20
-23.74521477934167
 10
212.8526893588101
 20
-23.97475192014167
 10
212.8817412148101
 20
-24.20488396494167
 10
212.9060292708101
 20
-24.43552540334168
 10
212.9259008292101
 20
-24.66659073134167
 10
212.9421504004101
 20
-24.90548526094168
 10
212.9544453508101
 20
-25.14464634254167
 10
212.9631678004101
 20
-25.38397989934168
 10
212.9705797348101
 20
-25.75742631214168
 10
212.9718844580101
 20
-26.13100051694168
 10
212.9687353748101
 20
-26.50463960014167
 10
212.9627858932101
 20
-26.87828064974168
 10
212.9556894180101
 20
-27.25186075374168
 10
212.9490993572101
 20
-27.62531699854168
 10
212.94466911561
 20
-27.99858647374168
 10
212.9440521012101
 20
-28.37160626414168
 10
212.9484810788101
 20
-28.75010689774168
 10
212.9569963492101
 20
-29.12852596974168
 10
212.9680477460101
 20
-29.50710422734168
 10
212.9800850964101
 20
-29.88608241934167
 10
212.9915582324101
 20
-30.26570128974167
 10
213.0009169828101
 20
-30.64620158734168
 10
213.0032769940101
 20
-30.75662914254167
 10
213.00687606921
 20
-30.86690016654168
 10
213.0132610516101
 20
-30.97676387694168
 10
213.02397878121
 20
-31.08596949454168
 10
213.0405760996101
 20
-31.19426624014168
 10
213.0615585636101
 20
-31.29058063214167
 10
213.0883330788101
 20
-31.38569274414168
 10
213.1206956196101
 20
-31.47933659214167
 10
213.1584421588101
 20
-31.57124619694168
 10
213.2013686708101
 20
-31.66115557614168
 10
213.2492711300101
 20
-31.74879874894168
 10
213.3080494836101
 20
-31.84316670254168
 10
213.3723887860101
 20
-31.93409713934168
 10
213.4419638516101
 20
-32.02127598574168
 10
213.5164494932101
 20
-32.10438916174167
 10
213.5955205236101
 20
-32.18312259374167
 10
213.6788517556101
 20
-32.25716220174168
 10
213.7661180020101
 20
-32.32619390894168
 10
213.8569940772101
 20
-32.38990364014168
 10
213.95115479241
 20
-32.44797731534168
 10
214.0482749620101
 20
-32.50010085934167
 10
214.1352618820101
 20
-32.54060820654167
 10
214.2240340676101
 20
-32.57671558414168
 10
214.31436742761
 20
-32.60880121134167
 10
214.4060378724101
 20
-32.63724330894167
 10
214.5463044244101
 20
-32.67407900974168
 10
214.6883334180101
 20
-32.70478663374167
 10
214.83135646921
 20
-32.73066305774168
 10
214.9746051956101
 20
-32.75300516014168
 10
215.1173112132101
 20
-32.77310981614167
 10
215.2587061396101
 20
-32.79227390254168
  0
LWPOLYLINE
  5
3A
330
2
100
AcDbEntity
  8
0
100
AcDbPolyline
 90
       23
 70
     0
 43
0.0
 10
228.7273974500101
 20
-30.09994500814168
 10
228.8045046100101
 20
-30.27799766574168
 10
228.8849928932101
 20
-30.45416389134167
 10
228.9687999140101
 20
-30.62668615214167
 10
229.0564125620101
 20
-30.79503040014167
 10
229.14867785321
 20
-30.95929981134168
 10
229.2459160772101
 20
-31.11870363374168
 10
229.3484103204101
 20
-31.27221891054168
 10
229.4566656580101
 20
-31.41920788174167
 10
229.5712098148101
 20
-31.55893900654167
 10
229.6929186756101
 20
-31.69124417774168
 10
229.8217538420101
 20
-31.81528975854168
 10
229.9565305076101
 20
-31.92917178414168
 10
230.0942185076101
 20
-32.02997987694168
 10
230.2213950420101
 20
-32.11022758254168
 10
230.3298588356101
 20
-32.16965560014168
 10
230.4219302020101
 20
-32.21380381774167
 10
230.49967415401
 20
-32.24664530734168
 10
230.5643316836101
 20
-32.27091160654168
 10
230.6167190180101
 20
-32.28854541934168
 10
230.6572256404101
 20
-32.30093199854167
 10
230.6862682260101
 20
-32.30910960974168
 10
230.7041438244101
 20
-32.31380749134167
  0
LINE
  5
3B
330
2
100
AcDbEntity
  8
CENTER
 48
4.0
100
AcDbLine
 10
217.7182370676101
 20
-38.84299075854169
 30
0.0
 11
217.7182370676101
 21
-29.54409542894168
 31
0.0
  0
ARC
  5
3E
330
2
100
AcDbEntity
  8
0
100
AcDbCircle
 10
234.9423071956101
 20
-32.74830922734168
 30
0.0
 40
1.2500000112
100
AcDbArc
 50
273.1833934518999
 51
355.0583210479
  0
ARC
  5
3F
330
2
100
AcDbEntity
  8
0
100
AcDbCircle
 10
234.9423071956101
 20
-32.74830922734168
 30
0.0
 40
1.2500000112
100
AcDbArc
 50
273.1833934518999
 51
355.0583210479
  0
LWPOLYLINE
  5
40
330
2
100
AcDbEntity
  8
0
100
AcDbPolyline
 90
       55
 70
     0
 43
0.0
 10
235.6604966516101
 20
-33.70612529614168
 10
235.66702825001
 20
-33.70566363694168
 10
235.6748177060101
 20
-33.70501683534168
 10
235.6834517300101
 20
-33.70417648174167
 10
235.6924730196101
 20
-33.70315882414168
 10
235.7017058788101
 20
-33.70196859374168
 10
235.7111212772101
 20
-33.70059885454168
 10
235.7207193540101
 20
-33.69903922094168
 10
235.7304949396101
 20
-33.69727986254167
 10
235.7404313828101
 20
-33.69531320174167
 10
235.7505022436101
 20
-33.69313458734168
 10
235.7606737764101
 20
-33.69074264494168
 10
235.7709361908101
 20
-33.68813180014168
 10
235.78129613961
 20
-33.68529212814168
 10
235.7917485140101
 20
-33.68221627534168
 10
235.8022876564101
 20
-33.67889694894167
 10
235.8129072932101
 20
-33.67532697934167
 10
235.8236005188101
 20
-33.67149936334168
 10
235.8343598180101
 20
-33.66740729614168
 10
235.8451770932101
 20
-33.66304421294167
 10
235.8560436932101
 20
-33.65840381774168
 10
235.8669504260101
 20
-33.65348011374168
 10
235.8778902020101
 20
-33.64826616974168
 10
235.8888666388101
 20
-33.64274936974168
 10
235.8998852196101
 20
-33.63691471374168
 10
235.9109502484101
 20
-33.63074612654168
 10
235.9220647636101
 20
-33.62422647534168
 10
235.9332304372101
 20
-33.61733758574168
 10
235.9444474628101
 20
-33.61006027374168
 10
235.95571444361
 20
-33.60237437614168
 10
235.9670282596101
 20
-33.59425879054168
 10
235.9783826132101
 20
-33.58569255854168
 10
235.9897641012101
 20
-33.57665827374168
 10
236.0011565012101
 20
-33.56713949614167
 10
236.0125420964101
 20
-33.55711985934168
 10
236.0239016020101
 20
-33.54658316014168
 10
236.0352132852101
 20
-33.53551428174167
 10
236.0464481876101
 20
-33.52390454734168
 10
236.0575741076101
 20
-33.51174904334168
 10
236.0685582548101
 20
-33.49904437134168
 10
236.0793673428101
 20
-33.48578871374167
 10
236.0899676724101
 20
-33.47198191374168
 10
236.1003252292101
 20
-33.45762554414168
 10
236.1104057796101
 20
-33.44272296174167
 10
236.1201749956101
 20
-33.42727935694168
 10
236.1296017988101
 20
-33.41129609934167
 10
236.1386616820101
 20
-33.39476247054168
 10
236.1473287876101
 20
-33.37766648974167
 10
236.1555746116101
 20
-33.35999699374168
 10
236.1633679268101
 20
-33.34174387694167
 10
236.1706747348101
 20
-33.32289834734167
 10
236.1774582276101
 20
-33.30345320494168
 10
236.1836787764101
 20
-33.28340310734168
 10
236.1892938932101
 20
-33.26274507054167
 10
236.1942581972101
 20
-33.24147922414168
  0
LWPOLYLINE
  5
41
330
2
100
AcDbEntity
  8
0
100
AcDbPolyline
 90
       54
 70
     0
 43
0.0
 10
235.6619118756101
 20
-33.70597569294167
 10
235.6694431940101
 20
-33.70540520814167
 10
235.6781402900101
 20
-33.70462437774168
 10
235.6873643572101
 20
-33.70365212334167
 10
235.69686689321
 20
-33.70249429774168
 10
235.7066088180101
 20
-33.70114157934168
 10
235.7165874452101
 20
-33.69958074894167
 10
235.7267813492101
 20
-33.69780160334168
 10
235.7371469396101
 20
-33.69579936494167
 10
235.7476243412101
 20
-33.69357556974168
 10
235.7581885188101
 20
-33.69112746574168
 10
235.76885372361
 20
-33.68844355854168
 10
235.7796141620101
 20
-33.68551636814167
 10
235.7904634836101
 20
-33.68233852814167
 10
235.8013945860101
 20
-33.67890287214168
 10
235.8123995860101
 20
-33.67520250734168
 10
235.8234698532101
 20
-33.67123086734167
 10
235.8345960660101
 20
-33.66698175214168
 10
235.8457682644101
 20
-33.66244936814168
 10
235.8569759108101
 20
-33.65762837454168
 10
235.8682082180101
 20
-33.65251377454168
 10
235.8794630820101
 20
-33.64709653134168
 10
235.8907472004101
 20
-33.64136229934167
 10
235.9020664468101
 20
-33.63529539694168
 10
235.9134254164101
 20
-33.62887896814167
 10
235.9248273316101
 20
-33.62209500654167
 10
235.9362739252101
 20
-33.61492437934168
 10
235.9477653220101
 20
-33.60734686574168
 10
235.9592999060101
 20
-33.59934118574168
 10
235.9708741860101
 20
-33.59088505614168
 10
235.9824821412101
 20
-33.58195564494168
 10
235.9941135860101
 20
-33.57253098094167
 10
236.0057557604101
 20
-33.56258897294168
 10
236.0173937620101
 20
-33.55210709134168
 10
236.0290103316101
 20
-33.54106255054168
 10
236.0405797844101
 20
-33.52943857774167
 10
236.05206452841
 20
-33.51723003854167
 10
236.0634254580101
 20
-33.50443479214168
 10
236.0746231748101
 20
-33.49105276974167
 10
236.0856181332101
 20
-33.47708606414168
 10
236.0963707748101
 20
-33.46253899054168
 10
236.1068416964101
 20
-33.44741814414168
 10
236.1169918004101
 20
-33.43173245134168
 10
236.1267854452101
 20
-33.41548806254167
 10
236.1361966420101
 20
-33.39867516974168
 10
236.1451990468101
 20
-33.38128088974168
 10
236.1537634356101
 20
-33.36329313934168
 10
236.1618576292101
 20
-33.34470088654168
 10
236.1694464260101
 20
-33.32549444014168
 10
236.1764915556101
 20
-33.30566574254167
 10
236.1829516500101
 20
-33.28520870414168
 10
236.1887822292101
 20
-33.26411963054168
 10
236.19393564041
 20
-33.24239806894168
 10
236.1985237028101
 20
-33.21960861134167
  0
LWPOLYLINE
  5
42
330
2
100
AcDbEntity
  8
0
100
AcDbPolyline
 90
       24
 70
     0
 43
0.0
 10
236.3905741188101
 20
-31.98851542574168
 10
236.3906917604101
 20
-31.98818517934167
 10
236.3892329844101
 20
-31.99198291854168
 10
236.3851620548101
 20
-32.00185590094168
 10
236.3781837332101
 20
-32.01752900494168
 10
236.3677863412101
 20
-32.03909697454168
 10
236.3533212436101
 20
-32.06671986734168
 10
236.3342010500101
 20
-32.10021514094167
 10
236.3098871972101
 20
-32.13915844014167
 10
236.2799159188101
 20
-32.18290822254167
 10
236.2439653108101
 20
-32.23058685934168
 10
236.2018666468101
 20
-32.28115976334168
 10
236.1536236468101
 20
-32.33349333294167
 10
236.0992769844101
 20
-32.38654980654168
 10
236.0387312132101
 20
-32.43951749614168
 10
235.9719193652101
 20
-32.49159820814168
 10
235.8988440724101
 20
-32.54197556334168
 10
235.8195946212101
 20
-32.58981703534168
 10
235.7340731124101
 20
-32.63442178574168
 10
235.6418739764101
 20
-32.67517560974168
 10
235.5425991540101
 20
-32.71131294094168
 10
235.4358979044101
 20
-32.74189128014167
 10
235.3214786132101
 20
-32.76577818574168
 10
235.2783281716101
 20
-32.77249138734168
  0
LWPOLYLINE
  5
43
330
2
100
AcDbEntity
  8
0
100
AcDbPolyline
 90
       17
 70
     0
 43
0.0
 10
237.0292564868101
 20
-34.65602422734168
 10
236.7660800420101
 20
-34.72750509294167
 10
236.4891520676101
 20
-34.79658100654168
 10
236.1992049252101
 20
-34.86292829934168
 10
235.8972357892101
 20
-34.92618164974167
 10
235.5840372884101
 20
-34.98604368494167
 10
235.2606193540101
 20
-35.04219634254168
 10
234.9278109188101
 20
-35.09437869934168
 10
234.5866003956101
 20
-35.14232696174168
 10
234.2378310148101
 20
-35.18582336814167
 10
233.8824472900101
 20
-35.22466029454168
 10
233.5212892324101
 20
-35.25866652014168
 10
233.1552487156101
 20
-35.28768878094167
 10
232.7851531524101
 20
-35.31160296014167
 10
232.4118464292101
 20
-35.33030650414168
 10
232.0361359572101
 20
-35.34372167214167
 10
231.6588302068101
 20
-35.35179281934168
  0
LWPOLYLINE
  5
44
330
2
100
AcDbEntity
  8
0
  6
HIDDEN
100
AcDbPolyline
 90
       18
 70
     0
 43
0.0
 10
237.76929576521
 20
-34.58253853454167
 10
237.5004466020101
 20
-34.65602422734168
 10
237.2156983188101
 20
-34.72750509294167
 10
236.9160713284101
 20
-34.79658100654168
 10
236.6023580292101
 20
-34.86292829934168
 10
236.2756373236101
 20
-34.92618164974167
 10
235.93676681321
 20
-34.98604368494167
 10
235.5868392132101
 20
-35.04219634254168
 10
235.2267513988101
 20
-35.09437869934168
 10
234.8575728004101
 20
-35.14232696174168
 10
234.4802157636101
 20
-35.18582336814167
 10
234.0957022260101
 20
-35.22466029454168
 10
233.7049410484101
 20
-35.25866652014168
 10
233.3088972116101
 20
-35.28768878094167
 10
232.9084659460101
 20
-35.31160296014167
 10
232.5045603124101
 20
-35.33030650414168
 10
232.0980538996101
 20
-35.34372167214167
 10
231.6898214468101
 20
-35.35179281934168
  0
LWPOLYLINE
  5
45
330
2
100
AcDbEntity
  8
0
100
AcDbPolyline
 90
       10
 70
     0
 43
0.0
 10
225.2171408228101
 20
-36.03178139054168
 10
228.0728680004101
 20
-35.98046469614168
 10
230.7580213956101
 20
-35.82084703854167
 10
233.1643360740101
 20
-35.55965325774168
 10
235.2989326196101
 20
-35.20941500654168
 10
237.1759798164101
 20
-34.78894613934168
 10
238.8315187044101
 20
-34.31724303694168
 10
240.3032032324101
 20
-33.79418637934168
 10
241.5021793428101
 20
-33.20459631534168
 10
242.3345515108101
 20
-32.55576503854168
  0
LINE
  5
46
330
2
100
AcDbEntity
  8
0
100
AcDbLine
 10
210.9057370676101
 20
-40.32323679534168
 30
0.0
 11
239.5307370676101
 21
-40.32323679534168
 31
0.0
  0
LINE
  5
47
330
2
100
AcDbEntity
  8
0
100
AcDbLine
 10
211.9447061124101
 20
-33.24712643054168
 30
0.0
 11
210.7318298948101
 21
-33.24712643054168
 31
0.0
  0
LWPOLYLINE
  5
48
330
2
100
AcDbEntity
  8
0
100
AcDbPolyline
 90
       10
 70
     0
 43
0.0
 10
208.1019152532101
 20
-32.55575745454168
 10
208.9356185140101
 20
-33.20540355214168
 10
210.1321176548101
 20
-33.79371602254168
 10
211.60147757801
 20
-34.31614047694167
 10
213.2571035412101
 20
-34.78808081614168
 10
215.1351578004101
 20
-35.20895189614167
 10
217.2699583140101
 20
-35.55935688494168
 10
219.6758906628101
 20
-35.82063351694167
 10
222.3608081348101
 20
-35.98035953454167
 10
225.2171408196101
 20
-36.03178138734168
  0
LINE
  5
49
330
2
100
AcDbEntity
  8
0
100
AcDbLine
 10
210.7318298948101
 20
-33.24712643054168
 30
0.0
 11
210.6881982148101
 21
-33.24712643054168
 31
0.0
  0
LWPOLYLINE
  5
4A
330
2
100
AcDbEntity
  8
0
100
AcDbPolyline
 90
        4
 70
     0
 43
0.0
 10
223.1859864500101
 20
-32.27938508814168
 10
223.5372332916101
 20
-32.27801693134168
 10
223.8671149076101
 20
-32.27698508494167
 10
224.1757391460101
 20
-32.27622900654167
  0
LINE
  5
4B
330
2
100
AcDbEntity
  8
0
100
AcDbLine
 10
223.2281243748101
 20
-33.88036061614168
 30
0.0
 11
223.8843206276101
 21
-33.86899956814168
 31
0.0
  0
LWPOLYLINE
  5
4C
330
2
100
AcDbEntity
  8
0
100
AcDbPolyline
 90
        4
 70
     0
 43
0.0
 10
222.1501530068101
 20
-34.20980844174168
 10
222.9737779860101
 20
-34.20400541614167
 10
224.0890604420101
 20
-34.18930004014168
 10
225.2182370676101
 20
-34.16686483054167
  0
LWPOLYLINE
  5
4D
330
2
100
AcDbEntity
  8
0
100
AcDbPolyline
 90
       16
 70
     0
 43
0.0
 10
219.8006982836101
 20
-34.45093261134168
 10
220.17534899241
 20
-34.45496903534167
 10
220.5533278484101
 20
-34.45801877454167
 10
220.9345576132101
 20
-34.46006274894168
 10
221.2772060292101
 20
-34.46102316174167
 10
221.62243203881
 20
-34.46116458414167
 10
221.9702896372101
 20
-34.46048294734168
 10
222.3208328132101
 20
-34.45897418574168
 10
222.6741065732101
 20
-34.45663445614167
 10
223.0301199716101
 20
-34.45346079054167
 10
223.3888730740101
 20
-34.44945044174168
 10
223.7503659508101
 20
-34.44460066414168
 10
224.1146027908101
 20
-34.43890943214167
 10
224.48160440041
 20
-34.43237759214167
 10
224.8513957076101
 20
-34.42500671374168
 10
225.2240016420101
 20
-34.41679836494167
  0
LWPOLYLINE
  5
4E
330
2
100
AcDbEntity
  8
0
100
AcDbPolyline
 90
       16
 70
     0
 43
0.0
 10
225.2182370628101
 20
-34.16686482734167
 10
224.8461487188101
 20
-34.17506169454168
 10
224.4768840932101
 20
-34.18242198734168
 10
224.1104204420101
 20
-34.18894425134168
 10
223.7467350196101
 20
-34.19462703374168
 10
223.3858073652101
 20
-34.19946956174168
 10
223.0276261396101
 20
-34.20347379374168
 10
222.6721822868101
 20
-34.20664236654168
 10
222.3194667492101
 20
-34.20897791854168
 10
221.9694681572101
 20
-34.21048343374168
 10
221.6221658884101
 20
-34.21116327214168
 10
221.2775370052101
 20
-34.21102214414168
 10
220.9355585684101
 20
-34.21006475214167
 10
220.5194551300101
 20
-34.20778325134168
 10
220.1071878580101
 20
-34.20430036174168
 10
219.6986357796101
 20
-34.19963692814167
  0
LWPOLYLINE
  5
4F
330
2
100
AcDbEntity
  8
0
100
AcDbPolyline
 90
       17
 70
     0
 43
0.0
 10
225.2182370628101
 20
-34.16686482734167
 10
224.8461487188101
 20
-34.17506169454168
 10
224.4768840932101
 20
-34.18242198734168
 10
224.1104204420101
 20
-34.18894425134168
 10
223.7467350196101
 20
-34.19462703374168
 10
223.3858073652101
 20
-34.19946956174168
 10
223.0276261396101
 20
-34.20347379374168
 10
222.6721822868101
 20
-34.20664236654168
 10
222.3194667492101
 20
-34.20897791854168
 10
221.9694681572101
 20
-34.21048343374168
 10
221.6221658884101
 20
-34.21116327214168
 10
221.2775370052101
 20
-34.21102214414168
 10
220.9355585684101
 20
-34.21006475214167
 10
220.5962005588101
 20
-34.20829689934168
 10
220.2594046068101
 20
-34.20572876974168
 10
219.9251052612101
 20
-34.20237164174167
 10
219.5932370676101
 20
-34.19823679534168
  0
LWPOLYLINE
  5
50
330
2
100
AcDbEntity
  8
0
100
AcDbPolyline
 90
       16
 70
     0
 43
0.0
 10
225.2240016420101
 20
-34.41679836494167
 10
224.8513957076101
 20
-34.42500671374168
 10
224.48160440041
 20
-34.43237759214167
 10
224.1146027908101
 20
-34.43890943214167
 10
223.7503659508101
 20
-34.44460066414168
 10
223.3888730740101
 20
-34.44945044174168
 10
223.0301199716101
 20
-34.45346079054167
 10
222.6741065732101
 20
-34.45663445614167
 10
222.3208328132101
 20
-34.45897418574168
 10
221.9702896372101
 20
-34.46048294734168
 10
221.62243203881
 20
-34.46116458414167
 10
221.2772060292101
 20
-34.46102316174167
 10
220.9345576132101
 20
-34.46006274894168
 10
220.5175741940101
 20
-34.45777404334168
 10
220.1044918692101
 20
-34.45428326894168
 10
219.6954118308101
 20
-34.44961542254167
  0
LINE
  5
51
330
2
100
AcDbEntity
  8
0
  6
HIDDEN
100
AcDbLine
 10
235.06377184041
 20
-32.78804352974168
 30
0.0
 11
220.83210083561
 21
-32.78404905454169
 31
0.0
  0
LINE
  5
52
330
2
100
AcDbEntity
  8
0
  6
HIDDEN
100
AcDbLine
 10
219.1557370676101
 20
-35.35448663534168
 30
0.0
 11
231.2807370676101
 21
-35.35448679534168
 31
0.0
  0
LINE
  5
53
330
2
100
AcDbEntity
  8
0
100
AcDbLine
 10
212.7311057636101
 20
-37.72504741614168
 30
0.0
 11
212.5470778036101
 21
-35.79066184974168
 31
0.0
  0
LINE
  5
54
330
2
100
AcDbEntity
  8
0
100
AcDbLine
 10
219.1557370676101
 20
-40.32323679534168
 30
0.0
 11
219.1557370676101
 21
-35.76414648494168
 31
0.0
  0
LINE
  5
55
330
2
100
AcDbEntity
  8
0
100
AcDbLine
 10
211.5307370676101
 20
-40.32323679534168
 30
0.0
 11
211.5307370676101
 21
-32.57323764654168
 31
0.0
  0
LINE
  5
56
330
2
100
AcDbEntity
  8
0
100
AcDbLine
 10
210.9057370676101
 20
-40.32323679534168
 30
0.0
 11
210.9057370676101
 21
-34.06877300174169
 31
0.0
  0
ARC
  5
57
330
2
100
AcDbEntity
  8
0
100
AcDbCircle
 10
216.9059886868101
 20
-39.57323679534168
 30
0.0
 40
0.75
100
AcDbArc
 50
270.0
 51
355.0
  0
LINE
  5
58
330
2
100
AcDbEntity
  8
0
100
AcDbLine
 10
212.9139217220101
 20
-39.63860360174168
 30
0.0
 11
212.7311190820101
 21
-37.72518741614169
 31
0.0
  0
LINE
  5
59
330
2
100
AcDbEntity
  8
0
100
AcDbLine
 10
213.0231556708101
 20
-39.95176084814168
 30
0.0
 11
212.9494287492101
 21
-39.80057055214168
 31
0.0
  0
LINE
  5
5A
330
2
100
AcDbEntity
  8
0
100
AcDbLine
 10
213.51708875401
 20
-40.29239129294168
 30
0.0
 11
213.4046977524101
 21
-40.25992116814168
 31
0.0
  0
LWPOLYLINE
  5
5B
330
2
100
AcDbEntity
  8
0
100
AcDbPolyline
 90
        5
 70
     0
 43
0.0
 10
213.0231556708101
 20
-39.95176084814168
 10
213.12830644041
 20
-40.08120301934168
 10
213.2582220420101
 20
-40.18494883694168
 10
213.4067551620101
 20
-40.26073284014167
 10
213.56900231721
 20
-40.30728705614168
  0
LINE
  5
5C
330
2
100
AcDbEntity
  8
0
100
AcDbLine
 10
213.4046977524101
 20
-40.25992116814168
 30
0.0
 11
213.2557104932101
 21
-40.18332922414169
 31
0.0
  0
LWPOLYLINE
  5
5D
330
2
100
AcDbEntity
  8
0
100
AcDbPolyline
 90
        3
 70
     0
 43
0.0
 10
213.1261844484101
 20
-40.07910036174168
 10
213.0219783428101
 20
-39.94991977934168
 10
212.9724717492101
 20
-39.84800643694168
  0
LINE
  5
5E
330
2
100
AcDbEntity
  8
0
100
AcDbLine
 10
213.2557104932101
 20
-40.18332922414169
 30
0.0
 11
213.1261844484101
 21
-40.07910036174169
 31
0.0
  0
LINE
  5
5F
330
2
100
AcDbEntity
  8
0
100
AcDbLine
 10
213.7410273348101
 20
-40.32323679534168
 30
0.0
 11
213.5679833492101
 21
-40.30709490574168
 31
0.0
  0
LINE
  5
60
330
2
100
AcDbEntity
  8
0
100
AcDbLine
 10
212.9139217220101
 20
-39.63860360174168
 30
0.0
 11
212.9497530772101
 21
-39.80149933454169
 31
0.0
  0
LINE
  5
61
330
2
100
AcDbEntity
  8
0
100
AcDbLine
 10
221.3979025812101
 20
-38.09055339214168
 30
0.0
 11
221.5333394244101
 21
-39.63860360174168
 31
0.0
  0
LINE
  5
62
330
2
100
AcDbEntity
  8
0
100
AcDbLine
 10
217.78857155561
 20
-38.09055339214168
 30
0.0
 11
217.6531347108101
 21
-39.63860360174168
 31
0.0
  0
ARC
  5
63
330
2
100
AcDbEntity
  8
0
100
AcDbCircle
 10
222.2804854484101
 20
-39.57323679534168
 30
0.0
 40
0.75
100
AcDbArc
 50
185.0
 51
270.0
  0
LINE
  5
64
330
2
100
AcDbEntity
  8
0
100
AcDbLine
 10
218.1621445668101
 20
-37.74823679534168
 30
0.0
 11
221.0305129268101
 21
-37.74823679534168
 31
0.0
  0
ARC
  5
65
330
2
100
AcDbEntity
  8
0
100
AcDbCircle
 10
218.1621445668101
 20
-38.12323679534168
 30
0.0
 40
0.375
100
AcDbArc
 50
90.0
 51
175.0
  0
ARC
  5
66
330
2
100
AcDbEntity
  8
0
100
AcDbCircle
 10
221.02432956841
 20
-38.12323679534168
 30
0.0
 40
0.375
100
AcDbArc
 50
5.0
 51
90.0
  0
LINE
  5
67
330
2
100
AcDbEntity
  8
0
100
AcDbLine
 10
217.3740473940101
 20
-32.38745684494169
 30
0.0
 11
217.0705252292101
 21
-32.40173647534168
 31
0.0
  0
LINE
  5
68
330
2
100
AcDbEntity
  8
0
100
AcDbLine
 10
217.2812265044101
 20
-35.28768885934168
 30
0.0
 11
216.9151872324101
 21
-35.25866672174168
 31
0.0
  0
LINE
  5
69
330
2
100
AcDbEntity
  8
0
100
AcDbLine
 10
218.9896836772101
 20
-34.94823679534168
 30
0.0
 11
216.4467904580101
 21
-34.94823679534168
 31
0.0
  0
LINE
  5
6A
330
2
100
AcDbEntity
  8
0
100
AcDbLine
 10
218.9896836772101
 20
-34.94823679534168
 30
0.0
 11
216.4467904580101
 21
-34.94823679534168
 31
0.0
  0
LINE
  5
6B
330
2
100
AcDbEntity
  8
0
100
AcDbLine
 10
217.1561392228101
 20
-33.95317709134168
 30
0.0
 11
218.9953225508101
 21
-33.93613710734168
 31
0.0
  0
LWPOLYLINE
  5
6C
330
2
100
AcDbEntity
  8
0
100
AcDbPolyline
 90
       11
 70
     0
 43
0.0
 10
218.7441493380101
 20
-34.19219046894168
 10
218.6092182532101
 20
-34.19109233134168
 10
218.4696372212101
 20
-34.19030046574167
 10
218.3266131092101
 20
-34.18996443374167
 10
218.1812280004101
 20
-34.19023990094167
 10
218.0345630916101
 20
-34.19128865294168
 10
217.8876859316101
 20
-34.19327640174167
 10
217.7416839076101
 20
-34.19636985934168
 10
217.5957653012101
 20
-34.20071980174167
 10
217.4480118164101
 20
-34.20613711534168
 10
217.1501531220101
 20
-34.21823566094168
  0
LINE
  5
6D
330
2
100
AcDbEntity
  8
0
100
AcDbLine
 10
216.4467848436101
 20
-34.69823679534168
 30
0.0
 11
218.98968924201
 21
-34.69823679534168
 31
0.0
  0
LINE
  5
6E
330
2
100
AcDbEntity
  8
0
100
AcDbLine
 10
216.4467848436101
 20
-34.69823679534168
 30
0.0
 11
218.98968924201
 21
-34.69823679534168
 31
0.0
  0
LINE
  5
6F
330
2
100
AcDbEntity
  8
0
  6
HIDDEN
100
AcDbLine
 10
221.1550498212101
 20
-32.78389603374168
 30
0.0
 11
215.3727023636101
 21
-32.78804352974168
 31
0.0
  0
LWPOLYLINE
  5
70
330
2
100
AcDbEntity
  8
0
100
AcDbPolyline
 90
       26
 70
     0
 43
0.0
 10
210.94869499721
 20
-33.74529545774167
 10
211.0023860356101
 20
-33.81742723534168
 10
211.0774479540101
 20
-33.89122637134168
 10
211.1737578772101
 20
-33.96646684014168
 10
211.2910606180101
 20
-34.04284471374168
 10
211.4291196500101
 20
-34.12009564334168
 10
211.5875060100101
 20
-34.19786379054168
 10
211.7658651732101
 20
-34.27585200014168
 10
211.9635897908101
 20
-34.35366555054168
 10
212.1802035236101
 20
-34.43098197454168
 10
212.4149314292101
 20
-34.50738514254167
 10
212.6671783700101
 20
-34.58253853454167
 10
212.9360275332101
 20
-34.65602422734168
 10
213.2207758164101
 20
-34.72750509294167
 10
213.5204028068101
 20
-34.79658100654168
 10
213.8341161076101
 20
-34.86292829934168
 10
214.1608368132101
 20
-34.92618164974167
 10
214.4997073220101
 20
-34.98604368494167
 10
214.8496349220101
 20
-35.04219634254168
 10
215.2097227364101
 20
-35.09437869934168
 10
215.5789013364101
 20
-35.14232696174168
 10
215.9562583716101
 20
-35.18582336814167
 10
216.3407719092101
 20
-35.22466029454168
 10
216.7315330868101
 20
-35.25866652014168
 10
217.1275769236101
 20
-35.28768878094167
 10
217.52800818921
 20
-35.31160296014167
  0
ARC
  5
71
330
2
100
AcDbEntity
  8
0
100
AcDbCircle
 10
215.52800821321
 20
-33.13897772654168
 30
0.0
 40
1.000000009599999
100
AcDbArc
 50
184.9596930726
 51
259.8729743582999
  0
ARC
  5
72
330
2
100
AcDbEntity
  8
0
100
AcDbCircle
 10
215.52800821321
 20
-33.13897772654168
 30
0.0
 40
1.000000009599999
100
AcDbArc
 50
184.9596930726
 51
259.8729743582999
  0
LWPOLYLINE
  5
73
330
2
100
AcDbEntity
  8
0
100
AcDbPolyline
 90
       15
 70
     0
 43
0.0
 10
215.3381807972101
 20
-34.12079638734168
 10
215.2478222020101
 20
-34.09892468174168
 10
215.1597446932101
 20
-34.06870046094168
 10
215.0747519636101
 20
-34.03035932334168
 10
214.9936248804101
 20
-33.98422135854168
 10
214.9171104980101
 20
-33.93068869614168
 10
214.8459095924101
 20
-33.87023941134168
 10
214.7806661460101
 20
-33.80341875694168
 10
214.7219492516101
 20
-33.73081455694168
 10
214.6702654244101
 20
-33.65305844814168
 10
214.6260609764101
 20
-33.57082564014167
 10
214.5897183652101
 20
-33.48482930734167
 10
214.5615530468101
 20
-33.39581470734168
 10
214.54181083881
 20
-33.30455302574168
 10
214.5318483396101
 20
-33.22653103214168
  0
ARC
  5
74
330
2
100
AcDbEntity
  8
0
100
AcDbCircle
 10
215.52800821321
 20
-33.13897772654168
 30
0.0
 40
1.250000012799999
100
AcDbArc
 50
184.9595975563999
 51
259.8730578074
  0
ARC
  5
75
330
2
100
AcDbEntity
  8
0
100
AcDbCircle
 10
215.52800821321
 20
-33.13897772654168
 30
0.0
 40
1.250000012799999
100
AcDbArc
 50
184.9595975563999
 51
259.8730578074
  0
LWPOLYLINE
  5
76
330
2
100
AcDbEntity
  8
0
100
AcDbPolyline
 90
       21
 70
     0
 43
0.0
 10
214.2769118212101
 20
-33.53698020814167
 10
214.2891314724101
 20
-33.57587058574168
 10
214.3035732740101
 20
-33.61251429294168
 10
214.3200139092101
 20
-33.64731507694168
 10
214.3382265812101
 20
-33.68019193934168
 10
214.3579842356101
 20
-33.71108401614167
 10
214.3790648868101
 20
-33.73995523694168
 10
214.4012540740101
 20
-33.76679212654168
 10
214.4243464820101
 20
-33.79160115054168
 10
214.4481456228101
 20
-33.81440488974168
 10
214.4724381300101
 20
-33.83521898414167
 10
214.4969941156101
 20
-33.85406161294167
 10
214.5215923844101
 20
-33.87097592014168
 10
214.5460462548101
 20
-33.88604062094167
 10
214.5702094180101
 20
-33.89936176654168
 10
214.59396825481
 20
-33.91105900494167
 10
214.6172312004101
 20
-33.92125532014168
 10
214.6398043076101
 20
-33.93002945454168
 10
214.6612032452101
 20
-33.93738080334168
 10
214.6809601268101
 20
-33.94337113774168
 10
214.7007640212101
 20
-33.94848948814168
  0
LWPOLYLINE
  5
77
330
2
100
AcDbEntity
  8
0
100
AcDbPolyline
 90
       19
 70
     0
 43
0.0
 10
214.2891939876101
 20
-33.57552043214168
 10
214.3037166788101
 20
-33.61231421614167
 10
214.3202508132101
 20
-33.64725183054167
 10
214.3385675268101
 20
-33.68025133614167
 10
214.3584376404101
 20
-33.71125127054168
 10
214.3796371028101
 20
-33.74021532494168
 10
214.4019494628101
 20
-33.76713007534168
 10
214.4251675204101
 20
-33.79200227854168
 10
214.4490927764101
 20
-33.81485479214168
 10
214.4735086740101
 20
-33.83570282094167
 10
214.4981831380101
 20
-33.85456544974168
 10
214.52289329481
 20
-33.87148720174168
 10
214.5474527412101
 20
-33.88654923854168
 10
214.5717142084101
 20
-33.89985888334168
 10
214.5955640212101
 20
-33.91153737454168
 10
214.6189093028101
 20
-33.92170854574168
 10
214.6415398692101
 20
-33.93044696654168
 10
214.6629629780101
 20
-33.93775376334168
 10
214.6827226468101
 20
-33.94369877934168
  0
LINE
  5
78
330
2
100
AcDbEntity
  8
0
100
AcDbLine
 10
212.33369777801
 20
-33.74100003534168
 30
0.0
 11
212.3617600804101
 21
-33.83498278414168
 31
0.0
  0
LWPOLYLINE
  5
79
330
2
100
AcDbEntity
  8
0
100
AcDbPolyline
 90
        4
 70
     0
 43
0.0
 10
211.6200645268101
 20
-33.81742770574168
 10
211.57044091401
 20
-33.74529600494168
 10
211.5406598116101
 20
-33.67507350894168
 10
211.5307370676101
 20
-33.60695327374168
  0
LINE
  5
7A
330
2
100
AcDbEntity
  8
0
100
AcDbLine
 10
210.9057370676101
 20
-34.06877300174169
 30
0.0
 11
210.9057370676101
 21
-33.60695327374168
 31
0.0
  0
LWPOLYLINE
  5
7B
330
2
100
AcDbEntity
  8
0
100
AcDbPolyline
 90
       23
 70
     0
 43
0.0
 10
211.6200641444101
 20
-33.81742723534168
 10
211.6894395524101
 20
-33.89122637134168
 10
211.7784532708101
 20
-33.96646684014168
 10
211.8868694404101
 20
-34.04284471374168
 10
212.0144694548101
 20
-34.12009564334168
 10
212.1608568484101
 20
-34.19786379054168
 10
212.3257039524101
 20
-34.27585200014168
 10
212.5084494324101
 20
-34.35366555054168
 10
212.7086530340101
 20
-34.43098197454168
 10
212.9255985220101
 20
-34.50738514254167
 10
213.1587358484101
 20
-34.58253853454167
 10
213.4072176500101
 20
-34.65602422734168
 10
213.6703940932101
 20
-34.72750509294167
 10
213.9473220692101
 20
-34.79658100654168
 10
214.2372692100101
 20
-34.86292829934168
 10
214.5392383476101
 20
-34.92618164974167
 10
214.8524368484101
 20
-34.98604368494167
 10
215.1758547812101
 20
-35.04219634254168
 10
215.5086632164101
 20
-35.09437869934168
 10
215.84987373961
 20
-35.14232696174168
 10
216.1986431220101
 20
-35.18582336814167
 10
216.5540268452101
 20
-35.22466029454168
 10
216.9151849044101
 20
-35.25866652014168
  0
LINE
  5
7C
330
2
100
AcDbEntity
  8
0
100
AcDbLine
 10
212.3617608228101
 20
-33.83499243534169
 30
0.0
 11
212.5470645412101
 21
-35.79052189294168
 31
0.0
  0
ARC
  5
7D
330
2
100
AcDbEntity
  8
0
100
AcDbCircle
 10
216.4467904596101
 20
-34.44823679534168
 30
0.0
 40
0.25
100
AcDbArc
 50
225.0000000272
 51
269.9983131416
  0
ARC
  5
7E
330
2
100
AcDbEntity
  8
0
100
AcDbCircle
 10
216.4467904596101
 20
-34.44823679534168
 30
0.0
 40
0.25
100
AcDbArc
 50
225.0000000272
 51
269.9983131416
  0
LINE
  5
7F
330
2
100
AcDbEntity
  8
0
100
AcDbLine
 10
216.4926131972101
 20
-33.95797024654168
 30
0.0
 11
216.2878097972101
 21
-33.95883135694168
 31
0.0
  0
LINE
  5
80
330
2
100
AcDbEntity
  8
0
100
AcDbLine
 10
216.7040801588101
 20
-33.95672951214168
 30
0.0
 11
216.4915902884101
 21
-33.95797543054168
 31
0.0
  0
LINE
  5
81
330
2
100
AcDbEntity
  8
0
100
AcDbLine
 10
216.7030534612101
 20
-33.95673629934168
 30
0.0
 11
216.9249563748101
 21
-33.95512033614169
 31
0.0
  0
LINE
  5
82
330
2
100
AcDbEntity
  8
0
100
AcDbLine
 10
217.1571889972101
 20
-33.95316780014168
 30
0.0
 11
216.9239175844101
 21
-33.95512853614168
 31
0.0
  0
ARC
  5
83
330
2
100
AcDbEntity
  8
0
100
AcDbCircle
 10
216.4467904580101
 20
-34.44823679534168
 30
0.0
 40
0.5
100
AcDbArc
 50
225.0
 51
270.0000000005
  0
ARC
  5
84
330
2
100
AcDbEntity
  8
0
100
AcDbCircle
 10
216.4467904580101
 20
-34.44823679534168
 30
0.0
 40
0.5
100
AcDbArc
 50
225.0
 51
270.0000000005
  0
LINE
  5
85
330
2
100
AcDbEntity
  8
0
100
AcDbLine
 10
216.2888333012101
 20
-33.95882798414168
 30
0.0
 11
216.0909102532101
 21
-33.95928926574169
 31
0.0
  0
ARC
  5
86
330
2
100
AcDbEntity
  8
0
100
AcDbCircle
 10
215.7268560740101
 20
-34.43540917934169
 30
0.0
 40
0.25
100
AcDbArc
 50
45.0000001442
 51
82.3932371509
  0
ARC
  5
87
330
2
100
AcDbEntity
  8
0
100
AcDbCircle
 10
215.60939228041
 20
-34.67149878894168
 30
0.0
 40
0.25
100
AcDbArc
 50
45.0000000002
 51
81.81433641099999
  0
ARC
  5
88
330
2
100
AcDbEntity
  8
0
100
AcDbCircle
 10
215.7268550804101
 20
-34.43540819694169
 30
0.0
 40
0.25
100
AcDbArc
 50
45.0
 51
82.3927328231
  0
LINE
  5
89
330
2
100
AcDbEntity
  8
0
100
AcDbLine
 10
214.6941237380101
 20
-34.05216013934168
 30
0.0
 11
214.8697732292101
 21
-33.87651064814169
 31
0.0
  0
LWPOLYLINE
  5
8A
330
2
100
AcDbEntity
  8
0
100
AcDbPolyline
 90
        7
 70
     0
 43
0.0
 10
214.8146060516101
 20
-33.96284288814168
 10
214.8132464164101
 20
-33.96317361454168
 10
214.8123988132101
 20
-33.96352516174168
 10
214.8120776564101
 20
-33.96389960814168
 10
214.8122989412101
 20
-33.96429914574167
 10
214.8130800196101
 20
-33.96472626734168
 10
214.8144400308101
 20
-33.96518374574167
  0
LINE
  5
8B
330
2
100
AcDbEntity
  8
0
100
AcDbLine
 10
215.2971210404101
 20
-33.95672603694169
 30
0.0
 11
215.2755521828101
 21
-33.95666452014168
 31
0.0
  0
LINE
  5
8C
330
2
100
AcDbEntity
  8
0
100
AcDbLine
 10
215.2544790404101
 20
-33.95662774574168
 30
0.0
 11
215.2971261684101
 21
-33.95672157294169
 31
0.0
  0
LINE
  5
8D
330
2
100
AcDbEntity
  8
0
100
AcDbLine
 10
215.9013331396101
 20
-33.95933781614168
 30
0.0
 11
215.7159670644101
 21
-33.95896489934168
 31
0.0
  0
LINE
  5
8E
330
2
100
AcDbEntity
  8
0
100
AcDbLine
 10
215.2544790404101
 20
-33.95662774574168
 30
0.0
 11
215.15665619401
 21
-33.95674174254168
 31
0.0
  0
LINE
  5
8F
330
2
100
AcDbEntity
  8
0
100
AcDbLine
 10
214.9734096388101
 20
-33.95810558254168
 30
0.0
 11
215.17530772521
 21
-33.95667438094168
 31
0.0
  0
LINE
  5
90
330
2
100
AcDbEntity
  8
0
100
AcDbLine
 10
214.9859143172101
 20
-33.95797834574168
 30
0.0
 11
214.9181344244101
 21
-33.95890146414169
 31
0.0
  0
LINE
  5
91
330
2
100
AcDbEntity
  8
0
100
AcDbLine
 10
214.9181344244101
 20
-33.95890146414169
 30
0.0
 11
214.8824595028101
 21
-33.95958230894168
 31
0.0
  0
LINE
  5
92
330
2
100
AcDbEntity
  8
0
100
AcDbLine
 10
214.8671198932101
 20
-33.95992527054168
 30
0.0
 11
214.8904973796101
 21
-33.95938522574168
 31
0.0
  0
LINE
  5
93
330
2
100
AcDbEntity
  8
0
100
AcDbLine
 10
214.8673882340101
 20
-33.95994766894169
 30
0.0
 11
214.8478114388101
 21
-33.96051424494168
 31
0.0
  0
LINE
  5
94
330
2
100
AcDbEntity
  8
0
100
AcDbLine
 10
214.8541376804101
 20
-33.96033445134168
 30
0.0
 11
214.8422474308101
 21
-33.96072522734168
 31
0.0
  0
LINE
  5
95
330
2
100
AcDbEntity
  8
0
100
AcDbLine
 10
214.8371221812101
 20
-33.96094485294169
 30
0.0
 11
214.8426309348101
 21
-33.96074976014169
 31
0.0
  0
LINE
  5
96
330
2
100
AcDbEntity
  8
0
100
AcDbLine
 10
214.83243958121
 20
-33.96117401134169
 30
0.0
 11
214.8375353812101
 21
-33.96097002414169
 31
0.0
  0
LINE
  5
97
330
2
100
AcDbEntity
  8
0
100
AcDbLine
 10
214.8282042148101
 20
-33.96141369294169
 30
0.0
 11
214.8328828516101
 21
-33.96119986574168
 31
0.0
  0
LINE
  5
98
330
2
100
AcDbEntity
  8
0
100
AcDbLine
 10
214.8244218100101
 20
-33.96166498094168
 30
0.0
 11
214.8286779188101
 21
-33.96144027694168
 31
0.0
  0
LINE
  5
99
330
2
100
AcDbEntity
  8
0
100
AcDbLine
 10
214.8210991716101
 20
-33.96192907214168
 30
0.0
 11
214.8249262884101
 21
-33.96169234734168
 31
0.0
  0
LINE
  5
9A
330
2
100
AcDbEntity
  8
0
100
AcDbLine
 10
214.8182442580101
 20
-33.96220727054169
 30
0.0
 11
214.8216347492101
 21
-33.96195727214168
 31
0.0
  0
LINE
  5
9B
330
2
100
AcDbEntity
  8
0
100
AcDbLine
 10
214.8158662132101
 20
-33.96250100974168
 30
0.0
 11
214.8188112372101
 21
-33.96223635694168
 31
0.0
  0
LINE
  5
9C
330
2
100
AcDbEntity
  8
0
100
AcDbLine
 10
214.8258011684101
 20
-33.96733464334168
 30
0.0
 11
214.8211524644101
 21
-33.96670500494169
 31
0.0
  0
LINE
  5
9D
330
2
100
AcDbEntity
  8
0
100
AcDbLine
 10
215.6332830980101
 20
-34.16965405294169
 30
0.0
 11
215.5624835396101
 21
-34.15878465614168
 31
0.0
  0
LINE
  5
9E
330
2
100
AcDbEntity
  8
0
100
AcDbLine
 10
214.7561821124101
 20
-33.95982664334168
 30
0.0
 11
214.7685951108101
 21
-33.96162395374168
 31
0.0
  0
LWPOLYLINE
  5
9F
330
2
100
AcDbEntity
  8
0
100
AcDbPolyline
 90
        3
 70
     0
 43
0.0
 10
215.6332830980101
 20
-34.16965405294168
 10
215.6653097876101
 20
-34.17438307374168
 10
215.6686313556101
 20
-34.17486499694168
  0
LWPOLYLINE
  5
A0
330
2
100
AcDbEntity
  8
0
100
AcDbPolyline
 90
        3
 70
     0
 43
0.0
 10
215.6858952164101
 20
-34.17735530574168
 10
215.6113587908101
 20
-34.16634855214168
 10
215.5740288900101
 20
-34.16059522094168
  0
LINE
  5
A1
330
2
100
AcDbEntity
  8
0
100
AcDbLine
 10
215.7038912516101
 20
-34.17991192654168
 30
0.0
 11
215.6332830980101
 21
-34.16965405294169
 31
0.0
  0
LINE
  5
A2
330
2
100
AcDbEntity
  8
0
100
AcDbLine
 10
214.8300712484101
 20
-33.96795199374168
 30
0.0
 11
214.8248166068101
 21
-33.96728647534168
 31
0.0
  0
LINE
  5
A3
330
2
100
AcDbEntity
  8
0
100
AcDbLine
 10
214.7670595044101
 20
-33.96149000014168
 30
0.0
 11
214.7786406628101
 21
-33.96303161134168
 31
0.0
  0
LINE
  5
A4
330
2
100
AcDbEntity
  8
0
100
AcDbLine
 10
215.7390222788101
 20
-34.18478370414169
 30
0.0
 11
215.7599518708101
 21
-34.18760952494168
 31
0.0
  0
LINE
  5
A5
330
2
100
AcDbEntity
  8
0
100
AcDbLine
 10
214.7935361844101
 20
-33.96502996814168
 30
0.0
 11
214.8471580660101
 21
-33.97231512494168
 31
0.0
  0
LWPOLYLINE
  5
A6
330
2
100
AcDbEntity
  8
0
100
AcDbPolyline
 90
        3
 70
     0
 43
0.0
 10
215.7599506068101
 20
-34.18760850734168
 10
215.7230067812101
 20
-34.18258262574168
 10
215.6858952164101
 20
-34.17735530574168
  0
LINE
  5
A7
330
2
100
AcDbEntity
  8
0
100
AcDbLine
 10
214.8348947764101
 20
-33.96860368174168
 30
0.0
 11
214.8290406676101
 21
-33.96790064014168
 31
0.0
  0
LINE
  5
A8
330
2
100
AcDbEntity
  8
0
100
AcDbLine
 10
214.7771272708101
 20
-33.96291014414169
 30
0.0
 11
214.7883540164101
 21
-33.96430407214168
 31
0.0
  0
LINE
  5
A9
330
2
100
AcDbEntity
  8
0
100
AcDbLine
 10
215.7819290724101
 20
-34.19030930094168
 30
0.0
 11
215.7599494196101
 21
-34.18760920014168
 31
0.0
  0
LINE
  5
AA
330
2
100
AcDbEntity
  8
0
100
AcDbLine
 10
214.7868328964101
 20
-33.96418900334168
 30
0.0
 11
214.7948894660101
 21
-33.96512014414168
 31
0.0
  0
LWPOLYLINE
  5
AB
330
2
100
AcDbEntity
  8
0
100
AcDbPolyline
 90
        5
 70
     0
 43
0.0
 10
215.8432370676101
 20
-34.19823679534168
 10
215.8087356964101
 20
-34.19395727374168
 10
215.7739839300101
 20
-34.18946919854167
 10
215.7390222788101
 20
-34.18478370414168
 10
215.7038912516101
 20
-34.17991192654167
  0
LINE
  5
AC
330
2
100
AcDbEntity
  8
0
100
AcDbLine
 10
215.3647447732101
 20
-33.95708294734169
 30
0.0
 11
215.3417247060101
 21
-33.95693275694169
 31
0.0
  0
LINE
  5
AD
330
2
100
AcDbEntity
  8
0
100
AcDbLine
 10
215.2971210404101
 20
-33.95672603694169
 30
0.0
 11
215.5381293364101
 21
-33.95818667214168
 31
0.0
  0
LINE
  5
AE
330
2
100
AcDbEntity
  8
0
100
AcDbLine
 10
215.7167027316101
 20
-33.95896719694168
 30
0.0
 11
215.5376631748101
 21
-33.95818390254168
 31
0.0
  0
LINE
  5
AF
330
2
100
AcDbEntity
  8
0
100
AcDbLine
 10
215.2417548212101
 20
-34.09775820334168
 30
0.0
 11
215.2956784228101
 21
-34.11168941614168
 31
0.0
  0
LWPOLYLINE
  5
B0
330
2
100
AcDbEntity
  8
0
100
AcDbPolyline
 90
        9
 70
     0
 43
0.0
 10
214.8163980068101
 20
-33.96567416654168
 10
214.81361379081
 20
-33.96514559854168
 10
214.8122865300101
 20
-33.96468938894168
 10
214.8115383364101
 20
-33.96426355374168
 10
214.8113498084101
 20
-33.96386523534168
 10
214.8117035732101
 20
-33.96349196014168
 10
214.81258359401
 20
-33.96314152814167
 10
214.8139754276101
 20
-33.96281185934167
 10
214.8164648820101
 20
-33.96253104014167
  0
LINE
  5
B1
330
2
100
AcDbEntity
  8
0
100
AcDbLine
 10
214.6990007236101
 20
-33.94820130574168
 30
0.0
 11
214.7172388548101
 21
-33.95235594254168
 31
0.0
  0
LINE
  5
B2
330
2
100
AcDbEntity
  8
0
100
AcDbLine
 10
215.29335691721
 20
-34.11112889454168
 30
0.0
 11
215.33981180201
 21
-34.12111034734168
 31
0.0
  0
LINE
  5
B3
330
2
100
AcDbEntity
  8
0
100
AcDbLine
 10
214.7154800692101
 20
-33.95210278254168
 30
0.0
 11
214.7322855476101
 21
-33.95548437614168
 31
0.0
  0
LINE
  5
B4
330
2
100
AcDbEntity
  8
0
100
AcDbLine
 10
214.8189552324101
 20
-33.96619697774168
 30
0.0
 11
214.8155373620101
 21
-33.96563430734168
 31
0.0
  0
LWPOLYLINE
  5
B5
330
2
100
AcDbEntity
  8
0
100
AcDbPolyline
 90
       13
 70
     0
 43
0.0
 10
214.8931043620101
 20
-33.98014456334168
 10
214.9319477364101
 20
-33.98800199694167
 10
214.9614638484101
 20
-33.99493988334167
 10
214.9788823492101
 20
-33.99967461454168
 10
214.9868800132101
 20
-34.00220483214168
 10
214.9913564068101
 20
-34.00383109454168
 10
214.9969821988101
 20
-34.00612048814168
 10
215.00991504521
 20
-34.01170921134168
 10
215.0360110036101
 20
-34.02315837454167
 10
215.0772435220101
 20
-34.04063380654168
 10
215.1292429428101
 20
-34.06097836334168
 10
215.1855152164101
 20
-34.08064437454167
 10
215.2440316740101
 20
-34.09844793614168
  0
LWPOLYLINE
  5
B6
330
2
100
AcDbEntity
  8
0
100
AcDbPolyline
 90
       12
 70
     0
 43
0.0
 10
214.8911617748101
 20
-33.97998901934168
 10
214.9300338452101
 20
-33.98784774574168
 10
214.9597346180101
 20
-33.99482004494167
 10
214.9774447572101
 20
-33.99962664014168
 10
214.9858220836101
 20
-34.00227220174168
 10
214.9907376980101
 20
-34.00405377294168
 10
214.9968291732101
 20
-34.00652279534168
 10
215.0103053668101
 20
-34.01231991534167
 10
215.03694917641
 20
-34.02394675374168
 10
215.0786803524101
 20
-34.04151706574168
 10
215.1311017044101
 20
-34.06186733454168
 10
215.1876344756101
 20
-34.08145155054167
  0
LINE
  5
B7
330
2
100
AcDbEntity
  8
0
100
AcDbLine
 10
214.7305630244101
 20
-33.95526721454168
 30
0.0
 11
214.7457592852101
 21
-33.95797984334169
 31
0.0
  0
LINE
  5
B8
330
2
100
AcDbEntity
  8
0
100
AcDbLine
 10
215.3521729908101
 20
-34.12339853294168
 30
0.0
 11
215.33981180201
 21
-34.12111034734168
 31
0.0
  0
LINE
  5
B9
330
2
100
AcDbEntity
  8
0
100
AcDbLine
 10
214.8220934164101
 20
-33.96675019694169
 30
0.0
 11
214.8180558196101
 21
-33.96615460174168
 31
0.0
  0
LWPOLYLINE
  5
BA
330
2
100
AcDbEntity
  8
0
100
AcDbPolyline
 90
        3
 70
     0
 43
0.0
 10
215.3082211764101
 20
-34.36950334574167
 10
215.3339001444101
 20
-34.37405915214167
 10
215.3856578932101
 20
-34.38305295534168
  0
LINE
  5
BB
330
2
100
AcDbEntity
  8
0
100
AcDbLine
 10
215.3597173492101
 20
-34.37857708494169
 30
0.0
 11
215.3082211764101
 21
-34.36950334574168
 31
0.0
  0
LINE
  5
BC
330
2
100
AcDbEntity
  8
0
100
AcDbLine
 10
215.4216064676101
 20
-34.13556758894169
 30
0.0
 11
215.3521770884101
 21
-34.12339807214169
 31
0.0
  0
LINE
  5
BD
330
2
100
AcDbEntity
  8
0
100
AcDbLine
 10
215.4254058980101
 20
-34.13622005294168
 30
0.0
 11
215.3521770884101
 21
-34.12339807214169
 31
0.0
  0
LINE
  5
BE
330
2
100
AcDbEntity
  8
0
100
AcDbLine
 10
215.4280970964101
 20
-34.39023586254168
 30
0.0
 11
215.3597173492101
 21
-34.37857708494169
 31
0.0
  0
LINE
  5
BF
330
2
100
AcDbEntity
  8
0
100
AcDbLine
 10
214.8453566612101
 20
-33.97217936974168
 30
0.0
 11
214.8931043620101
 21
-33.98014456334168
 31
0.0
  0
LINE
  5
C0
330
2
100
AcDbEntity
  8
0
100
AcDbLine
 10
215.4918166388101
 20
-34.14739280974169
 30
0.0
 11
215.4216064676101
 21
-34.13556758894169
 31
0.0
  0
LINE
  5
C1
330
2
100
AcDbEntity
  8
0
100
AcDbLine
 10
215.4994831108101
 20
-34.14865390414169
 30
0.0
 11
215.4254058980101
 21
-34.13622005294168
 31
0.0
  0
LINE
  5
C2
330
2
100
AcDbEntity
  8
0
100
AcDbLine
 10
215.3856578932101
 20
-34.38305295534169
 30
0.0
 11
215.4565210516101
 21
-34.39494777934168
 31
0.0
  0
LINE
  5
C3
330
2
100
AcDbEntity
  8
0
100
AcDbLine
 10
215.4918166388101
 20
-34.14739280974169
 30
0.0
 11
215.4968151284101
 21
-34.14821726414168
 31
0.0
  0
LINE
  5
C4
330
2
100
AcDbEntity
  8
0
100
AcDbLine
 10
214.7441041988101
 20
-33.95779755054168
 30
0.0
 11
214.7577691988101
 21
-33.95998082094168
 31
0.0
  0
LINE
  5
C5
330
2
100
AcDbEntity
  8
0
100
AcDbLine
 10
215.5624835396101
 20
-34.15878465614168
 30
0.0
 11
215.4918166388101
 21
-34.14739280974169
 31
0.0
  0
LINE
  5
C6
330
2
100
AcDbEntity
  8
0
100
AcDbLine
 10
215.4565210516101
 20
-34.39494777934168
 30
0.0
 11
215.5279158116101
 21
-34.40642134254168
 31
0.0
  0
LINE
  5
C7
330
2
100
AcDbEntity
  8
0
100
AcDbLine
 10
215.5740288900101
 20
-34.16059522094168
 30
0.0
 11
215.4994831108101
 21
-34.14865390414169
 31
0.0
  0
LWPOLYLINE
  5
C8
330
2
100
AcDbEntity
  8
0
100
AcDbPolyline
 90
        3
 70
     0
 43
0.0
 10
215.5624835396101
 20
-34.15878465614167
 10
215.5777871508101
 20
-34.16118302254167
 10
215.5978869908101
 20
-34.16429022734168
  0
LINE
  5
C9
330
2
100
AcDbEntity
  8
0
100
AcDbLine
 10
215.5279158116101
 20
-34.40642134254168
 30
0.0
 11
215.5995761092101
 21
-34.41739260814169
 31
0.0
  0
LINE
  5
CA
330
2
100
AcDbEntity
  8
0
100
AcDbLine
 10
215.5995761092101
 20
-34.41739260814169
 30
0.0
 11
215.64498759721
 21
-34.42404581614168
 31
0.0
  0
LWPOLYLINE
  5
CB
330
2
100
AcDbEntity
  8
0
100
AcDbPolyline
 90
        6
 70
     0
 43
0.0
 10
215.6633396148101
 20
-34.42666545934168
 10
215.5995761092101
 20
-34.41739260814168
 10
215.5565629652101
 20
-34.41087466254168
 10
215.5136071028101
 20
-34.40416422094168
 10
215.4707659892101
 20
-34.39727878574167
 10
215.4280970964101
 20
-34.39023586254168
  0
LINE
  5
CC
330
2
100
AcDbEntity
  8
0
100
AcDbLine
 10
215.7268556436101
 20
-34.43540876174168
 30
0.0
 11
215.6633396148101
 21
-34.42666545934168
 31
0.0
  0
LINE
  5
CD
330
2
100
AcDbEntity
  8
0
100
AcDbLine
 10
216.0932370676101
 20
-34.80179018574169
 30
0.0
 11
215.7861689748101
 21
-34.49472209294168
 31
0.0
  0
LINE
  5
CE
330
2
100
AcDbEntity
  8
0
100
AcDbLine
 10
216.0932370676101
 20
-34.80179018574169
 30
0.0
 11
215.7268556436101
 21
-34.43540876174168
 31
0.0
  0
LINE
  5
CF
330
2
100
AcDbEntity
  8
0
100
AcDbLine
 10
216.0919337604101
 20
-33.95928790894169
 30
0.0
 11
215.9002677716101
 21
-33.95933688814168
 31
0.0
  0
LWPOLYLINE
  5
D0
330
2
100
AcDbEntity
  8
0
100
AcDbPolyline
 90
       18
 70
     0
 43
0.0
 10
217.15015095561
 20
-34.21823574734168
 10
217.0082827812101
 20
-34.22356073454167
 10
216.8772612996101
 20
-34.22765576814168
 10
216.7564013172101
 20
-34.23040451054168
 10
216.6447358276101
 20
-34.23184036174168
 10
216.5415270964101
 20
-34.23207929134167
 10
216.4457870084101
 20
-34.23125838414168
 10
216.3567736276101
 20
-34.22951209454168
 10
216.2737583380101
 20
-34.22696470734168
 10
216.1962995172101
 20
-34.22373707854168
 10
216.1240099604101
 20
-34.21994227214168
 10
216.0568063556101
 20
-34.21570162894168
 10
215.9947742372101
 20
-34.21114728334168
 10
215.9382391748101
 20
-34.20643427374168
 10
215.8877245492101
 20
-34.20174484174168
 10
215.8441196404101
 20
-34.19731090094168
 10
215.8084904196101
 20
-34.19340285454168
 10
215.7819290724101
 20
-34.19030930094168
  0
LINE
  5
D1
330
2
100
AcDbEntity
  8
0
100
AcDbLine
 10
216.2700137636101
 20
-34.62501348974169
 30
0.0
 11
215.9036317748101
 21
-34.25863150254169
 31
0.0
  0
LINE
  5
D2
330
2
100
AcDbEntity
  8
0
100
AcDbLine
 10
216.2700137636101
 20
-34.62501348974169
 30
0.0
 11
215.8432370676101
 21
-34.19823679534168
 31
0.0
  0
LINE
  5
D3
330
2
100
AcDbEntity
  8
0
100
AcDbLine
 10
210.9057370676101
 20
-32.57323679534168
 30
0.0
 11
211.5307370676101
 21
-32.57323679534168
 31
0.0
  0
LWPOLYLINE
  5
D4
330
2
100
AcDbEntity
  8
0
100
AcDbPolyline
 90
        9
 70
     0
 43
0.0
 10
211.9447061220101
 20
-33.24712643054168
 10
211.9614938180101
 20
-33.25296812654168
 10
211.9761383508101
 20
-33.26629490894168
 10
211.9887897780101
 20
-33.28293111374168
 10
211.9997186260101
 20
-33.30062956654168
 10
212.0097208100101
 20
-33.31925375694167
 10
212.0191991236101
 20
-33.33886148494168
 10
212.02841306761
 20
-33.35961525614168
 10
212.0375522516101
 20
-33.38174038734168
  0
LWPOLYLINE
  5
D5
330
2
100
AcDbEntity
  8
0
100
AcDbPolyline
 90
        9
 70
     0
 43
0.0
 10
212.0467608948101
 20
-33.40549121294167
 10
212.0354425396101
 20
-33.37650191534168
 10
212.0243468836101
 20
-33.35025822574167
 10
212.0133104004101
 20
-33.32646355214168
 10
212.0020781924101
 20
-33.30482241934168
 10
211.9902522052101
 20
-33.28512907694168
 10
211.9771681428101
 20
-33.26748209294168
 10
211.9620325124101
 20
-33.25333308494168
 10
211.94470612041
 20
-33.24712643054168
  0
LWPOLYLINE
  5
D6
330
2
100
AcDbEntity
  8
0
100
AcDbPolyline
 90
        3
 70
     0
 43
0.0
 10
212.0594501796101
 20
-33.43004635374168
 10
212.0523812580101
 20
-33.41798632814168
 10
212.0467608948101
 20
-33.40549121294167
  0
LINE
  5
D7
330
2
100
AcDbEntity
  8
0
100
AcDbLine
 10
212.3336960804101
 20
-33.74100096494168
 30
0.0
 11
212.2701470772101
 21
-33.65963996654169
 31
0.0
  0
LWPOLYLINE
  5
D8
330
2
100
AcDbEntity
  8
0
100
AcDbPolyline
 90
        3
 70
     0
 43
0.0
 10
212.05945286281
 20
-33.43005096334167
 10
212.0916303412101
 20
-33.47084840174167
 10
212.1297918996101
 20
-33.51322824014168
  0
LWPOLYLINE
  5
D9
330
2
100
AcDbEntity
  8
0
100
AcDbPolyline
 90
        3
 70
     0
 43
0.0
 10
212.1715954340101
 20
-33.55929141134168
 10
212.1010739044101
 20
-33.48148811694168
 10
212.0594501796101
 20
-33.43004635374168
  0
LINE
  5
DA
330
2
100
AcDbEntity
  8
0
100
AcDbLine
 10
212.2053867652101
 20
-33.59583988494168
 30
0.0
 11
212.1501191172101
 21
-33.53564133774169
 31
0.0
  0
LWPOLYLINE
  5
DB
330
2
100
AcDbEntity
  8
0
100
AcDbPolyline
 90
        3
 70
     0
 43
0.0
 10
212.1715954340101
 20
-33.55929141134168
 10
212.2174418052101
 20
-33.60848282734168
 10
212.2417748388101
 20
-33.63268584814167
  0
LINE
  5
DC
330
2
100
AcDbEntity
  8
0
100
AcDbLine
 10
212.2419233604101
 20
-33.63253419534168
 30
0.0
 11
212.2053867652101
 21
-33.59583988494168
 31
0.0
  0
LINE
  5
DD
330
2
100
AcDbEntity
  8
0
100
AcDbLine
 10
212.2701470772101
 20
-33.65963996654169
 30
0.0
 11
212.2419233604101
 21
-33.63253419534168
 31
0.0
  0
LINE
  5
DE
330
2
100
AcDbEntity
  8
0
100
AcDbLine
 10
212.2417748388101
 20
-33.63268584814168
 30
0.0
 11
212.2701472564101
 21
-33.65963847534168
 31
0.0
  0
LWPOLYLINE
  5
DF
330
2
100
AcDbEntity
  8
0
100
AcDbPolyline
 90
        3
 70
     0
 43
0.0
 10
210.9486953268101
 20
-33.74529600494168
 10
210.9164731524101
 20
-33.67507350894168
 10
210.9057370676101
 20
-33.60695327374168
  0
LINE
  5
E0
330
2
100
AcDbEntity
  8
0
100
AcDbLine
 10
210.9057370676101
 20
-33.60695327374168
 30
0.0
 11
211.5307370676101
 21
-33.60695327374168
 31
0.0
  0
LINE
  5
E1
330
2
100
AcDbEntity
  8
0
100
AcDbLine
 10
210.9057370676101
 20
-33.60695327374168
 30
0.0
 11
210.9057370676101
 21
-32.57323764654168
 31
0.0
  0
LINE
  5
E2
330
2
100
AcDbEntity
  8
0
100
AcDbLine
 10
217.0705252292101
 20
-32.40173647534168
 30
0.0
 11
216.8876173972101
 21
-32.41085010734169
 31
0.0
  0
LINE
  5
E3
330
2
100
AcDbEntity
  8
0
100
AcDbLine
 10
216.8876173972101
 20
-32.41085010734169
 30
0.0
 11
216.7002830452101
 21
-32.42068295214169
 31
0.0
  0
LINE
  5
E4
330
2
100
AcDbEntity
  8
0
100
AcDbLine
 10
216.7002830452101
 20
-32.42068295214169
 30
0.0
 11
216.5253306052101
 21
-32.43040774094168
 31
0.0
  0
LINE
  5
E5
330
2
100
AcDbEntity
  8
0
100
AcDbLine
 10
216.5253306052101
 20
-32.43040774094168
 30
0.0
 11
216.3606091364101
 21
-32.44010957614168
 31
0.0
  0
LINE
  5
E6
330
2
100
AcDbEntity
  8
0
100
AcDbLine
 10
216.2068056052101
 20
-32.44972131694168
 30
0.0
 11
216.0634769668101
 21
-32.45924692974169
 31
0.0
  0
LINE
  5
E7
330
2
100
AcDbEntity
  8
0
100
AcDbLine
 10
216.3606091364101
 20
-32.44010957614168
 30
0.0
 11
216.2068056052101
 21
-32.44972131694168
 31
0.0
  0
LINE
  5
E8
330
2
100
AcDbEntity
  8
0
100
AcDbLine
 10
215.92921062601
 20
-32.46876097934169
 30
0.0
 11
215.8036083140101
 21
-32.47827872654168
 31
0.0
  0
LINE
  5
E9
330
2
100
AcDbEntity
  8
0
100
AcDbLine
 10
215.8036083140101
 20
-32.47827872654168
 30
0.0
 11
215.6863351220101
 21
-32.48781821934168
 31
0.0
  0
LINE
  5
EA
330
2
100
AcDbEntity
  8
0
100
AcDbLine
 10
214.7063362836101
 20
-32.63631247214169
 30
0.0
 11
214.6199136292101
 21
-32.59152124174168
 31
0.0
  0
LINE
  5
EB
330
2
100
AcDbEntity
  8
0
100
AcDbLine
 10
214.7991958580101
 20
-32.67702108014168
 30
0.0
 11
214.7060381700101
 21
-32.63616980654168
 31
0.0
  0
LINE
  5
EC
330
2
100
AcDbEntity
  8
0
100
AcDbLine
 10
214.8991753380101
 20
-32.71302915694168
 30
0.0
 11
214.7989270004101
 21
-32.67691361934168
 31
0.0
  0
LINE
  5
ED
330
2
100
AcDbEntity
  8
0
100
AcDbLine
 10
214.4670471796101
 20
-32.49342847374169
 30
0.0
 11
214.3995796948101
 21
-32.44103972494169
 31
0.0
  0
LINE
  5
EE
330
2
100
AcDbEntity
  8
0
100
AcDbLine
 10
214.4637193428101
 20
-32.43856303054168
 30
0.0
 11
214.4037639844101
 21
-31.73996972174168
 31
0.0
  0
LINE
  5
EF
330
2
100
AcDbEntity
  8
0
100
AcDbLine
 10
214.4637193428101
 20
-32.43856303054168
 30
0.0
 11
214.4037639844101
 21
-31.73996972174168
 31
0.0
  0
LINE
  5
F0
330
2
100
AcDbEntity
  8
0
100
AcDbLine
 10
214.3999229668101
 20
-32.44132257774168
 30
0.0
 11
214.3387883988101
 21
-32.38802786414168
 31
0.0
  0
LINE
  5
F1
330
2
100
AcDbEntity
  8
0
100
AcDbLine
 10
214.5405079252101
 20
-32.54383399214168
 30
0.0
 11
214.4667023060101
 21
-32.49317625934168
 31
0.0
  0
LINE
  5
F2
330
2
100
AcDbEntity
  8
0
100
AcDbLine
 10
214.6202338692101
 20
-32.59170039374168
 30
0.0
 11
214.5401704836101
 21
-32.54361688814168
 31
0.0
  0
LINE
  5
F3
330
2
100
AcDbEntity
  8
0
100
AcDbLine
 10
214.1359613268101
 20
-32.40645463854169
 30
0.0
 11
214.1512894916101
 21
-32.50359970574168
 31
0.0
  0
LINE
  5
F4
330
2
100
AcDbEntity
  8
0
100
AcDbLine
 10
214.1210284852101
 20
-32.31929935854168
 30
0.0
 11
214.1359923540101
 21
-32.40664327214168
 31
0.0
  0
LINE
  5
F5
330
2
100
AcDbEntity
  8
0
100
AcDbLine
 10
214.1067820004101
 20
-32.24271498254168
 30
0.0
 11
214.1210634452101
 21
-32.31949507694168
 31
0.0
  0
LINE
  5
F6
330
2
100
AcDbEntity
  8
0
100
AcDbLine
 10
214.0935790900101
 20
-32.17731507854169
 30
0.0
 11
214.1068196068101
 21
-32.24290887694168
 31
0.0
  0
LINE
  5
F7
330
2
100
AcDbEntity
  8
0
100
AcDbLine
 10
214.08171413481
 20
-32.12310129774168
 30
0.0
 11
214.0936176468101
 21
-32.17749830894168
 31
0.0
  0
LINE
  5
F8
330
2
100
AcDbEntity
  8
0
100
AcDbLine
 10
214.2845646964101
 20
-32.33526681294168
 30
0.0
 11
214.23585492681
 21
-32.28259712814169
 31
0.0
  0
LINE
  5
F9
330
2
100
AcDbEntity
  8
0
100
AcDbLine
 10
214.2146276628101
 20
-32.46002208494168
 30
0.0
 11
214.1546611684101
 21
-31.76128034574169
 31
0.0
  0
LWPOLYLINE
  5
FA
330
2
100
AcDbEntity
  8
0
100
AcDbPolyline
 90
        8
 70
     0
 43
0.0
 10
214.0462981732101
 20
-31.98963218894167
 10
214.0457461412101
 20
-31.98816513454168
 10
214.0466666772101
 20
-31.99082427694168
 10
214.0498754484101
 20
-32.00073001934168
 10
214.0551818980101
 20
-32.01842073294168
 10
214.0623869780101
 20
-32.04439424494168
 10
214.0712884724101
 20
-32.07910712334168
 10
214.08171413481
 20
-32.12310129774167
  0
LWPOLYLINE
  5
FB
330
2
100
AcDbEntity
  8
0
100
AcDbPolyline
 90
        5
 70
     0
 43
0.0
 10
214.0690388452101
 20
-32.03984282254168
 10
214.0585057940101
 20
-32.01804842414168
 10
214.0514292020101
 20
-32.00219155214168
 10
214.0472773268101
 20
-31.99214445134168
 10
214.0462981732101
 20
-31.98963218894167
  0
LINE
  5
FC
330
2
100
AcDbEntity
  8
0
100
AcDbLine
 10
214.0836898964101
 20
-32.06774208974168
 30
0.0
 11
214.0689496900101
 21
-32.03966533614169
 31
0.0
  0
LINE
  5
FD
330
2
100
AcDbEntity
  8
0
100
AcDbLine
 10
214.1030385028101
 20
-32.10153052654169
 30
0.0
 11
214.0835653300101
 21
-32.06751434734168
 31
0.0
  0
LINE
  5
FE
330
2
100
AcDbEntity
  8
0
100
AcDbLine
 10
214.1275965412101
 20
-32.14072917134169
 30
0.0
 11
214.1028780868101
 21
-32.10126208494168
 31
0.0
  0
LINE
  5
FF
330
2
100
AcDbEntity
  8
0
100
AcDbLine
 10
214.1577842516101
 20
-32.18463551214169
 30
0.0
 11
214.1274009396101
 21
-32.14043052654168
 31
0.0
  0
LINE
  5
100
330
2
100
AcDbEntity
  8
0
100
AcDbLine
 10
214.1939046964101
 20
-32.23236542094169
 30
0.0
 11
214.1575537284101
 21
-32.18431533454168
 31
0.0
  0
LINE
  5
101
330
2
100
AcDbEntity
  8
0
100
AcDbLine
 10
214.23615035401
 20
-32.28293371214168
 30
0.0
 11
214.19363995561
 21
-32.23203189134168
 31
0.0
  0
LINE
  5
102
330
2
100
AcDbEntity
  8
0
100
AcDbLine
 10
214.3391224468101
 20
-32.38833593134168
 30
0.0
 11
214.2842463188101
 21
-32.33493984174169
 31
0.0
  0
LINE
  5
103
330
2
100
AcDbEntity
  8
0
100
AcDbLine
 10
215.2138215636101
 20
-32.76529091374168
 30
0.0
 11
215.3727023636101
 21
-32.78804352974168
 31
0.0
  0
LINE
  5
104
330
2
100
AcDbEntity
  8
0
100
AcDbLine
 10
214.5318483396101
 20
-33.22653103214168
 30
0.0
 11
214.5317526500101
 21
-33.22543535374169
 31
0.0
  0
LINE
  5
105
330
2
100
AcDbEntity
  8
0
100
AcDbLine
 10
214.22229691561
 20
-33.07932435214169
 30
0.0
 11
214.2575280740101
 21
-33.43458376334168
 31
0.0
  0
LINE
  5
106
330
2
100
AcDbEntity
  8
0
100
AcDbLine
 10
214.2574408852101
 20
-33.43370125454169
 30
0.0
 11
214.2600483892101
 21
-33.45610750414168
 31
0.0
  0
LINE
  5
107
330
2
100
AcDbEntity
  8
0
100
AcDbLine
 10
214.2599626052101
 20
-33.45524209614168
 30
0.0
 11
214.2671493268101
 21
-33.49751668174168
 31
0.0
  0
LINE
  5
108
330
2
100
AcDbEntity
  8
0
100
AcDbLine
 10
214.2670955764101
 20
-33.49683201454169
 30
0.0
 11
214.2769156260101
 21
-33.53749245454168
 31
0.0
  0
LWPOLYLINE
  5
109
330
2
100
AcDbEntity
  8
0
100
AcDbPolyline
 90
       42
 70
     0
 43
0.0
 10
215.6863351220101
 20
-32.48781821934167
 10
215.6307269796101
 20
-32.49260265294168
 10
215.5771766900101
 20
-32.49739341614167
 10
215.5256821268101
 20
-32.50219114894167
 10
215.4761509188101
 20
-32.50700527054168
 10
215.4284930964101
 20
-32.51184615694167
 10
215.3826399380101
 20
-32.51672336654167
 10
215.3385348836101
 20
-32.52164673774167
 10
215.2961364612101
 20
-32.52662589454168
 10
215.2554121156101
 20
-32.53167085774168
 10
215.2161750932101
 20
-32.53681415214168
 10
215.1781516452101
 20
-32.54210562574167
 10
215.1413195348101
 20
-32.54756531854168
 10
215.1058236996101
 20
-32.55319189134167
 10
215.0718143988101
 20
-32.55898285134168
 10
215.0394429188101
 20
-32.56493527534168
 10
215.0088586452101
 20
-32.57104601614168
 10
214.9801394212101
 20
-32.57732788334168
 10
214.9532952484101
 20
-32.58381446734168
 10
214.9284201300101
 20
-32.59052432814168
 10
214.9057172484101
 20
-32.59745221614168
 10
214.8854042516101
 20
-32.60458698094168
 10
214.8676835492101
 20
-32.61192066414167
 10
214.8527510916101
 20
-32.61944663054168
 10
214.8408143956101
 20
-32.62714381614168
 10
214.8320588132101
 20
-32.63498827534167
 10
214.8266355300101
 20
-32.64297302734168
 10
214.8247008036101
 20
-32.65107966894167
 10
214.8263936244101
 20
-32.65927535054167
 10
214.8318225860101
 20
-32.66753400494168
 10
214.8410701860101
 20
-32.67582852814168
 10
214.8541827876101
 20
-32.68412589934168
 10
214.8711540468101
 20
-32.69238299374168
 10
214.8919324148101
 20
-32.70055964654167
 10
214.9164712164101
 20
-32.70863364974168
 10
214.9447089172101
 20
-32.71658426254168
 10
214.9765160292101
 20
-32.72437985294168
 10
215.01170402761
 20
-32.73198825934167
 10
215.0505012692101
 20
-32.73946459054168
 10
215.0950680276101
 20
-32.74717343374168
 10
215.1490490308101
 20
-32.75570166734168
 10
215.2138215636101
 20
-32.76529091374168
  0
LWPOLYLINE
  5
10A
330
2
100
AcDbEntity
  8
0
100
AcDbPolyline
 90
        3
 70
     0
 43
0.0
 10
215.1216667620101
 20
-32.76689694254168
 10
215.00658406121
 20
-32.74337019854167
 10
214.8991753380101
 20
-32.71302915694167
  0
LWPOLYLINE
  5
10B
330
2
100
AcDbEntity
  8
0
100
AcDbPolyline
 90
        4
 70
     0
 43
0.0
 10
215.1581528740101
 20
-32.77249235374168
 10
215.1215688548101
 20
-32.76688073774168
 10
215.0064112788101
 20
-32.74332802094168
 10
214.8989469108101
 20
-32.71295563694168
  0
LINE
  5
10C
330
2
100
AcDbEntity
  8
0
100
AcDbLine
 10
214.1937949668101
 20
-32.21784470254169
 30
0.0
 11
214.2826724324101
 21
-33.24704565454168
 31
0.0
  0
LINE
  5
10D
330
2
100
AcDbEntity
  8
0
100
AcDbLine
 10
214.2826724324101
 20
-33.24704565454168
 30
0.0
 11
214.2146276628101
 21
-32.46002208494168
 31
0.0
  0
LWPOLYLINE
  5
10E
330
2
100
AcDbEntity
  8
0
100
AcDbPolyline
 90
        6
 70
     0
 43
0.0
 10
214.1512632580101
 20
-32.50342651694168
 10
214.16664524521
 20
-32.60927780494167
 10
214.1818403396101
 20
-32.72286882734167
 10
214.1966062468101
 20
-32.84290095374167
 10
214.2107237028101
 20
-32.96794011214167
 10
214.2222968324101
 20
-33.07932353294168
  0
LINE
  5
10F
330
2
100
AcDbEntity
  8
0
100
AcDbLine
 10
214.5317524116101
 20
-33.22543262254169
 30
0.0
 11
214.4637193428101
 21
-32.43856303054168
 31
0.0
  0
LINE
  5
110
330
2
100
AcDbEntity
  8
0
100
AcDbLine
 10
214.5317524116101
 20
-33.22543262254169
 30
0.0
 11
214.4637193428101
 21
-32.43856303054168
 31
0.0
  0
LINE
  5
111
330
2
100
AcDbEntity
  8
0
100
AcDbLine
 10
216.0634769668101
 20
-32.45924692974169
 30
0.0
 11
215.92921062601
 21
-32.46876097934169
 31
0.0
  0
LINE
  5
112
330
2
100
AcDbEntity
  8
0
100
AcDbLine
 10
220.1236494212101
 20
-33.92452445614169
 30
0.0
 11
220.7144356052101
 21
-33.91744202414168
 31
0.0
  0
LINE
  5
113
330
2
100
AcDbEntity
  8
0
100
AcDbLine
 10
219.6986363508101
 20
-34.19963501614168
 30
0.0
 11
220.6895778692101
 21
-34.20886343214168
 31
0.0
  0
LINE
  5
114
330
2
100
AcDbEntity
  8
0
100
AcDbLine
 10
220.1057134628101
 20
-34.20683186254168
 30
0.0
 11
220.3255279780101
 21
-34.20834854094168
 31
0.0
  0
ARC
  5
115
330
2
100
AcDbEntity
  8
0
100
AcDbCircle
 10
219.7976664164101
 20
-34.70091422734168
 30
0.0
 40
0.25
100
AcDbArc
 50
89.30513026040001
 51
134.9999999997999
  0
LINE
  5
116
330
2
100
AcDbEntity
  8
0
100
AcDbLine
 10
219.5526623204101
 20
-33.93069130734168
 30
0.0
 11
220.1244152996101
 21
-33.92451573134168
 31
0.0
  0
LINE
  5
117
330
2
100
AcDbEntity
  8
0
100
AcDbLine
 10
219.6881181092101
 20
-34.20300587374168
 30
0.0
 11
219.89419649321
 21
-34.20505267054169
 31
0.0
  0
LINE
  5
118
330
2
100
AcDbEntity
  8
0
100
AcDbLine
 10
219.8937379572101
 20
-34.20504846414169
 30
0.0
 11
220.1062881476101
 21
-34.20683626414168
 31
0.0
  0
LINE
  5
119
330
2
100
AcDbEntity
  8
0
100
AcDbLine
 10
219.6012768500101
 20
-34.19979516334168
 30
0.0
 11
219.5982808228101
 21
-34.19977233614168
 31
0.0
  0
LINE
  5
11A
330
2
100
AcDbEntity
  8
0
100
AcDbLine
 10
219.6933743012101
 20
-34.19962254894169
 30
0.0
 11
219.6986339476101
 21
-34.19963498574169
 31
0.0
  0
LINE
  5
11B
330
2
100
AcDbEntity
  8
0
100
AcDbLine
 10
219.6701908644101
 20
-34.19973244174169
 30
0.0
 11
219.5982808228101
 21
-34.19977233614168
 31
0.0
  0
LINE
  5
11C
330
2
100
AcDbEntity
  8
0
100
AcDbLine
 10
219.6743880244101
 20
-34.19975219854169
 30
0.0
 11
219.6701908644101
 21
-34.19973244174169
 31
0.0
  0
LINE
  5
11D
330
2
100
AcDbEntity
  8
0
100
AcDbLine
 10
219.6933742388101
 20
-34.19962254894169
 30
0.0
 11
219.6701908644101
 21
-34.19973244174169
 31
0.0
  0
LINE
  5
11E
330
2
100
AcDbEntity
  8
0
100
AcDbLine
 10
219.6986351492101
 20
-34.19963500174168
 30
0.0
 11
219.6933742388101
 21
-34.19962254894169
 31
0.0
  0
LINE
  5
11F
330
2
100
AcDbEntity
  8
0
100
AcDbLine
 10
219.4791864116101
 20
-34.19931640814168
 30
0.0
 11
219.3159788116101
 21
-34.19808189934169
 31
0.0
  0
LINE
  5
120
330
2
100
AcDbEntity
  8
0
100
AcDbLine
 10
219.48089243401
 20
-34.19933496174168
 30
0.0
 11
219.4791864116101
 21
-34.19931640814168
 31
0.0
  0
LINE
  5
121
330
2
100
AcDbEntity
  8
0
100
AcDbLine
 10
219.6208897220101
 20
-34.52413753134168
 30
0.0
 11
219.3432370676101
 21
-34.80179018574169
 31
0.0
  0
LINE
  5
122
330
2
100
AcDbEntity
  8
0
100
AcDbLine
 10
219.6954118308101
 20
-34.44961542254168
 30
0.0
 11
219.3432370676101
 21
-34.80179018574169
 31
0.0
  0
ARC
  5
123
330
2
100
AcDbEntity
  8
0
100
AcDbCircle
 10
219.6954129988101
 20
-34.44961423534168
 30
0.0
 40
0.2499999984
100
AcDbArc
 50
90.46746786099999
 51
134.9999997319
  0
ARC
  5
124
330
2
100
AcDbEntity
  8
0
100
AcDbCircle
 10
219.6954111236101
 20
-34.44961612974168
 30
0.0
 40
0.25
100
AcDbArc
 50
89.26094253770001
 51
135.0
  0
LINE
  5
125
330
2
100
AcDbEntity
  8
0
100
AcDbLine
 10
219.4877685412101
 20
-34.20071535694168
 30
0.0
 11
219.6884458932101
 21
-34.20300938094168
 31
0.0
  0
LINE
  5
126
330
2
100
AcDbEntity
  8
0
100
AcDbLine
 10
219.5982808228101
 20
-34.19977233614168
 30
0.0
 11
219.4791864116101
 21
-34.19931640814168
 31
0.0
  0
LINE
  5
127
330
2
100
AcDbEntity
  8
0
100
AcDbLine
 10
218.7182786884101
 20
-33.93871096494168
 30
0.0
 11
218.4441553700101
 21
-33.94121757294168
 31
0.0
  0
LINE
  5
128
330
2
100
AcDbEntity
  8
0
100
AcDbLine
 10
218.9551844084101
 20
-34.19431942254169
 30
0.0
 11
218.7441493380101
 21
-34.19219046894169
 31
0.0
  0
ARC
  5
129
330
2
100
AcDbEntity
  8
0
100
AcDbCircle
 10
218.9896836756101
 20
-34.44823679534168
 30
0.0
 40
0.25
100
AcDbArc
 50
270.0016742174
 51
314.9999999728
  0
ARC
  5
12A
330
2
100
AcDbEntity
  8
0
100
AcDbCircle
 10
218.9896836756101
 20
-34.44823679534168
 30
0.0
 40
0.25
100
AcDbArc
 50
270.0016742174
 51
314.9999999728
  0
LWPOLYLINE
  5
12B
330
2
100
AcDbEntity
  8
0
100
AcDbPolyline
 90
        5
 70
     0
 43
0.0
 10
219.1557370676101
 20
-35.35448679534168
 10
218.7776440884101
 20
-35.35179282094168
 10
218.4003388116101
 20
-35.34372169134167
 10
218.0246282932101
 20
-35.33030652974167
 10
217.6513224196101
 20
-35.31160304334167
  0
LINE
  5
12C
330
2
100
AcDbEntity
  8
0
100
AcDbLine
 10
217.2812254196101
 20
-35.28768878094168
 30
0.0
 11
217.6513209828101
 21
-35.31160296014168
 31
0.0
  0
LWPOLYLINE
  5
12D
330
2
100
AcDbEntity
  8
0
  6
HIDDEN
100
AcDbPolyline
 90
        5
 70
     0
 43
0.0
 10
219.1557370676101
 20
-35.35448679534168
 10
218.7466528612101
 20
-35.35179282094168
 10
218.3384209220101
 20
-35.34372169134167
 10
217.9319144596101
 20
-35.33030652974167
 10
217.5280097444101
 20
-35.31160304334167
  0
LINE
  5
12E
330
2
100
AcDbEntity
  8
0
100
AcDbLine
 10
219.1557370676101
 20
-35.76414648494168
 30
0.0
 11
219.1557370676101
 21
-35.35448679534168
 31
0.0
  0
LINE
  5
12F
330
2
100
AcDbEntity
  8
0
100
AcDbLine
 10
219.3159788116101
 20
-34.19808189934169
 30
0.0
 11
218.9551844084101
 21
-34.19431942254169
 31
0.0
  0
ARC
  5
130
330
2
100
AcDbEntity
  8
0
100
AcDbCircle
 10
218.9896836772101
 20
-34.44823679534168
 30
0.0
 40
0.5
100
AcDbArc
 50
269.9999999995
 51
315.0
  0
ARC
  5
131
330
2
100
AcDbEntity
  8
0
100
AcDbCircle
 10
218.9896836772101
 20
-34.44823679534168
 30
0.0
 40
0.5
100
AcDbArc
 50
269.9999999995
 51
315.0
  0
LINE
  5
132
330
2
100
AcDbEntity
  8
0
100
AcDbLine
 10
218.9816499364101
 20
-34.19460567534168
 30
0.0
 11
219.4879845652101
 21
-34.20071796494168
 31
0.0
  0
LINE
  5
133
330
2
100
AcDbEntity
  8
0
100
AcDbLine
 10
219.5186344276101
 20
-34.27283943534169
 30
0.0
 11
219.1664603732101
 21
-34.62501348974169
 31
0.0
  0
LINE
  5
134
330
2
100
AcDbEntity
  8
0
100
AcDbLine
 10
219.5932370676101
 20
-34.19823679534168
 30
0.0
 11
219.1664603732101
 21
-34.62501348974169
 31
0.0
  0
LINE
  5
135
330
2
100
AcDbEntity
  8
0
100
AcDbLine
 10
218.9944026244101
 20
-33.93614576174168
 30
0.0
 11
219.5534825428101
 21
-33.93068292654168
 31
0.0
  0
LINE
  5
136
330
2
100
AcDbEntity
  8
0
100
AcDbLine
 10
222.5814171988101
 20
-33.89089655374168
 30
0.0
 11
223.2284402964101
 21
-33.88035531054168
 31
0.0
  0
LINE
  5
137
330
2
100
AcDbEntity
  8
0
100
AcDbLine
 10
221.3213577684101
 20
-33.90947162094168
 30
0.0
 11
221.9451404900101
 21
-33.90060791854168
 31
0.0
  0
LINE
  5
138
330
2
100
AcDbEntity
  8
0
100
AcDbLine
 10
221.2070262148101
 20
-34.21133988814168
 30
0.0
 11
221.3975929572101
 21
-34.21140565934168
 31
0.0
  0
LINE
  5
139
330
2
100
AcDbEntity
  8
0
100
AcDbLine
 10
221.3973565588101
 20
-34.21140569454169
 30
0.0
 11
221.6221658884101
 21
-34.21116327214169
 31
0.0
  0
LINE
  5
13A
330
2
100
AcDbEntity
  8
0
100
AcDbLine
 10
221.9805051572101
 20
-34.45910049934168
 30
0.0
 11
222.2307622564101
 21
-34.20884339854168
 31
0.0
  0
LINE
  5
13B
330
2
100
AcDbEntity
  8
0
100
AcDbLine
 10
221.0027389556101
 20
-34.21105447214169
 30
0.0
 11
221.2073408372101
 21
-34.21134015374168
 31
0.0
  0
LINE
  5
13C
330
2
100
AcDbEntity
  8
0
100
AcDbLine
 10
220.3248844548101
 20
-34.20834458094168
 30
0.0
 11
220.5523248548101
 21
-34.20957388654168
 31
0.0
  0
LINE
  5
13D
330
2
100
AcDbEntity
  8
0
100
AcDbLine
 10
220.5516905108101
 20
-34.20957092494168
 30
0.0
 11
220.7824311972101
 21
-34.21048253294169
 31
0.0
  0
LINE
  5
13E
330
2
100
AcDbEntity
  8
0
100
AcDbLine
 10
220.7818947556101
 20
-34.21048079054168
 30
0.0
 11
221.0031507092101
 21
-34.21105527854168
 31
0.0
  0
LINE
  5
13F
330
2
100
AcDbEntity
  8
0
100
AcDbLine
 10
222.0342781012101
 20
-34.21026687854169
 30
0.0
 11
220.6895778692101
 21
-34.20886343214168
 31
0.0
  0
LINE
  5
140
330
2
100
AcDbEntity
  8
0
100
AcDbLine
 10
220.6897377508101
 20
-34.20886435374169
 30
0.0
 11
221.8767158468101
 21
-34.21074578094168
 31
0.0
  0
LINE
  5
141
330
2
100
AcDbEntity
  8
0
100
AcDbLine
 10
220.7137443732101
 20
-33.91745071374169
 30
0.0
 11
221.3219678516101
 21
-33.90946327694168
 31
0.0
  0
LINE
  5
142
330
2
100
AcDbEntity
  8
0
100
AcDbLine
 10
221.9446218308101
 20
-33.90061556174169
 30
0.0
 11
222.5818359076101
 21
-33.89088994414168
 31
0.0
  0
LWPOLYLINE
  5
143
330
2
100
AcDbEntity
  8
0
100
AcDbPolyline
 90
       10
 70
     0
 43
0.0
 10
219.7323303124101
 20
-32.31380749134167
 10
220.0715241652101
 20
-32.30799946414168
 10
220.43857255881
 20
-32.30251827214168
 10
220.8193653684101
 20
-32.29759794414167
 10
221.2094523236101
 20
-32.29326241454168
 10
221.6109905444101
 20
-32.28944371694167
 10
222.0187623620101
 20
-32.28614655054168
 10
222.42256906121
 20
-32.28338999214168
 10
222.8148483380101
 20
-32.28114714094167
 10
223.1859844548101
 20
-32.27938528974168
  0
LINE
  5
144
330
2
100
AcDbEntity
  8
0
100
AcDbLine
 10
219.7323339460101
 20
-32.31380677454168
 30
0.0
 11
219.5514373556101
 21
-32.31723472014168
 31
0.0
  0
LINE
  5
145
330
2
100
AcDbEntity
  8
0
100
AcDbLine
 10
218.9762221972101
 20
-32.32997321934169
 30
0.0
 11
218.7431305700101
 21
-32.33611573134168
 31
0.0
  0
LINE
  5
146
330
2
100
AcDbEntity
  8
0
100
AcDbLine
 10
218.7431305700101
 20
-32.33611573134168
 30
0.0
 11
218.4888620372101
 21
-32.34366895214168
 31
0.0
  0
LINE
  5
147
330
2
100
AcDbEntity
  8
0
100
AcDbLine
 10
218.4888620372101
 20
-32.34366895214168
 30
0.0
 11
218.2683570932101
 21
-32.35101443534169
 31
0.0
  0
LINE
  5
148
330
2
100
AcDbEntity
  8
0
100
AcDbLine
 10
218.2683570932101
 20
-32.35101443534169
 30
0.0
 11
218.1083079796101
 21
-32.35680848174169
 31
0.0
  0
LINE
  5
149
330
2
100
AcDbEntity
  8
0
100
AcDbLine
 10
218.1083079796101
 20
-32.35680848174169
 30
0.0
 11
217.9317366580101
 21
-32.36359824174168
 31
0.0
  0
LINE
  5
14A
330
2
100
AcDbEntity
  8
0
100
AcDbLine
 10
219.2410178116101
 20
-32.32372877294168
 30
0.0
 11
218.9762221972101
 21
-32.32997321934169
 31
0.0
  0
LINE
  5
14B
330
2
100
AcDbEntity
  8
0
100
AcDbLine
 10
217.9317366580101
 20
-32.36359824174168
 30
0.0
 11
217.6932786308101
 21
-32.37338309454168
 31
0.0
  0
LINE
  5
14C
330
2
100
AcDbEntity
  8
0
100
AcDbLine
 10
217.6932786308101
 20
-32.37338309454168
 30
0.0
 11
217.3740473940101
 21
-32.38745684494169
 31
0.0
  0
LINE
  5
14D
330
2
100
AcDbEntity
  8
0
100
AcDbLine
 10
219.5514373556101
 20
-32.31723472014168
 30
0.0
 11
219.2410178116101
 21
-32.32372877294168
 31
0.0
  0
LINE
  5
14E
330
2
100
AcDbEntity
  8
0
100
AcDbLine
 10
225.2182370676101
 20
-40.32323679534168
 30
0.0
 11
225.2182370676101
 21
-35.22377457294168
 31
0.0
  0
LINE
  5
14F
330
2
100
AcDbEntity
  8
0
100
AcDbLine
 10
231.2807370676101
 20
-40.32323679534168
 30
0.0
 11
231.2807370676101
 21
-35.76410878894168
 31
0.0
  0
LINE
  5
150
330
2
100
AcDbEntity
  8
0
100
AcDbLine
 10
225.2182370676101
 20
-40.32323679534168
 30
0.0
 11
225.2182370676101
 21
-36.03178139054168
 31
0.0
  0
LINE
  5
151
330
2
100
AcDbEntity
  8
0
100
AcDbLine
 10
229.4059612084101
 20
-37.74823679534168
 30
0.0
 11
232.2743295684101
 21
-37.74823679534168
 31
0.0
  0
LINE
  5
152
330
2
100
AcDbEntity
  8
0
100
AcDbLine
 10
228.9031347108101
 20
-39.63860360174168
 30
0.0
 11
229.0385715556101
 21
-38.09055339214168
 31
0.0
  0
ARC
  5
153
330
2
100
AcDbEntity
  8
0
100
AcDbCircle
 10
228.1559886868101
 20
-39.57323679534168
 30
0.0
 40
0.75
100
AcDbArc
 50
270.0
 51
355.0
  0
ARC
  5
154
330
2
100
AcDbEntity
  8
0
100
AcDbCircle
 10
229.4121445668101
 20
-38.12323679534168
 30
0.0
 40
0.375
100
AcDbArc
 50
90.0
 51
175.0
  0
LINE
  5
155
330
2
100
AcDbEntity
  8
0
100
AcDbLine
 10
232.7833394244101
 20
-39.63860360174168
 30
0.0
 11
232.6479025812101
 21
-38.09055339214168
 31
0.0
  0
ARC
  5
156
330
2
100
AcDbEntity
  8
0
100
AcDbCircle
 10
233.5304854484101
 20
-39.57323679534168
 30
0.0
 40
0.75
100
AcDbArc
 50
185.0
 51
270.0
  0
ARC
  5
157
330
2
100
AcDbEntity
  8
0
100
AcDbCircle
 10
232.2743295684101
 20
-38.12323679534168
 30
0.0
 40
0.375
100
AcDbArc
 50
5.0
 51
90.0
  0
LINE
  5
158
330
2
100
AcDbEntity
  8
0
100
AcDbLine
 10
229.2533081556101
 20
-33.77820963214169
 30
0.0
 11
229.9621057220101
 21
-33.76932946574168
 31
0.0
  0
LWPOLYLINE
  5
159
330
2
100
AcDbEntity
  8
0
100
AcDbPolyline
 90
       16
 70
     0
 43
0.0
 10
225.2240016420101
 20
-34.41679836174167
 10
225.4431846372101
 20
-34.41161158414168
 10
225.8815079028101
 20
-34.40046413454167
 10
226.5390184228101
 20
-34.38187070094168
 10
227.1967704260101
 20
-34.36113138094167
 10
227.8550013108101
 20
-34.33835969614168
 10
228.5139486260101
 20
-34.31366908814168
 10
229.1738500132101
 20
-34.28717297454168
 10
229.8349431812101
 20
-34.25898475054168
 10
230.4974659956101
 20
-34.22921777454168
 10
231.1616564036101
 20
-34.19798538414168
 10
231.8277524996101
 20
-34.16540086734168
 10
232.49599243881
 20
-34.13157749614168
 10
233.1666144868101
 20
-34.09662850254167
 10
234.0864229604101
 20
-34.04730397294168
 10
235.0117223412101
 20
-33.99638037614168
  0
LWPOLYLINE
  5
15A
330
2
100
AcDbEntity
  8
0
100
AcDbPolyline
 90
        6
 70
     0
 43
0.0
 10
234.9978407444101
 20
-33.74676604814168
 10
233.41227482121
 20
-33.83324651214167
 10
231.6590717380101
 20
-33.92345993934168
 10
229.7203152916101
 20
-34.01374876014168
 10
227.5791712164101
 20
-34.09798777294168
 10
225.2182370676101
 20
-34.16686483054167
  0
LWPOLYLINE
  5
15B
330
2
100
AcDbEntity
  8
0
100
AcDbPolyline
 90
       16
 70
     0
 43
0.0
 10
234.9978398340101
 20
-33.74676609934168
 10
234.0728458788101
 20
-33.79767289134167
 10
233.1534335556101
 20
-33.84697621134167
 10
232.4831600180101
 20
-33.88190704654167
 10
231.8153180052101
 20
-33.91571027854168
 10
231.14966936361
 20
-33.94827290734168
 10
230.4859759316101
 20
-33.97948193774168
 10
229.8239995524101
 20
-34.00922436974168
 10
229.1635020676101
 20
-34.03738720654168
 10
228.5042453188101
 20
-34.06385744974168
 10
227.84599114601
 20
-34.08852210094168
 10
227.1885013940101
 20
-34.11126816334167
 10
226.5315379028101
 20
-34.13198263694168
 10
225.8748625108101
 20
-34.15055246894167
 10
225.4371213652101
 20
-34.16168511854167
 10
225.2182370676101
 20
-34.16686483054167
  0
LWPOLYLINE
  5
15C
330
2
100
AcDbEntity
  8
0
100
AcDbPolyline
 90
       16
 70
     0
 43
0.0
 10
234.9978398340101
 20
-33.74676609934168
 10
234.0728458788101
 20
-33.79767289134167
 10
233.1534335556101
 20
-33.84697621134167
 10
232.4831600180101
 20
-33.88190704654167
 10
231.8153180052101
 20
-33.91571027854168
 10
231.14966936361
 20
-33.94827290734168
 10
230.4859759316101
 20
-33.97948193774168
 10
229.8239995524101
 20
-34.00922436974168
 10
229.1635020676101
 20
-34.03738720654168
 10
228.5042453188101
 20
-34.06385744974168
 10
227.84599114601
 20
-34.08852210094168
 10
227.1885013940101
 20
-34.11126816334167
 10
226.5315379028101
 20
-34.13198263694168
 10
225.8748625108101
 20
-34.15055246894167
 10
225.4371213652101
 20
-34.16168511854167
 10
225.2182370676101
 20
-34.16686483054167
  0
LWPOLYLINE
  5
15D
330
2
100
AcDbEntity
  8
0
100
AcDbPolyline
 90
       16
 70
     0
 43
0.0
 10
235.0117223412101
 20
-33.99638037614168
 10
234.0864229604101
 20
-34.04730397294168
 10
233.1666144868101
 20
-34.09662850254167
 10
232.49599243881
 20
-34.13157749614168
 10
231.8277524996101
 20
-34.16540086734168
 10
231.1616564036101
 20
-34.19798538414168
 10
230.4974659956101
 20
-34.22921777454168
 10
229.8349431812101
 20
-34.25898475054168
 10
229.1738500132101
 20
-34.28717297454168
 10
228.5139486260101
 20
-34.31366908814168
 10
227.8550013108101
 20
-34.33835969614168
 10
227.1967704260101
 20
-34.36113138094167
 10
226.5390184228101
 20
-34.38187070094168
 10
225.8815079028101
 20
-34.40046413454167
 10
225.4431846372101
 20
-34.41161158414168
 10
225.2240016420101
 20
-34.41679836174167
  0
LWPOLYLINE
  5
15E
330
2
100
AcDbEntity
  8
0
100
AcDbPolyline
 90
        9
 70
     0
 43
0.0
 10
230.3649499716101
 20
-32.30799946414168
 10
229.9979015780101
 20
-32.30251827214168
 10
229.61710876681
 20
-32.29759794414167
 10
229.2270218132101
 20
-32.29326241454168
 10
228.8254835908101
 20
-32.28944371694167
 10
228.4177117732101
 20
-32.28614655054168
 10
228.0139050740101
 20
-32.28338999214168
 10
227.6216257988101
 20
-32.28114714094167
 10
227.2504896820101
 20
-32.27938528974168
  0
LINE
  5
15F
330
2
100
AcDbEntity
  8
0
100
AcDbLine
 10
227.9413472884101
 20
-33.79644240014168
 30
0.0
 11
228.6959942612101
 21
-33.78564861934168
 31
0.0
  0
LINE
  5
160
330
2
100
AcDbEntity
  8
0
100
AcDbLine
 10
226.2537972484101
 20
-33.82404179054168
 30
0.0
 11
226.7152772260101
 21
-33.81598358094168
 31
0.0
  0
LINE
  5
161
330
2
100
AcDbEntity
  8
0
100
AcDbLine
 10
226.5946824340101
 20
-33.81805184494168
 30
0.0
 11
227.0499396612101
 21
-33.81038488974168
 31
0.0
  0
LINE
  5
162
330
2
100
AcDbEntity
  8
0
100
AcDbLine
 10
225.9118025556101
 20
-33.83026156334168
 30
0.0
 11
226.3782280052101
 21
-33.82183092814168
 31
0.0
  0
LWPOLYLINE
  5
163
330
2
100
AcDbEntity
  8
0
100
AcDbPolyline
 90
        3
 70
     0
 43
0.0
 10
225.2182370676101
 20
-33.84374165614168
 10
224.8829939684101
 20
-33.85036382894168
 10
224.5486382612101
 20
-33.85678458894167
  0
LINE
  5
164
330
2
100
AcDbEntity
  8
0
100
AcDbLine
 10
225.2284459444101
 20
-33.84353706734168
 30
0.0
 11
225.7370884084101
 21
-33.83353039534169
 31
0.0
  0
LWPOLYLINE
  5
165
330
2
100
AcDbEntity
  8
0
100
AcDbPolyline
 90
        3
 70
     0
 43
0.0
 10
223.8841044084101
 20
-33.86900342734168
 10
224.2154504948101
 20
-33.86300117134168
 10
224.54853596521
 20
-33.85678652654168
  0
LINE
  5
166
330
2
100
AcDbEntity
  8
0
100
AcDbLine
 10
225.2182370676101
 20
-36.03178139054168
 30
0.0
 11
225.2182370676101
 21
-35.35448679534168
 31
0.0
  0
LINE
  5
167
330
2
100
AcDbEntity
  8
0
100
AcDbLine
 10
225.5708035716101
 20
-33.83672019854168
 30
0.0
 11
226.0445644132101
 21
-33.82782203214169
 31
0.0
  0
LINE
  5
168
330
2
100
AcDbEntity
  8
0
100
AcDbLine
 10
227.6071994580101
 20
-33.80150948974168
 30
0.0
 11
228.0435904708101
 21
-33.79492840334168
 31
0.0
  0
LINE
  5
169
330
2
100
AcDbEntity
  8
0
100
AcDbLine
 10
226.9340611220101
 20
-33.81230010574168
 30
0.0
 11
227.3827444564101
 21
-33.80501885134168
 31
0.0
  0
LINE
  5
16A
330
2
100
AcDbEntity
  8
0
100
AcDbLine
 10
227.2714815428101
 20
-33.80679089934168
 30
0.0
 11
227.71401663401
 21
-33.79986953934168
 31
0.0
  0
LWPOLYLINE
  5
16B
330
2
100
AcDbEntity
  8
0
100
AcDbPolyline
 90
        5
 70
     0
 43
0.0
 10
227.2504876852101
 20
-32.27938508814168
 10
226.8992408436101
 20
-32.27801693134168
 10
226.5693592276101
 20
-32.27698508494167
 10
226.2607349892101
 20
-32.27622900654167
 10
225.7073919732101
 20
-32.27536495694168
  0
LINE
  5
16C
330
2
100
AcDbEntity
  8
0
100
AcDbLine
 10
224.7290821620101
 20
-32.27536495694169
 30
0.0
 11
225.2182370676101
 21
-32.27511905454168
 31
0.0
  0
LINE
  5
16D
330
2
100
AcDbEntity
  8
0
100
AcDbLine
 10
225.7073919732101
 20
-32.27536495694169
 30
0.0
 11
225.2182370676101
 21
-32.27511905454168
 31
0.0
  0
LINE
  5
16E
330
2
100
AcDbEntity
  8
0
100
AcDbLine
 10
224.1757391460101
 20
-32.27622900654168
 30
0.0
 11
224.7290821620101
 21
-32.27536495694169
 31
0.0
  0
LINE
  5
16F
330
2
100
AcDbEntity
  8
0
100
AcDbLine
 10
228.6031790324101
 20
-33.78692994094169
 30
0.0
 11
229.3364916756101
 21
-33.77713520334168
 31
0.0
  0
ARC
  5
170
330
2
100
AcDbEntity
  8
0
100
AcDbCircle
 10
235.37590796361
 20
-33.17954365294168
 30
0.0
 40
0.5308010832
100
AcDbArc
 50
273.0923091767999
 51
355.0402932326
  0
ARC
  5
171
330
2
100
AcDbEntity
  8
0
100
AcDbCircle
 10
234.9423071956101
 20
-32.74830922734168
 30
0.0
 40
1.000000009599999
100
AcDbArc
 50
273.1834253660999
 51
355.0582150427999
  0
ARC
  5
172
330
2
100
AcDbEntity
  8
0
100
AcDbCircle
 10
234.9423071956101
 20
-32.74830922734168
 30
0.0
 40
1.000000009599999
100
AcDbArc
 50
273.1834253660999
 51
355.0582150427999
  0
LINE
  5
173
330
2
100
AcDbEntity
  8
0
100
AcDbLine
 10
231.2807370676101
 20
-35.35448679534168
 30
0.0
 11
231.6898212740101
 21
-35.35179282094169
 31
0.0
  0
LINE
  5
174
330
2
100
AcDbEntity
  8
0
100
AcDbLine
 10
231.2807370676101
 20
-35.35448679534168
 30
0.0
 11
231.6588300468101
 21
-35.35179282094169
 31
0.0
  0
LINE
  5
175
330
2
100
AcDbEntity
  8
0
100
AcDbLine
 10
229.8761808532101
 20
-34.25674658254168
 30
0.0
 11
230.1381165940101
 21
-33.99481084174169
 31
0.0
  0
LINE
  5
176
330
2
100
AcDbEntity
  8
0
100
AcDbLine
 10
231.2807370676101
 20
-35.76410878894168
 30
0.0
 11
231.2807370676101
 21
-35.35448663534168
 31
0.0
  0
LINE
  5
177
330
2
100
AcDbEntity
  8
0
100
AcDbLine
 10
232.9955731236101
 20
-32.38443344494168
 30
0.0
 11
232.6719309156101
 21
-32.37038615534168
 31
0.0
  0
LINE
  5
178
330
2
100
AcDbEntity
  8
0
100
AcDbLine
 10
231.9608016580101
 20
-33.74693156174169
 30
0.0
 11
233.5550055716101
 21
-33.73029696174168
 31
0.0
  0
LINE
  5
179
330
2
100
AcDbEntity
  8
0
100
AcDbLine
 10
232.0926463316101
 20
-32.34841626094169
 30
0.0
 11
231.9477002372101
 21
-32.34367264494168
 31
0.0
  0
LINE
  5
17A
330
2
100
AcDbEntity
  8
0
100
AcDbLine
 10
231.9477002372101
 20
-32.34367264494168
 30
0.0
 11
231.7497423396101
 21
-32.33770963694169
 31
0.0
  0
LINE
  5
17B
330
2
100
AcDbEntity
  8
0
100
AcDbLine
 10
231.7497423396101
 20
-32.33770963694169
 30
0.0
 11
231.46027418281
 21
-32.32997462254168
 31
0.0
  0
LINE
  5
17C
330
2
100
AcDbEntity
  8
0
100
AcDbLine
 10
231.46027418281
 20
-32.32997462254168
 30
0.0
 11
231.1229544532101
 21
-32.32213832654168
 31
0.0
  0
LINE
  5
17D
330
2
100
AcDbEntity
  8
0
100
AcDbLine
 10
232.4144463316101
 20
-32.36007888814168
 30
0.0
 11
232.2465897492101
 21
-32.35381008974168
 31
0.0
  0
LINE
  5
17E
330
2
100
AcDbEntity
  8
0
100
AcDbLine
 10
232.2465897492101
 20
-32.35381008974168
 30
0.0
 11
232.0926463316101
 21
-32.34841626094169
 31
0.0
  0
LINE
  5
17F
330
2
100
AcDbEntity
  8
0
100
AcDbLine
 10
230.7970848356101
 20
-32.31553810574169
 30
0.0
 11
230.3649499716101
 21
-32.30799946414169
 31
0.0
  0
LINE
  5
180
330
2
100
AcDbEntity
  8
0
100
AcDbLine
 10
231.1229544532101
 20
-32.32213832654168
 30
0.0
 11
230.7970848356101
 21
-32.31553810574169
 31
0.0
  0
LINE
  5
181
330
2
100
AcDbEntity
  8
0
100
AcDbLine
 10
232.6719309156101
 20
-32.37038615534168
 30
0.0
 11
232.4144463316101
 21
-32.36007888814168
 31
0.0
  0
LINE
  5
182
330
2
100
AcDbEntity
  8
0
100
AcDbLine
 10
231.1029236212101
 20
-33.75617010734169
 30
0.0
 11
232.0028373124101
 21
-33.74648832654168
 31
0.0
  0
LINE
  5
183
330
2
100
AcDbEntity
  8
0
100
AcDbLine
 10
229.8885821412101
 20
-33.77022278574168
 30
0.0
 11
230.5699063732101
 21
-33.76216620814168
 31
0.0
  0
LINE
  5
184
330
2
100
AcDbEntity
  8
0
100
AcDbLine
 10
230.5059351636101
 20
-33.76290261454168
 30
0.0
 11
231.1576563508101
 21
-33.75556722094168
 31
0.0
  0
LINE
  5
185
330
2
100
AcDbEntity
  8
0
100
AcDbLine
 10
236.0327101508101
 20
-31.73996972174168
 30
0.0
 11
235.9879012564101
 21
-32.26255108494168
 31
0.0
  0
LINE
  5
186
330
2
100
AcDbEntity
  8
0
100
AcDbLine
 10
236.0327101508101
 20
-31.73996972174168
 30
0.0
 11
235.9879012564101
 21
-32.26255108494168
 31
0.0
  0
LINE
  5
187
330
2
100
AcDbEntity
  8
0
100
AcDbLine
 10
235.9879012564101
 20
-32.26255108494168
 30
0.0
 11
235.9385899668101
 21
-32.83445273774168
 31
0.0
  0
LINE
  5
188
330
2
100
AcDbEntity
  8
0
100
AcDbLine
 10
235.9879012564101
 20
-32.26255108494168
 30
0.0
 11
235.9385899668101
 21
-32.83445273774168
 31
0.0
  0
LINE
  5
189
330
2
100
AcDbEntity
  8
0
100
AcDbLine
 10
234.5711209364101
 20
-32.47352022734169
 30
0.0
 11
234.4412164100101
 21
-32.46400523694168
 31
0.0
  0
LINE
  5
18A
330
2
100
AcDbEntity
  8
0
100
AcDbLine
 10
234.3025239444101
 20
-32.45449045774168
 30
0.0
 11
234.1541331556101
 21
-32.44493036334168
 31
0.0
  0
LINE
  5
18B
330
2
100
AcDbEntity
  8
0
100
AcDbLine
 10
234.4412164100101
 20
-32.46400523694168
 30
0.0
 11
234.3025239444101
 21
-32.45449045774168
 31
0.0
  0
LINE
  5
18C
330
2
100
AcDbEntity
  8
0
100
AcDbLine
 10
233.9948262932101
 20
-32.43526743374168
 30
0.0
 11
233.8248157396101
 21
-32.42554105614169
 31
0.0
  0
LINE
  5
18D
330
2
100
AcDbEntity
  8
0
100
AcDbLine
 10
233.8248157396101
 20
-32.42554105614169
 30
0.0
 11
233.6444020724101
 21
-32.41579711854169
 31
0.0
  0
LINE
  5
18E
330
2
100
AcDbEntity
  8
0
100
AcDbLine
 10
233.6444020724101
 20
-32.41579711854169
 30
0.0
 11
233.4542092116101
 21
-32.40608152174168
 31
0.0
  0
LINE
  5
18F
330
2
100
AcDbEntity
  8
0
100
AcDbLine
 10
233.4542092116101
 20
-32.40608152174168
 30
0.0
 11
233.2834508788101
 21
-32.39776132654168
 31
0.0
  0
LINE
  5
190
330
2
100
AcDbEntity
  8
0
100
AcDbLine
 10
233.2834508788101
 20
-32.39776132654168
 30
0.0
 11
232.9955731236101
 21
-32.38443344494168
 31
0.0
  0
LINE
  5
191
330
2
100
AcDbEntity
  8
0
100
AcDbLine
 10
234.1541331556101
 20
-32.44493036334168
 30
0.0
 11
233.9948262932101
 21
-32.43526743374168
 31
0.0
  0
LINE
  5
192
330
2
100
AcDbEntity
  8
0
100
AcDbLine
 10
235.4272962132101
 20
-33.71329052974168
 30
0.0
 11
235.4854562564101
 21
-33.71131204654168
 31
0.0
  0
LWPOLYLINE
  5
193
330
2
100
AcDbEntity
  8
0
100
AcDbPolyline
 90
        9
 70
     0
 43
0.0
 10
235.0648588068101
 20
-33.74079405614168
 10
235.12600114921
 20
-33.73323306894167
 10
235.1553961620101
 20
-33.72979756654167
 10
235.18450198281
 20
-33.72675448654168
 10
235.2209107620101
 20
-33.72370111534167
 10
235.2711405652101
 20
-33.72042409774167
 10
235.3363793508101
 20
-33.71709044174168
 10
235.4153096404101
 20
-33.71380132334167
 10
235.5062967860101
 20
-33.71069850094168
  0
LINE
  5
194
330
2
100
AcDbEntity
  8
0
100
AcDbLine
 10
235.4272962132101
 20
-33.71329052974168
 30
0.0
 11
235.3710891028101
 21
-33.71544391534168
 31
0.0
  0
LINE
  5
195
330
2
100
AcDbEntity
  8
0
100
AcDbLine
 10
235.3716182388101
 20
-33.71544393134168
 30
0.0
 11
235.3213890164101
 21
-33.71761559374168
 31
0.0
  0
LINE
  5
196
330
2
100
AcDbEntity
  8
0
100
AcDbLine
 10
235.3220930196101
 20
-33.71760916974168
 30
0.0
 11
235.2798494564101
 21
-33.71966085294168
 31
0.0
  0
LINE
  5
197
330
2
100
AcDbEntity
  8
0
100
AcDbLine
 10
235.2805274884101
 20
-33.71965677934168
 30
0.0
 11
235.2446638820101
 21
-33.72162100334168
 31
0.0
  0
LINE
  5
198
330
2
100
AcDbEntity
  8
0
100
AcDbLine
 10
235.2453179396101
 20
-33.72161993614168
 30
0.0
 11
235.2128370596101
 21
-33.72364126894168
 31
0.0
  0
LINE
  5
199
330
2
100
AcDbEntity
  8
0
100
AcDbLine
 10
235.2135489252101
 20
-33.72363815214169
 30
0.0
 11
235.1830247700101
 21
-33.72580255374169
 31
0.0
  0
LWPOLYLINE
  5
19A
330
2
100
AcDbEntity
  8
0
100
AcDbPolyline
 90
        3
 70
     0
 43
0.0
 10
235.0055456276101
 20
-33.74630768494167
 10
235.0266913508101
 20
-33.74474257934168
 10
235.04274832041
 20
-33.74325229454167
  0
LINE
  5
19B
330
2
100
AcDbEntity
  8
0
100
AcDbLine
 10
235.1552439044101
 20
-33.72810804014168
 30
0.0
 11
235.1838044068101
 21
-33.72579533774168
 31
0.0
  0
LINE
  5
19C
330
2
100
AcDbEntity
  8
0
100
AcDbLine
 10
235.1283457556101
 20
-33.73066740974168
 30
0.0
 11
235.1560391492101
 21
-33.72809926574168
 31
0.0
  0
LINE
  5
19D
330
2
100
AcDbEntity
  8
0
100
AcDbLine
 10
235.1011259796101
 20
-33.73361685294169
 30
0.0
 11
235.1291787460101
 21
-33.73065302094168
 31
0.0
  0
LINE
  5
19E
330
2
100
AcDbEntity
  8
0
100
AcDbLine
 10
235.0499149940101
 20
-33.74250272334168
 30
0.0
 11
235.0648588068101
 21
-33.74079405614168
 31
0.0
  0
LINE
  5
19F
330
2
100
AcDbEntity
  8
0
100
AcDbLine
 10
235.0754815636101
 20
-33.73667468334168
 30
0.0
 11
235.1020418308101
 21
-33.73358761454168
 31
0.0
  0
LINE
  5
1A0
330
2
100
AcDbEntity
  8
0
100
AcDbLine
 10
234.9978407444101
 20
-33.74676604814168
 30
0.0
 11
234.99922247241
 21
-33.74660172654168
 31
0.0
  0
LINE
  5
1A1
330
2
100
AcDbEntity
  8
0
100
AcDbLine
 10
235.0544469956101
 20
-33.73937684654169
 30
0.0
 11
235.0763658628101
 21
-33.73663940494168
 31
0.0
  0
LWPOLYLINE
  5
1A2
330
2
100
AcDbEntity
  8
0
100
AcDbPolyline
 90
        3
 70
     0
 43
0.0
 10
234.9978407444101
 20
-33.74676604814168
 10
235.0035077444101
 20
-33.74606529934168
 10
235.0110016020101
 20
-33.74508944814167
  0
LINE
  5
1A3
330
2
100
AcDbEntity
  8
0
100
AcDbLine
 10
235.0754815636101
 20
-33.73667468334168
 30
0.0
 11
235.0357712308101
 21
-33.74173274094168
 31
0.0
  0
LINE
  5
1A4
330
2
100
AcDbEntity
  8
0
100
AcDbLine
 10
235.03642642121
 20
-33.74170395054168
 30
0.0
 11
235.0032356548101
 21
-33.74607938734168
 31
0.0
  0
LWPOLYLINE
  5
1A5
330
2
100
AcDbEntity
  8
0
100
AcDbPolyline
 90
        5
 70
     0
 43
0.0
 10
235.6302610420101
 20
-33.70720350574168
 10
235.6312970244101
 20
-33.70721674574168
 10
235.6317621140101
 20
-33.70723946254168
 10
235.6316409844101
 20
-33.70727213134168
 10
235.6309172500101
 20
-33.70731526414167
  0
LINE
  5
1A6
330
2
100
AcDbEntity
  8
0
100
AcDbLine
 10
235.62265227401
 20
-33.70721410414168
 30
0.0
 11
235.62866842761
 21
-33.70719930094169
 31
0.0
  0
LINE
  5
1A7
330
2
100
AcDbEntity
  8
0
100
AcDbLine
 10
235.5696945860101
 20
-33.70773650894168
 30
0.0
 11
235.62386489641
 21
-33.70721639534169
 31
0.0
  0
LINE
  5
1A8
330
2
100
AcDbEntity
  8
0
100
AcDbLine
 10
235.6070631540101
 20
-33.70798697134169
 30
0.0
 11
235.6086319972101
 21
-33.70794969134168
 31
0.0
  0
LINE
  5
1A9
330
2
100
AcDbEntity
  8
0
100
AcDbLine
 10
235.5062967860101
 20
-33.71069850094169
 30
0.0
 11
235.61521948521
 21
-33.70779149134168
 31
0.0
  0
LINE
  5
1AA
330
2
100
AcDbEntity
  8
0
100
AcDbLine
 10
235.6109073044101
 20
-33.70788804974168
 30
0.0
 11
235.6086319972101
 21
-33.70794969134168
 31
0.0
  0
LINE
  5
1AB
330
2
100
AcDbEntity
  8
0
100
AcDbLine
 10
235.6141753636101
 20
-33.70780909294168
 30
0.0
 11
235.6342809524101
 21
-33.70729751214168
 31
0.0
  0
LINE
  5
1AC
330
2
100
AcDbEntity
  8
0
100
AcDbLine
 10
235.5062967860101
 20
-33.71069850094169
 30
0.0
 11
235.4848317652101
 21
-33.71131810574169
 31
0.0
  0
LINE
  5
1AD
330
2
100
AcDbEntity
  8
0
100
AcDbLine
 10
235.6304959956101
 20
-33.70735765934169
 30
0.0
 11
235.6249565620101
 21
-33.70751293614169
 31
0.0
  0
LINE
  5
1AE
330
2
100
AcDbEntity
  8
0
100
AcDbLine
 10
235.6336063956101
 20
-33.70730349934168
 30
0.0
 11
235.6399747236101
 21
-33.70712000494168
 31
0.0
  0
LINE
  5
1AF
330
2
100
AcDbEntity
  8
0
100
AcDbLine
 10
235.6394821140101
 20
-33.70711759854168
 30
0.0
 11
235.6445004404101
 21
-33.70695502094168
 31
0.0
  0
LINE
  5
1B0
330
2
100
AcDbEntity
  8
0
100
AcDbLine
 10
235.6417174388101
 20
-33.70703769454169
 30
0.0
 11
235.6474957284101
 21
-33.70679994574168
 31
0.0
  0
LWPOLYLINE
  5
1B1
330
2
100
AcDbEntity
  8
0
100
AcDbPolyline
 90
        8
 70
     0
 43
0.0
 10
235.62957355241
 20
-33.70736940494168
 10
235.6318868404101
 20
-33.70730333454167
 10
235.6326766212101
 20
-33.70725971054167
 10
235.6328820276101
 20
-33.70722626414168
 10
235.6325187588101
 20
-33.70720250414168
 10
235.6316015268101
 20
-33.70718797294168
 10
235.63014406441
 20
-33.70718224654167
 10
235.6281590836101
 20
-33.70718493134168
  0
LINE
  5
1B2
330
2
100
AcDbEntity
  8
0
100
AcDbLine
 10
235.6474957284101
 20
-33.70679994574168
 30
0.0
 11
235.6513194116101
 21
-33.70661472494168
 31
0.0
  0
LINE
  5
1B3
330
2
100
AcDbEntity
  8
0
100
AcDbLine
 10
235.6509683124101
 20
-33.70666920654168
 30
0.0
 11
235.6559709460101
 21
-33.70635729614169
 31
0.0
  0
LINE
  5
1B4
330
2
100
AcDbEntity
  8
0
100
AcDbLine
 10
235.6552499172101
 20
-33.70644352334168
 30
0.0
 11
235.6619118756101
 21
-33.70597569294168
 31
0.0
  0
LINE
  5
1B5
330
2
100
AcDbEntity
  8
0
100
AcDbLine
 10
234.0268380004101
 20
-33.72526588814168
 30
0.0
 11
233.5356468340101
 21
-33.73050086894169
 31
0.0
  0
LINE
  5
1B6
330
2
100
AcDbEntity
  8
0
100
AcDbLine
 10
235.5740077316101
 20
-33.70768635694168
 30
0.0
 11
234.0140278468101
 21
-33.72540432654168
 31
0.0
  0
LWPOLYLINE
  5
1B7
330
2
100
AcDbEntity
  8
0
100
AcDbPolyline
 90
       45
 70
     0
 43
0.0
 10
235.06377184041
 20
-32.78804352974168
 10
235.2227834244101
 20
-32.76527141614168
 10
235.2875094676101
 20
-32.75568786414167
 10
235.3413759828101
 20
-32.74717712974168
 10
235.3858756964101
 20
-32.73948073294167
 10
235.4246727204101
 20
-32.73200608014168
 10
235.45988527401
 20
-32.72439399694167
 10
235.4917049796101
 20
-32.71659679534168
 10
235.5199507412101
 20
-32.70864537134168
 10
235.5444941156101
 20
-32.70057144654168
 10
235.5652774532101
 20
-32.69239468814168
 10
235.5822533652101
 20
-32.68413756174167
 10
235.5953718916101
 20
-32.67583913614168
 10
235.6046243492101
 20
-32.66754359534167
 10
235.6100569220101
 20
-32.65928460334168
 10
235.6117530436101
 20
-32.65108859214168
 10
235.6098213012101
 20
-32.64298141614168
 10
235.6044006980101
 20
-32.63499634254167
 10
235.5956478260101
 20
-32.62715190894168
 10
235.5837131396101
 20
-32.61945437774168
 10
235.5687824820101
 20
-32.61192799854168
 10
235.5510635812101
 20
-32.60459401454168
 10
235.5307518980101
 20
-32.59745886254167
 10
235.5080502852101
 20
-32.59053062254167
 10
235.4831760708101
 20
-32.58382040494167
 10
235.4563328052101
 20
-32.57733355054168
 10
235.4276138884101
 20
-32.57105130574167
 10
235.3970295764101
 20
-32.56494018414167
 10
235.3646583780101
 20
-32.55898750894167
 10
235.3306492308101
 20
-32.55319629774167
 10
235.2951534596101
 20
-32.54756948334168
 10
235.2583218276101
 20
-32.54210961294168
 10
235.2202983668101
 20
-32.53681787214168
 10
235.1810593940101
 20
-32.53167408974167
 10
235.1403336900101
 20
-32.52662879374168
 10
235.0979350036101
 20
-32.52164948654167
 10
235.0538296980101
 20
-32.51672598254168
 10
235.0079762852101
 20
-32.51184864814168
 10
234.9603181940101
 20
-32.50700764654168
 10
234.9107866308101
 20
-32.50219340654167
 10
234.8592918900101
 20
-32.49739558094168
 10
234.8057408372101
 20
-32.49260467534168
 10
234.7501317092101
 20
-32.48782009134168
 10
234.69251017001
 20
-32.48304577134168
 10
234.5711209364101
 20
-32.47352022734168
  0
LINE
  5
1B8
330
2
100
AcDbEntity
  8
0
100
AcDbLine
 10
237.8894095956101
 20
-35.79052189294168
 30
0.0
 11
237.7053683732101
 21
-37.72504741614168
 31
0.0
  0
LINE
  5
1B9
330
2
100
AcDbEntity
  8
0
100
AcDbLine
 10
239.5307370676101
 20
-40.32323679534168
 30
0.0
 11
239.5307370676101
 21
-34.06873133934169
 31
0.0
  0
LINE
  5
1BA
330
2
100
AcDbEntity
  8
0
100
AcDbLine
 10
238.9057370676101
 20
-40.32323679534168
 30
0.0
 11
238.9057370676101
 21
-32.57323764654168
 31
0.0
  0
LINE
  5
1BB
330
2
100
AcDbEntity
  8
0
100
AcDbLine
 10
237.7053683732101
 20
-37.72504741614168
 30
0.0
 11
237.5225524132101
 21
-39.63860360174168
 31
0.0
  0
LINE
  5
1BC
330
2
100
AcDbEntity
  8
0
100
AcDbLine
 10
237.4638411604101
 20
-39.84834297454169
 30
0.0
 11
237.4133167444101
 21
-39.95176353134168
 31
0.0
  0
LINE
  5
1BD
330
2
100
AcDbEntity
  8
0
100
AcDbLine
 10
237.5225524132101
 20
-39.63860360174168
 30
0.0
 11
237.4867089460101
 21
-39.80153393934168
 31
0.0
  0
LINE
  5
1BE
330
2
100
AcDbEntity
  8
0
100
AcDbLine
 10
237.0318487780101
 20
-40.25989249774169
 30
0.0
 11
236.8675558692101
 21
-40.30727125134169
 31
0.0
  0
LWPOLYLINE
  5
1BF
330
2
100
AcDbEntity
  8
0
100
AcDbPolyline
 90
        3
 70
     0
 43
0.0
 10
237.1783450868101
 20
-40.18488909774168
 10
237.0298189364101
 20
-40.26069354254167
 10
236.9191784884101
 20
-40.29245294894168
  0
LINE
  5
1C0
330
2
100
AcDbEntity
  8
0
100
AcDbLine
 10
236.6954468004101
 20
-40.32323679534168
 30
0.0
 11
236.8685531124101
 21
-40.30708311534168
 31
0.0
  0
LINE
  5
1C1
330
2
100
AcDbEntity
  8
0
100
AcDbLine
 10
237.3082106260101
 20
-40.08116064174169
 30
0.0
 11
237.1783450868101
 21
-40.18488909774169
 31
0.0
  0
LWPOLYLINE
  5
1C2
330
2
100
AcDbEntity
  8
0
100
AcDbPolyline
 90
        5
 70
     0
 43
0.0
 10
237.0318487780101
 20
-40.25989249774168
 10
237.1808423924101
 20
-40.18327823214168
 10
237.3103363956101
 20
-40.07905389614168
 10
237.4145070260101
 20
-39.94990215534168
 10
237.4870401700101
 20
-39.80058552494168
  0
LINE
  5
1C3
330
2
100
AcDbEntity
  8
0
100
AcDbLine
 10
237.4133167444101
 20
-39.95176353134168
 30
0.0
 11
237.3082106260101
 21
-40.08116064174169
 31
0.0
  0
LINE
  5
1C4
330
2
100
AcDbEntity
  8
0
100
AcDbLine
 10
238.1027782532101
 20
-33.74100060654169
 30
0.0
 11
238.0747133092101
 21
-33.83499249294168
 31
0.0
  0
LWPOLYLINE
  5
1C5
330
2
100
AcDbEntity
  8
0
100
AcDbPolyline
 90
        4
 70
     0
 43
0.0
 10
238.9057370676101
 20
-33.60695327374168
 10
238.8958143652101
 20
-33.67507336494168
 10
238.8660335268101
 20
-33.74529545774167
 10
238.8164099908101
 20
-33.81742723534168
  0
LWPOLYLINE
  5
1C6
330
2
100
AcDbEntity
  8
0
100
AcDbPolyline
 90
       12
 70
     0
 43
0.0
 10
237.7692918548101
 20
-34.58253965134167
 10
238.0215395492101
 20
-34.50738612494168
 10
238.2562674036101
 20
-34.43098306734167
 10
238.4728814676101
 20
-34.35366662894168
 10
238.6706065204101
 20
-34.27585301294168
 10
238.8489657012101
 20
-34.19786491374168
 10
239.0073528004101
 20
-34.12009652494168
 10
239.1454117268101
 20
-34.04284579214167
 10
239.2627152772101
 20
-33.96646753614168
 10
239.3590251428101
 20
-33.89122727534167
 10
239.4340876852101
 20
-33.81742770574168
 10
239.4877788084101
 20
-33.74529600494168
  0
LINE
  5
1C7
330
2
100
AcDbEntity
  8
0
100
AcDbLine
 10
239.5307370676101
 20
-34.06873133934169
 30
0.0
 11
239.5307370676101
 21
-32.57323764654168
 31
0.0
  0
LWPOLYLINE
  5
1C8
330
2
100
AcDbEntity
  8
0
100
AcDbPolyline
 90
       12
 70
     0
 43
0.0
 10
237.0292534484101
 20
-34.65602508814168
 10
237.2777346740101
 20
-34.58253965134167
 10
237.5108726948101
 20
-34.50738612494168
 10
237.7278181364101
 20
-34.43098306734167
 10
237.9280220436101
 20
-34.35366662894168
 10
238.1107679268101
 20
-34.27585301294168
 10
238.2756150468101
 20
-34.19786491374168
 10
238.4220031236101
 20
-34.12009652494168
 10
238.5496030404101
 20
-34.04284579214167
 10
238.6580199588101
 20
-33.96646753614168
 10
238.7470336212101
 20
-33.89122727534167
 10
238.8164096084101
 20
-33.81742770574168
  0
LINE
  5
1C9
330
2
100
AcDbEntity
  8
0
100
AcDbLine
 10
237.8893963332101
 20
-35.79066185134168
 30
0.0
 11
238.0747133092101
 21
-33.83499249294168
 31
0.0
  0
LINE
  5
1CA
330
2
100
AcDbEntity
  8
0
100
AcDbLine
 10
239.5307370676101
 20
-32.57323679534168
 30
0.0
 11
238.9057370676101
 21
-32.57323679534168
 31
0.0
  0
LINE
  5
1CB
330
2
100
AcDbEntity
  8
0
100
AcDbLine
 10
239.7046533252101
 20
-33.24712643054168
 30
0.0
 11
238.4917681140101
 21
-33.24712643054168
 31
0.0
  0
LINE
  5
1CC
330
2
100
AcDbEntity
  8
0
100
AcDbLine
 10
239.5307370676101
 20
-33.60695327374168
 30
0.0
 11
238.9057370676101
 21
-33.60695327374168
 31
0.0
  0
LINE
  5
1CD
330
2
100
AcDbEntity
  8
0
100
AcDbLine
 10
236.2818129668101
 20
-31.76128034574169
 30
0.0
 11
236.2369958308101
 21
-32.28397196814168
 31
0.0
  0
LWPOLYLINE
  5
1CE
330
2
100
AcDbEntity
  8
0
100
AcDbPolyline
 90
        9
 70
     0
 43
0.0
 10
238.3897131476101
 20
-33.40549183054168
 10
238.40103159881
 20
-33.37650205774168
 10
238.4121272212101
 20
-33.35025843054168
 10
238.4231636868101
 20
-33.32646377614167
 10
238.4343958836101
 20
-33.30482263534168
 10
238.4462218500101
 20
-33.28512928334168
 10
238.4593058948101
 20
-33.26748226094167
 10
238.4744415780101
 20
-33.25333312334167
 10
238.4917681044101
 20
-33.24712643054168
  0
LWPOLYLINE
  5
1CF
330
2
100
AcDbEntity
  8
0
100
AcDbPolyline
 90
        9
 70
     0
 43
0.0
 10
238.4917681028101
 20
-33.24712643054168
 10
238.4749804580101
 20
-33.25296803854168
 10
238.4603359860101
 20
-33.26629472974168
 10
238.4476845348101
 20
-33.28293093294168
 10
238.4367556484101
 20
-33.30062942734168
 10
238.4267534404101
 20
-33.31925364814168
 10
238.4172751124101
 20
-33.33886140334168
 10
238.4080611524101
 20
-33.35961520014168
 10
238.3989219556101
 20
-33.38174036014168
  0
LINE
  5
1D0
330
2
100
AcDbEntity
  8
0
100
AcDbLine
 10
238.1948807700101
 20
-33.63287041614168
 30
0.0
 11
238.1960209012101
 21
-33.63209287054168
 31
0.0
  0
LINE
  5
1D1
330
2
100
AcDbEntity
  8
0
100
AcDbLine
 10
238.1948785028101
 20
-33.63287123534169
 30
0.0
 11
238.1958485348101
 21
-33.63220131054168
 31
0.0
  0
LINE
  5
1D2
330
2
100
AcDbEntity
  8
0
100
AcDbLine
 10
238.1947008788101
 20
-33.63268545294168
 30
0.0
 11
238.1663273780101
 21
-33.65963961934169
 31
0.0
  0
LINE
  5
1D3
330
2
100
AcDbEntity
  8
0
100
AcDbLine
 10
238.1663266292101
 20
-33.65963876334169
 30
0.0
 11
238.1945492564101
 21
-33.63253456654168
 31
0.0
  0
LINE
  5
1D4
330
2
100
AcDbEntity
  8
0
100
AcDbLine
 10
238.2190330308101
 20
-33.60848290414168
 30
0.0
 11
238.1947008788101
 21
-33.63268545294168
 31
0.0
  0
LWPOLYLINE
  5
1D5
330
2
100
AcDbEntity
  8
0
100
AcDbPolyline
 90
        3
 70
     0
 43
0.0
 10
238.1945492564101
 20
-33.63253456654168
 10
238.2310865396101
 20
-33.59584017774167
 10
238.2863539844101
 20
-33.53564253614168
  0
LINE
  5
1D6
330
2
100
AcDbEntity
  8
0
100
AcDbLine
 10
238.2648796068101
 20
-33.55929066894168
 30
0.0
 11
238.2190330308101
 21
-33.60848290414168
 31
0.0
  0
LINE
  5
1D7
330
2
100
AcDbEntity
  8
0
100
AcDbLine
 10
238.3448450692101
 20
-33.47084658894169
 30
0.0
 11
238.2648796068101
 21
-33.55929066894168
 31
0.0
  0
LINE
  5
1D8
330
2
100
AcDbEntity
  8
0
100
AcDbLine
 10
238.3353989940101
 20
-33.48148994094168
 30
0.0
 11
238.3770217748101
 21
-33.43004995214168
 31
0.0
  0
LINE
  5
1D9
330
2
100
AcDbEntity
  8
0
100
AcDbLine
 10
238.3770235716101
 20
-33.43004735534168
 30
0.0
 11
238.3448450692101
 21
-33.47084658894169
 31
0.0
  0
LINE
  5
1DA
330
2
100
AcDbEntity
  8
0
100
AcDbLine
 10
238.1663273780101
 20
-33.65963961934169
 30
0.0
 11
238.1027782532101
 21
-33.74100060654169
 31
0.0
  0
LWPOLYLINE
  5
1DB
330
2
100
AcDbEntity
  8
0
100
AcDbPolyline
 90
        3
 70
     0
 43
0.0
 10
238.3897131476101
 20
-33.40549183054168
 10
238.3841594884101
 20
-33.41785904494168
 10
238.3770235716101
 20
-33.43004735534167
  0
LINE
  5
1DC
330
2
100
AcDbEntity
  8
0
100
AcDbLine
 10
238.1958485348101
 20
-33.63220131054168
 30
0.0
 11
238.19957326601
 21
-33.63020341934169
 31
0.0
  0
LINE
  5
1DD
330
2
100
AcDbEntity
  8
0
100
AcDbLine
 10
236.1983613140101
 20
-33.22004677614168
 30
0.0
 11
236.2020059252101
 21
-33.19707201614169
 31
0.0
  0
LINE
  5
1DE
330
2
100
AcDbEntity
  8
0
100
AcDbLine
 10
236.2020399268101
 20
-33.19713954574168
 30
0.0
 11
236.2048168804101
 21
-33.17345040494169
 31
0.0
  0
LINE
  5
1DF
330
2
100
AcDbEntity
  8
0
100
AcDbLine
 10
236.2047044260101
 20
-33.17458470254168
 30
0.0
 11
236.2141845972101
 21
-33.07925059214168
 31
0.0
  0
LWPOLYLINE
  5
1E0
330
2
100
AcDbEntity
  8
0
100
AcDbPolyline
 90
       17
 70
     0
 43
0.0
 10
236.2141846836101
 20
-33.07924976494168
 10
236.2255693940101
 20
-32.96956617454168
 10
236.2396495572101
 20
-32.84466155214168
 10
236.2543793092101
 20
-32.72473275854167
 10
236.2695415412101
 20
-32.61120101134167
 10
236.2848966388101
 20
-32.50535358254168
 10
236.3001805652101
 20
-32.40832253614168
 10
236.3151072388101
 20
-32.32104191374168
 10
236.3293609556101
 20
-32.24427389614167
 10
236.3425805524101
 20
-32.17866676174168
 10
236.3544661076101
 20
-32.12425494094168
 10
236.3649161828101
 20
-32.08007221934168
 10
236.3738481668101
 20
-32.04517153614168
 10
236.3810912836101
 20
-32.01900818094168
 10
236.38644374601
 20
-32.00112742414168
 10
236.3897072724101
 20
-31.99103203374168
 10
236.3905741188101
 20
-31.98851542574168
  0
LINE
  5
1E1
330
2
100
AcDbEntity
  8
0
100
AcDbLine
 10
236.1876759396101
 20
-32.85598761934169
 30
0.0
 11
236.2599375140101
 21
-32.01676259694169
 31
0.0
  0
LINE
  5
1E2
330
2
100
AcDbEntity
  8
0
100
AcDbLine
 10
236.2369958308101
 20
-32.28397196814168
 30
0.0
 11
236.1876759396101
 21
-32.85598761934169
 31
0.0
  0
LWPOLYLINE
  5
1E3
330
2
100
AcDbEntity
  8
0
100
AcDbPolyline
 90
        3
 70
     0
 43
0.0
 10
239.5307370676101
 20
-33.60695327374168
 10
239.52000102921
 20
-33.67507336494168
 10
239.4877791380101
 20
-33.74529545774167
  0
LINE
  5
1E4
330
2
100
AcDbEntity
  8
0
100
AcDbLine
 10
236.1463603652101
 20
-30.40171518574168
 30
0.0
 11
236.09350451401
 21
-31.02636141934169
 31
0.0
  0
LINE
  5
1E5
330
2
100
AcDbEntity
  8
0
100
AcDbLine
 10
236.1463603652101
 20
-30.40171518574168
 30
0.0
 11
236.09350451401
 21
-31.02636141934169
 31
0.0
  0
LINE
  5
1E6
330
2
100
AcDbEntity
  8
0
100
AcDbLine
 10
204.7738891349776
 20
-12.69823679534169
 30
0.0
 11
245.6636252101643
 21
-12.69823679535307
 31
0.0
  0
LINE
  5
1E7
330
2
100
AcDbEntity
  8
0
100
AcDbLine
 10
204.2182370676101
 20
-14.69823679534168
 30
0.0
 11
246.2182370676101
 21
-14.69823654575306
 31
0.0
  0
LWPOLYLINE
  5
1E8
330
2
100
AcDbEntity
  8
0
  6
HIDDEN
100
AcDbPolyline
 90
       34
 70
     0
 43
0.0
 10
211.9449509764101
 20
-20.95902718094168
 10
211.48761953321
 20
-20.94498642254168
 10
211.3112532932101
 20
-20.93840311854167
 10
211.1409887284101
 20
-20.93024119054168
 10
210.9786435220101
 20
-20.91989449454167
 10
210.8631751460101
 20
-20.91033608014168
 10
210.7539506884101
 20
-20.89895205774168
 10
210.6517369860101
 20
-20.88548670574167
 10
210.5573008708101
 20
-20.86968430734168
 10
210.4522399076101
 20
-20.84659772974168
 10
210.3590943684101
 20
-20.81912191534168
 10
210.2767777460101
 20
-20.78681300494167
 10
210.2042035300101
 20
-20.74922713934167
 10
210.1402852100101
 20
-20.70592045934167
 10
210.0839362772101
 20
-20.65644910574167
 10
210.0322903316101
 20
-20.59797516974168
 10
209.98718189161
 20
-20.53201980654167
 10
209.9481284100101
 20
-20.45825771694168
 10
209.9146473332101
 20
-20.37636360014168
 10
209.8862561140101
 20
-20.28601215214167
 10
209.8624722020101
 20
-20.18687807694168
 10
209.8403635956101
 20
-20.06329602574167
 10
209.8226133396101
 20
-19.92899373294167
 10
209.80824412681
 20
-19.78503269134167
 10
209.7962786500101
 20
-19.63247439374168
 10
209.7824436580101
 20
-19.41746334734168
 10
209.7692419588101
 20
-19.19120459854168
 10
209.7547709700101
 20
-18.95584735854168
 10
209.7347363428101
 20
-18.67656913134167
 10
209.7118951764101
 20
-18.39588699534167
 10
209.6876629892101
 20
-18.12164718414168
 10
209.6694061236101
 20
-17.92479913294168
 10
209.6516318452101
 20
-17.73860269614167
 10
209.5997630916101
 20
-17.20741475854167
  0
LWPOLYLINE
  5
1E9
330
2
100
AcDbEntity
  8
0
  6
HIDDEN
100
AcDbPolyline
 90
       34
 70
     0
 43
0.0
 10
211.9449509764101
 20
-20.95902718094168
 10
211.48761953321
 20
-20.94498642254168
 10
211.3112532932101
 20
-20.93840311854167
 10
211.1409887284101
 20
-20.93024119054168
 10
210.9786435220101
 20
-20.91989449454167
 10
210.8631751460101
 20
-20.91033608014168
 10
210.7539506884101
 20
-20.89895205774168
 10
210.6517369860101
 20
-20.88548670574167
 10
210.5573008708101
 20
-20.86968430734168
 10
210.4522399076101
 20
-20.84659772974168
 10
210.3590943684101
 20
-20.81912191534168
 10
210.2767777460101
 20
-20.78681300494167
 10
210.2042035300101
 20
-20.74922713934167
 10
210.1402852100101
 20
-20.70592045934167
 10
210.0839362772101
 20
-20.65644910574167
 10
210.0322903316101
 20
-20.59797516974168
 10
209.98718189161
 20
-20.53201980654167
 10
209.9481284100101
 20
-20.45825771694168
 10
209.9146473332101
 20
-20.37636360014168
 10
209.8862561140101
 20
-20.28601215214167
 10
209.8624722020101
 20
-20.18687807694168
 10
209.8403635956101
 20
-20.06329602574167
 10
209.8226133396101
 20
-19.92899373294167
 10
209.80824412681
 20
-19.78503269134167
 10
209.7962786500101
 20
-19.63247439374168
 10
209.7824436580101
 20
-19.41746334734168
 10
209.7692419588101
 20
-19.19120459854168
 10
209.7547709700101
 20
-18.95584735854168
 10
209.7347363428101
 20
-18.67656913134167
 10
209.7118951764101
 20
-18.39588699534167
 10
209.6876629892101
 20
-18.12164718414168
 10
209.6694061236101
 20
-17.92479913294168
 10
209.6516318452101
 20
-17.73860269614167
 10
209.5997630916101
 20
-17.20741475854167
  0
LWPOLYLINE
  5
1EA
330
2
100
AcDbEntity
  8
0
  6
HIDDEN
100
AcDbPolyline
 90
       71
 70
     0
 43
0.0
 10
213.5841342388101
 20
-25.34513787534168
 10
213.5526275396101
 20
-25.02446566574167
 10
213.5055479812101
 20
-24.53692622094168
 10
213.4601244052101
 20
-24.05035759694168
 10
213.4315313956101
 20
-23.73121091694167
 10
213.4047830404101
 20
-23.41912984654168
 10
213.3802864692101
 20
-23.11644367534167
 10
213.36361977161
 20
-22.89691078574168
 10
213.34851894761
 20
-22.68444613934168
 10
213.3350652148101
 20
-22.47977736654168
 10
213.3233837412101
 20
-22.28464904654168
 10
213.3176094804101
 20
-22.18126818574167
 10
213.3118377044101
 20
-22.08265412334167
 10
213.3054821316101
 20
-21.99001366734167
 10
213.2999959492101
 20
-21.92511795054168
 10
213.2937020596101
 20
-21.86440121294168
 10
213.2864509252101
 20
-21.80800344974167
 10
213.27809301161
 20
-21.75606465934168
 10
213.2693551668101
 20
-21.71238535534168
 10
213.2596474452101
 20
-21.67233271534168
 10
213.2376748980101
 20
-21.60212201774168
 10
213.2128804212101
 20
-21.54346173294168
 10
213.1928208676101
 20
-21.50589188014168
 10
213.1716524004101
 20
-21.47306497774168
 10
213.1494568484101
 20
-21.44433545774167
 10
213.1263160468101
 20
-21.41905775854167
 10
213.0906590484101
 20
-21.38728331854167
 10
213.0500448020101
 20
-21.35996790254167
 10
213.0013340388101
 20
-21.33566179854168
 10
212.9417276676101
 20
-21.31321902254168
 10
212.8697873028101
 20
-21.29270851854168
 10
212.7844147300101
 20
-21.27450295854168
 10
212.6832325988101
 20
-21.25862667054168
 10
212.5693773908101
 20
-21.24528377614167
 10
212.4452144820101
 20
-21.23423643534168
 10
212.3131092500101
 20
-21.22524680654167
 10
212.1282896196101
 20
-21.21596837294168
 10
211.9366848196101
 20
-21.20886911054167
 10
211.7414242500101
 20
-21.20289287054168
 10
211.47924214441
 20
-21.19484610734168
 10
211.3008285156101
 20
-21.18818096014167
 10
211.1272904996101
 20
-21.17985451534168
 10
210.9602494276101
 20
-21.16921696334168
 10
210.8011998292101
 20
-21.15555925614168
 10
210.6511290564101
 20
-21.13793538894167
 10
210.5108976548101
 20
-21.11534012174168
 10
210.3904288436101
 20
-21.08900508974168
 10
210.2783597924101
 20
-21.05597701934168
 10
210.1739316740101
 20
-21.01467857134167
 10
210.0767053764101
 20
-20.96383665454168
 10
209.9875206356101
 20
-20.90339518574168
 10
209.9075369044101
 20
-20.83360232654168
 10
209.8350141844101
 20
-20.75151526574168
 10
209.7731697156101
 20
-20.66105902254168
 10
209.7214628084101
 20
-20.56372194574167
 10
209.6792042756101
 20
-20.46072099214168
 10
209.64511092841
 20
-20.35218755534168
 10
209.6177510788101
 20
-20.23798163854167
 10
209.5931240324101
 20
-20.10112915214168
 10
209.5740063892101
 20
-19.95722640974167
 10
209.5590492948101
 20
-19.80674198894168
 10
209.5469038964101
 20
-19.65014447214167
 10
209.5329690292101
 20
-19.43265834414168
 10
209.5197371188101
 20
-19.20630781134168
 10
209.5053105156101
 20
-18.97226315854167
 10
209.4854148484101
 20
-18.69513749134168
 10
209.4627578436101
 20
-18.41670243534167
 10
209.4386943620101
 20
-18.14433243054168
 10
209.4205229396101
 20
-17.94840353774167
 10
209.4027990004101
 20
-17.76273884494168
 10
209.3509385060101
 20
-17.23162593774168
  0
LWPOLYLINE
  5
1EB
330
2
100
AcDbEntity
  8
0
  6
HIDDEN
100
AcDbPolyline
 90
       71
 70
     0
 43
0.0
 10
209.3914669620101
 20
-17.64600026574167
 10
209.4027990004101
 20
-17.76273884494168
 10
209.4205229396101
 20
-17.94840353774167
 10
209.4386943620101
 20
-18.14433243054168
 10
209.4627578436101
 20
-18.41670243534167
 10
209.4854148484101
 20
-18.69513749134168
 10
209.5053105156101
 20
-18.97226315854167
 10
209.5197371188101
 20
-19.20630781134168
 10
209.5329690292101
 20
-19.43265834414168
 10
209.5469038964101
 20
-19.65014447214167
 10
209.5590492948101
 20
-19.80674198894168
 10
209.5740063892101
 20
-19.95722640974167
 10
209.5931240324101
 20
-20.10112915214168
 10
209.6177510788101
 20
-20.23798163854167
 10
209.64511092841
 20
-20.35218755534168
 10
209.6792042756101
 20
-20.46072099214168
 10
209.7214628084101
 20
-20.56372194574167
 10
209.7731697156101
 20
-20.66105902254168
 10
209.8350141844101
 20
-20.75151526574168
 10
209.9075369044101
 20
-20.83360232654168
 10
209.9875206356101
 20
-20.90339518574168
 10
210.0767053764101
 20
-20.96383665454168
 10
210.1739316740101
 20
-21.01467857134167
 10
210.2783597924101
 20
-21.05597701934168
 10
210.3904288436101
 20
-21.08900508974168
 10
210.5108976548101
 20
-21.11534012174168
 10
210.6511290564101
 20
-21.13793538894167
 10
210.8011998292101
 20
-21.15555925614168
 10
210.9602494276101
 20
-21.16921696334168
 10
211.1272904996101
 20
-21.17985451534168
 10
211.3008285156101
 20
-21.18818096014167
 10
211.47924214441
 20
-21.19484610734168
 10
211.7414242500101
 20
-21.20289287054168
 10
211.9366848196101
 20
-21.20886911054167
 10
212.1282896196101
 20
-21.21596837294168
 10
212.3131092500101
 20
-21.22524680654167
 10
212.4452144820101
 20
-21.23423643534168
 10
212.5693773908101
 20
-21.24528377614167
 10
212.6832325988101
 20
-21.25862667054168
 10
212.7844147300101
 20
-21.27450295854168
 10
212.8697873028101
 20
-21.29270851854168
 10
212.9417276676101
 20
-21.31321902254168
 10
213.0013340388101
 20
-21.33566179854168
 10
213.0500448020101
 20
-21.35996790254167
 10
213.0906590484101
 20
-21.38728331854167
 10
213.1263160468101
 20
-21.41905775854167
 10
213.1494568484101
 20
-21.44433545774167
 10
213.1716524004101
 20
-21.47306497774168
 10
213.1928208676101
 20
-21.50589188014168
 10
213.2128804212101
 20
-21.54346173294168
 10
213.2376748980101
 20
-21.60212201774168
 10
213.2596474452101
 20
-21.67233271534168
 10
213.2693551668101
 20
-21.71238535534168
 10
213.27809301161
 20
-21.75606465934168
 10
213.2864509252101
 20
-21.80800344974167
 10
213.2937020596101
 20
-21.86440121294168
 10
213.2999959492101
 20
-21.92511795054168
 10
213.3054821316101
 20
-21.99001366734167
 10
213.3118377044101
 20
-22.08265412334167
 10
213.3176094804101
 20
-22.18126818574167
 10
213.3233837412101
 20
-22.28464904654168
 10
213.3350652148101
 20
-22.47977736654168
 10
213.34851894761
 20
-22.68444613934168
 10
213.36361977161
 20
-22.89691078574168
 10
213.3802864692101
 20
-23.11644367534167
 10
213.4047830404101
 20
-23.41912984654168
 10
213.4315313956101
 20
-23.73121091694167
 10
213.4601244052101
 20
-24.05035759694168
 10
213.5055479812101
 20
-24.53692622094168
 10
213.5526275396101
 20
-25.02446566574167
 10
213.5841342388101
 20
-25.34513787534168
  0
LWPOLYLINE
  5
1EC
330
2
100
AcDbEntity
  8
0
  6
HIDDEN
100
AcDbPolyline
 90
      110
 70
     0
 43
0.0
 10
209.54532530761
 20
-16.33296503214168
 10
209.6661075652101
 20
-16.38472899694167
 10
209.7870281028101
 20
-16.43414560974167
 10
209.9081118420101
 20
-16.48142737294168
 10
210.0293837076101
 20
-16.52678679374167
 10
210.1508686212101
 20
-16.57043637614168
 10
210.2725915092101
 20
-16.61258862734167
 10
210.3945772900101
 20
-16.65345604974167
 10
210.5168508916101
 20
-16.69325114894168
 10
210.63943723401
 20
-16.73218643214167
 10
210.8540650244101
 20
-16.79867122894168
 10
211.0698522020101
 20
-16.86431438414167
 10
211.2869309988101
 20
-16.93024334894167
 10
211.3382125332101
 20
-16.94587609454167
 10
211.38958601321
 20
-16.96133989134168
 10
211.4410645556101
 20
-16.97638754734167
 10
211.4926612740101
 20
-16.99077186574167
 10
211.5443892868101
 20
-17.00424565774167
 10
211.5962617108101
 20
-17.01656172814168
 10
211.6482916580101
 20
-17.02747288654167
 10
211.7004922484101
 20
-17.03673193774167
 10
211.7528765956101
 20
-17.04409169134167
 10
211.8054578164101
 20
-17.04930495214168
 10
211.8582490276101
 20
-17.05212452814167
 10
211.9152134628101
 20
-17.05242621134168
 10
211.9723145284101
 20
-17.05070605454167
 10
212.0294311444101
 20
-17.04799275694168
 10
212.1011559956101
 20
-17.04453617294167
 10
212.1728295972101
 20
-17.04186068654168
 10
212.2445676132101
 20
-17.04069115374167
 10
212.3164856980101
 20
-17.04175244014168
 10
212.35075176041
 20
-17.04327849614168
 10
212.3849764116101
 20
-17.04572697614167
 10
212.4190514052101
 20
-17.04935231694167
 10
212.4528684948101
 20
-17.05440895374168
 10
212.4863194356101
 20
-17.06115132334167
 10
212.5192959812101
 20
-17.06983386414168
 10
212.5528226452101
 20
-17.08107215534167
 10
212.5856126436101
 20
-17.09454879694168
 10
212.6175538132101
 20
-17.11014986734167
 10
212.6485339876101
 20
-17.12776144654168
 10
212.6784410036101
 20
-17.14726961294168
 10
212.70716269481
 20
-17.16856044974167
 10
212.7345868964101
 20
-17.19152003374168
 10
212.76365613001
 20
-17.21909765294168
 10
212.7908837044101
 20
-17.24848964334168
 10
212.8161985636101
 20
-17.27955742574168
 10
212.8395296500101
 20
-17.31216242094167
 10
212.8608059060101
 20
-17.34616604974168
 10
212.8799562756101
 20
-17.38142973454168
 10
212.8969097012101
 20
-17.41781489614167
 10
212.9115951268101
 20
-17.45518295694168
 10
212.9239414964101
 20
-17.49339533774168
 10
212.9345292532101
 20
-17.53522046254168
 10
212.9423162724101
 20
-17.57763704334168
 10
212.9472833252101
 20
-17.62042203854167
 10
212.94941117801
 20
-17.66335241454167
 10
212.9486806020101
 20
-17.70620512814168
 10
212.9450723652101
 20
-17.74875714094167
 10
212.9385672372101
 20
-17.79078541614168
 10
212.9292356628101
 20
-17.83200180014168
 10
212.9173395300101
 20
-17.87255353294168
 10
212.9032140084101
 20
-17.91251854414167
 10
212.8871942644101
 20
-17.95197476174168
 10
212.8696154692101
 20
-17.99100011374167
 10
212.8508127892101
 20
-18.02967252814168
 10
212.8383890372101
 20
-18.05386907534168
 10
212.8252377364101
 20
-18.07756823214168
 10
212.8109854420101
 20
-18.10038218254168
 10
212.7952587044101
 20
-18.12192311534167
 10
212.7776840804101
 20
-18.14180321294168
 10
212.7609083124101
 20
-18.15731161614167
 10
212.74272893481
 20
-18.17138719534168
 10
212.7233810900101
 20
-18.18410848494168
 10
212.7030999172101
 20
-18.19555401454167
 10
212.6821205572101
 20
-18.20580231534167
 10
212.6606781492101
 20
-18.21493192014168
 10
212.6245491796101
 20
-18.22792088334168
 10
212.5879948468101
 20
-18.23895546574168
 10
212.5512178116101
 20
-18.24894758094168
 10
212.5144207332101
 20
-18.25880914574168
 10
212.4607774180101
 20
-18.27435437774168
 10
212.4073968292101
 20
-18.29104587054168
 10
212.3541498292101
 20
-18.30835325294168
 10
212.3009072868101
 20
-18.32574615694167
 10
212.2475400644101
 20
-18.34269420974168
 10
212.1939190308101
 20
-18.35866704334168
 10
212.1399150468101
 20
-18.37313428654167
 10
212.0853989828101
 20
-18.38556557134167
 10
212.0385553604101
 20
-18.39416600334168
 10
211.9913828884101
 20
-18.40072699374167
 10
211.9440168132101
 20
-18.40506656014167
 10
211.8924995844101
 20
-18.40715095214167
 10
211.8409367204101
 20
-18.40676851854168
 10
211.7893513796101
 20
-18.40428601454168
 10
211.7377667284101
 20
-18.40007019214167
 10
211.6862059268101
 20
-18.39448780014168
 10
211.6346921380101
 20
-18.38790559374167
 10
211.5832485236101
 20
-18.38069032494168
 10
211.4357479972101
 20
-18.35829185934167
 10
211.2889444996101
 20
-18.33380936974167
 10
211.1427625572101
 20
-18.30736294414167
 10
210.99712669801
 20
-18.27907267534168
 10
210.8519614468101
 20
-18.24905865134167
 10
210.6571718308101
 20
-18.20614801934168
 10
210.4629140772101
 20
-18.16062466574168
 10
210.2690041172101
 20
-18.11278146894167
 10
210.0752578852101
 20
-18.06291131214168
 10
209.8814913140101
 20
-18.01130707374167
 10
209.6875203348101
 20
-17.95826163534167
  0
LINE
  5
1ED
330
2
100
AcDbEntity
  8
CENTER
 48
4.0
100
AcDbLine
 10
214.1092918388101
 20
-15.79572132174168
 30
0.0
 11
204.9433307652101
 21
-16.59763900494169
 31
0.0
  0
LWPOLYLINE
  5
1EE
330
2
100
AcDbEntity
  8
0
100
AcDbPolyline
 90
       47
 70
     0
 43
0.0
 10
209.2439188372101
 20
-13.27683219214168
 10
209.2988611556101
 20
-14.03978967214167
 10
209.3468210116101
 20
-14.78683040974167
 10
209.3894219380101
 20
-15.51747812814167
 10
209.4282874724101
 20
-16.26682134254167
 10
209.4650411508101
 20
-17.01660138094168
 10
209.5013065060101
 20
-17.76634196814168
 10
209.54813161321
 20
-18.69714244974167
 10
209.5998237780101
 20
-19.62623307054168
 10
209.6129639876101
 20
-19.84025084174168
 10
209.6277740052101
 20
-20.05480322254168
 10
209.6388593860101
 20
-20.19387975374167
 10
209.6517946724101
 20
-20.33313794574168
 10
209.6672139156101
 20
-20.47225533294168
 10
209.6857511636101
 20
-20.61090945454167
 10
209.7080404676101
 20
-20.74877784494167
 10
209.7347158740101
 20
-20.88553804014168
 10
209.7664114356101
 20
-21.02086758094167
 10
209.8037612004101
 20
-21.15444399854168
 10
209.84739921801
 20
-21.28594483214168
 10
209.8979595364101
 20
-21.41504761934168
 10
209.9475702628101
 20
-21.52397006414167
 10
210.0033003252101
 20
-21.62988821134168
 10
210.0656609012101
 20
-21.73181686254167
 10
210.1279370228101
 20
-21.81975977454168
 10
210.1954843188101
 20
-21.90383251374167
 10
210.26775106121
 20
-21.98422096974167
 10
210.3441855188101
 20
-22.06111102894168
 10
210.4242359620101
 20
-22.13468858574167
 10
210.5073506596101
 20
-22.20513952654167
 10
210.5929778836101
 20
-22.27264974094168
 10
210.6805659012101
 20
-22.33740512014168
 10
210.8288144148101
 20
-22.43902327854168
 10
210.9805975156101
 20
-22.53407430734167
 10
211.1355853252101
 20
-22.62303662254167
 10
211.2934479556101
 20
-22.70638863534168
 10
211.4538555236101
 20
-22.78460875854168
 10
211.6624542356101
 20
-22.87815844174168
 10
211.87384904841
 20
-22.96570719374167
 10
212.0872029908101
 20
-23.04888659534167
 10
212.3016790868101
 20
-23.12932822894168
 10
212.63480850601
 20
-23.25197174254167
 10
212.9674851124101
 20
-23.37513523854167
 10
213.2985705268101
 20
-23.50199792654167
 10
213.5461065028101
 20
-23.60187940654167
 10
213.7916093380101
 20
-23.70701686574168
 10
214.0345931796101
 20
-23.81876716814167
  0
LWPOLYLINE
  5
1EF
330
2
100
AcDbEntity
  8
0
100
AcDbPolyline
 90
       19
 70
     0
 43
0.0
 10
205.04097163721
 20
-14.71601919054168
 10
205.2377341700101
 20
-15.71041388014167
 10
205.42323376041
 20
-16.72434551854168
 10
205.5993718660101
 20
-17.73994526414168
 10
205.7661334948101
 20
-18.75712667214168
 10
205.9235036564101
 20
-19.77580329774168
 10
206.0563967716101
 20
-20.68887703054168
 10
206.1817441716101
 20
-21.60301721614168
 10
206.2995376068101
 20
-22.51816144494168
 10
206.40976902601
 20
-23.43424729134167
 10
206.51243117961
 20
-24.35121224174167
 10
206.6075170132101
 20
-25.26899376014168
 10
206.6738552884101
 20
-25.95782814414167
 10
206.7359255492101
 20
-26.64706022414168
 10
206.7937254628101
 20
-27.33666354894168
 10
206.8472528260101
 20
-28.02661165934168
 10
206.8965055412101
 20
-28.71687809134167
 10
206.9414817588101
 20
-29.40743635534168
 10
206.98688482761
 20
-30.18315367854167
  0
LINE
  5
1F0
330
2
100
AcDbEntity
  8
0
100
AcDbLine
 10
209.5461101540101
 20
-16.63483411854168
 30
0.0
 11
209.5266737044101
 21
-16.41185199854168
 31
0.0
  0
LINE
  5
1F1
330
2
100
AcDbEntity
  8
0
100
AcDbLine
 10
209.5461101540101
 20
-16.63483411854168
 30
0.0
 11
209.5266737044101
 21
-16.41185199854168
 31
0.0
  0
LINE
  5
1F2
330
2
100
AcDbEntity
  8
0
100
AcDbLine
 10
209.2970923284101
 20
-16.65697050574169
 30
0.0
 11
209.2775880388101
 21
-16.43321665614168
 31
0.0
  0
LINE
  5
1F3
330
2
100
AcDbEntity
  8
0
100
AcDbLine
 10
209.2775880388101
 20
-16.43321665614168
 30
0.0
 11
209.2970923284101
 21
-16.65697050574169
 31
0.0
  0
LINE
  5
1F4
330
2
100
AcDbEntity
  8
0
100
AcDbLine
 10
209.61668042601
 20
-17.38080994574168
 30
0.0
 11
209.2775971140101
 21
-13.25939174094168
 31
0.0
  0
LWPOLYLINE
  5
1F5
330
2
100
AcDbEntity
  8
0
100
AcDbPolyline
 90
        4
 70
     0
 43
0.0
 10
209.5834365892101
 20
-17.03808681934168
 10
209.5695786020101
 20
-16.89174085134168
 10
209.5573702964101
 20
-16.75978316334168
 10
209.5461101540101
 20
-16.63483411854167
  0
LWPOLYLINE
  5
1F6
330
2
100
AcDbEntity
  8
0
100
AcDbPolyline
 90
        4
 70
     0
 43
0.0
 10
209.5834365892101
 20
-17.03808681934168
 10
209.5695786020101
 20
-16.89174085134168
 10
209.5573702964101
 20
-16.75978316334168
 10
209.5461101540101
 20
-16.63483411854167
  0
LWPOLYLINE
  5
1F7
330
2
100
AcDbEntity
  8
0
100
AcDbPolyline
 90
        4
 70
     0
 43
0.0
 10
209.2970923284101
 20
-16.65697050574168
 10
209.3084049460101
 20
-16.78250282094167
 10
209.3206675396101
 20
-16.91505000174167
 10
209.3345748084101
 20
-17.06191460494167
  0
LWPOLYLINE
  5
1F8
330
2
100
AcDbEntity
  8
0
100
AcDbPolyline
 90
        4
 70
     0
 43
0.0
 10
209.3345748084101
 20
-17.06191460494167
 10
209.3206675396101
 20
-16.91505000174167
 10
209.3084049460101
 20
-16.78250282094167
 10
209.2970923284101
 20
-16.65697050574168
  0
LINE
  5
1F9
330
2
100
AcDbEntity
  8
0
100
AcDbLine
 10
209.3345748084101
 20
-17.06191460494168
 30
0.0
 11
209.3914669620101
 21
-17.64600026574168
 31
0.0
  0
LINE
  5
1FA
330
2
100
AcDbEntity
  8
0
100
AcDbLine
 10
209.3509385060101
 20
-17.23162593774168
 30
0.0
 11
209.3345748084101
 21
-17.06191460494168
 31
0.0
  0
LINE
  5
1FB
330
2
100
AcDbEntity
  8
0
100
AcDbLine
 10
209.5997630916101
 20
-17.20741475854168
 30
0.0
 11
209.5834365892101
 21
-17.03808681934169
 31
0.0
  0
LINE
  5
1FC
330
2
100
AcDbEntity
  8
0
100
AcDbLine
 10
209.5997630916101
 20
-17.20741475854168
 30
0.0
 11
209.5834365892101
 21
-17.03808681934169
 31
0.0
  0
ARC
  5
1FD
330
2
100
AcDbEntity
  8
0
100
AcDbCircle
 10
204.7738891349776
 20
-13.07323679534168
 30
0.0
 40
0.375
100
AcDbArc
 50
90.0
 51
171.6099202852845
  0
LINE
  5
1FE
330
2
100
AcDbEntity
  8
0
100
AcDbLine
 10
204.3825418804101
 20
-13.15660261454169
 30
0.0
 11
204.2182370676101
 21
-14.69823679534168
 31
0.0
  0
LINE
  5
1FF
330
2
100
AcDbEntity
  8
0
100
AcDbLine
 10
204.4029025307813
 20
-13.01851989203973
 30
0.0
 11
204.3825367524101
 21
-13.15660210254168
 31
0.0
  0
LINE
  5
200
330
2
100
AcDbEntity
  8
0
100
AcDbLine
 10
209.1025939220101
 20
-14.39669455534168
 30
0.0
 11
209.00802549801
 21
-13.28960127854168
 31
0.0
  0
LINE
  5
201
330
2
100
AcDbEntity
  8
0
100
AcDbLine
 10
209.00802549801
 20
-13.28960127854168
 30
0.0
 11
209.1025939220101
 21
-14.39669455534168
 31
0.0
  0
LINE
  5
202
330
2
100
AcDbEntity
  8
0
100
AcDbLine
 10
209.4019276180101
 20
-14.95947412974167
 30
0.0
 11
209.3175531620101
 21
-13.98094938094168
 31
0.0
  0
LINE
  5
203
330
2
100
AcDbEntity
  8
0
100
AcDbLine
 10
209.4019276180101
 20
-14.95947412974167
 30
0.0
 11
209.3175531620101
 21
-13.98094938094168
 31
0.0
  0
LINE
  5
204
330
2
100
AcDbEntity
  8
0
100
AcDbLine
 10
209.48190361961
 20
-15.88262111534168
 30
0.0
 11
209.4019276180101
 21
-14.95947412974167
 31
0.0
  0
LINE
  5
205
330
2
100
AcDbEntity
  8
0
100
AcDbLine
 10
209.48190361961
 20
-15.88262111534168
 30
0.0
 11
209.4019276180101
 21
-14.95947412974167
 31
0.0
  0
LINE
  5
206
330
2
100
AcDbEntity
  8
0
100
AcDbLine
 10
209.5266737044101
 20
-16.41185199854168
 30
0.0
 11
209.48190361961
 21
-15.88262111534168
 31
0.0
  0
LINE
  5
207
330
2
100
AcDbEntity
  8
0
100
AcDbLine
 10
209.5266737044101
 20
-16.41185199854168
 30
0.0
 11
209.48190361961
 21
-15.88262111534168
 31
0.0
  0
LINE
  5
208
330
2
100
AcDbEntity
  8
0
100
AcDbLine
 10
209.15284016041
 20
-14.98081542254168
 30
0.0
 11
209.1934984212101
 21
-15.43945540174169
 31
0.0
  0
LINE
  5
209
330
2
100
AcDbEntity
  8
0
100
AcDbLine
 10
209.2775880388101
 20
-16.43321665614168
 30
0.0
 11
209.2044160148101
 21
-15.56806774894169
 31
0.0
  0
LINE
  5
20A
330
2
100
AcDbEntity
  8
0
100
AcDbLine
 10
209.1934984212101
 20
-15.43945540174169
 30
0.0
 11
209.2775880388101
 21
-16.43321665614168
 31
0.0
  0
LINE
  5
20B
330
2
100
AcDbEntity
  8
0
100
AcDbLine
 10
209.2044160148101
 20
-15.56806774894169
 30
0.0
 11
209.1025939220101
 21
-14.39669455534168
 31
0.0
  0
LINE
  5
20C
330
2
100
AcDbEntity
  8
0
100
AcDbLine
 10
209.1025939220101
 20
-14.39669455534168
 30
0.0
 11
209.15284016041
 21
-14.98081542254168
 31
0.0
  0
LINE
  5
20D
330
2
100
AcDbEntity
  8
0
100
AcDbLine
 10
209.2741513844101
 20
-16.39216715374169
 30
0.0
 11
209.5053822436101
 21
-16.16093629614169
 31
0.0
  0
ARC
  5
20E
330
2
100
AcDbEntity
  8
0
100
AcDbCircle
 10
208.7589710356101
 20
-13.31132394734168
 30
0.0
 40
0.5
100
AcDbArc
 50
4.984754280199999
 51
88.4925642123
  0
ARC
  5
20F
330
2
100
AcDbEntity
  8
0
100
AcDbCircle
 10
208.7589710356101
 20
-13.31132394734168
 30
0.0
 40
0.5
100
AcDbArc
 50
4.984754280199999
 51
88.4925642123
  0
ARC
  5
210
330
2
100
AcDbEntity
  8
0
100
AcDbCircle
 10
208.7532787076101
 20
-13.34149659374168
 30
0.0
 40
0.530708016
100
AcDbArc
 50
8.8998699809
 51
88.48338136949999
  0
LINE
  5
211
330
2
100
AcDbEntity
  8
0
100
AcDbLine
 10
209.3175531620101
 20
-13.98094938094168
 30
0.0
 11
209.2570799636101
 21
-13.26787861454169
 31
0.0
  0
LINE
  5
212
330
2
100
AcDbEntity
  8
0
100
AcDbLine
 10
209.3175531620101
 20
-13.98094938094168
 30
0.0
 11
209.2570799636101
 21
-13.26787861454169
 31
0.0
  0
ARC
  5
213
330
2
100
AcDbEntity
  8
0
100
AcDbCircle
 10
208.7589710356101
 20
-13.31132394734168
 30
0.0
 40
0.25
100
AcDbArc
 50
4.984754711799999
 51
88.4925642412
  0
ARC
  5
214
330
2
100
AcDbEntity
  8
0
100
AcDbCircle
 10
208.7589710356101
 20
-13.31132394734168
 30
0.0
 40
0.25
100
AcDbArc
 50
4.984754711799999
 51
88.4925642412
  0
LWPOLYLINE
  5
215
330
2
100
AcDbEntity
  8
0
  6
HIDDEN
100
AcDbPolyline
 90
       33
 70
     0
 43
0.0
 10
213.8329313764101
 20
-25.32063263214168
 10
213.8014429588101
 20
-25.00014550894167
 10
213.7544208388101
 20
-24.51319177614168
 10
213.70909044521
 20
-24.02763130094168
 10
213.6805784292101
 20
-23.70941122574168
 10
213.6539229380101
 20
-23.39842645934167
 10
213.6295274676101
 20
-23.09696085294167
 10
213.6129418868101
 20
-22.87845129134167
 10
213.5979356788101
 20
-22.66735733134167
 10
213.5845899812101
 20
-22.46445538254167
 10
213.5729859380101
 20
-22.27052185774167
 10
213.5643336212101
 20
-22.11654785454168
 10
213.5547563140101
 20
-21.97095299534167
 10
213.5420637332101
 20
-21.83535204974167
 10
213.5240655956101
 20
-21.71135978254167
 10
213.50133399721
 20
-21.60885936654167
 10
213.4725644900101
 20
-21.51687763214167
 10
213.4380317812101
 20
-21.43479714254168
 10
213.3980105780101
 20
-21.36200045774168
 10
213.3527755876101
 20
-21.29787014094168
 10
213.3026015204101
 20
-21.24178875374167
 10
213.2425049428101
 20
-21.18917177294167
 10
213.1760291460101
 20
-21.14451195214167
 10
213.1023192884101
 20
-21.10696475214167
 10
213.0205205284101
 20
-21.07568564174167
 10
212.9297780212101
 20
-21.04983008654168
 10
212.8292369268101
 20
-21.02855355214168
 10
212.7164319940101
 20
-21.01079944974168
 10
212.5941956228101
 20
-20.99640556334168
 10
212.4641222900101
 20
-20.98486704494168
 10
212.3278064660101
 20
-20.97567905614167
 10
212.1389781716101
 20
-20.96623686734167
 10
211.9449509764101
 20
-20.95902718094168
  0
LWPOLYLINE
  5
216
330
2
100
AcDbEntity
  8
0
  6
HIDDEN
100
AcDbPolyline
 90
       33
 70
     0
 43
0.0
 10
213.8329313764101
 20
-25.32063263214168
 10
213.8014429588101
 20
-25.00014550894167
 10
213.7544208388101
 20
-24.51319177614168
 10
213.70909044521
 20
-24.02763130094168
 10
213.6805784292101
 20
-23.70941122574168
 10
213.6539229380101
 20
-23.39842645934167
 10
213.6295274676101
 20
-23.09696085294167
 10
213.6129418868101
 20
-22.87845129134167
 10
213.5979356788101
 20
-22.66735733134167
 10
213.5845899812101
 20
-22.46445538254167
 10
213.5729859380101
 20
-22.27052185774167
 10
213.5643336212101
 20
-22.11654785454168
 10
213.5547563140101
 20
-21.97095299534167
 10
213.5420637332101
 20
-21.83535204974167
 10
213.5240655956101
 20
-21.71135978254167
 10
213.50133399721
 20
-21.60885936654167
 10
213.4725644900101
 20
-21.51687763214167
 10
213.4380317812101
 20
-21.43479714254168
 10
213.3980105780101
 20
-21.36200045774168
 10
213.3527755876101
 20
-21.29787014094168
 10
213.3026015204101
 20
-21.24178875374167
 10
213.2425049428101
 20
-21.18917177294167
 10
213.1760291460101
 20
-21.14451195214167
 10
213.1023192884101
 20
-21.10696475214167
 10
213.0205205284101
 20
-21.07568564174167
 10
212.9297780212101
 20
-21.04983008654168
 10
212.8292369268101
 20
-21.02855355214168
 10
212.7164319940101
 20
-21.01079944974168
 10
212.5941956228101
 20
-20.99640556334168
 10
212.4641222900101
 20
-20.98486704494168
 10
212.3278064660101
 20
-20.97567905614167
 10
212.1389781716101
 20
-20.96623686734167
 10
211.9449509764101
 20
-20.95902718094168
  0
LWPOLYLINE
  5
217
330
2
100
AcDbEntity
  8
0
100
AcDbPolyline
 90
       53
 70
     0
 43
0.0
 10
225.2182370676101
 20
-18.76045216174168
 10
225.11454862921
 20
-18.76465122734168
 10
225.0149760244101
 20
-18.77690884494167
 10
224.9209932228101
 20
-18.79653369134167
 10
224.8322128772101
 20
-18.82315528334167
 10
224.7458204196101
 20
-18.85749444174168
 10
224.6605472308101
 20
-18.90028099374168
 10
224.5780497684101
 20
-18.95111536974168
 10
224.49871606761
 20
-19.01023666254167
 10
224.4215677764101
 20
-19.07912579534168
 10
224.3466284324101
 20
-19.15891727854168
 10
224.2751492324101
 20
-19.24969420014168
 10
224.2132170404101
 20
-19.34376630894168
 10
224.1653870596101
 20
-19.43119418254168
 10
224.1293153028101
 20
-19.51435370734167
 10
224.1010340484101
 20
-19.60256388974168
 10
224.0786737716101
 20
-19.70363577774168
 10
224.06162382281
 20
-19.81949141774168
 10
224.0474015700101
 20
-19.94857575054167
 10
224.0348624212101
 20
-20.09113369134168
 10
224.0227259044101
 20
-20.24793814574167
 10
224.0101166308101
 20
-20.42061456014168
 10
223.9964800372101
 20
-20.61122370894167
 10
223.9808322244101
 20
-20.82221776494167
 10
223.9617989956101
 20
-21.05647544814168
 10
223.9378895588101
 20
-21.31754677454168
 10
223.9073434692101
 20
-21.61008064014168
 10
223.8683966852101
 20
-21.94074032974167
 10
223.8188978740101
 20
-22.31658367694168
 10
223.7564052244101
 20
-22.74205256494167
 10
223.6837025444101
 20
-23.18984039854167
 10
223.6059227620101
 20
-23.62754399694168
 10
223.5249718964101
 20
-24.04954458094167
 10
223.4382355188101
 20
-24.47217670574168
 10
223.3375171236101
 20
-24.93163198574168
 10
223.21478541321
 20
-25.45489365774168
 10
223.0794288420101
 20
-25.99335540814168
 10
222.9451318372101
 20
-26.49316693454167
 10
222.8203935748101
 20
-26.93044227534168
 10
222.7039459236101
 20
-27.31785607054168
 10
222.5943714852101
 20
-27.66619393134168
 10
222.4915597636101
 20
-27.98023825774168
 10
222.3955134356101
 20
-28.26402878414167
 10
222.3066390564101
 20
-28.51956915054167
 10
222.2253912436101
 20
-28.74800923854167
 10
222.1518385604101
 20
-28.95111700174167
 10
222.0848264660101
 20
-29.13350935854168
 10
222.02223213161
 20
-29.30189009454167
 10
221.9617180132101
 20
-29.46294042734168
 10
221.9007944420101
 20
-29.62263626894167
 10
221.8384709012101
 20
-29.78253039854168
 10
221.7746100548101
 20
-29.94188599694167
 10
221.7090766868101
 20
-30.09994500814168
  0
LWPOLYLINE
  5
218
330
2
100
AcDbEntity
  8
0
100
AcDbPolyline
 90
       43
 70
     0
 43
0.0
 10
226.5672408276101
 20
-30.09994500814168
 10
226.5256591060101
 20
-29.86573074094168
 10
226.4773039988101
 20
-29.59504900494168
 10
226.4228029732101
 20
-29.28540378734167
 10
226.3629770228101
 20
-28.93145841934168
 10
226.3004945540101
 20
-28.53889858574167
 10
226.2379486340101
 20
-28.11488655534168
 10
226.1713522468101
 20
-27.62705690734168
 10
226.1004806212101
 20
-27.06526331214168
 10
226.0252253076101
 20
-26.41431751854168
 10
225.9483258980101
 20
-25.68039560814168
 10
225.8799277924101
 20
-24.95382462254168
 10
225.8266325780101
 20
-24.32477131214167
 10
225.78420257161
 20
-23.77143109134168
 10
225.7504431236101
 20
-23.28666337134168
 10
225.7230070996101
 20
-22.86020455694168
 10
225.7000620868101
 20
-22.48407947054168
 10
225.6803215780101
 20
-22.15267332334168
 10
225.6626365860101
 20
-21.86040852334168
 10
225.6460429316101
 20
-21.60015929934167
 10
225.62998609321
 20
-21.36751174574168
 10
225.6142066756101
 20
-21.16034332814167
 10
225.5985954276101
 20
-20.97707837134167
 10
225.5830155780101
 20
-20.81524453294167
 10
225.5673885780101
 20
-20.67252237774167
 10
225.5516400020101
 20
-20.54650300654167
 10
225.5356519012101
 20
-20.43494587054168
 10
225.5193028852101
 20
-20.33593698414168
 10
225.5024741700101
 20
-20.24787245614168
 10
225.4850665140101
 20
-20.16951290574167
 10
225.46702779081
 20
-20.10002723534167
 10
225.4483360308101
 20
-20.03879796334167
 10
225.42898266921
 20
-19.98528559854167
 10
225.4089821348101
 20
-19.93902538254167
 10
225.3883803828101
 20
-19.89960623054168
 10
225.3672761812101
 20
-19.86666086574167
 10
225.3458475508101
 20
-19.83983868334168
 10
225.3243805668101
 20
-19.81876232654168
 10
225.3032911332101
 20
-19.80297030734168
 10
225.2826639572101
 20
-19.79165543534168
 10
225.2620024452101
 20
-19.78393914574167
 10
225.2407001076101
 20
-19.77934542414168
 10
225.2182370676101
 20
-19.77778564014167
  0
LWPOLYLINE
  5
219
330
2
100
AcDbEntity
  8
0
100
AcDbPolyline
 90
       43
 70
     0
 43
0.0
 10
223.8692333092101
 20
-30.09994500814168
 10
223.9108150292101
 20
-29.86573074094168
 10
223.9591701364101
 20
-29.59504900494168
 10
224.0136711620101
 20
-29.28540378734167
 10
224.0734971124101
 20
-28.93145841934168
 10
224.1359795828101
 20
-28.53889858574167
 10
224.1985255012101
 20
-28.11488655534168
 10
224.2651218884101
 20
-27.62705690734168
 10
224.3359935156101
 20
-27.06526331214168
 10
224.4112488292101
 20
-26.41431751854168
 10
224.4881482388101
 20
-25.68039560814168
 10
224.5565463444101
 20
-24.95382462254168
 10
224.6098415588101
 20
-24.32477131214167
 10
224.6522715636101
 20
-23.77143109134168
 10
224.6860310132101
 20
-23.28666337134168
 10
224.7134670356101
 20
-22.86020455694168
 10
224.7364120500101
 20
-22.48407947054168
 10
224.7561525588101
 20
-22.15267332334168
 10
224.7738375492101
 20
-21.86040852334168
 10
224.7904312052101
 20
-21.60015929934167
 10
224.8064880436101
 20
-21.36751174574168
 10
224.8222674596101
 20
-21.16034332814167
 10
224.8378787076101
 20
-20.97707837134167
 10
224.85345855881
 20
-20.81524453294167
 10
224.8690855572101
 20
-20.67252237774167
 10
224.8848341348101
 20
-20.54650300654167
 10
224.9008222356101
 20
-20.43494587054168
 10
224.9171712500101
 20
-20.33593698414168
 10
224.9339999668101
 20
-20.24787245614168
 10
224.9514076228101
 20
-20.16951290574167
 10
224.9694463444101
 20
-20.10002723534167
 10
224.9881381060101
 20
-20.03879796334167
 10
225.0074914660101
 20
-19.98528559854167
 10
225.0274920004101
 20
-19.93902538254167
 10
225.0480937524101
 20
-19.89960623054168
 10
225.0691979540101
 20
-19.86666086574167
 10
225.0906265844101
 20
-19.83983868334168
 10
225.1120935700101
 20
-19.81876232654168
 10
225.1331830020101
 20
-19.80297030734168
 10
225.1538101780101
 20
-19.79165543534168
 10
225.1744716916101
 20
-19.78393914574167
 10
225.1957740276101
 20
-19.77934542414168
 10
225.2182370676101
 20
-19.77778564014167
  0
LWPOLYLINE
  5
21A
330
2
100
AcDbEntity
  8
0
100
AcDbPolyline
 90
       53
 70
     0
 43
0.0
 10
225.2182370676101
 20
-18.76045216174168
 10
225.3219255060101
 20
-18.76465122734168
 10
225.4214981108101
 20
-18.77690884494167
 10
225.5154809140101
 20
-18.79653369134167
 10
225.6042612580101
 20
-18.82315528334167
 10
225.6906537156101
 20
-18.85749444174168
 10
225.7759269044101
 20
-18.90028099374168
 10
225.8584243668101
 20
-18.95111536974168
 10
225.9377580692101
 20
-19.01023666254167
 10
226.0149063604101
 20
-19.07912579534168
 10
226.0898457028101
 20
-19.15891727854168
 10
226.1613249028101
 20
-19.24969420014168
 10
226.2232570948101
 20
-19.34376630894168
 10
226.2710870756101
 20
-19.43119418254168
 10
226.3071588324101
 20
-19.51435370734167
 10
226.3354400868101
 20
-19.60256388974168
 10
226.3578003636101
 20
-19.70363577774168
 10
226.3748503124101
 20
-19.81949141774168
 10
226.3890725652101
 20
-19.94857575054167
 10
226.4016117140101
 20
-20.09113369134168
 10
226.4137482324101
 20
-20.24793814574167
 10
226.4263575060101
 20
-20.42061456014168
 10
226.4399940996101
 20
-20.61122370894167
 10
226.4556419124101
 20
-20.82221776494167
 10
226.4746751412101
 20
-21.05647544814168
 10
226.4985845780101
 20
-21.31754677454168
 10
226.5291306660101
 20
-21.61008064014168
 10
226.5680774516101
 20
-21.94074032974167
 10
226.6175762612101
 20
-22.31658367694168
 10
226.6800689108101
 20
-22.74205256494167
 10
226.7527715924101
 20
-23.18984039854167
 10
226.8305513732101
 20
-23.62754399694168
 10
226.9115022388101
 20
-24.04954458094167
 10
226.9982386164101
 20
-24.47217670574168
 10
227.0989570132101
 20
-24.93163198574168
 10
227.2216887220101
 20
-25.45489365774168
 10
227.3570452932101
 20
-25.99335540814168
 10
227.4913422980101
 20
-26.49316693454167
 10
227.6160805620101
 20
-26.93044227534168
 10
227.7325282132101
 20
-27.31785607054168
 10
227.8421026500101
 20
-27.66619393134168
 10
227.94491437321
 20
-27.98023825774168
 10
228.0409607012101
 20
-28.26402878414167
 10
228.1298350788101
 20
-28.51956915054167
 10
228.2110828916101
 20
-28.74800923854167
 10
228.2846355748101
 20
-28.95111700174167
 10
228.3516476692101
 20
-29.13350935854168
 10
228.4142420036101
 20
-29.30189009454167
 10
228.4747561220101
 20
-29.46294042734168
 10
228.5356796948101
 20
-29.62263626894167
 10
228.5980032340101
 20
-29.78253039854168
 10
228.6618640804101
 20
-29.94188599694167
 10
228.7273974500101
 20
-30.09994500814168
  0
LWPOLYLINE
  5
21B
330
2
100
AcDbEntity
  8
0
  6
HIDDEN
100
AcDbPolyline
 90
       12
 70
     0
 43
0.0
 10
214.1303745812101
 20
-28.51028477294168
 10
214.1081603588101
 20
-28.25237769454167
 10
214.0863474228101
 20
-28.00204713774167
 10
214.0646388820101
 20
-27.75624120654168
 10
214.0389841812101
 20
-27.47039419534167
 10
214.0126807508101
 20
-27.18258665454168
 10
213.9853434676101
 20
-26.88884123694168
 10
213.9639369620101
 20
-26.66230675054168
 10
213.9416094036101
 20
-26.42890060174168
 10
213.9182379124101
 20
-26.18732844334167
 10
213.8936996116101
 20
-25.93629592814168
 10
213.8329313764101
 20
-25.32063263214168
  0
LWPOLYLINE
  5
21C
330
2
100
AcDbEntity
  8
0
  6
HIDDEN
100
AcDbPolyline
 90
       12
 70
     0
 43
0.0
 10
214.1303745812101
 20
-28.51028477294168
 10
214.1081603588101
 20
-28.25237769454167
 10
214.0863474228101
 20
-28.00204713774167
 10
214.0646388820101
 20
-27.75624120654168
 10
214.0389841812101
 20
-27.47039419534167
 10
214.0126807508101
 20
-27.18258665454168
 10
213.9853434676101
 20
-26.88884123694168
 10
213.9639369620101
 20
-26.66230675054168
 10
213.9416094036101
 20
-26.42890060174168
 10
213.9182379124101
 20
-26.18732844334167
 10
213.8936996116101
 20
-25.93629592814168
 10
213.8329313764101
 20
-25.32063263214168
  0
LWPOLYLINE
  5
21D
330
2
100
AcDbEntity
  8
0
  6
HIDDEN
100
AcDbPolyline
 90
       12
 70
     0
 43
0.0
 10
213.8812840468101
 20
-28.53164278894168
 10
213.8590900884101
 20
-28.27396430574168
 10
213.83730115401
 20
-28.02390360014168
 10
213.8156197060101
 20
-27.77839978254167
 10
213.7899998388101
 20
-27.49293633934168
 10
213.7637340228101
 20
-27.20553660814168
 10
213.7364365796101
 20
-26.91221563214168
 10
213.7150606964101
 20
-26.68600219694168
 10
213.6927621876101
 20
-26.45289728654168
 10
213.66941566121
 20
-26.21158167054167
 10
213.6448957268101
 20
-25.96073611374168
 10
213.5841342388101
 20
-25.34513787534168
  0
LWPOLYLINE
  5
21E
330
2
100
AcDbEntity
  8
0
  6
HIDDEN
100
AcDbPolyline
 90
       12
 70
     0
 43
0.0
 10
213.5841342388101
 20
-25.34513787534168
 10
213.6448957268101
 20
-25.96073611374168
 10
213.66941566121
 20
-26.21158167054167
 10
213.6927621876101
 20
-26.45289728654168
 10
213.7150606964101
 20
-26.68600219694168
 10
213.7364365796101
 20
-26.91221563214168
 10
213.7637340228101
 20
-27.20553660814168
 10
213.7899998388101
 20
-27.49293633934168
 10
213.8156197060101
 20
-27.77839978254167
 10
213.83730115401
 20
-28.02390360014168
 10
213.8590900884101
 20
-28.27396430574168
 10
213.8812840468101
 20
-28.53164278894168
  0
LINE
  5
21F
330
2
100
AcDbEntity
  8
0
100
AcDbLine
 10
214.1854623812101
 20
-29.15893840494168
 30
0.0
 11
214.1303745812101
 21
-28.51028477294168
 31
0.0
  0
LINE
  5
220
330
2
100
AcDbEntity
  8
0
100
AcDbLine
 10
214.1854623812101
 20
-29.15893840494168
 30
0.0
 11
214.1303745812101
 21
-28.51028477294168
 31
0.0
  0
LINE
  5
221
330
2
100
AcDbEntity
  8
0
100
AcDbLine
 10
213.9363422644101
 20
-29.17996784814168
 30
0.0
 11
213.8812840468101
 21
-28.53164278894169
 31
0.0
  0
LINE
  5
222
330
2
100
AcDbEntity
  8
0
100
AcDbLine
 10
213.8812840468101
 20
-28.53164278894169
 30
0.0
 11
213.9199853940101
 21
-28.98638093934168
 31
0.0
  0
LINE
  5
223
330
2
100
AcDbEntity
  8
0
100
AcDbLine
 10
214.0409905844101
 20
-30.42274591854168
 30
0.0
 11
213.9363422644101
 21
-29.17996784814168
 31
0.0
  0
LINE
  5
224
330
2
100
AcDbEntity
  8
0
100
AcDbLine
 10
213.9199853940101
 20
-28.98638093934168
 30
0.0
 11
214.0409905844101
 21
-30.42274591854168
 31
0.0
  0
LINE
  5
225
330
2
100
AcDbEntity
  8
0
100
AcDbLine
 10
214.0938550308101
 20
-31.04751294414168
 30
0.0
 11
214.0409905844101
 21
-30.42274591854168
 31
0.0
  0
LINE
  5
226
330
2
100
AcDbEntity
  8
0
100
AcDbLine
 10
214.0409905844101
 20
-30.42274591854168
 30
0.0
 11
214.1131694980101
 21
-31.27481489934168
 31
0.0
  0
LINE
  5
227
330
2
100
AcDbEntity
  8
0
100
AcDbLine
 10
214.3429696212101
 20
-31.02636141934169
 30
0.0
 11
214.2901137716101
 21
-30.40171518574168
 31
0.0
  0
LINE
  5
228
330
2
100
AcDbEntity
  8
0
100
AcDbLine
 10
214.3429696212101
 20
-31.02636141934169
 30
0.0
 11
214.2901137716101
 21
-30.40171518574168
 31
0.0
  0
LINE
  5
229
330
2
100
AcDbEntity
  8
0
100
AcDbLine
 10
214.2901137716101
 20
-30.40171518574168
 30
0.0
 11
214.1854623812101
 21
-29.15893840494168
 31
0.0
  0
LINE
  5
22A
330
2
100
AcDbEntity
  8
0
100
AcDbLine
 10
214.2901137716101
 20
-30.40171518574168
 30
0.0
 11
214.1854623812101
 21
-29.15893840494168
 31
0.0
  0
LINE
  5
22B
330
2
100
AcDbEntity
  8
0
100
AcDbLine
 10
213.7704944164101
 20
-27.28246768014168
 30
0.0
 11
214.0002987812101
 21
-27.05266331534168
 31
0.0
  0
LINE
  5
22C
330
2
100
AcDbEntity
  8
0
100
AcDbLine
 10
226.7058864020101
 20
-30.90482374414168
 30
0.0
 11
226.6042511076101
 21
-30.31232431694168
 31
0.0
  0
LINE
  5
22D
330
2
100
AcDbEntity
  8
0
100
AcDbLine
 10
226.6042511076101
 20
-30.31232431694168
 30
0.0
 11
226.5672461012101
 21
-30.09994500654169
 31
0.0
  0
LWPOLYLINE
  5
22E
330
2
100
AcDbEntity
  8
0
100
AcDbPolyline
 90
        3
 70
     0
 43
0.0
 10
223.7968581700101
 20
-30.51810944014167
 10
223.8322230292101
 20
-30.31232431694167
 10
223.8692280356101
 20
-30.09994500654168
  0
LINE
  5
22F
330
2
100
AcDbEntity
  8
0
  6
HIDDEN
100
AcDbLine
 10
212.1424243460101
 20
-21.21721597294168
 30
0.0
 11
212.3712370916101
 21
-20.98840322734168
 31
0.0
  0
LINE
  5
230
330
2
100
AcDbEntity
  8
0
100
AcDbLine
 10
216.5118924244101
 20
-13.75293411534168
 30
0.0
 11
216.4364692836101
 21
-14.71601919054168
 31
0.0
  0
LWPOLYLINE
  5
231
330
2
100
AcDbEntity
  8
0
100
AcDbPolyline
 90
        2
 70
     0
 43
0.0
 10
216.38716847401
 20
-14.69984810894167
 10
216.5446891536609
 20
-12.69823679534168
  0
LINE
  5
232
330
2
100
AcDbEntity
  8
0
100
AcDbLine
 10
216.38716845001
 20
-14.69984816494168
 30
0.0
 11
216.39363042921
 21
-14.71601924654167
 31
0.0
  0
LWPOLYLINE
  5
233
330
2
100
AcDbEntity
  8
0
100
AcDbPolyline
 90
        3
 70
     0
 43
0.0
 10
216.5962869936571
 20
-12.69823679534168
 10
216.5873460468101
 20
-12.80944949934168
 10
216.5118924244101
 20
-13.75293411534167
  0
LINE
  5
234
330
2
100
AcDbEntity
  8
0
100
AcDbLine
 10
220.3681524483626
 20
-12.69823679534168
 30
0.0
 11
220.2789701636101
 21
-14.71601919054168
 31
0.0
  0
LWPOLYLINE
  5
235
330
2
100
AcDbEntity
  8
0
100
AcDbPolyline
 90
        2
 70
     0
 43
0.0
 10
220.2514653124101
 20
-14.70006208334167
 10
220.3398202390674
 20
-12.69823679534168
  0
LINE
  5
236
330
2
100
AcDbEntity
  8
0
100
AcDbLine
 10
220.2514652964101
 20
-14.70006215054168
 30
0.0
 11
220.2550789924101
 21
-14.71601925774167
 31
0.0
  0
LINE
  5
237
330
2
100
AcDbEntity
  8
0
100
AcDbLine
 10
225.2182370676101
 20
-14.71601925934167
 30
0.0
 11
225.2182370676101
 21
-12.69823679534168
 31
0.0
  0
LINE
  5
238
330
2
100
AcDbEntity
  8
0
100
AcDbLine
 10
233.8491280900101
 20
-12.80944949774168
 30
0.0
 11
233.9700846196101
 21
-14.34101919054168
 31
0.0
  0
LINE
  5
239
330
2
100
AcDbEntity
  8
0
100
AcDbLine
 10
234.0493056628101
 20
-14.69984810894167
 30
0.0
 11
233.8917849832779
 21
-12.69823679534168
 31
0.0
  0
LINE
  5
23A
330
2
100
AcDbEntity
  8
0
100
AcDbLine
 10
234.0000048532101
 20
-14.71601919054168
 30
0.0
 11
233.9245817108101
 21
-13.75293411374168
 31
0.0
  0
LINE
  5
23B
330
2
100
AcDbEntity
  8
0
100
AcDbLine
 10
230.0698927588101
 20
-12.73225320014169
 30
0.0
 11
230.1575039732101
 21
-14.71601919054168
 31
0.0
  0
LINE
  5
23C
330
2
100
AcDbEntity
  8
0
100
AcDbLine
 10
230.1850088244101
 20
-14.70006208334167
 30
0.0
 11
230.1193409284101
 21
-13.20632885134168
 31
0.0
  0
LINE
  5
23D
330
2
100
AcDbEntity
  8
0
100
AcDbLine
 10
230.1850088372101
 20
-14.70006213934168
 30
0.0
 11
230.1813951412101
 21
-14.71601924814167
 31
0.0
  0
LINE
  5
23E
330
2
100
AcDbEntity
  8
0
100
AcDbLine
 10
234.0493056836101
 20
-14.69984816014168
 30
0.0
 11
234.0428437044101
 21
-14.71601924014167
 31
0.0
  0
LINE
  5
23F
330
2
100
AcDbEntity
  8
0
100
AcDbLine
 10
230.1193409284101
 20
-13.20632885134168
 30
0.0
 11
230.0966286521106
 21
-12.69823679534168
 31
0.0
  0
LWPOLYLINE
  5
240
330
2
100
AcDbEntity
  8
0
  6
HIDDEN
100
AcDbPolyline
 90
       32
 70
     0
 43
0.0
 10
238.4915231588101
 20
-20.95902718094168
 10
238.2974959652101
 20
-20.96623686734167
 10
238.1086676692101
 20
-20.97567905614167
 10
237.9723518468101
 20
-20.98486704494168
 10
237.84227851241
 20
-20.99640556334168
 10
237.7200421428101
 20
-21.01079944974168
 10
237.6072372084101
 20
-21.02855355214168
 10
237.5066961140101
 20
-21.04983008654168
 10
237.4159536084101
 20
-21.07568564174167
 10
237.3341548468101
 20
-21.10696475214167
 10
237.2604449892101
 20
-21.14451195214167
 10
237.1939691940101
 20
-21.18917177294167
 10
237.1338726164101
 20
-21.24178875374167
 10
237.0836985476101
 20
-21.29787014094168
 10
237.0384635588101
 20
-21.36200045774168
 10
236.99844235561
 20
-21.43479714254168
 10
236.9639096468101
 20
-21.51687763214167
 10
236.9351401380101
 20
-21.60885936654167
 10
236.9124085412101
 20
-21.71135978254167
 10
236.8944104036101
 20
-21.83535204974167
 10
236.8817178228101
 20
-21.97095299534167
 10
236.8721405140101
 20
-22.11654785454168
 10
236.8634881972101
 20
-22.27052185774167
 10
236.8518841540101
 20
-22.46445538254167
 10
236.8385384580101
 20
-22.66735733134167
 10
236.8235322484101
 20
-22.87845129134167
 10
236.8069466676101
 20
-23.09696085294167
 10
236.7825511988101
 20
-23.39842645934167
 10
236.7558957060101
 20
-23.70941122574168
 10
236.7273836900101
 20
-24.02763130094168
 10
236.6820532980101
 20
-24.51319177614168
 10
236.63503117641
 20
-25.00014550894167
  0
LWPOLYLINE
  5
241
330
2
100
AcDbEntity
  8
0
  6
HIDDEN
100
AcDbPolyline
 90
       32
 70
     0
 43
0.0
 10
238.4915231588101
 20
-20.95902718094168
 10
238.2974959652101
 20
-20.96623686734167
 10
238.1086676692101
 20
-20.97567905614167
 10
237.9723518468101
 20
-20.98486704494168
 10
237.84227851241
 20
-20.99640556334168
 10
237.7200421428101
 20
-21.01079944974168
 10
237.6072372084101
 20
-21.02855355214168
 10
237.5066961140101
 20
-21.04983008654168
 10
237.4159536084101
 20
-21.07568564174167
 10
237.3341548468101
 20
-21.10696475214167
 10
237.2604449892101
 20
-21.14451195214167
 10
237.1939691940101
 20
-21.18917177294167
 10
237.1338726164101
 20
-21.24178875374167
 10
237.0836985476101
 20
-21.29787014094168
 10
237.0384635588101
 20
-21.36200045774168
 10
236.99844235561
 20
-21.43479714254168
 10
236.9639096468101
 20
-21.51687763214167
 10
236.9351401380101
 20
-21.60885936654167
 10
236.9124085412101
 20
-21.71135978254167
 10
236.8944104036101
 20
-21.83535204974167
 10
236.8817178228101
 20
-21.97095299534167
 10
236.8721405140101
 20
-22.11654785454168
 10
236.8634881972101
 20
-22.27052185774167
 10
236.8518841540101
 20
-22.46445538254167
 10
236.8385384580101
 20
-22.66735733134167
 10
236.8235322484101
 20
-22.87845129134167
 10
236.8069466676101
 20
-23.09696085294167
 10
236.7825511988101
 20
-23.39842645934167
 10
236.7558957060101
 20
-23.70941122574168
 10
236.7273836900101
 20
-24.02763130094168
 10
236.6820532980101
 20
-24.51319177614168
 10
236.63503117641
 20
-25.00014550894167
  0
LWPOLYLINE
  5
242
330
2
100
AcDbEntity
  8
0
  6
HIDDEN
100
AcDbPolyline
 90
       38
 70
     0
 43
0.0
 10
236.8838465956101
 20
-25.02446566574167
 10
236.9309261540101
 20
-24.53692622094168
 10
236.9763497300101
 20
-24.05035759534168
 10
237.0049427396101
 20
-23.73121091694167
 10
237.0316910964101
 20
-23.41912984654168
 10
237.0561876660101
 20
-23.11644367534167
 10
237.0728543636101
 20
-22.89691078414168
 10
237.0879551892101
 20
-22.68444613934168
 10
237.1014089220101
 20
-22.47977736654168
 10
237.1130903940101
 20
-22.28464904654168
 10
237.1188646548101
 20
-22.18126818574167
 10
237.1246364308101
 20
-22.08265412334167
 10
237.1309920052101
 20
-21.99001366734167
 10
237.1364781876101
 20
-21.92511795054168
 10
237.1427720772101
 20
-21.86440121294168
 10
237.1500232100101
 20
-21.80800344974167
 10
237.1583811236101
 20
-21.75606465934168
 10
237.1671189700101
 20
-21.71238535534168
 10
237.1768266900101
 20
-21.67233271534168
 10
237.1987992372101
 20
-21.60212201614168
 10
237.2235937140101
 20
-21.54346173294168
 10
237.24365326761
 20
-21.50589188014168
 10
237.2648217364101
 20
-21.47306497774168
 10
237.28701728681
 20
-21.44433545774167
 10
237.31015808841
 20
-21.41905775854167
 10
237.3458150868101
 20
-21.38728331854167
 10
237.3864293348101
 20
-21.35996790254167
 10
237.4351400980101
 20
-21.33566179854168
 10
237.4947464676101
 20
-21.31321902254168
 10
237.5666868324101
 20
-21.29270851854168
 10
237.6520594052101
 20
-21.27450295854168
 10
237.7532415364101
 20
-21.25862667054168
 10
237.86709674601
 20
-21.24528377614167
 10
237.9912596548101
 20
-21.23423643534168
 10
238.1233648868101
 20
-21.22524680654167
 10
238.3081845172101
 20
-21.21596837294168
 10
238.4997893172101
 20
-21.20886911054167
 10
238.9572319924101
 20
-21.19484610734168
  0
LWPOLYLINE
  5
243
330
2
100
AcDbEntity
  8
0
  6
HIDDEN
100
AcDbPolyline
 90
       38
 70
     0
 43
0.0
 10
238.9572319924101
 20
-21.19484610734168
 10
238.4997893172101
 20
-21.20886911054167
 10
238.3081845172101
 20
-21.21596837294168
 10
238.1233648868101
 20
-21.22524680654167
 10
237.9912596548101
 20
-21.23423643534168
 10
237.86709674601
 20
-21.24528377614167
 10
237.7532415364101
 20
-21.25862667054168
 10
237.6520594052101
 20
-21.27450295854168
 10
237.5666868324101
 20
-21.29270851854168
 10
237.4947464676101
 20
-21.31321902254168
 10
237.4351400980101
 20
-21.33566179854168
 10
237.3864293348101
 20
-21.35996790254167
 10
237.3458150868101
 20
-21.38728331854167
 10
237.31015808841
 20
-21.41905775854167
 10
237.28701728681
 20
-21.44433545774167
 10
237.2648217364101
 20
-21.47306497774168
 10
237.24365326761
 20
-21.50589188014168
 10
237.2235937140101
 20
-21.54346173294168
 10
237.1987992372101
 20
-21.60212201614168
 10
237.1768266900101
 20
-21.67233271534168
 10
237.1671189700101
 20
-21.71238535534168
 10
237.1583811236101
 20
-21.75606465934168
 10
237.1500232100101
 20
-21.80800344974167
 10
237.1427720772101
 20
-21.86440121294168
 10
237.1364781876101
 20
-21.92511795054168
 10
237.1309920052101
 20
-21.99001366734167
 10
237.1246364308101
 20
-22.08265412334167
 10
237.1188646548101
 20
-22.18126818574167
 10
237.1130903940101
 20
-22.28464904654168
 10
237.1014089220101
 20
-22.47977736654168
 10
237.0879551892101
 20
-22.68444613934168
 10
237.0728543636101
 20
-22.89691078414168
 10
237.0561876660101
 20
-23.11644367534167
 10
237.0316910964101
 20
-23.41912984654168
 10
237.0049427396101
 20
-23.73121091694167
 10
236.9763497300101
 20
-24.05035759534168
 10
236.9309261540101
 20
-24.53692622094168
 10
236.8838465956101
 20
-25.02446566574167
  0
LWPOLYLINE
  5
244
330
2
100
AcDbEntity
  8
0
100
AcDbPolyline
 90
       19
 70
     0
 43
0.0
 10
245.3935860468101
 20
-14.71601919054168
 10
245.1987399652101
 20
-15.71041388014167
 10
245.0132403764101
 20
-16.72434551854168
 10
244.8371022708101
 20
-17.73994526414168
 10
244.67034064041
 20
-18.75712667214168
 10
244.51297047881
 20
-19.77580329774168
 10
244.3800773636101
 20
-20.68887703054168
 10
244.2547299636101
 20
-21.60301721614168
 10
244.1369365300101
 20
-22.51816144494168
 10
244.0267051092101
 20
-23.43424729134167
 10
243.9240429572101
 20
-24.35121224174167
 10
243.8289571220101
 20
-25.26899376014168
 10
243.76261884681
 20
-25.95782814414167
 10
243.7005485860101
 20
-26.64706022414168
 10
243.6427486740101
 20
-27.33666354894168
 10
243.5892213092101
 20
-28.02661165934168
 10
243.5399685956101
 20
-28.71687809134167
 10
243.4949923780101
 20
-29.40743635534168
 10
243.4495893092101
 20
-30.18315367854167
  0
LWPOLYLINE
  5
245
330
2
100
AcDbEntity
  8
0
100
AcDbPolyline
 90
       47
 70
     0
 43
0.0
 10
241.1925552996101
 20
-13.27683219214168
 10
241.1376129796101
 20
-14.03978967214167
 10
241.0896531236101
 20
-14.78683040974167
 10
241.0470521972101
 20
-15.51747812814167
 10
241.0081866628101
 20
-16.26682134254167
 10
240.9714329860101
 20
-17.01660138094168
 10
240.9351676292101
 20
-17.76634196814168
 10
240.8883425220101
 20
-18.69714244974167
 10
240.8366503572101
 20
-19.62623307054168
 10
240.8235101476101
 20
-19.84025084174168
 10
240.8087001300101
 20
-20.05480322254168
 10
240.79761475081
 20
-20.19387975374167
 10
240.7846794628101
 20
-20.33313794574168
 10
240.7692602212101
 20
-20.47225533294168
 10
240.7507229716101
 20
-20.61090945454167
 10
240.7284336692101
 20
-20.74877784494167
 10
240.7017582612101
 20
-20.88553804014168
 10
240.6700626996101
 20
-21.02086758094167
 10
240.6327129348101
 20
-21.15444399854168
 10
240.5890749188101
 20
-21.28594483214168
 10
240.5385145988101
 20
-21.41504761934168
 10
240.4889038740101
 20
-21.52397006414167
 10
240.4331738116101
 20
-21.62988821134168
 10
240.3708132356101
 20
-21.73181686254167
 10
240.3085371140101
 20
-21.81975977454168
 10
240.2409898164101
 20
-21.90383251374167
 10
240.1687230740101
 20
-21.98422096974167
 10
240.0922886164101
 20
-22.06111102894168
 10
240.0122381732101
 20
-22.13468858574167
 10
239.9291234756101
 20
-22.20513952654167
 10
239.8434962532101
 20
-22.27264974094168
 10
239.7559082340101
 20
-22.33740512014168
 10
239.6076597220101
 20
-22.43902327854168
 10
239.4558766196101
 20
-22.53407430734167
 10
239.3008888116101
 20
-22.62303662254167
 10
239.1430261812101
 20
-22.70638863534168
 10
238.9826186116101
 20
-22.78460875854168
 10
238.7740198996101
 20
-22.87815844174168
 10
238.5626250868101
 20
-22.96570719374167
 10
238.3492711444101
 20
-23.04888659534167
 10
238.1347950500101
 20
-23.12932822894168
 10
237.8016656292101
 20
-23.25197174254167
 10
237.4689890244101
 20
-23.37513523854167
 10
237.1379036084101
 20
-23.50199792654167
 10
236.8903676324101
 20
-23.60187940654167
 10
236.6448647972101
 20
-23.70701686574168
 10
236.4018809556101
 20
-23.81876716814167
  0
LWPOLYLINE
  5
246
330
2
100
AcDbEntity
  8
0
100
AcDbPolyline
 90
       13
 70
     0
 43
0.0
 10
236.7915784084101
 20
-25.96073611374168
 10
236.7670584756101
 20
-26.21158166894167
 10
236.7437119492101
 20
-26.45289728654168
 10
236.7214134388101
 20
-26.68600219694168
 10
236.7000375572101
 20
-26.91221563214168
 10
236.6727401124101
 20
-27.20553660974168
 10
236.6464742980101
 20
-27.49293633934168
 10
236.6208544308101
 20
-27.77839978254167
 10
236.5991729828101
 20
-28.02390359854168
 10
236.5773840484101
 20
-28.27396430254168
 10
236.5551900900101
 20
-28.53164278574168
 10
236.5322935684101
 20
-28.79999994094168
 10
236.3954835540101
 20
-30.42274589774168
  0
LWPOLYLINE
  5
247
330
2
100
AcDbEntity
  8
0
100
AcDbPolyline
 90
       13
 70
     0
 43
0.0
 10
236.5427745236101
 20
-25.93629592814168
 10
236.5182362228101
 20
-26.18732844334167
 10
236.4948647332101
 20
-26.42890060174168
 10
236.4725371748101
 20
-26.66230675054168
 10
236.4511306692101
 20
-26.88884123694168
 10
236.4237933860101
 20
-27.18258665454168
 10
236.3974899556101
 20
-27.47039419534167
 10
236.3718352532101
 20
-27.75624120654168
 10
236.3501267140101
 20
-28.00204713774167
 10
236.3283137764101
 20
-28.25237769454167
 10
236.30609955401
 20
-28.51028477294168
 10
236.2831871588101
 20
-28.77882026094168
 10
236.1463603652101
 20
-30.40171518574168
  0
LWPOLYLINE
  5
248
330
2
100
AcDbEntity
  8
0
100
AcDbPolyline
 90
       13
 70
     0
 43
0.0
 10
236.5427745236101
 20
-25.93629592814168
 10
236.5182362228101
 20
-26.18732844334167
 10
236.4948647332101
 20
-26.42890060174168
 10
236.4725371748101
 20
-26.66230675054168
 10
236.4511306692101
 20
-26.88884123694168
 10
236.4237933860101
 20
-27.18258665454168
 10
236.3974899556101
 20
-27.47039419534167
 10
236.3718352532101
 20
-27.75624120654168
 10
236.3501267140101
 20
-28.00204713774167
 10
236.3283137764101
 20
-28.25237769454167
 10
236.30609955401
 20
-28.51028477294168
 10
236.2831871588101
 20
-28.77882026094168
 10
236.1463603652101
 20
-30.40171518574168
  0
LWPOLYLINE
  5
249
330
2
100
AcDbEntity
  8
0
100
AcDbPolyline
 90
       13
 70
     0
 43
0.0
 10
236.5001318708101
 20
-29.17996785454167
 10
236.5322935684101
 20
-28.79999994094168
 10
236.5551900900101
 20
-28.53164278574168
 10
236.5773840484101
 20
-28.27396430254168
 10
236.5991729828101
 20
-28.02390359854168
 10
236.6208544308101
 20
-27.77839978254167
 10
236.6464742980101
 20
-27.49293633934168
 10
236.6727401124101
 20
-27.20553660974168
 10
236.7000375572101
 20
-26.91221563214168
 10
236.7214134388101
 20
-26.68600219694168
 10
236.7437119492101
 20
-26.45289728654168
 10
236.7670584756101
 20
-26.21158166894167
 10
236.7915784084101
 20
-25.96073611374168
  0
LINE
  5
24A
330
2
100
AcDbEntity
  8
0
100
AcDbLine
 10
236.3954835540101
 20
-30.42274589774168
 30
0.0
 11
236.3426191092101
 21
-31.04751290254168
 31
0.0
  0
LINE
  5
24B
330
2
100
AcDbEntity
  8
0
100
AcDbLine
 10
236.3426191092101
 20
-31.04751290254168
 30
0.0
 11
236.5001318708101
 21
-29.17996785454168
 31
0.0
  0
LINE
  5
24C
330
2
100
AcDbEntity
  8
0
100
AcDbLine
 10
236.3717942532101
 20
-27.76113318254168
 30
0.0
 11
236.64740277641
 21
-27.48552465934168
 31
0.0
  0
LINE
  5
24D
330
2
100
AcDbEntity
  8
0
100
AcDbLine
 10
236.7915784084101
 20
-25.96073611374169
 30
0.0
 11
236.8838465956101
 21
-25.02446566574168
 31
0.0
  0
LINE
  5
24E
330
2
100
AcDbEntity
  8
0
100
AcDbLine
 10
236.8838465956101
 20
-25.02446566574168
 30
0.0
 11
236.7915784084101
 21
-25.96073611374169
 31
0.0
  0
LINE
  5
24F
330
2
100
AcDbEntity
  8
0
100
AcDbLine
 10
236.63503117641
 20
-25.00014550894168
 30
0.0
 11
236.5427745236101
 21
-25.93629592814169
 31
0.0
  0
LINE
  5
250
330
2
100
AcDbEntity
  8
0
100
AcDbLine
 10
236.63503117641
 20
-25.00014550894168
 30
0.0
 11
236.5427745236101
 21
-25.93629592814169
 31
0.0
  0
LWPOLYLINE
  5
251
330
2
100
AcDbEntity
  8
0
  6
HIDDEN
100
AcDbPolyline
 90
      110
 70
     0
 43
0.0
 10
240.8911488276101
 20
-16.33296503214168
 10
240.77036657001
 20
-16.38472899694167
 10
240.6494460340101
 20
-16.43414560974167
 10
240.52836229481
 20
-16.48142737294168
 10
240.4070904292101
 20
-16.52678679374167
 10
240.2856055140101
 20
-16.57043637614168
 10
240.1638826276101
 20
-16.61258862734167
 10
240.0418968452101
 20
-16.65345604974167
 10
239.9196232452101
 20
-16.69325114894168
 10
239.7970369012101
 20
-16.73218643214167
 10
239.5824091124101
 20
-16.79867122894168
 10
239.3666219332101
 20
-16.86431438414167
 10
239.1495431364101
 20
-16.93024334894167
 10
239.0982616020101
 20
-16.94587609454167
 10
239.0468881220101
 20
-16.96133989134168
 10
238.9954095812101
 20
-16.97638754734167
 10
238.9438128612101
 20
-16.99077186574167
 10
238.8920848484101
 20
-17.00424565774167
 10
238.8402124260101
 20
-17.01656172814168
 10
238.78818247721
 20
-17.02747288654167
 10
238.7359818868101
 20
-17.03673193774167
 10
238.6835975396101
 20
-17.04409169134167
 10
238.6310163188101
 20
-17.04930495214168
 10
238.5782251076101
 20
-17.05212452814167
 10
238.52126067401
 20
-17.05242621134168
 10
238.4641596068101
 20
-17.05070605454167
 10
238.4070429908101
 20
-17.04799275694168
 10
238.33531814121
 20
-17.04453617294167
 10
238.26364453801
 20
-17.04186068654168
 10
238.1919065236101
 20
-17.04069115374167
 10
238.11998843721
 20
-17.04175244014168
 10
238.0857223764101
 20
-17.04327849614168
 10
238.0514977252101
 20
-17.04572697614167
 10
238.0174227316101
 20
-17.04935231694167
 10
237.9836056404101
 20
-17.05440895374168
 10
237.9501546996101
 20
-17.06115132334167
 10
237.9171781556101
 20
-17.06983386414168
 10
237.8836514916101
 20
-17.08107215534167
 10
237.8508614916101
 20
-17.09454879694168
 10
237.8189203220101
 20
-17.11014986734167
 10
237.7879401476101
 20
-17.12776144654168
 10
237.7580331332101
 20
-17.14726961294168
 10
237.7293114420101
 20
-17.16856044974167
 10
237.7018872404101
 20
-17.19152003374168
 10
237.6728180052101
 20
-17.21909765294168
 10
237.6455904308101
 20
-17.24848964334168
 10
237.62027557161
 20
-17.27955742574168
 10
237.5969444868101
 20
-17.31216242094167
 10
237.5756682308101
 20
-17.34616604974168
 10
237.5565178612101
 20
-17.38142973454168
 10
237.5395644340101
 20
-17.41781489614167
 10
237.5248790084101
 20
-17.45518295694168
 10
237.5125326388101
 20
-17.49339533774168
 10
237.5019448820101
 20
-17.53522046254168
 10
237.4941578628101
 20
-17.57763704334168
 10
237.4891908116101
 20
-17.62042203854167
 10
237.4870629572101
 20
-17.66335241454167
 10
237.4877935348101
 20
-17.70620512814168
 10
237.4914017700101
 20
-17.74875714094167
 10
237.4979068980101
 20
-17.79078541614168
 10
237.50723847401
 20
-17.83200180014168
 10
237.5191346068101
 20
-17.87255353294168
 10
237.5332601284101
 20
-17.91251854414167
 10
237.5492798708101
 20
-17.95197476174168
 10
237.5668586676101
 20
-17.99100011374167
 10
237.5856613476101
 20
-18.02967252814168
 10
237.5980850980101
 20
-18.05386907534168
 10
237.6112363988101
 20
-18.07756823214168
 10
237.6254886948101
 20
-18.10038218254168
 10
237.6412154308101
 20
-18.12192311534167
 10
237.6587900548101
 20
-18.14180321294168
 10
237.6755658244101
 20
-18.15731161614167
 10
237.6937452004101
 20
-18.17138719534168
 10
237.7130930452101
 20
-18.18410848494168
 10
237.7333742180101
 20
-18.19555401454167
 10
237.7543535796101
 20
-18.20580231534167
 10
237.7757959876101
 20
-18.21493192014168
 10
237.8119249556101
 20
-18.22792088334168
 10
237.8484792884101
 20
-18.23895546574168
 10
237.8852563252101
 20
-18.24894758094168
 10
237.9220534020101
 20
-18.25880914574168
 10
237.9756967172101
 20
-18.27435437774168
 10
238.0290773076101
 20
-18.29104587054168
 10
238.0823243060101
 20
-18.30835325294168
 10
238.1355668500101
 20
-18.32574615694167
 10
238.1889340708101
 20
-18.34269420974168
 10
238.2425551060101
 20
-18.35866704334168
 10
238.2965590884101
 20
-18.37313428654167
 10
238.3510751540101
 20
-18.38556557134167
 10
238.3979187748101
 20
-18.39416600334168
 10
238.4450912468101
 20
-18.40072699374167
 10
238.4924573220101
 20
-18.40506656014167
 10
238.54397455081
 20
-18.40715095214167
 10
238.5955374164101
 20
-18.40676851854168
 10
238.6471227556101
 20
-18.40428601454168
 10
238.6987074084101
 20
-18.40007019214167
 10
238.7502682100101
 20
-18.39448780014168
 10
238.8017819988101
 20
-18.38790559374167
 10
238.8532256132101
 20
-18.38069032494168
 10
239.0007261380101
 20
-18.35829185934167
 10
239.1475296356101
 20
-18.33380936974167
 10
239.2937115780101
 20
-18.30736294414167
 10
239.4393474388101
 20
-18.27907267534168
 10
239.5845126900101
 20
-18.24905865134167
 10
239.7793023044101
 20
-18.20614801934168
 10
239.9735600580101
 20
-18.16062466574168
 10
240.1674700180101
 20
-18.11278146894167
 10
240.3612162500101
 20
-18.06291131214168
 10
240.55498282281
 20
-18.01130707374167
 10
240.7489538004101
 20
-17.95826163534167
  0
LWPOLYLINE
  5
252
330
2
100
AcDbEntity
  8
0
100
AcDbPolyline
 90
        3
 70
     0
 43
0.0
 10
241.1280691892101
 20
-16.78250282094167
 10
241.1393818068101
 20
-16.65697050574168
 10
241.1588860980101
 20
-16.43321665614168
  0
LWPOLYLINE
  5
253
330
2
100
AcDbEntity
  8
0
100
AcDbPolyline
 90
        4
 70
     0
 43
0.0
 10
241.1678067700101
 20
-16.32864292654167
 10
241.1504098868101
 20
-16.53145718734167
 10
241.1393818068101
 20
-16.65697050574168
 10
241.1280691892101
 20
-16.78250282094167
  0
LWPOLYLINE
  5
254
330
2
100
AcDbEntity
  8
0
100
AcDbPolyline
 90
        4
 70
     0
 43
0.0
 10
240.9187047172101
 20
-16.30746976174168
 10
240.9013481396101
 20
-16.50981759374167
 10
240.8903639812101
 20
-16.63483411854167
 10
240.8791038404101
 20
-16.75978316334168
  0
LWPOLYLINE
  5
255
330
2
100
AcDbEntity
  8
0
100
AcDbPolyline
 90
        4
 70
     0
 43
0.0
 10
240.9187047172101
 20
-16.30746976174168
 10
240.9013481396101
 20
-16.50981759374167
 10
240.8903639812101
 20
-16.63483411854167
 10
240.8791038404101
 20
-16.75978316334168
  0
LINE
  5
256
330
2
100
AcDbEntity
  8
0
100
AcDbLine
 10
240.8197937092101
 20
-17.38080994574168
 30
0.0
 11
241.1588770212101
 21
-13.25939174094168
 31
0.0
  0
LWPOLYLINE
  5
257
330
2
100
AcDbEntity
  8
0
  6
HIDDEN
100
AcDbPolyline
 90
       33
 70
     0
 43
0.0
 10
240.7848422916101
 20
-17.73860269614167
 10
240.7670680132101
 20
-17.92479913294168
 10
240.7488111460101
 20
-18.12164718414168
 10
240.7245789604101
 20
-18.39588699534167
 10
240.7017377924101
 20
-18.67656913134167
 10
240.6817031652101
 20
-18.95584735854168
 10
240.6672321780101
 20
-19.19120459854168
 10
240.6540304788101
 20
-19.41746334734168
 10
240.6401954852101
 20
-19.63247439374168
 10
240.6282300100101
 20
-19.78503269134167
 10
240.6138607972101
 20
-19.92899373294167
 10
240.5961105396101
 20
-20.06329602574167
 10
240.5740019332101
 20
-20.18687807694168
 10
240.5502180212101
 20
-20.28601215214167
 10
240.5218268020101
 20
-20.37636360014168
 10
240.4883457268101
 20
-20.45825771694168
 10
240.4492922436101
 20
-20.53201980654167
 10
240.4041838036101
 20
-20.59797516974168
 10
240.3525378580101
 20
-20.65644910574167
 10
240.2961889252101
 20
-20.70592045934167
 10
240.2322706052101
 20
-20.74922713934167
 10
240.1596963892101
 20
-20.78681300494167
 10
240.07737976681
 20
-20.81912191534168
 10
239.9842342292101
 20
-20.84659772974168
 10
239.8791732660101
 20
-20.86968430734168
 10
239.7847371508101
 20
-20.88548670574167
 10
239.6825234468101
 20
-20.89895205774168
 10
239.5732989908101
 20
-20.91033608014168
 10
239.4578306132101
 20
-20.91989449454167
 10
239.2954854084101
 20
-20.93024119054168
 10
239.1252208436101
 20
-20.93840311854167
 10
238.9488546020101
 20
-20.94498642254168
 10
238.4915231588101
 20
-20.95902718094168
  0
LWPOLYLINE
  5
258
330
2
100
AcDbEntity
  8
0
  6
HIDDEN
100
AcDbPolyline
 90
       33
 70
     0
 43
0.0
 10
240.7848422916101
 20
-17.73860269614167
 10
240.7670680132101
 20
-17.92479913294168
 10
240.7488111460101
 20
-18.12164718414168
 10
240.7245789604101
 20
-18.39588699534167
 10
240.7017377924101
 20
-18.67656913134167
 10
240.6817031652101
 20
-18.95584735854168
 10
240.6672321780101
 20
-19.19120459854168
 10
240.6540304788101
 20
-19.41746334734168
 10
240.6401954852101
 20
-19.63247439374168
 10
240.6282300100101
 20
-19.78503269134167
 10
240.6138607972101
 20
-19.92899373294167
 10
240.5961105396101
 20
-20.06329602574167
 10
240.5740019332101
 20
-20.18687807694168
 10
240.5502180212101
 20
-20.28601215214167
 10
240.5218268020101
 20
-20.37636360014168
 10
240.4883457268101
 20
-20.45825771694168
 10
240.4492922436101
 20
-20.53201980654167
 10
240.4041838036101
 20
-20.59797516974168
 10
240.3525378580101
 20
-20.65644910574167
 10
240.2961889252101
 20
-20.70592045934167
 10
240.2322706052101
 20
-20.74922713934167
 10
240.1596963892101
 20
-20.78681300494167
 10
240.07737976681
 20
-20.81912191534168
 10
239.9842342292101
 20
-20.84659772974168
 10
239.8791732660101
 20
-20.86968430734168
 10
239.7847371508101
 20
-20.88548670574167
 10
239.6825234468101
 20
-20.89895205774168
 10
239.5732989908101
 20
-20.91033608014168
 10
239.4578306132101
 20
-20.91989449454167
 10
239.2954854084101
 20
-20.93024119054168
 10
239.1252208436101
 20
-20.93840311854167
 10
238.9488546020101
 20
-20.94498642254168
 10
238.4915231588101
 20
-20.95902718094168
  0
LWPOLYLINE
  5
259
330
2
100
AcDbEntity
  8
0
100
AcDbPolyline
 90
       31
 70
     0
 43
0.0
 10
241.0336751348101
 20
-17.76273884494168
 10
241.0159511956101
 20
-17.94840353774167
 10
240.9977797748101
 20
-18.14433243054168
 10
240.9737162932101
 20
-18.41670243534167
 10
240.95105928841
 20
-18.69513749134168
 10
240.9311636212101
 20
-18.97226315854167
 10
240.9167370164101
 20
-19.20630781134168
 10
240.9035051060101
 20
-19.43265834414168
 10
240.8895702404101
 20
-19.65014447214167
 10
240.8774248404101
 20
-19.80674198894168
 10
240.8624677476101
 20
-19.95722640974167
 10
240.8433501044101
 20
-20.10112915214168
 10
240.8187230564101
 20
-20.23798163854167
 10
240.7913632084101
 20
-20.35218755534168
 10
240.7572698596101
 20
-20.46072099214168
 10
240.7150113268101
 20
-20.56372194574167
 10
240.6633044212101
 20
-20.66105902254168
 10
240.6014599524101
 20
-20.75151526574168
 10
240.5289372324101
 20
-20.83360232654168
 10
240.4489535012101
 20
-20.90339518574168
 10
240.3597687604101
 20
-20.96383665454168
 10
240.2625424612101
 20
-21.01467857134167
 10
240.1581143428101
 20
-21.05597701934168
 10
240.0460452916101
 20
-21.08900508974168
 10
239.9255764804101
 20
-21.11534012174168
 10
239.7853450804101
 20
-21.13793538894167
 10
239.6352743060101
 20
-21.15555925614168
 10
239.4762247092101
 20
-21.16921696334168
 10
239.3091836356101
 20
-21.17985451534168
 10
239.1356456196101
 20
-21.18818096014167
 10
238.9572319924101
 20
-21.19484610734168
  0
LWPOLYLINE
  5
25A
330
2
100
AcDbEntity
  8
0
100
AcDbPolyline
 90
       31
 70
     0
 43
0.0
 10
238.9572319924101
 20
-21.19484610734168
 10
239.1356456196101
 20
-21.18818096014167
 10
239.3091836356101
 20
-21.17985451534168
 10
239.4762247092101
 20
-21.16921696334168
 10
239.6352743060101
 20
-21.15555925614168
 10
239.7853450804101
 20
-21.13793538894167
 10
239.9255764804101
 20
-21.11534012174168
 10
240.0460452916101
 20
-21.08900508974168
 10
240.1581143428101
 20
-21.05597701934168
 10
240.2625424612101
 20
-21.01467857134167
 10
240.3597687604101
 20
-20.96383665454168
 10
240.4489535012101
 20
-20.90339518574168
 10
240.5289372324101
 20
-20.83360232654168
 10
240.6014599524101
 20
-20.75151526574168
 10
240.6633044212101
 20
-20.66105902254168
 10
240.7150113268101
 20
-20.56372194574167
 10
240.7572698596101
 20
-20.46072099214168
 10
240.7913632084101
 20
-20.35218755534168
 10
240.8187230564101
 20
-20.23798163854167
 10
240.8433501044101
 20
-20.10112915214168
 10
240.8624677476101
 20
-19.95722640974167
 10
240.8774248404101
 20
-19.80674198894168
 10
240.8895702404101
 20
-19.65014447214167
 10
240.9035051060101
 20
-19.43265834414168
 10
240.9167370164101
 20
-19.20630781134168
 10
240.9311636212101
 20
-18.97226315854167
 10
240.95105928841
 20
-18.69513749134168
 10
240.9737162932101
 20
-18.41670243534167
 10
240.9977797748101
 20
-18.14433243054168
 10
241.0159511956101
 20
-17.94840353774167
 10
241.0336751348101
 20
-17.76273884494168
  0
LINE
  5
25B
330
2
100
AcDbEntity
  8
0
100
AcDbLine
 10
241.1091074516101
 20
-16.98617871214168
 30
0.0
 11
241.1280691892101
 21
-16.78250282094167
 31
0.0
  0
LINE
  5
25C
330
2
100
AcDbEntity
  8
0
100
AcDbLine
 10
241.1280691892101
 20
-16.78250282094167
 30
0.0
 11
241.1091074516101
 21
-16.98617871214168
 31
0.0
  0
LINE
  5
25D
330
2
100
AcDbEntity
  8
0
100
AcDbLine
 10
240.8791038404101
 20
-16.75978316334168
 30
0.0
 11
240.8602220948101
 21
-16.96259716334169
 31
0.0
  0
LINE
  5
25E
330
2
100
AcDbEntity
  8
0
100
AcDbLine
 10
240.8791038404101
 20
-16.75978316334168
 30
0.0
 11
240.8602220948101
 21
-16.96259716334169
 31
0.0
  0
LINE
  5
25F
330
2
100
AcDbEntity
  8
0
100
AcDbLine
 10
241.0336751348101
 20
-17.76273884494168
 30
0.0
 11
241.0855356292101
 21
-17.23162593774168
 31
0.0
  0
LWPOLYLINE
  5
260
330
2
100
AcDbEntity
  8
0
100
AcDbPolyline
 90
        3
 70
     0
 43
0.0
 10
241.09407709481
 20
-17.14336217934167
 10
241.0658744884101
 20
-17.43301999854168
 10
241.0336751348101
 20
-17.76273884494168
  0
LWPOLYLINE
  5
261
330
2
100
AcDbEntity
  8
0
100
AcDbPolyline
 90
        3
 70
     0
 43
0.0
 10
240.8452358708101
 20
-17.11932196654167
 10
240.8170678548101
 20
-17.40862188014168
 10
240.7848422916101
 20
-17.73860269614167
  0
LWPOLYLINE
  5
262
330
2
100
AcDbEntity
  8
0
100
AcDbPolyline
 90
        3
 70
     0
 43
0.0
 10
240.8452358708101
 20
-17.11932196654167
 10
240.8170678548101
 20
-17.40862188014168
 10
240.7848422916101
 20
-17.73860269614167
  0
LINE
  5
263
330
2
100
AcDbEntity
  8
0
100
AcDbLine
 10
241.0855356292101
 20
-17.23162593774168
 30
0.0
 11
241.1091074516101
 21
-16.98617871214168
 31
0.0
  0
LINE
  5
264
330
2
100
AcDbEntity
  8
0
100
AcDbLine
 10
241.1091074516101
 20
-16.98617871214168
 30
0.0
 11
241.09407709481
 21
-17.14336217934168
 31
0.0
  0
LINE
  5
265
330
2
100
AcDbEntity
  8
0
100
AcDbLine
 10
240.8602220948101
 20
-16.96259716334169
 30
0.0
 11
240.8452358708101
 21
-17.11932196654168
 31
0.0
  0
LINE
  5
266
330
2
100
AcDbEntity
  8
0
100
AcDbLine
 10
240.8602220948101
 20
-16.96259716334169
 30
0.0
 11
240.8452358708101
 21
-17.11932196654168
 31
0.0
  0
LINE
  5
267
330
2
100
AcDbEntity
  8
0
100
AcDbLine
 10
241.1925552996101
 20
-13.27683219214168
 30
0.0
 11
241.1925552996101
 21
-15.94649364654169
 31
0.0
  0
LINE
  5
268
330
2
100
AcDbEntity
  8
0
100
AcDbLine
 10
241.1793941732101
 20
-13.26787861454169
 30
0.0
 11
241.0199828068101
 21
-15.12969421934168
 31
0.0
  0
LINE
  5
269
330
2
100
AcDbEntity
  8
0
100
AcDbLine
 10
241.1793941732101
 20
-13.26787861454169
 30
0.0
 11
241.0199828068101
 21
-15.12969421934168
 31
0.0
  0
LINE
  5
26A
330
2
100
AcDbEntity
  8
0
100
AcDbLine
 10
241.3159921028101
 20
-14.60413121614168
 30
0.0
 11
241.36765285481
 21
-14.00639278574168
 31
0.0
  0
LINE
  5
26B
330
2
100
AcDbEntity
  8
0
100
AcDbLine
 10
241.36765285481
 20
-14.00639278574168
 30
0.0
 11
241.2690751172101
 21
-15.15097881454167
 31
0.0
  0
LINE
  5
26C
330
2
100
AcDbEntity
  8
0
100
AcDbLine
 10
241.2320581204101
 20
-15.56806774894169
 30
0.0
 11
241.2690751172101
 21
-15.15097881454167
 31
0.0
  0
LINE
  5
26D
330
2
100
AcDbEntity
  8
0
100
AcDbLine
 10
241.2690751172101
 20
-15.15097881454167
 30
0.0
 11
241.1678067700101
 21
-16.32864292654168
 31
0.0
  0
LINE
  5
26E
330
2
100
AcDbEntity
  8
0
100
AcDbLine
 10
240.9913825956101
 20
-15.44822306094169
 30
0.0
 11
241.2656511572101
 21
-15.19173689454167
 31
0.0
  0
LINE
  5
26F
330
2
100
AcDbEntity
  8
0
100
AcDbLine
 10
241.1588860980101
 20
-16.43321665614168
 30
0.0
 11
241.2320581204101
 21
-15.56806774894169
 31
0.0
  0
LINE
  5
270
330
2
100
AcDbEntity
  8
0
100
AcDbLine
 10
241.2690751172101
 20
-15.15097881454167
 30
0.0
 11
241.3159921028101
 21
-14.60413121614168
 31
0.0
  0
LINE
  5
271
330
2
100
AcDbEntity
  8
0
100
AcDbLine
 10
241.0199828068101
 20
-15.12969421934168
 30
0.0
 11
240.9187047172101
 21
-16.30746976174169
 31
0.0
  0
LINE
  5
272
330
2
100
AcDbEntity
  8
0
100
AcDbLine
 10
241.0199828068101
 20
-15.12969421934168
 30
0.0
 11
240.9187047172101
 21
-16.30746976174169
 31
0.0
  0
ARC
  5
273
330
2
100
AcDbEntity
  8
0
100
AcDbCircle
 10
241.6775030996101
 20
-13.31132394734168
 30
0.0
 40
0.25
100
AcDbArc
 50
91.50743575879999
 51
175.0152452882
  0
ARC
  5
274
330
2
100
AcDbEntity
  8
0
100
AcDbCircle
 10
241.6775030996101
 20
-13.31132394734168
 30
0.0
 40
0.5
100
AcDbArc
 50
91.50743578549999
 51
175.0152457161
  0
ARC
  5
275
330
2
100
AcDbEntity
  8
0
100
AcDbCircle
 10
241.6775030996101
 20
-13.31132394734168
 30
0.0
 40
0.5
100
AcDbArc
 50
91.50743578549999
 51
175.0152457161
  0
ARC
  5
276
330
2
100
AcDbEntity
  8
0
100
AcDbCircle
 10
241.6831954292101
 20
-13.34149659374168
 30
0.0
 40
0.530708016
100
AcDbArc
 50
91.5166186305
 51
171.1001300191
  0
LINE
  5
277
330
2
100
AcDbEntity
  8
0
100
AcDbLine
 10
241.36765285481
 20
-14.00639278574168
 30
0.0
 11
241.4284486372101
 21
-13.28960127854168
 31
0.0
  0
LINE
  5
278
330
2
100
AcDbEntity
  8
0
100
AcDbLine
 10
241.4284486372101
 20
-13.28960127854168
 30
0.0
 11
241.36765285481
 21
-14.00639278574168
 31
0.0
  0
LINE
  5
279
330
2
100
AcDbEntity
  8
0
100
AcDbLine
 10
246.2182370676101
 20
-14.69823654575306
 30
0.0
 11
246.0363631572389
 21
-13.03210988432654
 31
0.0
  0
ARC
  5
27A
330
2
100
AcDbEntity
  8
0
100
AcDbCircle
 10
245.6636252101642
 20
-13.0732367953531
 30
0.0
 40
0.375
100
AcDbArc
 50
6.296394481886422
 51
89.99999999999566
  0
ENDSEC
  0
SECTION
  2
OBJECTS
  0
DICTIONARY
  5
A
330
0
100
AcDbDictionary
  3
ACAD_GROUP
350
23
  3
ACAD_LAYOUT
350
9
  3
ACAD_MLINESTYLE
350
24
  3
ACAD_PLOTSETTINGS
350
25
  3
ACAD_PLOTSTYLENAME
350
26
  3
ACDBHEADERROUNDTRIPXREC
350
2F1
  3
ACDBVARIABLEDICTIONARY
350
27B
  0
DICTIONARY
  5
2AB
330
2
100
AcDbDictionary
280
     1
  3
ACAD_LAYOUTSELFREF
360
312
  0
DICTIONARY
  5
2B1
330
B
100
AcDbDictionary
280
     1
  3
ACAD_LAYOUTSELFREF
360
313
  0
DICTIONARY
  5
23
102
{ACAD_REACTORS
330
A
102
}
330
A
100
AcDbDictionary
  0
DICTIONARY
  5
9
102
{ACAD_REACTORS
330
A
102
}
330
A
100
AcDbDictionary
  0
DICTIONARY
  5
24
102
{ACAD_REACTORS
330
A
102
}
330
A
100
AcDbDictionary
  3
STANDARD
350
27
  0
DICTIONARY
  5
25
102
{ACAD_REACTORS
330
A
102
}
330
A
100
AcDbDictionary
  0
ACDBDICTIONARYWDFLT
  5
26
102
{ACAD_REACTORS
330
A
102
}
330
A
100
AcDbDictionary
281
     1
  3
Normal
350
5
100
AcDbDictionaryWithDefault
340
5
  0
DICTIONARY
  5
2F1
102
{ACAD_REACTORS
330
A
102
}
330
A
100
AcDbDictionary
  3
CEPSNTYPE
350
2FB
  3
DIMSTYLEDATA
350
2FF
  3
FINGERPRINTGUID
350
2FC
  3
HYPERLINKBASE
350
2F4
  3
INSUNITS
350
2FA
  3
LAYOUTDICT
350
2F6
  3
LWETCUNION
350
2F9
  3
PLOTSETDICT
350
2F7
  3
PLOTSTYLNAMDICT
350
2F8
  3
PSVPSCALE
350
2FE
  3
PUCSBASE
350
302
  3
PUCSORGBACK
350
308
  3
PUCSORGBOTTOM
350
304
  3
PUCSORGFRONT
350
307
  3
PUCSORGLEFT
350
305
  3
PUCSORGRIGHT
350
306
  3
PUCSORGTOP
350
303
  3
PUCSORTHOREF
350
300
  3
PUCSORTHOVIEW
350
301
  3
STYLESHEET
350
2F5
  3
TSTACKALIGN
350
2F2
  3
TSTACKSIZE
350
2F3
  3
UCSBASE
350
30B
  3
UCSORGBACK
350
311
  3
UCSORGBOTTOM
350
30D
  3
UCSORGFRONT
350
310
  3
UCSORGLEFT
350
30E
  3
UCSORGRIGHT
350
30F
  3
UCSORGTOP
350
30C
  3
UCSORTHOREF
350
309
  3
UCSORTHOVIEW
350
30A
  3
VERSIONGUID
350
2FD
  0
DICTIONARY
  5
27B
102
{ACAD_REACTORS
330
A
102
}
330
A
100
AcDbDictionary
  3
DIMASSOC
350
27D
  3
HIDETEXT
350
27C
  0
XRECORD
  5
312
102
{ACAD_REACTORS
330
2AB
102
}
330
2AB
100
AcDbXrecord
340
2
  0
XRECORD
  5
313
102
{ACAD_REACTORS
330
2B1
102
}
330
2B1
100
AcDbXrecord
340
B
  0
MLINESTYLE
  5
27
102
{ACAD_REACTORS
330
24
102
}
330
24
100
AcDbMlineStyle
  2
STANDARD
 70
     0
  3

 62
   256
 51
90.0
 52
90.0
 71
     2
 49
0.5
 62
   256
  6
BYLAYER
 49
-0.5
 62
   256
  6
BYLAYER
  0
ACDBPLACEHOLDER
  5
5
102
{ACAD_REACTORS
330
26
102
}
330
0
100
AcDbPlaceHolder
280
     0
  0
XRECORD
  5
2FB
102
{ACAD_REACTORS
330
2F1
102
}
330
2F1
100
AcDbXrecord
 90
        0
  0
XRECORD
  5
2FF
102
{ACAD_REACTORS
330
2F1
102
}
330
2F1
100
AcDbXrecord
1000
DSTYLE
1002
{
1070
   341
340
1E
1070
   342
340
1E
1002
}
  0
XRECORD
  5
2FC
102
{ACAD_REACTORS
330
2F1
102
}
330
2F1
100
AcDbXrecord
  1

  0
XRECORD
  5
2F4
102
{ACAD_REACTORS
330
2F1
102
}
330
2F1
100
AcDbXrecord
  1

  0
XRECORD
  5
2FA
102
{ACAD_REACTORS
330
2F1
102
}
330
2F1
100
AcDbXrecord
 90
        1
  0
XRECORD
  5
2F6
102
{ACAD_REACTORS
330
2F1
102
}
330
2F1
100
AcDbXrecord
340
9
  0
XRECORD
  5
2F9
102
{ACAD_REACTORS
330
2F1
102
}
330
2F1
100
AcDbXrecord
 90
    10781
  0
XRECORD
  5
2F7
102
{ACAD_REACTORS
330
2F1
102
}
330
2F1
100
AcDbXrecord
340
25
  0
XRECORD
  5
2F8
102
{ACAD_REACTORS
330
2F1
102
}
330
2F1
100
AcDbXrecord
340
26
  0
XRECORD
  5
2FE
102
{ACAD_REACTORS
330
2F1
102
}
330
2F1
100
AcDbXrecord
 40
0.0
  0
XRECORD
  5
302
102
{ACAD_REACTORS
330
2F1
102
}
330
2F1
100
AcDbXrecord
340
0
  0
XRECORD
  5
308
102
{ACAD_REACTORS
330
2F1
102
}
330
2F1
100
AcDbXrecord
 10
0.0
 20
0.0
 30
0.0
  0
XRECORD
  5
304
102
{ACAD_REACTORS
330
2F1
102
}
330
2F1
100
AcDbXrecord
 10
0.0
 20
0.0
 30
0.0
  0
XRECORD
  5
307
102
{ACAD_REACTORS
330
2F1
102
}
330
2F1
100
AcDbXrecord
 10
0.0
 20
0.0
 30
0.0
  0
XRECORD
  5
305
102
{ACAD_REACTORS
330
2F1
102
}
330
2F1
100
AcDbXrecord
 10
0.0
 20
0.0
 30
0.0
  0
XRECORD
  5
306
102
{ACAD_REACTORS
330
2F1
102
}
330
2F1
100
AcDbXrecord
 10
0.0
 20
0.0
 30
0.0
  0
XRECORD
  5
303
102
{ACAD_REACTORS
330
2F1
102
}
330
2F1
100
AcDbXrecord
 10
0.0
 20
0.0
 30
0.0
  0
XRECORD
  5
300
102
{ACAD_REACTORS
330
2F1
102
}
330
2F1
100
AcDbXrecord
340
0
  0
XRECORD
  5
301
102
{ACAD_REACTORS
330
2F1
102
}
330
2F1
100
AcDbXrecord
 70
     0
  0
XRECORD
  5
2F5
102
{ACAD_REACTORS
330
2F1
102
}
330
2F1
100
AcDbXrecord
  1

  0
XRECORD
  5
2F2
102
{ACAD_REACTORS
330
2F1
102
}
330
2F1
100
AcDbXrecord
 90
        1
  0
XRECORD
  5
2F3
102
{ACAD_REACTORS
330
2F1
102
}
330
2F1
100
AcDbXrecord
 90
       70
  0
XRECORD
  5
30B
102
{ACAD_REACTORS
330
2F1
102
}
330
2F1
100
AcDbXrecord
340
0
  0
XRECORD
  5
311
102
{ACAD_REACTORS
330
2F1
102
}
330
2F1
100
AcDbXrecord
 10
0.0
 20
0.0
 30
0.0
  0
XRECORD
  5
30D
102
{ACAD_REACTORS
330
2F1
102
}
330
2F1
100
AcDbXrecord
 10
0.0
 20
0.0
 30
0.0
  0
XRECORD
  5
310
102
{ACAD_REACTORS
330
2F1
102
}
330
2F1
100
AcDbXrecord
 10
0.0
 20
0.0
 30
0.0
  0
XRECORD
  5
30E
102
{ACAD_REACTORS
330
2F1
102
}
330
2F1
100
AcDbXrecord
 10
0.0
 20
0.0
 30
0.0
  0
XRECORD
  5
30F
102
{ACAD_REACTORS
330
2F1
102
}
330
2F1
100
AcDbXrecord
 10
0.0
 20
0.0
 30
0.0
  0
XRECORD
  5
30C
102
{ACAD_REACTORS
330
2F1
102
}
330
2F1
100
AcDbXrecord
 10
0.0
 20
0.0
 30
0.0
  0
XRECORD
  5
309
102
{ACAD_REACTORS
330
2F1
102
}
330
2F1
100
AcDbXrecord
340
0
  0
XRECORD
  5
30A
102
{ACAD_REACTORS
330
2F1
102
}
330
2F1
100
AcDbXrecord
 70
     0
  0
XRECORD
  5
2FD
102
{ACAD_REACTORS
330
2F1
102
}
330
2F1
100
AcDbXrecord
  1
{5424DF1C-5BA6-4B52-BAF7-3EFC48F30669}
  0
DICTIONARYVAR
  5
27D
102
{ACAD_REACTORS
330
27B
102
}
330
27B
100
DictionaryVariables
280
     0
  1
1
  0
DICTIONARYVAR
  5
27C
102
{ACAD_REACTORS
330
27B
102
}
330
27B
100
DictionaryVariables
280
     0
  1
1
  0
ENDSEC
  0
EOF
