  0
SECTION
  2
HEADER
  9
$ACADVER
  1
AC1014
  9
$ACADMAINTVER
 70
     9
  9
$DWGCODEPAGE
  3
ANSI_1252
  9
$INSBASE
 10
112.4333796050572
 20
-46.52027818909873
 30
0.0
  9
$EXTMIN
 10
76.42497785312622
 20
-50.09973520775824
 30
-0.0015258207003583
  9
$EXTMAX
 10
148.4379036161314
 20
-24.37814322131197
 30
0.0000000349246037
  9
$LIMMIN
 10
0.0
 20
0.0
  9
$LIMMAX
 10
17.0
 20
11.0
  9
$ORTHOMODE
 70
     1
  9
$REGENMODE
 70
     1
  9
$FILLMODE
 70
     1
  9
$QTEXTMODE
 70
     0
  9
$MIRRTEXT
 70
     1
  9
$DRAGMODE
 70
     2
  9
$LTSCALE
 40
2.0
  9
$OSMODE
 70
    55
  9
$ATTMODE
 70
     1
  9
$TEXTSIZE
 40
0.2
  9
$TRACEWID
 40
0.05
  9
$TEXTSTYLE
  7
STANDARD
  9
$CLAYER
  8
0
  9
$CELTYPE
  6
BYLAYER
  9
$CECOLOR
 62
   256
  9
$CELTSCALE
 40
1.0
  9
$DELOBJ
 70
     1
  9
$DISPSILH
 70
     0
  9
$DIMSCALE
 40
16.0
  9
$DIMASZ
 40
0.1875
  9
$DIMEXO
 40
0.0625
  9
$DIMDLI
 40
0.38
  9
$DIMRND
 40
0.0
  9
$DIMDLE
 40
0.0
  9
$DIMEXE
 40
0.18
  9
$DIMTP
 40
0.0
  9
$DIMTM
 40
0.0
  9
$DIMTXT
 40
0.125
  9
$DIMCEN
 40
0.09
  9
$DIMTSZ
 40
0.0
  9
$DIMTOL
 70
     0
  9
$DIMLIM
 70
     0
  9
$DIMTIH
 70
     1
  9
$DIMTOH
 70
     1
  9
$DIMSE1
 70
     0
  9
$DIMSE2
 70
     0
  9
$DIMTAD
 70
     0
  9
$DIMZIN
 70
     4
  9
$DIMBLK
  1
_FILLED
  9
$DIMASO
 70
     1
  9
$DIMSHO
 70
     1
  9
$DIMPOST
  1

  9
$DIMAPOST
  1

  9
$DIMALT
 70
     0
  9
$DIMALTD
 70
     2
  9
$DIMALTF
 40
25.4
  9
$DIMLFAC
 40
1.0
  9
$DIMTOFL
 70
     0
  9
$DIMTVP
 40
0.0
  9
$DIMTIX
 70
     0
  9
$DIMSOXD
 70
     0
  9
$DIMSAH
 70
     0
  9
$DIMBLK1
  1

  9
$DIMBLK2
  1

  9
$DIMSTYLE
  2
STANDARD
  9
$DIMCLRD
 70
     0
  9
$DIMCLRE
 70
     0
  9
$DIMCLRT
 70
     0
  9
$DIMTFAC
 40
1.0
  9
$DIMGAP
 40
0.09
  9
$DIMJUST
 70
     0
  9
$DIMSD1
 70
     0
  9
$DIMSD2
 70
     0
  9
$DIMTOLJ
 70
     1
  9
$DIMTZIN
 70
     4
  9
$DIMALTZ
 70
     0
  9
$DIMALTTZ
 70
     0
  9
$DIMFIT
 70
     3
  9
$DIMUPT
 70
     0
  9
$DIMUNIT
 70
     2
  9
$DIMDEC
 70
     3
  9
$DIMTDEC
 70
     3
  9
$DIMALTU
 70
     2
  9
$DIMALTTD
 70
     2
  9
$DIMTXSTY
  7
STANDARD
  9
$DIMAUNIT
 70
     0
  9
$LUNITS
 70
     2
  9
$LUPREC
 70
     4
  9
$SKETCHINC
 40
0.1
  9
$FILLETRAD
 40
0.0
  9
$AUNITS
 70
     0
  9
$AUPREC
 70
     0
  9
$MENU
  1
acad
  9
$ELEVATION
 40
0.0
  9
$PELEVATION
 40
0.0
  9
$THICKNESS
 40
0.0
  9
$LIMCHECK
 70
     0
  9
$BLIPMODE
 70
     0
  9
$CHAMFERA
 40
0.0
  9
$CHAMFERB
 40
0.0
  9
$CHAMFERC
 40
0.0
  9
$CHAMFERD
 40
0.0
  9
$SKPOLY
 70
     0
  9
$TDCREATE
 40
2453681.610012523
  9
$TDUPDATE
 40
2453685.495558680
  9
$TDINDWG
 40
0.0533795370
  9
$TDUSRTIMER
 40
0.0533795370
  9
$USRTIMER
 70
     1
  9
$ANGBASE
 50
0.0
  9
$ANGDIR
 70
     0
  9
$PDMODE
 70
     3
  9
$PDSIZE
 40
0.3125
  9
$PLINEWID
 40
0.0
  9
$COORDS
 70
     1
  9
$SPLFRAME
 70
     0
  9
$SPLINETYPE
 70
     6
  9
$SPLINESEGS
 70
     8
  9
$ATTDIA
 70
     0
  9
$ATTREQ
 70
     1
  9
$HANDLING
 70
 22529
  9
$HANDSEED
  5
14F
  9
$SURFTAB1
 70
     6
  9
$SURFTAB2
 70
     6
  9
$SURFTYPE
 70
     6
  9
$SURFU
 70
     6
  9
$SURFV
 70
     6
  9
$UCSNAME
  2

  9
$UCSORG
 10
0.0
 20
0.0
 30
0.0
  9
$UCSXDIR
 10
1.0
 20
0.0
 30
0.0
  9
$UCSYDIR
 10
0.0
 20
1.0
 30
0.0
  9
$PUCSNAME
  2

  9
$PUCSORG
 10
0.0
 20
0.0
 30
0.0
  9
$PUCSXDIR
 10
1.0
 20
0.0
 30
0.0
  9
$PUCSYDIR
 10
0.0
 20
1.0
 30
0.0
  9
$USERI1
 70
     0
  9
$USERI2
 70
     0
  9
$USERI3
 70
     0
  9
$USERI4
 70
     0
  9
$USERI5
 70
     0
  9
$USERR1
 40
0.0
  9
$USERR2
 40
0.0
  9
$USERR3
 40
0.0
  9
$USERR4
 40
0.0
  9
$USERR5
 40
0.0
  9
$WORLDVIEW
 70
     1
  9
$SHADEDGE
 70
     3
  9
$SHADEDIF
 70
    70
  9
$TILEMODE
 70
     1
  9
$MAXACTVP
 70
    16
  9
$PINSBASE
 10
0.0
 20
0.0
 30
0.0
  9
$PLIMCHECK
 70
     0
  9
$PEXTMIN
 10
1.000000000000000E+20
 20
1.000000000000000E+20
 30
1.000000000000000E+20
  9
$PEXTMAX
 10
-1.000000000000000E+20
 20
-1.000000000000000E+20
 30
-1.000000000000000E+20
  9
$PLIMMIN
 10
0.0
 20
0.0
  9
$PLIMMAX
 10
12.0
 20
9.0
  9
$UNITMODE
 70
     0
  9
$VISRETAIN
 70
     0
  9
$PLINEGEN
 70
     1
  9
$PSLTSCALE
 70
     0
  9
$TREEDEPTH
 70
  3020
  9
$PICKSTYLE
 70
     1
  9
$CMLSTYLE
  2
STANDARD
  9
$CMLJUST
 70
     0
  9
$CMLSCALE
 40
1.0
  9
$PROXYGRAPHICS
 70
     0
  9
$MEASUREMENT
 70
     0
  0
ENDSEC
  0
SECTION
  2
CLASSES
  0
CLASS
  1
ACDBDICTIONARYWDFLT
  2
AcDbDictionaryWithDefault
  3
AutoCAD 2000
 90
        0
280
     0
281
     0
  0
CLASS
  1
ACDBPLACEHOLDER
  2
AcDbPlaceHolder
  3
AutoCAD 2000
 90
        0
280
     0
281
     0
  0
CLASS
  1
LAYOUT
  2
AcDbLayout
  3
AutoCAD 2000
 90
        0
280
     0
281
     0
  0
CLASS
  1
LWPOLYLINE
  2
AcDbPolyline
  3
AutoCAD 2000
 90
        0
280
     0
281
     1
  0
CLASS
  1
IMAGE
  2
AcDbRasterImage
  3
ISM
 90
      127
280
     0
281
     1
  0
CLASS
  1
OLE2FRAME
  2
AcDbOle2Frame
  3
AutoCAD 2000
 90
        0
280
     0
281
     1
  0
CLASS
  1
HATCH
  2
AcDbHatch
  3
AutoCAD 2000
 90
        0
280
     0
281
     1
  0
CLASS
  1
DICTIONARYVAR
  2
AcDbDictionaryVar
  3
AutoCAD 2000
 90
        0
280
     0
281
     0
  0
CLASS
  1
RASTERVARIABLES
  2
AcDbRasterVariables
  3
ISM
 90
        0
280
     0
281
     0
  0
CLASS
  1
IMAGEDEF
  2
AcDbRasterImageDef
  3
ISM
 90
        0
280
     0
281
     0
  0
CLASS
  1
IMAGEDEF_REACTOR
  2
AcDbRasterImageDefReactor
  3
ISM
 90
        1
280
     0
281
     0
  0
CLASS
  1
IDBUFFER
  2
AcDbIdBuffer
  3
AutoCAD 2000
 90
        0
280
     0
281
     0
  0
CLASS
  1
SPATIAL_FILTER
  2
AcDbSpatialFilter
  3
AutoCAD 2000
 90
        0
280
     0
281
     0
  0
CLASS
  1
XRECORD
  2
AcDbXrecord
  3
AutoCAD 2000
 90
        0
280
     0
281
     0
  0
CLASS
  1
SORTENTSTABLE
  2
AcDbSortentsTable
  3
AutoCAD 2000
 90
        0
280
     0
281
     0
  0
CLASS
  1
LAYER_INDEX
  2
AcDbLayerIndex
  3
AutoCAD 2000
 90
        0
280
     0
281
     0
  0
CLASS
  1
SPATIAL_INDEX
  2
AcDbSpatialIndex
  3
AutoCAD 2000
 90
        0
280
     0
281
     0
  0
CLASS
  1
OBJECT_PTR
  2
CAseDLPNTableRecord
  3
ASE-LPNTableRecord
 90
        1
280
     0
281
     0
  0
CLASS
  1
PLOTSETTINGS
  2
AcDbPlotSettings
  3
AutoCAD 2000
 90
        0
280
     0
281
     0
  0
CLASS
  1
VBA_PROJECT
  2
AcDbVbaProject
  3
acadvba
 90
        0
280
     0
281
     0
  0
CLASS
  1
WIPEOUT
  2
AcDbWipeout
  3
WipeOut|AutoCAD Express Tool|expresstools@autodesk.com
 90
      127
280
     1
281
     1
  0
CLASS
  1
WIPEOUTVARIABLES
  2
AcDbWipeoutVariables
  3
WipeOut|AutoCAD Express Tool|expresstools@autodesk.com
 90
        0
280
     1
281
     0
  0
CLASS
  1
RTEXT
  2
RText
  3
RText|AutoCAD Express Tool|expresstools@autodesk.com
 90
        0
280
     1
281
     1
  0
CLASS
  1
ARCALIGNEDTEXT
  2
AcDbArcAlignedText
  3
ATEXT|AutoCAD Express Tool|expresstools@autodesk.com
 90
        0
280
     1
281
     1
  0
CLASS
  1
LONG_TRANSACTION
  2
AcDbLongTransaction
  3
AutoCAD 2000
 90
        0
280
     0
281
     0
  0
CLASS
  1
LWPOLYLINE
  2
AcDbPolyline
  3
AutoCAD 2000
 90
        0
280
     0
281
     1
  0
CLASS
  1
HATCH
  2
AcDbHatch
  3
AutoCAD 2000
 90
        0
280
     0
281
     1
  0
CLASS
  1
XRECORD
  2
AcDbXrecord
  3
AutoCAD 2000
 90
        0
280
     0
281
     0
  0
CLASS
  1
LONG_TRANSACTION
  2
AcDbLongTransaction
  3
AutoCAD 2000
 90
        0
280
     0
281
     0
  0
CLASS
  1
LWPOLYLINE
  2
AcDbPolyline
  3
AutoCAD 2000
 90
        0
280
     0
281
     1
  0
CLASS
  1
HATCH
  2
AcDbHatch
  3
AutoCAD 2000
 90
        0
280
     0
281
     1
  0
CLASS
  1
XRECORD
  2
AcDbXrecord
  3
AutoCAD 2000
 90
        0
280
     0
281
     0
  0
ENDSEC
  0
SECTION
  2
TABLES
  0
TABLE
  2
VPORT
  5
18
330
0
100
AcDbSymbolTable
 70
     3
  0
VPORT
  5
12B
330
18
100
AcDbSymbolTableRecord
100
AcDbViewportTableRecord
  2
*ACTIVE
 70
     0
 10
0.0
 20
0.0
 11
1.0
 21
1.0
 12
112.4314405745677
 22
-37.23893923511258
 13
0.0
 23
0.0
 14
1.0
 24
1.0
 15
0.0
 25
0.0
 16
0.0
 26
0.0
 36
1.0
 17
0.0
 27
0.0
 37
0.0
 40
47.8581741512838
 41
1.786792452830188
 42
50.0
 43
0.0
 44
0.0
 50
0.0
 51
0.0
 71
     0
 72
   100
 73
     1
 74
     1
 75
     0
 76
     0
 77
     0
 78
     0
  0
ENDTAB
  0
TABLE
  2
LTYPE
  5
13
330
0
100
AcDbSymbolTable
 70
     3
  0
LTYPE
  5
14
330
13
100
AcDbSymbolTableRecord
100
AcDbLinetypeTableRecord
  2
BYBLOCK
 70
     0
  3

 72
    65
 73
     0
 40
0.0
  0
LTYPE
  5
15
330
13
100
AcDbSymbolTableRecord
100
AcDbLinetypeTableRecord
  2
BYLAYER
 70
     0
  3

 72
    65
 73
     0
 40
0.0
  0
LTYPE
  5
6
330
13
100
AcDbSymbolTableRecord
100
AcDbLinetypeTableRecord
  2
CONTINUOUS
 70
     0
  3
Solid line
 72
    65
 73
     0
 40
0.0
  0
LTYPE
  5
2A
330
13
100
AcDbSymbolTableRecord
100
AcDbLinetypeTableRecord
  2
CENTER
 70
     0
  3
____ _ ____ _ ____ _ ____ _ ____ _ ____ _ ____
 72
    65
 73
     4
 40
0.6
 49
0.375
 74
     0
 49
-0.075
 74
     0
 49
0.075
 74
     0
 49
-0.075
 74
     0
  0
LTYPE
  5
A0
330
13
100
AcDbSymbolTableRecord
100
AcDbLinetypeTableRecord
  2
HIDDEN
 70
     0
  3
- - - - - - - - - - - - - - - - - - - -
 72
    65
 73
     2
 40
0.2
 49
0.1
 74
     0
 49
-0.1
 74
     0
  0
ENDTAB
  0
TABLE
  2
LAYER
  5
F
330
0
100
AcDbSymbolTable
 70
     2
  0
LAYER
  5
4
330
F
100
AcDbSymbolTableRecord
100
AcDbLayerTableRecord
  2
0
 70
     0
 62
     7
  6
CONTINUOUS
  0
LAYER
  5
29
330
F
100
AcDbSymbolTableRecord
100
AcDbLayerTableRecord
  2
CENTER
 70
     0
 62
     1
  6
CENTER
  0
ENDTAB
  0
TABLE
  2
STYLE
  5
10
330
0
100
AcDbSymbolTable
 70
     1
  0
STYLE
  5
11
330
10
100
AcDbSymbolTableRecord
100
AcDbTextStyleTableRecord
  2
STANDARD
 70
     0
 40
0.0
 41
0.8
 50
0.0
 71
     0
 42
0.2
  3
txt
  4

  0
ENDTAB
  0
TABLE
  2
VIEW
  5
16
330
0
100
AcDbSymbolTable
 70
     0
  0
ENDTAB
  0
TABLE
  2
UCS
  5
17
330
0
100
AcDbSymbolTable
 70
     0
  0
ENDTAB
  0
TABLE
  2
APPID
  5
1A
330
0
100
AcDbSymbolTable
 70
     1
  0
APPID
  5
1B
330
1A
100
AcDbSymbolTableRecord
100
AcDbRegAppTableRecord
  2
ACAD
 70
     0
  0
ENDTAB
  0
TABLE
  2
DIMSTYLE
  5
1C
330
0
100
AcDbSymbolTable
 70
     1
  0
DIMSTYLE
105
1D
330
1C
100
AcDbSymbolTableRecord
100
AcDbDimStyleTableRecord
  2
STANDARD
 70
     0
  3

  4

  5
_FILLED
  6

  7

 40
16.0
 41
0.1875
 42
0.0625
 43
0.38
 44
0.18
 45
0.0
 46
0.0
 47
0.0
 48
0.0
140
0.125
141
0.09
142
0.0
143
25.4
144
1.0
145
0.0
146
1.0
147
0.09
 71
     0
 72
     0
 73
     1
 74
     1
 75
     0
 76
     0
 77
     0
 78
     4
170
     0
171
     2
172
     0
173
     0
174
     0
175
     0
176
     0
177
     0
178
     0
270
     2
271
     3
272
     3
273
     2
274
     2
340
11
275
     0
280
     0
281
     0
282
     0
283
     1
284
     4
285
     0
286
     0
287
     3
288
     0
  0
ENDTAB
  0
TABLE
  2
BLOCK_RECORD
  5
1
330
0
100
AcDbSymbolTable
 70
     1
  0
BLOCK_RECORD
  5
2
102
{ACAD_XDICTIONARY
360
E4
102
}
330
1
100
AcDbSymbolTableRecord
100
AcDbBlockTableRecord
  2
*MODEL_SPACE
  0
BLOCK_RECORD
  5
B
102
{ACAD_XDICTIONARY
360
EA
102
}
330
1
100
AcDbSymbolTableRecord
100
AcDbBlockTableRecord
  2
*PAPER_SPACE
  0
BLOCK_RECORD
  5
1E
330
1
100
AcDbSymbolTableRecord
100
AcDbBlockTableRecord
  2
_FILLED
  0
ENDTAB
  0
ENDSEC
  0
SECTION
  2
BLOCKS
  0
BLOCK
  5
3
330
2
100
AcDbEntity
  8
0
100
AcDbBlockBegin
  2
*MODEL_SPACE
 70
     0
 10
0.0
 20
0.0
 30
0.0
  3
*MODEL_SPACE
  1

  0
ENDBLK
  5
7
330
2
100
AcDbEntity
  8
0
100
AcDbBlockEnd
  0
BLOCK
  5
C
330
B
100
AcDbEntity
 67
     1
  8
0
100
AcDbBlockBegin
  2
*PAPER_SPACE
 70
     0
 10
0.0
 20
0.0
 30
0.0
  3
*PAPER_SPACE
  1

  0
ENDBLK
  5
D
330
B
100
AcDbEntity
 67
     1
  8
0
100
AcDbBlockEnd
  0
BLOCK
  5
20
330
1E
100
AcDbEntity
  8
0
100
AcDbBlockBegin
  2
_FILLED
 70
     0
 10
0.0
 20
0.0
 30
0.0
  3
_FILLED
  1

  0
SOLID
  5
1F
330
1E
100
AcDbEntity
  8
0
  6
BYBLOCK
 62
     0
100
AcDbTrace
 10
0.0
 20
0.0
 30
0.0
 11
-1.0
 21
0.1666666667
 31
0.0
 12
-1.0
 22
-0.1666666667
 32
0.0
 13
-1.0
 23
-0.1666666667
 33
0.0
  0
ENDBLK
  5
21
330
1E
100
AcDbEntity
  8
0
  6
BYBLOCK
 62
     0
100
AcDbBlockEnd
  0
ENDSEC
  0
SECTION
  2
ENTITIES
  0
LINE
  5
28
330
2
100
AcDbEntity
  8
CENTER
 48
4.0
100
AcDbLine
 10
112.4333796306572
 20
-24.42330873603196
 30
0.0
 11
112.4333796306572
 21
-31.5784939397655
 31
0.0
  0
LWPOLYLINE
  5
2B
330
2
100
AcDbEntity
  8
0
100
AcDbPolyline
 90
        7
 70
     0
 43
0.0
 10
141.0660856498572
 20
-30.61822098269873
 10
141.3362677698572
 20
-29.98495794589873
 10
141.6412650322572
 20
-29.30128603709873
 10
141.9968622946572
 20
-28.54331302109872
 10
142.4210268178572
 20
-27.69138040029872
 10
142.9131766274572
 20
-26.77105821149872
 10
143.0661466178572
 20
-26.50777818909872
  0
LWPOLYLINE
  5
2C
330
2
100
AcDbEntity
  8
0
100
AcDbPolyline
 90
        7
 70
     0
 43
0.0
 10
83.80067361145725
 20
-30.61822097789873
 10
83.53049149625725
 20
-29.98495794589873
 10
83.22549422905726
 20
-29.30128603869873
 10
82.86989696345726
 20
-28.54331302269872
 10
82.44573244185726
 20
-27.69138040029872
 10
81.95358263545724
 20
-26.66207057309873
 10
81.80061264665724
 20
-26.39879055389873
  0
LWPOLYLINE
  5
2D
330
2
100
AcDbEntity
  8
0
100
AcDbPolyline
 90
       31
 70
     0
 43
0.0
 10
123.5783796306572
 20
-33.29464347709873
 10
123.7435051250572
 20
-33.31242994429873
 10
123.9045995394572
 20
-33.33005012669873
 10
124.0615910258572
 20
-33.34746804189872
 10
124.2144077346572
 20
-33.36464771229872
 10
124.3629778178572
 20
-33.38155315549872
 10
124.5072788018572
 20
-33.39815552989873
 10
124.6474857170572
 20
-33.41445455389873
 10
124.7838229730572
 20
-33.43045708829873
 10
124.9165149730572
 20
-33.44616998909872
 10
125.0457861250572
 20
-33.46160011709872
 10
125.1718476258572
 20
-33.47675434429872
 10
125.2948578178572
 20
-33.49163960509872
 10
125.4149618386572
 20
-33.50626285309872
 10
125.5323048194572
 20
-33.52063103549873
 10
125.6470318962572
 20
-33.53475110269872
 10
125.7869899490572
 20
-33.55206527229873
 10
125.9234112178572
 20
-33.56903064829872
 10
126.0566194930572
 20
-33.58567525309872
 10
126.1869385698572
 20
-33.60202711229872
 10
126.3146886594572
 20
-33.61811477949872
 10
126.4401756386572
 20
-33.63396892029872
 10
126.5637018034572
 20
-33.64962072509873
 10
126.6855694498572
 20
-33.66510139229873
 10
126.8460190258572
 20
-33.68553373309873
 10
127.0048749698572
 20
-33.70581375549872
 10
127.1629547122572
 20
-33.72603793629873
 10
127.6373716946572
 20
-33.78692178589872
 10
128.1134442242572
 20
-33.84813200509872
 10
128.5895282978572
 20
-33.90904418429872
 10
129.0640015250572
 20
-33.96862975069872
  0
LINE
  5
2E
330
2
100
AcDbEntity
  8
0
100
AcDbLine
 10
120.7526579474572
 20
-44.35488497149873
 30
0.0
 11
126.9075445826572
 21
-44.27071050269874
 31
0.0
  0
LINE
  5
2F
330
2
100
AcDbEntity
  8
CENTER
 48
4.0
100
AcDbLine
 10
112.4333796050572
 20
-42.81768558723197
 30
0.0
 11
112.4333796050572
 21
-50.0978707909655
 31
0.0
  0
LWPOLYLINE
  5
30
330
2
100
AcDbEntity
  8
0
100
AcDbPolyline
 90
       31
 70
     0
 43
0.0
 10
95.80275773465727
 20
-33.96862975069872
 10
96.27822879225726
 20
-33.90891729789872
 10
96.75538921465726
 20
-33.84786556029872
 10
97.23255228025728
 20
-33.78651495869872
 10
97.70800036505725
 20
-33.72550068349873
 10
97.86634183225727
 20
-33.70524407709872
 10
98.02540053785726
 20
-33.68493947869873
 10
98.18599073305726
 20
-33.66449085309872
 10
98.30792153785726
 20
-33.64900362429873
 10
98.43147509945726
 20
-33.63335002269872
 10
98.55695469945727
 20
-33.61749871389872
 10
98.68466361465726
 20
-33.60141836029873
 10
98.81490860665726
 20
-33.58507816189872
 10
98.94801036185725
 20
-33.56844946109873
 10
99.08429304345725
 20
-33.55150413629872
 10
99.22408082105725
 20
-33.53421406589873
 10
99.33864911225725
 20
-33.52011612029873
 10
99.45581348185726
 20
-33.50577250269872
 10
99.57571928025727
 20
-33.49117617789873
 10
99.69851185465726
 20
-33.47632010909872
 10
99.82433655705726
 20
-33.46119725949872
 10
99.95335197305728
 20
-33.44580059549872
 10
100.0857696226572
 20
-33.43012310109873
 10
100.2218142578572
 20
-33.41415775869872
 10
100.3617106338572
 20
-33.39789755389872
 10
100.5056835058572
 20
-33.38133547069872
 10
100.6539081714572
 20
-33.36447163229873
 10
100.8063621010572
 20
-33.34733470589872
 10
100.9629733106572
 20
-33.32996050109872
 10
101.1236698146572
 20
-33.31238482269872
 10
101.2883796306572
 20
-33.29464347709873
  0
LINE
  5
31
330
2
100
AcDbEntity
  8
0
100
AcDbLine
 10
104.1141013138572
 20
-44.35488497149873
 30
0.0
 11
97.95921467865724
 21
-44.27071050269874
 31
0.0
  0
LWPOLYLINE
  5
32
330
2
100
AcDbEntity
  8
0
100
AcDbPolyline
 90
       18
 70
     0
 43
0.0
 10
85.14453928985725
 20
-35.59262731869872
 10
85.16612501305726
 20
-35.68697021149872
 10
85.28083293465725
 20
-36.21154435069873
 10
85.39874441945725
 20
-36.79398023709873
 10
85.51591917785726
 20
-37.42211900829873
 10
85.62137158105725
 20
-38.04063867229872
 10
85.70644317785726
 20
-38.59099561789872
 10
85.77445357465725
 20
-38.95584816989872
 10
85.82800527065726
 20
-39.27956459229874
 10
85.86905964185726
 20
-39.66782308029873
 10
85.89898988985726
 20
-40.01287565629874
 10
85.91951803705725
 20
-40.32747165469873
 10
85.93356939865726
 20
-40.62360652989873
 10
85.94549243065726
 20
-40.89276674589874
 10
85.95981556185725
 20
-41.13688188189874
 10
85.98007032185725
 20
-41.35968552189874
 10
86.00787337145726
 20
-41.56015548509873
 10
86.03440564505726
 20
-41.69919585469873
  0
LWPOLYLINE
  5
33
330
2
100
AcDbEntity
  8
0
100
AcDbPolyline
 90
       15
 70
     0
 43
0.0
 10
85.20365037305726
 20
-35.85422205629872
 10
85.30244638745726
 20
-36.31491175389872
 10
85.38925842585726
 20
-36.74539282909872
 10
85.46680255225727
 20
-37.15221883549872
 10
85.53730111545725
 20
-37.54293080989873
 10
85.60191886265725
 20
-37.92194674589873
 10
85.66086510105725
 20
-38.28922851869872
 10
85.71421261465726
 20
-38.64429825149872
 10
85.76195522585726
 20
-38.86142661949873
 10
85.80421433785724
 20
-39.07851241629873
 10
85.84111989625725
 20
-39.39681038909874
 10
85.87253794905725
 20
-39.70424683549873
 10
85.89808954105725
 20
-40.00112935069874
 10
85.91732842105725
 20
-40.28805920829873
 10
85.93097849465726
 20
-40.56399283389874
  0
LWPOLYLINE
  5
34
330
2
100
AcDbEntity
  8
0
100
AcDbPolyline
 90
       27
 70
     0
 43
0.0
 10
86.03440603065726
 20
-41.69919764189873
 10
86.04385136185726
 20
-41.74162874909874
 10
86.08861087065724
 20
-41.91297815709873
 10
86.14412415225727
 20
-42.08357192989874
 10
86.20988673145726
 20
-42.25104201149874
 10
86.28522703545725
 20
-42.41379800509874
 10
86.36952626585726
 20
-42.57076934269874
 10
86.46234262905725
 20
-42.72131719869873
 10
86.56327107865726
 20
-42.86501678429874
 10
86.67148973625726
 20
-43.00101531229874
 10
86.78573080665726
 20
-43.12809130109873
 10
86.90489017785726
 20
-43.24546701629873
 10
87.02825628985726
 20
-43.35294434269873
 10
87.15571434905726
 20
-43.45087950269873
 10
87.28776017305724
 20
-43.53987836829873
 10
87.42492733145725
 20
-43.62040516829874
 10
87.56767249625726
 20
-43.69269745469874
 10
87.71667516505726
 20
-43.75692449949873
 10
87.87244425145727
 20
-43.81300860669873
 10
88.03574767545725
 20
-43.86079302589873
 10
88.20767691065725
 20
-43.90002048509873
 10
88.38681717145727
 20
-43.92988239549874
 10
88.57105835705725
 20
-43.94957716509874
 10
88.74556369465725
 20
-43.95950237469874
 10
88.90681872665727
 20
-43.96460001469874
 10
89.05078214265726
 20
-43.96837281309873
 10
89.17236004825724
 20
-43.97208832509874
  0
LWPOLYLINE
  5
35
330
2
100
AcDbEntity
  8
0
100
AcDbPolyline
 90
        6
 70
     0
 43
0.0
 10
85.93097849465726
 20
-40.56399283389874
 10
85.94257445145727
 20
-40.83081422909873
 10
85.95650718105725
 20
-41.08889694909874
 10
85.97751125625725
 20
-41.33646730269873
 10
86.00995076825725
 20
-41.57241317789874
 10
86.03440603065726
 20
-41.69919764189873
  0
LWPOLYLINE
  5
36
330
2
100
AcDbEntity
  8
0
100
AcDbPolyline
 90
        8
 70
     0
 43
0.0
 10
93.28912808665725
 20
-44.11477350109874
 10
93.75451556185726
 20
-44.13098404189873
 10
94.24161608345725
 20
-44.14780516189874
 10
94.74581631385726
 20
-44.16502180989874
 10
95.26809188825726
 20
-44.18262079709873
 10
95.80859142585726
 20
-44.20056370109874
 10
96.36853780345726
 20
-44.21884848989874
 10
96.95352702585726
 20
-44.23762318109874
  0
LINE
  5
37
330
2
100
AcDbEntity
  8
0
100
AcDbLine
 10
96.56523200985725
 20
-46.50777818909873
 30
0.0
 11
93.70322725145726
 21
-46.50777818909873
 31
0.0
  0
LINE
  5
38
330
2
100
AcDbEntity
  8
0
100
AcDbLine
 10
92.30924458265725
 20
-44.12027818909873
 30
0.0
 11
97.95921467865724
 21
-44.31757949309874
 31
0.0
  0
LINE
  5
39
330
2
100
AcDbEntity
  8
0
100
AcDbLine
 10
92.88578577625726
 20
-44.40593381149873
 30
0.0
 11
93.34100506585725
 21
-46.22983533149874
 31
0.0
  0
ARC
  5
3A
330
2
100
AcDbEntity
  8
0
100
AcDbCircle
 10
93.70322725145726
 20
-46.13277818909874
 30
0.0
 40
0.375
100
AcDbArc
 50
195.0
 51
270.0
  0
LINE
  5
3B
330
2
100
AcDbEntity
  8
0
100
AcDbLine
 10
91.15835181945726
 20
-44.04015455709873
 30
0.0
 11
92.09422207865726
 21
-44.07282122269873
 31
0.0
  0
LINE
  5
3C
330
2
100
AcDbEntity
  8
0
100
AcDbLine
 10
90.69315769785726
 20
-44.02404423869874
 30
0.0
 11
91.15835181945726
 21
-44.04015455709873
 31
0.0
  0
LINE
  5
3D
330
2
100
AcDbEntity
  8
0
100
AcDbLine
 10
89.32551707225725
 20
-43.97697090589874
 30
0.0
 11
89.44982931225727
 21
-43.98119325469873
 31
0.0
  0
LINE
  5
3E
330
2
100
AcDbEntity
  8
0
100
AcDbLine
 10
89.44982931225727
 20
-43.98119325469873
 30
0.0
 11
89.77899175225726
 21
-43.99240750909874
 31
0.0
  0
LINE
  5
3F
330
2
100
AcDbEntity
  8
0
100
AcDbLine
 10
89.17236004825724
 20
-43.97208832509874
 30
0.0
 11
90.30873997145725
 21
-44.01072820669873
 31
0.0
  0
LINE
  5
40
330
2
100
AcDbEntity
  8
0
100
AcDbLine
 10
90.16630616345725
 20
-44.00579307709874
 30
0.0
 11
90.19026237945727
 21
-44.00662308349874
 31
0.0
  0
LINE
  5
41
330
2
100
AcDbEntity
  8
0
100
AcDbLine
 10
89.78115994105726
 20
-43.99248124669873
 30
0.0
 11
90.16630616345725
 21
-44.00579307709874
 31
0.0
  0
LWPOLYLINE
  5
42
330
2
100
AcDbEntity
  8
0
100
AcDbPolyline
 90
        3
 70
     0
 43
0.0
 10
90.30877637945726
 20
-44.01072938109873
 10
90.49846794105725
 20
-44.01730203709873
 10
90.69315769785726
 20
-44.02404423869874
  0
ARC
  5
43
330
2
100
AcDbEntity
  8
0
100
AcDbCircle
 10
92.52357832825726
 20
-44.50299146749873
 30
0.0
 40
0.3749929488
100
AcDbArc
 50
15.00065875329999
 51
88.0022530517
  0
LINE
  5
44
330
2
100
AcDbEntity
  8
0
100
AcDbLine
 10
92.30924458265725
 20
-44.08038181789874
 30
0.0
 11
92.30924458265725
 21
-44.12027818909873
 31
0.0
  0
LWPOLYLINE
  5
45
330
2
100
AcDbEntity
  8
0
100
AcDbPolyline
 90
        3
 70
     0
 43
0.0
 10
92.09422207865726
 20
-44.07282122269873
 10
92.46026132665724
 20
-44.08569184829874
 10
93.28912808665725
 20
-44.11477350109874
  0
LINE
  5
46
330
2
100
AcDbEntity
  8
0
100
AcDbLine
 10
97.33427042905725
 20
-44.58657647229873
 30
0.0
 11
96.92745419545726
 21
-46.22983533149874
 31
0.0
  0
ARC
  5
47
330
2
100
AcDbEntity
  8
0
100
AcDbCircle
 10
96.56523200985725
 20
-46.13277818909874
 30
0.0
 40
0.375
100
AcDbArc
 50
270.0
 51
345.0
  0
ARC
  5
48
330
2
100
AcDbEntity
  8
0
100
AcDbCircle
 10
97.69648668345727
 20
-44.68363340829873
 30
0.0
 40
0.3749971088
100
AcDbArc
 50
88.0
 51
164.9997960013999
  0
LWPOLYLINE
  5
49
330
2
100
AcDbEntity
  8
0
100
AcDbPolyline
 90
        3
 70
     0
 43
0.0
 10
96.95352702585726
 20
-44.23762318109874
 10
97.57013310905726
 20
-44.25706478109873
 10
97.87641707705725
 20
-44.26659571069873
  0
LINE
  5
4A
330
2
100
AcDbEntity
  8
0
100
AcDbLine
 10
97.95921467865724
 20
-44.26915563869873
 30
0.0
 11
97.95921467865724
 21
-44.31757949309874
 31
0.0
  0
LWPOLYLINE
  5
4B
330
2
100
AcDbEntity
  8
0
100
AcDbPolyline
 90
       49
 70
     0
 43
0.0
 10
87.66004878105725
 20
-36.04288306909873
 10
87.67930578905724
 20
-35.99265020829872
 10
87.69998231705725
 20
-35.94369564829873
 10
87.72212325625725
 20
-35.89599775869872
 10
87.74576920505726
 20
-35.84954153949873
 10
87.77094357465726
 20
-35.80433854269873
 10
87.79766548345724
 20
-35.76040695549873
 10
87.82595678585726
 20
-35.71775900829873
 10
87.85585027865726
 20
-35.67638311549873
 10
87.88738149465727
 20
-35.63626173469872
 10
87.92058043225726
 20
-35.59738322429872
 10
87.95545495065725
 20
-35.55975956669873
 10
87.99200737305724
 20
-35.52340864189872
 10
88.03024608025726
 20
-35.48834100669872
 10
88.07020368025726
 20
-35.45453792189872
 10
88.11191883385726
 20
-35.42197332349872
 10
88.15542928505726
 20
-35.39062201949873
 10
88.20076908985726
 20
-35.36046232189873
 10
88.24797138425726
 20
-35.33147341789872
 10
88.29707328345724
 20
-35.30363247069873
 10
88.34812782105727
 20
-35.27690856669873
 10
88.40119200665725
 20
-35.25126877629872
 10
88.45632044825725
 20
-35.22668082269872
 10
88.51355815865725
 20
-35.20311507389873
 10
88.57294774425724
 20
-35.18054254909872
 10
88.63453179705727
 20
-35.15893137949872
 10
88.69835282105725
 20
-35.13823812189873
 10
88.76445330425726
 20
-35.11841643709873
 10
88.83286882425725
 20
-35.09941976509873
 10
88.90360732345726
 20
-35.08120066909873
 10
88.97666983545725
 20
-35.06371149149873
 10
89.05204543225726
 20
-35.04690405789872
 10
89.12967533625726
 20
-35.03072812189872
 10
89.20948880825724
 20
-35.01513292349872
 10
89.29142234745725
 20
-35.00006314109873
 10
89.37544140185726
 20
-34.98544521629872
 10
89.46151865785726
 20
-34.97120102749873
 10
89.54961470105727
 20
-34.95725972349873
 10
89.63964171225725
 20
-34.94357951389872
 10
89.73149977465727
 20
-34.93012588029872
 10
89.82509779865726
 20
-34.91686562589872
 10
89.92038002905726
 20
-34.90377085469873
 10
90.01729954425725
 20
-34.89081499869873
 10
90.11579508505725
 20
-34.87797271709872
 10
90.21574804665725
 20
-34.86522357469872
 10
90.31702549305725
 20
-34.85254836669872
 10
90.41951455545726
 20
-34.83992589789873
 10
90.52318264985727
 20
-34.82732702589872
 10
90.62801725785726
 20
-34.81472062429872
  0
LWPOLYLINE
  5
4C
330
2
100
AcDbEntity
  8
0
100
AcDbPolyline
 90
       13
 70
     0
 43
0.0
 10
83.97348384985725
 20
-31.62135616989872
 10
84.04263778425727
 20
-31.84503556989872
 10
84.12602319705726
 20
-32.08470032669873
 10
84.21942313145725
 20
-32.34199581469872
 10
84.31884016505724
 20
-32.62080857949873
 10
84.42160428505726
 20
-32.92682644029872
 10
84.52696935065725
 20
-33.26551877629873
 10
84.63861668345726
 20
-33.64781260509873
 10
84.74669128185727
 20
-34.03502564029873
 10
84.84776016345724
 20
-34.40774750109872
 10
84.94823825465726
 20
-34.78990098109872
 10
85.05510780345725
 20
-35.21560745629872
 10
85.14453895385726
 20
-35.59262586269872
  0
LINE
  5
4D
330
2
100
AcDbEntity
  8
0
100
AcDbLine
 10
85.14453928985725
 20
-35.59262731869872
 30
0.0
 11
85.20365037305726
 21
-35.85422205629872
 31
0.0
  0
LWPOLYLINE
  5
4E
330
2
100
AcDbEntity
  8
0
100
AcDbPolyline
 90
        8
 70
     0
 43
0.0
 10
83.97348384985725
 20
-31.62135616989872
 10
83.92591961465726
 20
-31.43714552349873
 10
83.88941284505724
 20
-31.26108971549872
 10
83.86672220025726
 20
-31.11325813469872
 10
83.85103687225726
 20
-30.97826016669872
 10
83.83774997785726
 20
-30.84917605789872
 10
83.82127035065726
 20
-30.70745240829872
 10
83.80065811225724
 20
-30.61816882589873
  0
LWPOLYLINE
  5
4F
330
2
100
AcDbEntity
  8
0
100
AcDbPolyline
 90
       27
 70
     0
 43
0.0
 10
90.62801725785726
 20
-34.81472062429872
 10
90.73172181145725
 20
-34.80188542269872
 10
90.83766500345726
 20
-34.78795523709873
 10
90.94592363225727
 20
-34.77293828029872
 10
91.05657449945725
 20
-34.75684275709872
 10
91.16965622105727
 20
-34.73968813309872
 10
91.28505467385725
 20
-34.72153888509873
 10
91.40261754905726
 20
-34.70247074589873
 10
91.52219253945725
 20
-34.68255944509872
 10
91.68451265625725
 20
-34.65482717949872
 10
91.84989858745726
 20
-34.62589106749872
 10
92.01810982105726
 20
-34.59591158109872
 10
92.18889353145724
 20
-34.56504848989872
 10
92.36194762265725
 20
-34.53345873149872
 10
92.53695767865727
 20
-34.50129854109873
 10
92.80251273145726
 20
-34.45232375229872
 10
93.07106200505726
 20
-34.40290409149872
 10
93.34189572665726
 20
-34.35352018429873
 10
93.61426215065725
 20
-34.30462685629872
 10
93.88748852185726
 20
-34.25664764989872
 10
94.16126006265725
 20
-34.20990679869872
 10
94.43535424825725
 20
-34.16469139389873
 10
94.70955960825724
 20
-34.12123928029873
 10
94.98365532825726
 20
-34.07976370109873
 10
95.25737216505726
 20
-34.04042870589872
 10
95.53045551065725
 20
-34.00336633469872
 10
95.80275773465727
 20
-33.96862975069872
  0
LINE
  5
50
330
2
100
AcDbEntity
  8
0
100
AcDbLine
 10
111.1630786114572
 20
-46.52027818909873
 30
0.0
 11
113.7036805986572
 21
-46.52027818909873
 31
0.0
  0
LINE
  5
51
330
2
100
AcDbEntity
  8
0
100
AcDbLine
 10
116.9736287618572
 20
-46.50777818909872
 30
0.0
 11
107.8931305218572
 21
-46.50777818909872
 31
0.0
  0
ARC
  5
52
330
2
100
AcDbEntity
  8
0
100
AcDbCircle
 10
107.3915452178573
 20
-46.00777818909873
 30
0.0
 40
0.5
100
AcDbArc
 50
186.4461102476
 51
270.0
  0
LWPOLYLINE
  5
53
330
2
100
AcDbEntity
  8
0
100
AcDbPolyline
 90
       21
 70
     0
 43
0.0
 10
105.4425502786572
 20
-45.61899247549873
 10
105.5915322642572
 20
-45.63410678749873
 10
105.7361070546572
 20
-45.64855454109873
 10
105.8838325266572
 20
-45.66302826749873
 10
106.0427941618572
 20
-45.67823207069873
 10
106.2178150130572
 20
-45.69447155709872
 10
106.4083092130572
 20
-45.71149841629873
 10
106.6124108914572
 20
-45.72899326429872
 10
106.8277853218572
 20
-45.74665094909873
 10
107.0556382690572
 20
-45.76440964189873
 10
107.2986226258572
 20
-45.78221391229873
 10
107.5566051858572
 20
-45.79972131549872
 10
107.8262879778572
 20
-45.81639205789873
 10
108.1025264690572
 20
-45.83178988829873
 10
108.3789421058572
 20
-45.84558690429872
 10
108.6485472578572
 20
-45.85756436029873
 10
108.9047048370572
 20
-45.86765018109873
 10
109.1460836562572
 20
-45.87604846909872
 10
109.3752491250572
 20
-45.88306351069873
 10
109.5950894722572
 20
-45.88892454589873
 10
109.7679562418572
 20
-45.89287333789872
  0
LWPOLYLINE
  5
54
330
2
100
AcDbEntity
  8
0
100
AcDbPolyline
 90
       22
 70
     0
 43
0.0
 10
110.5421315314573
 20
-45.93080678429873
 10
109.5950530818573
 20
-45.88892360989873
 10
109.3752101762573
 20
-45.88306235869873
 10
109.1460412242573
 20
-45.87604704669873
 10
108.9046575314573
 20
-45.86764839549873
 10
108.6484934850573
 20
-45.85756207869873
 10
108.3788822754573
 20
-45.84558405469873
 10
108.1024632242573
 20
-45.83178652029872
 10
107.8262258146573
 20
-45.81638837949873
 10
107.5565493314573
 20
-45.79971766429873
 10
107.2985757570573
 20
-45.78221057629873
 10
107.0556001090573
 20
-45.76440673309873
 10
106.8277541458573
 20
-45.74664843869872
 10
106.6123855058573
 20
-45.72899112509873
 10
106.4082894674573
 20
-45.71149667869873
 10
106.2178008050573
 20
-45.69447025789872
 10
106.0427849922573
 20
-45.67823120349873
 10
105.8838274194573
 20
-45.66302777309873
 10
105.7361047106573
 20
-45.64855430909872
 10
105.5915321314573
 20
-45.63410677469873
 10
105.4425523714573
 20
-45.61899268829873
 10
105.3043536578573
 20
-45.60486829149873
  0
LWPOLYLINE
  5
55
330
2
100
AcDbEntity
  8
0
100
AcDbPolyline
 90
        4
 70
     0
 43
0.0
 10
106.7758733906573
 20
-45.83037131069873
 10
106.7284497714573
 20
-45.79355858909873
 10
106.6123855058573
 20
-45.72899112509873
 10
106.6800209186573
 20
-45.76706539709873
  0
LWPOLYLINE
  5
56
330
2
100
AcDbEntity
  8
0
100
AcDbPolyline
 90
        3
 70
     0
 43
0.0
 10
106.8947072930573
 20
-46.06390771709873
 10
106.8833593186573
 20
-46.00554916669873
 10
106.8570904946573
 20
-45.93765227389872
  0
LINE
  5
57
330
2
100
AcDbEntity
  8
0
100
AcDbLine
 10
106.8570904946573
 20
-45.93765227389872
 30
0.0
 11
106.7758733906573
 21
-45.83037131069873
 31
0.0
  0
LINE
  5
58
330
2
100
AcDbEntity
  8
0
100
AcDbLine
 10
104.1321326482572
 20
-44.35593299069874
 30
0.0
 11
104.1525204658572
 21
-44.35818720029874
 31
0.0
  0
LINE
  5
59
330
2
100
AcDbEntity
  8
0
100
AcDbLine
 10
104.1141013186572
 20
-44.35488497149873
 30
0.0
 11
104.1321326482572
 21
-44.35593299069874
 31
0.0
  0
LINE
  5
5A
330
2
100
AcDbEntity
  8
0
100
AcDbLine
 10
104.4717268674572
 20
-44.67087680349873
 30
0.0
 11
104.4749371986572
 21
-44.69698525309873
 31
0.0
  0
LINE
  5
5B
330
2
100
AcDbEntity
  8
0
100
AcDbLine
 10
104.4749371986572
 20
-44.69698525309873
 30
0.0
 11
104.4881679410572
 21
-44.97316295069873
 31
0.0
  0
LINE
  5
5C
330
2
100
AcDbEntity
  8
0
100
AcDbLine
 10
104.1322319810573
 20
-44.35594118269873
 30
0.0
 11
104.1141013186573
 21
-44.35488497149873
 31
0.0
  0
LINE
  5
5D
330
2
100
AcDbEntity
  8
0
100
AcDbLine
 10
104.4882611442573
 20
-44.97417556669873
 30
0.0
 11
104.4749371986573
 21
-44.69698525309873
 31
0.0
  0
LINE
  5
5E
330
2
100
AcDbEntity
  8
0
100
AcDbLine
 10
104.4749372002573
 20
-44.69698525309873
 30
0.0
 11
104.4718718674573
 21
-44.67179762589874
 31
0.0
  0
LWPOLYLINE
  5
5F
330
2
100
AcDbEntity
  8
0
100
AcDbPolyline
 90
       18
 70
     0
 43
0.0
 10
104.1525204658572
 20
-44.35818720029874
 10
104.1729178786572
 20
-44.36155846269874
 10
104.1944269090572
 20
-44.36639964509874
 10
104.2164938690572
 20
-44.37277903869873
 10
104.2389730498572
 20
-44.38082937629873
 10
104.2616901490572
 20
-44.39066920669874
 10
104.2844552546572
 20
-44.40240316829874
 10
104.3070627058572
 20
-44.41611936829874
 10
104.3292905922572
 20
-44.43188586909873
 10
104.3509023954572
 20
-44.44974774909874
 10
104.3716500114572
 20
-44.46972519709873
 10
104.3913033218572
 20
-44.49184451069874
 10
104.4096448770572
 20
-44.51615509949873
 10
104.4264260226572
 20
-44.54269319549873
 10
104.4413627106572
 20
-44.57147251229874
 10
104.4541347202572
 20
-44.60247603389873
 10
104.4643860418572
 20
-44.63564663709873
 10
104.4717268386572
 20
-44.67087656349874
  0
LWPOLYLINE
  5
60
330
2
100
AcDbEntity
  8
0
100
AcDbPolyline
 90
       19
 70
     0
 43
0.0
 10
104.4718718674573
 20
-44.67179762589874
 10
104.4646037202573
 20
-44.63649114109873
 10
104.4544098914573
 20
-44.60324182589873
 10
104.4416815042573
 20
-44.57215948029873
 10
104.4267758658573
 20
-44.54330272829873
 10
104.4100145026573
 20
-44.51668976989874
 10
104.3916827202573
 20
-44.49230780029874
 10
104.3720303698573
 20
-44.47012126749874
 10
104.3512760178573
 20
-44.45008126589874
 10
104.3296508450573
 20
-44.43216195709873
 10
104.3074040082573
 20
-44.41634353789874
 10
104.2847730562573
 20
-44.40258116669873
 10
104.2619808850573
 20
-44.39080685949874
 10
104.2392340914573
 20
-44.38093246429874
 10
104.2167234178573
 20
-44.37285316989874
 10
104.1946238738573
 20
-44.36645016189873
 10
104.1730819730573
 20
-44.36159039869873
 10
104.1521944098573
 20
-44.35812951389873
 10
104.1322319874573
 20
-44.35594118269873
  0
LWPOLYLINE
  5
61
330
2
100
AcDbEntity
  8
0
100
AcDbPolyline
 90
       28
 70
     0
 43
0.0
 10
104.4887294690572
 20
-44.97901887069873
 10
104.4986575074572
 20
-45.04394894589872
 10
104.5182272706572
 20
-45.11681959389873
 10
104.5451254610572
 20
-45.18447751069873
 10
104.5781028674572
 20
-45.24631541149872
 10
104.6157850594572
 20
-45.30180917309873
 10
104.6566833634572
 20
-45.35061154429873
 10
104.6992997266572
 20
-45.39266026109873
 10
104.7421345794572
 20
-45.42811167869873
 10
104.7839390706572
 20
-45.45745764669873
 10
104.8238787426572
 20
-45.48145984989873
 10
104.8614270354572
 20
-45.50093977949873
 10
104.8963733186572
 20
-45.51671816989872
 10
104.9288290450572
 20
-45.52957313629873
 10
104.9591888994572
 20
-45.54020107229873
 10
104.9879339634572
 20
-45.54915457629873
 10
105.0155280034572
 20
-45.55684712189872
 10
105.0423732578572
 20
-45.56357959229873
 10
105.0688240050572
 20
-45.56957418109873
 10
105.0951824434572
 20
-45.57499383869873
 10
105.1217818098572
 20
-45.57997188349872
 10
105.1489659458572
 20
-45.58461345789873
 10
105.1770534754572
 20
-45.58899570429873
 10
105.2063285474572
 20
-45.59317316829873
 10
105.2370822242572
 20
-45.59718875229872
 10
105.2696271634572
 20
-45.60107653949873
 10
105.3042801330572
 20
-45.60486061789872
 10
105.4425502786572
 20
-45.61899247549873
  0
LWPOLYLINE
  5
62
330
2
100
AcDbEntity
  8
0
100
AcDbPolyline
 90
       27
 70
     0
 43
0.0
 10
105.3043536578573
 20
-45.60486829149873
 10
105.2697104370573
 20
-45.60108605309873
 10
105.2371741634573
 20
-45.59720023549873
 10
105.2064284242573
 20
-45.59318679869873
 10
105.1771609682573
 20
-45.58901173789872
 10
105.1490809378573
 20
-45.58463221789873
 10
105.1219047346573
 20
-45.57999384189873
 10
105.0953142194573
 20
-45.57501966269873
 10
105.0689660482573
 20
-45.56960480349872
 10
105.0425272626573
 20
-45.56361625149873
 10
105.0156961538573
 20
-45.55689150109873
 10
104.9881191522573
 20
-45.54920902749873
 10
104.9593949010573
 20
-45.54026892189873
 10
104.9290605234573
 20
-45.52965907389872
 10
104.8966353842573
 20
-45.51682862429873
 10
104.8617237666573
 20
-45.50108288349873
 10
104.8242117458573
 20
-45.48164511069873
 10
104.7843065202573
 20
-45.45769541789873
 10
104.7425319074573
 20
-45.42841334749873
 10
104.6997185778573
 20
-45.39303719709873
 10
104.6571110418573
 20
-45.35107348029873
 10
104.6162064498573
 20
-45.30236464829872
 10
104.5784996562573
 20
-45.24696980669872
 10
104.5454767922573
 20
-45.18523171549873
 10
104.5185112258573
 20
-45.11767028669873
 10
104.4988517106573
 20
-45.04488774589872
 10
104.4887289186573
 20
-44.97901339229873
  0
LINE
  5
63
330
2
100
AcDbEntity
  8
0
100
AcDbLine
 10
110.5421315314573
 20
-45.93080678429873
 30
0.0
 11
110.8967679778573
 21
-46.41044323229873
 31
0.0
  0
LWPOLYLINE
  5
64
330
2
100
AcDbEntity
  8
0
100
AcDbPolyline
 90
        7
 70
     0
 43
0.0
 10
107.4199719458573
 20
-46.17396303229873
 10
107.3925140706573
 20
-46.11368457149873
 10
107.3565631122573
 20
-46.06126764029872
 10
107.3141181938573
 20
-46.01733962429872
 10
107.2680785458573
 20
-45.98283585469872
 10
107.2232704866573
 20
-45.95857392189873
 10
107.2026612226573
 20
-45.95056839069872
  0
LINE
  5
65
330
2
100
AcDbEntity
  8
0
100
AcDbLine
 10
107.3931305538573
 20
-46.50777818909872
 30
0.0
 11
107.8915452178573
 21
-46.50777818909872
 31
0.0
  0
ARC
  5
66
330
2
100
AcDbEntity
  8
0
100
AcDbCircle
 10
107.8915452178573
 20
-46.00777818909873
 30
0.0
 40
0.5
100
AcDbArc
 50
199.4154119011
 51
270.0
  0
ARC
  5
67
330
2
100
AcDbEntity
  8
0
100
AcDbCircle
 10
111.1619330210573
 20
-46.14527818909873
 30
0.0
 40
0.375
100
AcDbArc
 50
225.0
 51
270.0
  0
LWPOLYLINE
  5
68
330
2
100
AcDbEntity
  8
0
100
AcDbPolyline
 90
       22
 70
     0
 43
0.0
 10
114.3246277298572
 20
-45.93080678429873
 10
115.2717061794572
 20
-45.88892360989873
 10
115.4915490850572
 20
-45.88306235869873
 10
115.7207180370572
 20
-45.87604704669873
 10
115.9621017298572
 20
-45.86764839549873
 10
116.2182657762572
 20
-45.85756207869873
 10
116.4878769858572
 20
-45.84558405469873
 10
116.7642960370572
 20
-45.83178652029872
 10
117.0405334466572
 20
-45.81638837949873
 10
117.3102099298572
 20
-45.79971766429873
 10
117.5681835042572
 20
-45.78221057629873
 10
117.8111591522572
 20
-45.76440673309873
 10
118.0390051154572
 20
-45.74664843869872
 10
118.2543737554572
 20
-45.72899112509873
 10
118.4584697938572
 20
-45.71149667869873
 10
118.6489584562572
 20
-45.69447025789872
 10
118.8239742690572
 20
-45.67823120349873
 10
118.9829318418572
 20
-45.66302777309873
 10
119.1306545506572
 20
-45.64855430909872
 10
119.2752271298572
 20
-45.63410677469873
 10
119.4242068898572
 20
-45.61899268829873
 10
119.5624056034572
 20
-45.60486829149873
  0
ARC
  5
69
330
2
100
AcDbEntity
  8
0
100
AcDbCircle
 10
117.4752140434572
 20
-46.00777818909873
 30
0.0
 40
0.5
100
AcDbArc
 50
270.0
 51
353.5538897523999
  0
LWPOLYLINE
  5
6A
330
2
100
AcDbEntity
  8
0
100
AcDbPolyline
 90
        7
 70
     0
 43
0.0
 10
117.4467873154572
 20
-46.17396303229873
 10
117.4742451906572
 20
-46.11368457149873
 10
117.5101961490572
 20
-46.06126764029872
 10
117.5526410674572
 20
-46.01733962429872
 10
117.5986807154572
 20
-45.98283585469872
 10
117.6434887746572
 20
-45.95857392189873
 10
117.6640980386572
 20
-45.95056839069872
  0
LINE
  5
6B
330
2
100
AcDbEntity
  8
0
100
AcDbLine
 10
114.3246277298572
 20
-45.93080678429873
 30
0.0
 11
113.9699912834572
 21
-46.41044323229873
 31
0.0
  0
ARC
  5
6C
330
2
100
AcDbEntity
  8
0
100
AcDbCircle
 10
113.7048262402572
 20
-46.14527818909873
 30
0.0
 40
0.375
100
AcDbArc
 50
270.0
 51
315.0
  0
ARC
  5
6D
330
2
100
AcDbEntity
  8
0
100
AcDbCircle
 10
116.9752140434572
 20
-46.00777818909873
 30
0.0
 40
0.5
100
AcDbArc
 50
270.0
 51
340.5845880988999
  0
LINE
  5
6E
330
2
100
AcDbEntity
  8
0
100
AcDbLine
 10
117.4736287074572
 20
-46.50777818909872
 30
0.0
 11
116.9752140434572
 21
-46.50777818909872
 31
0.0
  0
LWPOLYLINE
  5
6F
330
2
100
AcDbEntity
  8
0
100
AcDbPolyline
 90
        4
 70
     0
 43
0.0
 10
118.0908858706572
 20
-45.83037131069873
 10
118.1383094898572
 20
-45.79355858909873
 10
118.2543737554572
 20
-45.72899112509873
 10
118.1867383426572
 20
-45.76706539709873
  0
LWPOLYLINE
  5
70
330
2
100
AcDbEntity
  8
0
100
AcDbPolyline
 90
        3
 70
     0
 43
0.0
 10
117.9720519682572
 20
-46.06390771709873
 10
117.9833999426572
 20
-46.00554916669873
 10
118.0096687666572
 20
-45.93765227389872
  0
LINE
  5
71
330
2
100
AcDbEntity
  8
0
100
AcDbLine
 10
118.0096687666572
 20
-45.93765227389872
 30
0.0
 11
118.0908858706572
 21
-45.83037131069873
 31
0.0
  0
LINE
  5
72
330
2
100
AcDbEntity
  8
0
100
AcDbLine
 10
120.3918220610572
 20
-44.69698525309873
 30
0.0
 11
120.3948873938572
 21
-44.67179762589874
 31
0.0
  0
LINE
  5
73
330
2
100
AcDbEntity
  8
0
100
AcDbLine
 10
120.3784981170572
 20
-44.97417556669873
 30
0.0
 11
120.3918220626572
 21
-44.69698525309873
 31
0.0
  0
LINE
  5
74
330
2
100
AcDbEntity
  8
0
100
AcDbLine
 10
120.7345272802572
 20
-44.35594118269873
 30
0.0
 11
120.7526579426572
 21
-44.35488497149873
 31
0.0
  0
LWPOLYLINE
  5
75
330
2
100
AcDbEntity
  8
0
100
AcDbPolyline
 90
       19
 70
     0
 43
0.0
 10
120.3948873938572
 20
-44.67179762589874
 10
120.4021555410572
 20
-44.63649114109873
 10
120.4123493698572
 20
-44.60324182589873
 10
120.4250777570572
 20
-44.57215948029873
 10
120.4399833954572
 20
-44.54330272829873
 10
120.4567447586572
 20
-44.51668976989874
 10
120.4750765410572
 20
-44.49230780029874
 10
120.4947288914572
 20
-44.47012126749874
 10
120.5154832434572
 20
-44.45008126589874
 10
120.5371084162572
 20
-44.43216195709873
 10
120.5593552530572
 20
-44.41634353789874
 10
120.5819862050572
 20
-44.40258116669873
 10
120.6047783762572
 20
-44.39080685949874
 10
120.6275251698572
 20
-44.38093246429874
 10
120.6500358434572
 20
-44.37285316989874
 10
120.6721353874572
 20
-44.36645016189873
 10
120.6936772882572
 20
-44.36159039869873
 10
120.7145648514572
 20
-44.35812951389873
 10
120.7345272738572
 20
-44.35594118269873
  0
LWPOLYLINE
  5
76
330
2
100
AcDbEntity
  8
0
100
AcDbPolyline
 90
       27
 70
     0
 43
0.0
 10
119.5624056034572
 20
-45.60486829149873
 10
119.5970488242572
 20
-45.60108605309873
 10
119.6295850978572
 20
-45.59720023549873
 10
119.6603308370572
 20
-45.59318679869873
 10
119.6895982930572
 20
-45.58901173789872
 10
119.7176783234572
 20
-45.58463221789873
 10
119.7448545266572
 20
-45.57999384189873
 10
119.7714450418572
 20
-45.57501966269873
 10
119.7977932130572
 20
-45.56960480349872
 10
119.8242319986572
 20
-45.56361625149873
 10
119.8510631074572
 20
-45.55689150109873
 10
119.8786401090572
 20
-45.54920902749873
 10
119.9073643602572
 20
-45.54026892189873
 10
119.9376987378572
 20
-45.52965907389872
 10
119.9701238770572
 20
-45.51682862429873
 10
120.0050354946572
 20
-45.50108288349873
 10
120.0425475154572
 20
-45.48164511069873
 10
120.0824527410572
 20
-45.45769541789873
 10
120.1242273538572
 20
-45.42841334749873
 10
120.1670406834572
 20
-45.39303719709873
 10
120.2096482194572
 20
-45.35107348029873
 10
120.2505528114572
 20
-45.30236464829872
 10
120.2882596050572
 20
-45.24696980669872
 10
120.3212824690572
 20
-45.18523171549873
 10
120.3482480354572
 20
-45.11767028669873
 10
120.3679075506572
 20
-45.04488774589872
 10
120.3780303426572
 20
-44.97901339229873
  0
LWPOLYLINE
  5
77
330
2
100
AcDbEntity
  8
0
100
AcDbPolyline
 90
       24
 70
     0
 43
0.0
 10
112.4333796306572
 20
-32.62299161469872
 10
112.7869209250572
 20
-32.62374345629872
 10
113.1342343298572
 20
-32.62593479709873
 10
113.4750191602572
 20
-32.62946935709873
 10
113.8091752098572
 20
-32.63425763069872
 10
114.1374041810572
 20
-32.64023717789872
 10
114.4606082466572
 20
-32.64735233149873
 10
114.7796332658572
 20
-32.65555258749872
 10
115.0950998130572
 20
-32.66480810749873
 10
115.4075721378572
 20
-32.67509421789872
 10
115.8719961314572
 20
-32.69242303549872
 10
116.3334292514572
 20
-32.71205951709873
 10
116.7939423474572
 20
-32.73403448349872
 10
117.2539834466572
 20
-32.75832463069873
 10
117.7134693842572
 20
-32.78488136829873
 10
118.1718150354572
 20
-32.81360909949873
 10
118.6284443890572
 20
-32.84440464669872
 10
119.0833198210572
 20
-32.87718153149873
 10
119.5365478306572
 20
-32.91185674109872
 10
119.9882730066572
 20
-32.94834441469873
 10
120.8880163698572
 20
-33.02641178909873
 10
121.7846783970572
 20
-33.11068088829873
 10
122.6806514658572
 20
-33.20039526909873
 10
123.5783796306572
 20
-33.29464347709873
  0
LWPOLYLINE
  5
78
330
2
100
AcDbEntity
  8
0
100
AcDbPolyline
 90
       24
 70
     0
 43
0.0
 10
101.2883796306572
 20
-33.29464347709873
 10
102.1896986674572
 20
-33.20002616029873
 10
103.0920394866572
 20
-33.10971276989873
 10
103.9948773954572
 20
-33.02495202429872
 10
104.8976310114572
 20
-32.94676001309872
 10
105.3490470802572
 20
-32.91037575389872
 10
105.8011083570572
 20
-32.87587005469873
 10
106.2544695730572
 20
-32.84327837949872
 10
106.7096161458572
 20
-32.81265531869873
 10
107.1667698850572
 20
-32.78407048829872
 10
107.6252675010572
 20
-32.75763448829872
 10
108.0843712370572
 20
-32.73345432349872
 10
108.5439305874572
 20
-32.71158162589873
 10
109.0043546162572
 20
-32.69204035869872
 10
109.4677034050572
 20
-32.67479916189872
 10
109.7794197250572
 20
-32.66456682429872
 10
110.0940943058572
 20
-32.65536102109872
 10
110.4122864690572
 20
-32.64720612189872
 10
110.7346116770572
 20
-32.64013158749873
 10
111.0619099362572
 20
-32.63418726109873
 10
111.3950773858572
 20
-32.62942808029873
 10
111.7348110322572
 20
-32.62591568029872
 10
112.0810113378572
 20
-32.62373848509872
 10
112.4333796306572
 20
-32.62299161469872
  0
LWPOLYLINE
  5
79
330
2
100
AcDbEntity
  8
0
100
AcDbPolyline
 90
       15
 70
     0
 43
0.0
 10
138.9357807666572
 20
-40.56399283389874
 10
138.9494308402572
 20
-40.28805920829873
 10
138.9686697202572
 20
-40.00112935069874
 10
138.9942213122572
 20
-39.70424683549873
 10
139.0256393650572
 20
-39.39681038909874
 10
139.0625449234572
 20
-39.07851241629873
 10
139.1048040338572
 20
-38.86142661949873
 10
139.1525466466572
 20
-38.64429825149872
 10
139.2058941586572
 20
-38.28922851869872
 10
139.2648403970572
 20
-37.92194674589873
 10
139.3294581458572
 20
-37.54293080989873
 10
139.3999567074572
 20
-37.15221883549872
 10
139.4775008338572
 20
-36.74539282909872
 10
139.5643128738572
 20
-36.31491175389872
 10
139.6631088882572
 20
-35.85422205629872
  0
LWPOLYLINE
  5
7A
330
2
100
AcDbEntity
  8
0
100
AcDbPolyline
 90
       18
 70
     0
 43
0.0
 10
139.7222199714572
 20
-35.59262731869872
 10
139.7006342466572
 20
-35.68697021149872
 10
139.5859263266572
 20
-36.21154435069873
 10
139.4680148402572
 20
-36.79398023709873
 10
139.3508400834572
 20
-37.42211900829873
 10
139.2453876802572
 20
-38.04063867229872
 10
139.1603160818572
 20
-38.59099561789872
 10
139.0923056850572
 20
-38.95584816989872
 10
139.0387539906572
 20
-39.27956459229874
 10
138.9976996194572
 20
-39.66782308029873
 10
138.9677693714572
 20
-40.01287565629874
 10
138.9472412226572
 20
-40.32747165469873
 10
138.9331898626572
 20
-40.62360652989873
 10
138.9212668306572
 20
-40.89276674589874
 10
138.9069436994572
 20
-41.13688188189874
 10
138.8866889394572
 20
-41.35968552189874
 10
138.8588858898572
 20
-41.56015548509873
 10
138.8323536146572
 20
-41.69919585469873
  0
LWPOLYLINE
  5
7B
330
2
100
AcDbEntity
  8
0
100
AcDbPolyline
 90
       27
 70
     0
 43
0.0
 10
138.8323532306572
 20
-41.69919764189873
 10
138.8229078994572
 20
-41.74162874909874
 10
138.7781483906572
 20
-41.91297815709873
 10
138.7226351090572
 20
-42.08357192989874
 10
138.6568725282572
 20
-42.25104201149874
 10
138.5815322258572
 20
-42.41379800509874
 10
138.4972329938572
 20
-42.57076934269874
 10
138.4044166306572
 20
-42.72131719869873
 10
138.3034881826572
 20
-42.86501678429874
 10
138.1952695250572
 20
-43.00101531229874
 10
138.0810284546572
 20
-43.12809130109873
 10
137.9618690834572
 20
-43.24546701629873
 10
137.8385029714572
 20
-43.35294434269873
 10
137.7110449122572
 20
-43.45087950269873
 10
137.5789990866572
 20
-43.53987836829873
 10
137.4418319298572
 20
-43.62040516829874
 10
137.2990867650572
 20
-43.69269745469874
 10
137.1500840962572
 20
-43.75692449949873
 10
136.9943150082572
 20
-43.81300860669873
 10
136.8310115858572
 20
-43.86079302589873
 10
136.6590823490572
 20
-43.90002048509873
 10
136.4799420898572
 20
-43.92988239549874
 10
136.2957009042572
 20
-43.94957716509874
 10
136.1211955666572
 20
-43.95950237469874
 10
135.9599405330572
 20
-43.96460001469874
 10
135.8159771186572
 20
-43.96837281309873
 10
135.6943992130572
 20
-43.97208832509874
  0
LINE
  5
7C
330
2
100
AcDbEntity
  8
0
100
AcDbLine
 10
131.9809734850572
 20
-44.40593381149873
 30
0.0
 11
131.5257541954572
 21
-46.22983533149873
 31
0.0
  0
LINE
  5
7D
330
2
100
AcDbEntity
  8
0
100
AcDbLine
 10
126.9075445826572
 20
-44.31757949309874
 30
0.0
 11
132.5575146786572
 21
-44.12027818909873
 31
0.0
  0
LWPOLYLINE
  5
7E
330
2
100
AcDbEntity
  8
0
100
AcDbPolyline
 90
       11
 70
     0
 43
0.0
 10
126.9900258242572
 20
-44.26660551389874
 10
127.5839636994572
 20
-44.24804802589874
 10
128.1741981986572
 20
-44.22928846749874
 10
128.7366257010572
 20
-44.21110141149873
 10
129.2776372914572
 20
-44.19331228029873
 10
129.8007929794572
 20
-44.17583932029873
 10
130.3063979954572
 20
-44.15871405949873
 10
130.7948525506572
 20
-44.14196404029874
 10
131.2666608786572
 20
-44.12561844669873
 10
131.7141140402572
 20
-44.10999964349874
 10
132.1283952898572
 20
-44.09547007389874
  0
ARC
  5
7F
330
2
100
AcDbEntity
  8
0
100
AcDbCircle
 10
132.3431809330572
 20
-44.50299146749873
 30
0.0
 40
0.3749929488
100
AcDbArc
 50
91.99999999999999
 51
164.9993412466999
  0
LINE
  5
80
330
2
100
AcDbEntity
  8
0
100
AcDbLine
 10
127.5324888306572
 20
-44.58657647229873
 30
0.0
 11
127.9393050658572
 21
-46.22983533149873
 31
0.0
  0
LINE
  5
81
330
2
100
AcDbEntity
  8
0
100
AcDbLine
 10
131.1635320098572
 20
-46.50777818909872
 30
0.0
 11
128.3015272514572
 21
-46.50777818909872
 31
0.0
  0
ARC
  5
82
330
2
100
AcDbEntity
  8
0
100
AcDbCircle
 10
128.3015272514572
 20
-46.13277818909873
 30
0.0
 40
0.375
100
AcDbArc
 50
195.0
 51
270.0
  0
ARC
  5
83
330
2
100
AcDbEntity
  8
0
100
AcDbCircle
 10
131.1635320098572
 20
-46.13277818909873
 30
0.0
 40
0.375
100
AcDbArc
 50
270.0
 51
345.0
  0
ARC
  5
84
330
2
100
AcDbEntity
  8
0
100
AcDbCircle
 10
127.1702725778572
 20
-44.68363340829873
 30
0.0
 40
0.3749971088
100
AcDbArc
 50
15.0002039986
 51
92.0009068435
  0
LINE
  5
85
330
2
100
AcDbEntity
  8
0
100
AcDbLine
 10
126.9075445826572
 20
-44.31757949309874
 30
0.0
 11
126.9075445826572
 21
-44.26915564829873
 31
0.0
  0
LINE
  5
86
330
2
100
AcDbEntity
  8
0
100
AcDbLine
 10
135.0224149490572
 20
-43.99465995869873
 30
0.0
 11
135.0856000370572
 21
-43.99248122109873
 31
0.0
  0
LINE
  5
87
330
2
100
AcDbEntity
  8
0
100
AcDbLine
 10
134.5879821794572
 20
-44.00969002429873
 30
0.0
 11
135.6943992130572
 21
-43.97208832509874
 31
0.0
  0
LWPOLYLINE
  5
88
330
2
100
AcDbEntity
  8
0
100
AcDbPolyline
 90
        5
 70
     0
 43
0.0
 10
133.1861580834572
 20
-44.05836472189874
 10
133.7585833458572
 20
-44.03841314269874
 10
133.9958672946572
 20
-44.03019489949874
 10
134.2046353330572
 20
-44.02296987069873
 10
134.3931483234572
 20
-44.01644089949874
  0
LINE
  5
89
330
2
100
AcDbEntity
  8
0
100
AcDbLine
 10
134.3931483234572
 20
-44.01644089949874
 30
0.0
 11
134.7004123762572
 21
-44.00579448829874
 31
0.0
  0
LINE
  5
8A
330
2
100
AcDbEntity
  8
0
100
AcDbLine
 10
134.7004123762572
 20
-44.00579448829874
 30
0.0
 11
134.7880883970572
 21
-44.00275865629874
 31
0.0
  0
LINE
  5
8B
330
2
100
AcDbEntity
  8
0
100
AcDbLine
 10
134.7880883970572
 20
-44.00275865629874
 30
0.0
 11
134.8681307506572
 21
-43.99998887869873
 31
0.0
  0
LINE
  5
8C
330
2
100
AcDbEntity
  8
0
100
AcDbLine
 10
134.8681307506572
 20
-43.99998887869873
 30
0.0
 11
135.0224149490572
 21
-43.99465995869873
 31
0.0
  0
LINE
  5
8D
330
2
100
AcDbEntity
  8
0
100
AcDbLine
 10
132.1283952898572
 20
-44.09547007389874
 30
0.0
 11
132.5582200290572
 21
-44.08035597629874
 31
0.0
  0
LINE
  5
8E
330
2
100
AcDbEntity
  8
0
100
AcDbLine
 10
132.5582200290572
 20
-44.08035597629874
 30
0.0
 11
133.1861580834572
 21
-44.05836472189874
 31
0.0
  0
LINE
  5
8F
330
2
100
AcDbEntity
  8
0
100
AcDbLine
 10
132.5575146786572
 20
-44.08038075549874
 30
0.0
 11
132.5575146786572
 21
-44.12027818909873
 31
0.0
  0
ARC
  5
90
330
2
100
AcDbEntity
  8
0
100
AcDbCircle
 10
132.3431956706572
 20
-44.50299095229873
 30
0.0
 40
0.4375
100
AcDbArc
 50
122.6221793589999
 51
124.8990953199
  0
LINE
  5
91
330
2
100
AcDbEntity
  8
0
100
AcDbLine
 10
135.0894956706572
 20
-43.99234689309873
 30
0.0
 11
135.0988042082572
 21
-43.99202743709873
 31
0.0
  0
LINE
  5
92
330
2
100
AcDbEntity
  8
0
100
AcDbLine
 10
135.0988042082572
 20
-43.99202743709873
 30
0.0
 11
135.2010007426572
 21
-43.98852543709874
 31
0.0
  0
LWPOLYLINE
  5
93
330
2
100
AcDbEntity
  8
0
100
AcDbPolyline
 90
        3
 70
     0
 43
0.0
 10
135.2010007426572
 20
-43.98852543709874
 10
135.5309678690572
 20
-43.97731908349873
 10
135.5412425394572
 20
-43.97697089309874
  0
LINE
  5
94
330
2
100
AcDbEntity
  8
0
100
AcDbLine
 10
138.8323536146572
 20
-41.69919585469873
 30
0.0
 11
138.8568084914572
 21
-41.57241317789874
 31
0.0
  0
LWPOLYLINE
  5
95
330
2
100
AcDbEntity
  8
0
100
AcDbPolyline
 90
        5
 70
     0
 43
0.0
 10
138.8568084914572
 20
-41.57241317789874
 10
138.8892480034572
 20
-41.33646730269873
 10
138.9102520786572
 20
-41.08889694909874
 10
138.9241848082572
 20
-40.83081422909873
 10
138.9357807666572
 20
-40.56399283389874
  0
LWPOLYLINE
  5
96
330
2
100
AcDbEntity
  8
0
100
AcDbPolyline
 90
       49
 70
     0
 43
0.0
 10
134.2387420034572
 20
-34.81472062429872
 10
134.3435766114572
 20
-34.82732702589872
 10
134.4472447058572
 20
-34.83992589789873
 10
134.5497337682572
 20
-34.85254836669872
 10
134.6510112146572
 20
-34.86522357469872
 10
134.7509641762572
 20
-34.87797271709872
 10
134.8494597170572
 20
-34.89081499869873
 10
134.9463792306572
 20
-34.90377085469873
 10
135.0416614626572
 20
-34.91686562589872
 10
135.1352594866572
 20
-34.93012588029872
 10
135.2271175474572
 20
-34.94357951389872
 10
135.3171445586572
 20
-34.95725972349873
 10
135.4052406018572
 20
-34.97120102749873
 10
135.4913178578572
 20
-34.98544521629872
 10
135.5753369122572
 20
-35.00006314109873
 10
135.6572704498572
 20
-35.01513292349872
 10
135.7370839234572
 20
-35.03072812189872
 10
135.8147138274572
 20
-35.04690405789872
 10
135.8900894226572
 20
-35.06371149149873
 10
135.9631519362572
 20
-35.08120066909873
 10
136.0338904354572
 20
-35.09941976509873
 10
136.1023059554572
 20
-35.11841643709873
 10
136.1684064386572
 20
-35.13823812189873
 10
136.2322274642572
 20
-35.15893137949872
 10
136.2938115154572
 20
-35.18054254909872
 10
136.3532011010572
 20
-35.20311507389873
 10
136.4104388114572
 20
-35.22668082269872
 10
136.4655672546572
 20
-35.25126877629872
 10
136.5186314386572
 20
-35.27690856669873
 10
136.5696859762572
 20
-35.30363246909873
 10
136.6187878770572
 20
-35.33147341789872
 10
136.6659901714572
 20
-35.36046232189873
 10
136.7113299762572
 20
-35.39062201949873
 10
136.7548404258572
 20
-35.42197332189872
 10
136.7965555794572
 20
-35.45453792189872
 10
136.8365131794572
 20
-35.48834100669872
 10
136.8747518882572
 20
-35.52340864189872
 10
136.9113043106572
 20
-35.55975956669873
 10
136.9461788290572
 20
-35.59738322429872
 10
136.9793777666572
 20
-35.63626173309872
 10
137.0109089826572
 20
-35.67638311549873
 10
137.0408024754572
 20
-35.71775900829873
 10
137.0690937778572
 20
-35.76040695549873
 10
137.0958156866572
 20
-35.80433854269873
 10
137.1209900562572
 20
-35.84954153949873
 10
137.1446360034572
 20
-35.89599775869872
 10
137.1667769426572
 20
-35.94369564829873
 10
137.1874534706572
 20
-35.99265020829872
 10
137.2067104802572
 20
-36.04288306909873
  0
LWPOLYLINE
  5
97
330
2
100
AcDbEntity
  8
0
100
AcDbPolyline
 90
       27
 70
     0
 43
0.0
 10
129.0640015250572
 20
-33.96862975069872
 10
129.3363037506572
 20
-34.00336633469872
 10
129.6093870962572
 20
-34.04042870589872
 10
129.8831039330572
 20
-34.07976370109873
 10
130.1571996530572
 20
-34.12123928029873
 10
130.4314050130572
 20
-34.16469139389873
 10
130.7054991970572
 20
-34.20990679869872
 10
130.9792707378572
 20
-34.25664764989872
 10
131.2524971106572
 20
-34.30462685629872
 10
131.5248635330572
 20
-34.35352018429873
 10
131.7956972562572
 20
-34.40290409149872
 10
132.0642465282572
 20
-34.45232375229872
 10
132.3298015810572
 20
-34.50129854109873
 10
132.5048116386572
 20
-34.53345873149872
 10
132.6778657282572
 20
-34.56504848989872
 10
132.8486494386572
 20
-34.59591158109872
 10
133.0168606722572
 20
-34.62589106749872
 10
133.1822466034572
 20
-34.65482717949872
 10
133.3445667186572
 20
-34.68255944349872
 10
133.4641417090572
 20
-34.70247074589873
 10
133.5817045858572
 20
-34.72153888509873
 10
133.6971030370572
 20
-34.73968813309872
 10
133.8101847586572
 20
-34.75684275709872
 10
133.9208356274572
 20
-34.77293827869872
 10
134.0290942562572
 20
-34.78795523709873
 10
134.1350374482572
 20
-34.80188542269872
 10
134.2387420034572
 20
-34.81472062429872
  0
LWPOLYLINE
  5
98
330
2
100
AcDbEntity
  8
0
100
AcDbPolyline
 90
       13
 70
     0
 43
0.0
 10
140.8932754098572
 20
-31.62135616989872
 10
140.8241214754572
 20
-31.84503556989872
 10
140.7407360626572
 20
-32.08470032669873
 10
140.6473361282572
 20
-32.34199581469872
 10
140.5479190962572
 20
-32.62080857949873
 10
140.4451549762572
 20
-32.92682644029872
 10
140.3397899090572
 20
-33.26551877629873
 10
140.2281425762572
 20
-33.64781260509873
 10
140.1200679794572
 20
-34.03502564029873
 10
140.0189990978572
 20
-34.40774750109872
 10
139.9185210066572
 20
-34.78990098109872
 10
139.8116514578572
 20
-35.21560745629872
 10
139.7222203058572
 20
-35.59262586269872
  0
LINE
  5
99
330
2
100
AcDbEntity
  8
0
100
AcDbLine
 10
139.6631088882572
 20
-35.85422205629872
 30
0.0
 11
139.7222199714572
 21
-35.59262731869872
 31
0.0
  0
LWPOLYLINE
  5
9A
330
2
100
AcDbEntity
  8
0
100
AcDbPolyline
 90
        8
 70
     0
 43
0.0
 10
140.8932754098572
 20
-31.62135616989872
 10
140.9408396466572
 20
-31.43714552349873
 10
140.9773464146572
 20
-31.26108971549872
 10
141.0000370610572
 20
-31.11325813469872
 10
141.0157223874572
 20
-30.97826016669872
 10
141.0290092834572
 20
-30.84917605789872
 10
141.0454889090572
 20
-30.70745240829872
 10
141.0661011490572
 20
-30.61816882589873
  0
LINE
  5
9B
330
2
100
AcDbEntity
  8
0
100
AcDbLine
 10
76.43338581785724
 20
-26.38277818909873
 30
0.0
 11
148.4333734434573
 21
-26.38277818909873
 31
0.0
  0
LINE
  5
9C
330
2
100
AcDbEntity
  8
0
100
AcDbLine
 10
76.54473929159945
 20
-24.38277818909873
 30
0.0
 11
148.322019969715
 21
-24.38277818909873
 31
0.0
  0
LWPOLYLINE
  5
9D
330
2
100
AcDbEntity
  8
0
100
AcDbPolyline
 90
        4
 70
     0
 43
0.0
 10
76.54473929159945
 20
-24.38277818909873
 10
76.48939215705725
 20
-24.98470470909873
 10
76.44768030265725
 20
-25.62893024509873
 10
76.43338581785724
 20
-26.38277818909873
  0
LINE
  5
9E
330
2
100
AcDbEntity
  8
CENTER
 48
4.0
100
AcDbLine
 10
116.010972232524
 20
-28.00090133789873
 30
0.0
 11
108.8557870287905
 21
-28.00090133789873
 31
0.0
  0
LWPOLYLINE
  5
9F
330
2
100
AcDbEntity
  8
0
  6
HIDDEN
100
AcDbPolyline
 90
       44
 70
     0
 43
0.0
 10
105.3741400002572
 20
-28.57543019869872
 10
105.4530177218572
 20
-28.62414635229873
 10
105.5341108418572
 20
-28.66592133629873
 10
105.6171788578572
 20
-28.70143623869872
 10
105.7019812578572
 20
-28.73137215709872
 10
105.7882775378572
 20
-28.75641018109872
 10
105.9080045954572
 20
-28.78390580349872
 10
106.0294542706572
 20
-28.80528056669872
 10
106.1520155362572
 20
-28.82226483549873
 10
106.2750773682572
 20
-28.83658897629873
 10
106.5309314962572
 20
-28.86245796509872
 10
106.7866319842572
 20
-28.88223743069873
 10
107.0425029842572
 20
-28.89385954589872
 10
107.3038033090572
 20
-28.89631613949873
 10
107.5654086434572
 20
-28.89284114429873
 10
107.8271097698572
 20
-28.88813248829873
 10
108.1708275874572
 20
-28.88573523389872
 10
108.5144256530572
 20
-28.88663089149872
 10
108.8579800002572
 20
-28.88813248829873
 10
109.6196107906572
 20
-28.88609062109873
 10
110.3813321090572
 20
-28.88016021309872
 10
111.1430756770572
 20
-28.87667837469873
 10
111.7873812130572
 20
-28.87887365309873
 10
112.4316634642572
 20
-28.88240543229872
 10
113.2454605794572
 20
-28.88313693949872
 10
114.0592523794572
 20
-28.88045922269872
 10
114.8730553074572
 20
-28.87672764349872
 10
115.6868858082572
 20
-28.87429756669872
 10
116.5007603234572
 20
-28.87552435549872
 10
117.3146952978572
 20
-28.88276337309872
 10
117.5891598402572
 20
-28.88632030269873
 10
117.8635942658572
 20
-28.88699995869873
 10
118.1379597170572
 20
-28.88097366749873
 10
118.3176857378572
 20
-28.87161066269873
 10
118.4970910322572
 20
-28.85702384509873
 10
118.6759011938572
 20
-28.83651488509872
 10
118.8538418226572
 20
-28.80938545629872
 10
118.9581118418572
 20
-28.78982336669873
 10
119.0614476322572
 20
-28.76643252989873
 10
119.1494822066572
 20
-28.74217556509872
 10
119.2360753378572
 20
-28.71327956349873
 10
119.3208817154572
 20
-28.67891696509873
 10
119.4035560226572
 20
-28.63826021149872
 10
119.4837529490572
 20
-28.59048174269872
  0
LWPOLYLINE
  5
A1
330
2
100
AcDbEntity
  8
0
  6
HIDDEN
100
AcDbPolyline
 90
       40
 70
     0
 43
0.0
 10
101.9549768962572
 20
-29.80422114429872
 10
102.1777133634572
 20
-29.88337581629873
 10
102.4029618018572
 20
-29.95128442909873
 10
102.6303897042572
 20
-30.00915716509872
 10
102.8596645682572
 20
-30.05820420349872
 10
103.0904538866572
 20
-30.09963572669873
 10
103.3512403602572
 20
-30.13861643389872
 10
103.6130478226572
 20
-30.17122393789873
 10
104.0892580834572
 20
-30.21791537629872
 10
104.5667029602572
 20
-30.24902748989873
 10
105.0448120322572
 20
-30.26428861149872
 10
105.4707845154572
 20
-30.26503601469872
 10
105.8967117362572
 20
-30.25712979069872
 10
106.5711948978572
 20
-30.23521091069872
 10
107.2454577570572
 20
-30.20762931549873
 10
107.9196938914572
 20
-30.18006060669872
 10
108.9509066130572
 20
-30.14721738749873
 10
109.9824393186572
 20
-30.12622528029872
 10
111.0142218770572
 20
-30.11563546909872
 10
112.0461841570572
 20
-30.11399913789873
 10
113.0782560258572
 20
-30.11986746909872
 10
114.1103673554572
 20
-30.13179164989873
 10
115.1424480146572
 20
-30.14832286109872
 10
116.1744278706572
 20
-30.16801228989872
 10
117.2062367938572
 20
-30.18941111869873
 10
117.7795017602572
 20
-30.20339319069872
 10
118.3701057234572
 20
-30.22583816989873
 10
118.9607413122572
 20
-30.24976593469872
 10
119.3007681362572
 20
-30.25997879709872
 10
119.6408293122572
 20
-30.26408357629873
 10
119.9726075922572
 20
-30.25980667709873
 10
120.3042980546572
 20
-30.24757971389873
 10
120.6359054370572
 20
-30.22828947229872
 10
120.9816721538572
 20
-30.20104946589873
 10
121.3265474354572
 20
-30.16483480829872
 10
121.6697251282572
 20
-30.11739455549872
 10
122.0103990770572
 20
-30.05647776669873
 10
122.2486892098572
 20
-30.00419857789872
 10
122.4850507714572
 20
-29.94330940829873
 10
122.7192010834572
 20
-29.87302095549872
  0
LWPOLYLINE
  5
A2
330
2
100
AcDbEntity
  8
0
100
AcDbPolyline
 90
       19
 70
     0
 43
0.0
 10
112.4333796306572
 20
-26.83517277789873
 10
112.5390317698572
 20
-26.83986019709873
 10
112.6440792498572
 20
-26.85392543229873
 10
112.7471519714572
 20
-26.87718036349873
 10
112.8470857186572
 20
-26.90921577629873
 10
112.9424807106572
 20
-26.94929753789873
 10
113.0316701426572
 20
-26.99613700189873
 10
113.1137746162572
 20
-27.04839789789873
 10
113.1886106050572
 20
-27.10497621629873
 10
113.2566809730572
 20
-27.16530603549873
 10
113.3185448930572
 20
-27.22914113949872
 10
113.3748562834572
 20
-27.29667311709873
 10
113.4259517874572
 20
-27.36813410749872
 10
113.4722159090572
 20
-27.44430680189872
 10
113.5136537602572
 20
-27.52601527069872
 10
113.5498970002572
 20
-27.61416388189872
 10
113.5800005570572
 20
-27.70897054749873
 10
113.6026016594572
 20
-27.80933045629872
 10
113.6164994130572
 20
-27.91287391229873
  0
LWPOLYLINE
  5
A3
330
2
100
AcDbEntity
  8
0
100
AcDbPolyline
 90
       20
 70
     0
 43
0.0
 10
113.6211713026572
 20
-28.01805293789873
 10
113.6168344530572
 20
-28.11878399869872
 10
113.6037755250572
 20
-28.21953886749872
 10
113.5818204706572
 20
-28.31982173469873
 10
113.5509405538572
 20
-28.41876791389872
 10
113.5113058082572
 20
-28.51519945949872
 10
113.4644699682572
 20
-28.60573330589872
 10
113.4126671458572
 20
-28.68804583069872
 10
113.3578288594572
 20
-28.76158692029872
 10
113.3006895794572
 20
-28.82731056029872
 10
113.2400467458572
 20
-28.88756230909872
 10
113.1741563378572
 20
-28.94410041789872
 10
113.1015386898572
 20
-28.99752481789873
 10
113.0211893618572
 20
-29.04748203869872
 10
112.9331278690572
 20
-29.09272844189873
 10
112.8387144386572
 20
-29.13153631389873
 10
112.7403352466572
 20
-29.16237136029872
 10
112.6393784722572
 20
-29.18463193309873
 10
112.5367338306572
 20
-29.19807207549872
 10
112.4333796306572
 20
-29.20255899229872
  0
LWPOLYLINE
  5
A4
330
2
100
AcDbEntity
  8
0
100
AcDbPolyline
 90
       20
 70
     0
 43
0.0
 10
113.6204392818572
 20
-28.01802184509872
 10
113.6166315122572
 20
-28.10766678589873
 10
113.6035534210572
 20
-28.20907463229873
 10
113.5815355634572
 20
-28.30975099229872
 10
113.5509637250572
 20
-28.40770925309873
 10
113.5118870994572
 20
-28.50287360189872
 10
113.4655269138572
 20
-28.59277538909872
 10
113.4144397186572
 20
-28.67430958909872
 10
113.3599950882572
 20
-28.74757017629873
 10
113.3033402050572
 20
-28.81291271229872
 10
113.2427250786572
 20
-28.87333129149872
 10
113.1757426786572
 20
-28.93094484029873
 10
113.1018695026572
 20
-28.98530732509873
 10
113.0207696946572
 20
-29.03565309309873
 10
112.9322096226572
 20
-29.08103258909872
 10
112.8377672098572
 20
-29.11972195229872
 10
112.7393082706572
 20
-29.15046365469872
 10
112.6385160898572
 20
-29.17258639549872
 10
112.5362710130572
 20
-29.18590734269873
 10
112.4333796306572
 20
-29.19035133789872
  0
LWPOLYLINE
  5
A5
330
2
100
AcDbEntity
  8
0
  6
HIDDEN
100
AcDbPolyline
 90
       51
 70
     0
 43
0.0
 10
104.6719013826572
 20
-28.19184294429872
 10
104.6866943458572
 20
-28.19020838429873
 10
104.7015245970572
 20
-28.18893095069872
 10
104.7163818882572
 20
-28.18801105629873
 10
104.7313144210572
 20
-28.18744740829873
 10
104.7462556306572
 20
-28.18724364349872
 10
104.7611972690572
 20
-28.18739889149873
 10
104.7762323074572
 20
-28.18791681789872
 10
104.7912507330572
 20
-28.18879588989872
 10
104.8062438594572
 20
-28.19003424189872
 10
104.8213716690572
 20
-28.19164986589872
 10
104.8364563378572
 20
-28.19362804189872
 10
104.8514894786572
 20
-28.19596580189873
 10
104.8666727554572
 20
-28.19870040829872
 10
104.8817862658572
 20
-28.20179767389872
 10
104.8968218578572
 20
-28.20525355389873
 10
104.9120672578572
 20
-28.20914303229872
 10
104.9272152866572
 20
-28.21339612189872
 10
104.9422580962572
 20
-28.21800765629873
 10
104.9574856578572
 20
-28.22307530109872
 10
104.9725882066572
 20
-28.22850428349873
 10
104.9875583730572
 20
-28.23428837949872
 10
105.0026761186572
 20
-28.24054403549872
 10
105.0176418802572
 20
-28.24715513309873
 10
105.0324489186572
 20
-28.25411451069872
 10
105.0473859442572
 20
-28.26156652509872
 10
105.0621447266572
 20
-28.26936568029872
 10
105.0767192674572
 20
-28.27750401629872
 10
105.0914907826572
 20
-28.28620755549872
 10
105.1060562850572
 20
-28.29525173469873
 10
105.1204104546572
 20
-28.30462778269873
 10
105.1349312466572
 20
-28.31459632509872
 10
105.1492188114572
 20
-28.32489643709873
 10
105.1632685698572
 20
-28.33551869949872
 10
105.1774337298572
 20
-28.34674366589872
 10
105.1913398402572
 20
-28.35828806909873
 10
105.2049830706572
 20
-28.37014204829872
 10
105.2187093570572
 20
-28.38262077149872
 10
105.2321515026572
 20
-28.39540512989872
 10
105.2453063506572
 20
-28.40848499549872
 10
105.2585426706572
 20
-28.42224539709873
 10
105.2714686546572
 20
-28.43629778429873
 10
105.2840816578572
 20
-28.45063182269872
 10
105.2966830706572
 20
-28.46560653309873
 10
105.3089505682572
 20
-28.48085603549872
 10
105.3208818706572
 20
-28.49637004029872
 10
105.3327052626572
 20
-28.51245926429872
 10
105.3441742370572
 20
-28.52880304989872
 10
105.3552866514572
 20
-28.54539137469872
 10
105.3648555570572
 20
-28.56032151389872
 10
105.3741400002572
 20
-28.57543019869872
  0
LWPOLYLINE
  5
A6
330
2
100
AcDbEntity
  8
0
  6
HIDDEN
100
AcDbPolyline
 90
       10
 70
     0
 43
0.0
 10
104.6719013826572
 20
-28.19184294429872
 10
104.3762084146572
 20
-28.22883637149873
 10
104.0806895154572
 20
-28.26720809789873
 10
103.7853523234572
 20
-28.30695663549873
 10
103.4900347570572
 20
-28.34810451709872
 10
103.1949124450572
 20
-28.39062792509873
 10
102.8999910722572
 20
-28.43452548029872
 10
102.6050933586572
 20
-28.47982432509872
 10
102.3104100978572
 20
-28.52649583869872
 10
102.0159488578572
 20
-28.57453820669872
  0
LWPOLYLINE
  5
A7
330
2
100
AcDbEntity
  8
0
  6
HIDDEN
100
AcDbPolyline
 90
       70
 70
     0
 43
0.0
 10
101.5228105682572
 20
-29.33734648829872
 10
101.5182943618572
 20
-29.32115860989872
 10
101.5141573682572
 20
-29.30486736669873
 10
101.5104078738572
 20
-29.28848203069873
 10
101.5071497378572
 20
-29.27251185629872
 10
101.5042705666572
 20
-29.25646967389873
 10
101.5017771634572
 20
-29.24036323229872
 10
101.4997325314572
 20
-29.22467769949872
 10
101.4980636146572
 20
-29.20894764829872
 10
101.4967763650572
 20
-29.19318178589873
 10
101.4958962226572
 20
-29.17782565789872
 10
101.4953873986572
 20
-29.16245282269872
 10
101.4952547218572
 20
-29.14707219869873
 10
101.4954919922572
 20
-29.13207770269873
 10
101.4960951010572
 20
-29.11709348669873
 10
101.4970677410572
 20
-29.10212875709872
 10
101.4983781026572
 20
-29.08753764509873
 10
101.5000471186572
 20
-29.07298322749872
 10
101.5020772754572
 20
-29.05847481629873
 10
101.5044215122572
 20
-29.04429850749873
 10
101.5071167986572
 20
-29.03018475549873
 10
101.5101643778572
 20
-29.01614289469872
 10
101.5135056386572
 20
-29.00241452989872
 10
101.5171887154572
 20
-28.98877391069872
 10
101.5212135826572
 20
-28.97523024029872
 10
101.5255189522572
 20
-28.96197288349872
 10
101.5301556626572
 20
-28.94882775869872
 10
101.5351224242572
 20
-28.93580377949872
 10
101.5403725986572
 20
-28.92301590429873
 10
101.5459435730572
 20
-28.91036449149872
 10
101.5518327986572
 20
-28.89785807549872
 10
101.5580001026572
 20
-28.88557732029873
 10
101.5644756466572
 20
-28.87345626589872
 10
101.5712556738572
 20
-28.86150287709872
 10
101.5783329170572
 20
-28.84973036029872
 10
101.5857056786572
 20
-28.83814061149873
 10
101.5933690226572
 20
-28.82674092349872
 10
101.6013493058572
 20
-28.81549527709872
 10
101.6096114258572
 20
-28.80445501629872
 10
101.6181493394572
 20
-28.79362663229872
 10
101.6270187410572
 20
-28.78294378749873
 10
101.6361546098572
 20
-28.77248787709872
 10
101.6455499122572
 20
-28.76226444189873
 10
101.6553312370572
 20
-28.75214384669872
 10
101.6653639298572
 20
-28.74227233309872
 10
101.6756400098572
 20
-28.73265441789873
 10
101.6863228498572
 20
-28.72314556189872
 10
101.6972399698572
 20
-28.71390657469872
 10
101.7083825986572
 20
-28.70494081789873
 10
101.7199821794572
 20
-28.69607235389873
 10
101.7317982178572
 20
-28.68749432989872
 10
101.7438212562572
 20
-28.67920888189873
 10
101.7563643954572
 20
-28.67101267389873
 10
101.7691055234572
 20
-28.66312766429873
 10
101.7820346018572
 20
-28.65555470429873
 10
101.7955164450572
 20
-28.64809278429872
 10
101.8091760178572
 20
-28.64096130109873
 10
101.8230028818572
 20
-28.63415976669873
 10
101.8374720002572
 20
-28.62746998909873
 10
101.8520982546572
 20
-28.62113093949872
 10
101.8668709058572
 20
-28.61514074909873
 10
101.8823173906572
 20
-28.60930105149872
 10
101.8978984690572
 20
-28.60383051709872
 10
101.9136031522572
 20
-28.59872592989873
 10
101.9300583458572
 20
-28.59380095069873
 10
101.9466248914572
 20
-28.58926376029872
 10
101.9632922978572
 20
-28.58510969469873
 10
101.9807629234572
 20
-28.58118211229872
 10
101.9983192706572
 20
-28.57766015869872
 10
102.0159488578572
 20
-28.57453820669872
  0
LWPOLYLINE
  5
A8
330
2
100
AcDbEntity
  8
0
  6
HIDDEN
100
AcDbPolyline
 90
        5
 70
     0
 43
0.0
 10
101.5551397554572
 20
-29.44707658269873
 10
101.5470119778572
 20
-29.41970749149872
 10
101.5389235458572
 20
-29.39232673949872
 10
101.5308473698572
 20
-29.36484237949872
 10
101.5228105682572
 20
-29.33734648829872
  0
LWPOLYLINE
  5
A9
330
2
100
AcDbEntity
  8
0
  6
HIDDEN
100
AcDbPolyline
 90
       42
 70
     0
 43
0.0
 10
101.9549768962572
 20
-29.80422114429872
 10
101.9457791346572
 20
-29.80172160189873
 10
101.9366207186572
 20
-29.79908154109873
 10
101.9219981138572
 20
-29.79454974909872
 10
101.9074905106572
 20
-29.78966231549873
 10
101.8931061570572
 20
-29.78442319709872
 10
101.8788290258572
 20
-29.77882640029872
 10
101.8646922162572
 20
-29.77288410589872
 10
101.8507040978572
 20
-29.76659973309873
 10
101.8368675858572
 20
-29.75997390909872
 10
101.8231970082572
 20
-29.75301217789872
 10
101.8097011106572
 20
-29.74571756989872
 10
101.7965005426572
 20
-29.73815893949872
 10
101.7834894098572
 20
-29.73027874749872
 10
101.7706768178572
 20
-29.72207972349873
 10
101.7583068898572
 20
-29.71372750589872
 10
101.7461462274572
 20
-29.70507351229872
 10
101.7342041890572
 20
-29.69612029949873
 10
101.7227757650572
 20
-29.68710164189872
 10
101.7115737986572
 20
-29.67780328029872
 10
101.7006078498572
 20
-29.66822775069872
 10
101.6901553634572
 20
-29.65862984989873
 10
101.6799460482572
 20
-29.64877374749873
 10
101.6699897458572
 20
-29.63866217629873
 10
101.6605877250572
 20
-29.62861732829873
 10
101.6514427794572
 20
-29.61833796189872
 10
101.6425648994572
 20
-29.60782714269872
 10
101.6342677714572
 20
-29.59747709469872
 10
101.6262381314572
 20
-29.58691826429872
 10
101.6184859282572
 20
-29.57615417309872
 10
101.6112899778572
 20
-29.56559439389872
 10
101.6043705154572
 20
-29.55485146909873
 10
101.5977373458572
 20
-29.54392946109873
 10
101.5916396546572
 20
-29.53326461949873
 10
101.5858251730572
 20
-29.52244289309872
 10
101.5803034482572
 20
-29.51146915549873
 10
101.5752870194572
 20
-29.50079613629872
 10
101.5705580914572
 20
-29.48999255069873
 10
101.5661255634572
 20
-29.47906342909872
 10
101.5621729122572
 20
-29.46850121469872
 10
101.5585080754572
 20
-29.45783640829872
 10
101.5551397554572
 20
-29.44707658269873
  0
LWPOLYLINE
  5
AA
330
2
100
AcDbEntity
  8
0
100
AcDbPolyline
 90
       20
 70
     0
 43
0.0
 10
112.4333796306572
 20
-29.20255899229872
 10
112.3299626082572
 20
-29.19806657789873
 10
112.2273408370572
 20
-29.18462514269872
 10
112.1264314354572
 20
-29.16237343389873
 10
112.0280648898572
 20
-29.13154384989872
 10
111.9335897074572
 20
-29.09270916829872
 10
111.8454026802572
 20
-29.04738757629872
 10
111.7649404658572
 20
-28.99733504189873
 10
111.6922709410572
 20
-28.94383637469872
 10
111.6264069842572
 20
-28.88727882109872
 10
111.5658347298572
 20
-28.82705991069872
 10
111.5087790530572
 20
-28.76140094269873
 10
111.4540284434572
 20
-28.68795114749873
 10
111.4022649458572
 20
-28.60569400509872
 10
111.3554406690572
 20
-28.51516924829872
 10
111.3157936530572
 20
-28.41869722589872
 10
111.2849006386572
 20
-28.31968049789873
 10
111.2629539138572
 20
-28.21936617149873
 10
111.2499132978572
 20
-28.11864757629873
 10
111.2455879586572
 20
-28.01805293629873
  0
LWPOLYLINE
  5
AB
330
2
100
AcDbEntity
  8
0
100
AcDbPolyline
 90
       20
 70
     0
 43
0.0
 10
112.4333796306572
 20
-29.19035133789872
 10
112.3309029394572
 20
-29.18594315869873
 10
112.2291084738572
 20
-29.17273708509872
 10
112.1289798914572
 20
-29.15086822589872
 10
112.0309784866572
 20
-29.12043593789872
 10
111.9361118738572
 20
-29.08175089309873
 10
111.8462820434572
 20
-29.03581871229873
 10
111.7638428418572
 20
-28.98459677469872
 10
111.6888776546572
 20
-28.92923549629873
 10
111.6212480770572
 20
-28.87073973469873
 10
111.5605702578572
 20
-28.80984920989872
 10
111.5040910146572
 20
-28.74423684509872
 10
111.4499167090572
 20
-28.67078735709872
 10
111.3991888050572
 20
-28.58918317149872
 10
111.3532540242572
 20
-28.49936018909873
 10
111.3146645698572
 20
-28.40455823069872
 10
111.2844495122572
 20
-28.30681378429872
 10
111.2627378866572
 20
-28.20635578109873
 10
111.2499634978572
 20
-28.10571767709872
 10
111.2463114082572
 20
-28.01802280669872
  0
LINE
  5
AC
330
2
100
AcDbEntity
  8
0
100
AcDbLine
 10
111.2455879586572
 20
-28.01805293629873
 30
0.0
 11
111.2460839266572
 21
-27.98374973949872
 31
0.0
  0
LWPOLYLINE
  5
AD
330
2
100
AcDbEntity
  8
0
100
AcDbPolyline
 90
       20
 70
     0
 43
0.0
 10
111.2460839266572
 20
-27.98374973949872
 10
111.2502543218572
 20
-27.91293917629873
 10
111.2641684402572
 20
-27.80926595229873
 10
111.2868314194572
 20
-27.70870237949872
 10
111.3170129826572
 20
-27.61375075869873
 10
111.3532951026572
 20
-27.52560669149873
 10
111.3946803282572
 20
-27.44405970429873
 10
111.4407764962572
 20
-27.36818357309872
 10
111.4916319122572
 20
-27.29702439229873
 10
111.5476771714572
 20
-27.22973945149873
 10
111.6092093026572
 20
-27.16614050109873
 10
111.6769070082572
 20
-27.10599606109873
 10
111.7514127986572
 20
-27.04949512509873
 10
111.8333864850572
 20
-26.99712549309873
 10
111.9228179058572
 20
-26.94998826909872
 10
112.0187168194572
 20
-26.90957130429873
 10
112.1191255602572
 20
-26.87730963549872
 10
112.2225463218572
 20
-26.85394998909873
 10
112.3277529458572
 20
-26.83985763869872
 10
112.4333796306572
 20
-26.83517277789873
  0
LWPOLYLINE
  5
AE
330
2
100
AcDbEntity
  8
0
  6
HIDDEN
100
AcDbPolyline
 90
       52
 70
     0
 43
0.0
 10
119.4837529490572
 20
-28.59048174269872
 10
119.4927102098572
 20
-28.57527904989872
 10
119.5019505938572
 20
-28.56024680989873
 10
119.5114726082572
 20
-28.54539137469872
 10
119.5225850242572
 20
-28.52880304989872
 10
119.5340539970572
 20
-28.51245926429872
 10
119.5458773890572
 20
-28.49637004029872
 10
119.5578086930572
 20
-28.48085603549872
 10
119.5700761906572
 20
-28.46560653309873
 10
119.5826776034572
 20
-28.45063182269872
 10
119.5952906066572
 20
-28.43629778429873
 10
119.6082165906572
 20
-28.42224539869873
 10
119.6214529090572
 20
-28.40848499549872
 10
119.6346077570572
 20
-28.39540512989872
 10
119.6480499026572
 20
-28.38262077149872
 10
119.6617761906572
 20
-28.37014204829872
 10
119.6754194194572
 20
-28.35828806909873
 10
119.6893255298572
 20
-28.34674366589872
 10
119.7034906898572
 20
-28.33551869949872
 10
119.7175404498572
 20
-28.32489643709873
 10
119.7318280146572
 20
-28.31459632509872
 10
119.7463488050572
 20
-28.30462778269873
 10
119.7607029746572
 20
-28.29525173469873
 10
119.7752684770572
 20
-28.28620755549872
 10
119.7900399938572
 20
-28.27750401629872
 10
119.8046145330572
 20
-28.26936568029872
 10
119.8193733170572
 20
-28.26156652509872
 10
119.8343103426572
 20
-28.25411451069872
 10
119.8491173810572
 20
-28.24715513309873
 10
119.8640831410572
 20
-28.24054403549872
 10
119.8792008882572
 20
-28.23428837949872
 10
119.8941710530572
 20
-28.22850428349873
 10
119.9092736034572
 20
-28.22307530109872
 10
119.9245011634572
 20
-28.21800765629873
 10
119.9395439730572
 20
-28.21339612189872
 10
119.9546920018572
 20
-28.20914303229872
 10
119.9699374034572
 20
-28.20525355389873
 10
119.9849729938572
 20
-28.20179767389872
 10
120.0000865058572
 20
-28.19870040829872
 10
120.0152697810572
 20
-28.19596580189873
 10
120.0303029218572
 20
-28.19362804189872
 10
120.0453875906572
 20
-28.19164986589872
 10
120.0605154002572
 20
-28.19003424189872
 10
120.0755085282572
 20
-28.18879588989872
 10
120.0905269538572
 20
-28.18791681789872
 10
120.1055619906572
 20
-28.18739889149873
 10
120.1205036290572
 20
-28.18724364349872
 10
120.1354448402572
 20
-28.18744740829873
 10
120.1503773714572
 20
-28.18801105629873
 10
120.1652346642572
 20
-28.18893095069872
 10
120.1800649154572
 20
-28.19020838429873
 10
120.1948578786572
 20
-28.19184294429872
  0
LINE
  5
AF
330
2
100
AcDbEntity
  8
0
100
AcDbLine
 10
113.6206718514572
 20
-27.98373386589872
 30
0.0
 11
113.6211713026572
 21
-28.01805293789873
 31
0.0
  0
LINE
  5
B0
330
2
100
AcDbEntity
  8
0
100
AcDbLine
 10
113.6164994130572
 20
-27.91287391229873
 30
0.0
 11
113.6206718514572
 21
-27.98373386589872
 31
0.0
  0
LWPOLYLINE
  5
B1
330
2
100
AcDbEntity
  8
0
  6
HIDDEN
100
AcDbPolyline
 90
       10
 70
     0
 43
0.0
 10
122.8508104018572
 20
-28.57453820669872
 10
122.5563491634572
 20
-28.52649583869872
 10
122.2616659010572
 20
-28.47982432509872
 10
121.9667681890572
 20
-28.43452548029872
 10
121.6718468146572
 20
-28.39062792509873
 10
121.3767245026572
 20
-28.34810451709872
 10
121.0814069378572
 20
-28.30695663549873
 10
120.7860697458572
 20
-28.26720809789873
 10
120.4905508450572
 20
-28.22883637149873
 10
120.1948578786572
 20
-28.19184294429872
  0
LWPOLYLINE
  5
B2
330
2
100
AcDbEntity
  8
0
  6
HIDDEN
100
AcDbPolyline
 90
       70
 70
     0
 43
0.0
 10
122.8508104018572
 20
-28.57453820669872
 10
122.8684399890572
 20
-28.57766015869872
 10
122.8859963362572
 20
-28.58118211229872
 10
122.9034669618572
 20
-28.58510969469873
 10
122.9201343682572
 20
-28.58926376029872
 10
122.9367009138572
 20
-28.59380094909873
 10
122.9531561074572
 20
-28.59872592989873
 10
122.9688607906572
 20
-28.60383051709872
 10
122.9844418690572
 20
-28.60930105149872
 10
122.9998883554572
 20
-28.61514074909873
 10
123.0146610066572
 20
-28.62113093949872
 10
123.0292872610572
 20
-28.62746998909873
 10
123.0437563794572
 20
-28.63415976669873
 10
123.0575832434572
 20
-28.64096130109873
 10
123.0712428162572
 20
-28.64809278429872
 10
123.0847246594572
 20
-28.65555470429873
 10
123.0976537378572
 20
-28.66312766429873
 10
123.1103948658572
 20
-28.67101267389873
 10
123.1229380050572
 20
-28.67920888189873
 10
123.1349610434572
 20
-28.68749432989872
 10
123.1467770818572
 20
-28.69607235389873
 10
123.1583766626572
 20
-28.70494081789873
 10
123.1695192914572
 20
-28.71390657309872
 10
123.1804364114572
 20
-28.72314556029872
 10
123.1911192514572
 20
-28.73265441629873
 10
123.2013953298572
 20
-28.74227233149872
 10
123.2114280242572
 20
-28.75214384349872
 10
123.2212093474572
 20
-28.76226443869873
 10
123.2306046498572
 20
-28.77248787549872
 10
123.2397405186572
 20
-28.78294378429873
 10
123.2486099202572
 20
-28.79362663069872
 10
123.2571478354572
 20
-28.80445501309872
 10
123.2654099554572
 20
-28.81549527389872
 10
123.2733902386572
 20
-28.82674092029872
 10
123.2810535826572
 20
-28.83814060829873
 10
123.2884263442572
 20
-28.84973035869872
 10
123.2955035874572
 20
-28.86150287549872
 10
123.3022836146572
 20
-28.87345626269872
 10
123.3087591602572
 20
-28.88557731709873
 10
123.3149264626572
 20
-28.89785807229872
 10
123.3208156898572
 20
-28.91036448829872
 10
123.3263866642572
 20
-28.92301590269873
 10
123.3316368386572
 20
-28.93580377629872
 10
123.3366036002572
 20
-28.94882775549872
 10
123.3412403106572
 20
-28.96197288189872
 10
123.3455456802572
 20
-28.97523023709872
 10
123.3495705474572
 20
-28.98877390749872
 10
123.3532536226572
 20
-29.00241452669872
 10
123.3565948850572
 20
-29.01614289149872
 10
123.3596424626572
 20
-29.03018475069873
 10
123.3623377490572
 20
-29.04429850429873
 10
123.3646819874572
 20
-29.05847481149872
 10
123.3667121426572
 20
-29.07298322109872
 10
123.3683811602572
 20
-29.08753763869873
 10
123.3696915202572
 20
-29.10212875069872
 10
123.3706641618572
 20
-29.11709348029873
 10
123.3712672706572
 20
-29.13207769469872
 10
123.3715045394572
 20
-29.14707218909873
 10
123.3713718642572
 20
-29.16245281309872
 10
123.3708630402572
 20
-29.17782564829872
 10
123.3699828978572
 20
-29.19318177629873
 10
123.3686956482572
 20
-29.20894763709872
 10
123.3670267330572
 20
-29.22467768669872
 10
123.3649820994572
 20
-29.24036321949872
 10
123.3624886978572
 20
-29.25646965949873
 10
123.3596095266572
 20
-29.27251184189872
 10
123.3563513906572
 20
-29.28848201629873
 10
123.3526018930572
 20
-29.30486736029873
 10
123.3484648994572
 20
-29.32115861149872
 10
123.3439486898572
 20
-29.33734649629872
  0
LWPOLYLINE
  5
B3
330
2
100
AcDbEntity
  8
0
  6
HIDDEN
100
AcDbPolyline
 90
        5
 70
     0
 43
0.0
 10
123.3439486898572
 20
-29.33734649629872
 10
123.3359118914572
 20
-29.36484237949872
 10
123.3278357170572
 20
-29.39232672989872
 10
123.3197472898572
 20
-29.41970746589872
 10
123.3116195186572
 20
-29.44707653949872
  0
LWPOLYLINE
  5
B4
330
2
100
AcDbEntity
  8
0
  6
HIDDEN
100
AcDbPolyline
 90
       39
 70
     0
 43
0.0
 10
123.3116195186572
 20
-29.44707653949872
 10
123.3082511858572
 20
-29.45783640029872
 10
123.3045863378572
 20
-29.46850124189873
 10
123.3006336706572
 20
-29.47906349149873
 10
123.2962011314572
 20
-29.48999263389873
 10
123.2914721906572
 20
-29.50079624189872
 10
123.2864557490572
 20
-29.51146928189873
 10
123.2809340098572
 20
-29.52244304189872
 10
123.2751195106572
 20
-29.53326478909873
 10
123.2690218034572
 20
-29.54392964829873
 10
123.2623886162572
 20
-29.55485167549872
 10
123.2554691362572
 20
-29.56559461789872
 10
123.2482731650572
 20
-29.57615441309872
 10
123.2405209426572
 20
-29.58691851869873
 10
123.2324912802572
 20
-29.59747736349872
 10
123.2241941314572
 20
-29.60782742429872
 10
123.2153162274572
 20
-29.61833825789872
 10
123.2061712578572
 20
-29.62861763549872
 10
123.1967692114572
 20
-29.63866249469873
 10
123.1868128802572
 20
-29.64877407869872
 10
123.1766035346572
 20
-29.65863019229873
 10
123.1661510162572
 20
-29.66822810589873
 10
123.1551850306572
 20
-29.67780364829872
 10
123.1439830242572
 20
-29.68710202429872
 10
123.1325545602572
 20
-29.69612069149873
 10
123.1206124738572
 20
-29.70507392029873
 10
123.1084517650572
 20
-29.71372792669873
 10
123.0960817874572
 20
-29.72208015389873
 10
123.0832691490572
 20
-29.73027918269873
 10
123.0702579714572
 20
-29.73815937789872
 10
123.0570573570572
 20
-29.74571800989873
 10
123.0435614306572
 20
-29.75301260829872
 10
123.0298908242572
 20
-29.75997432669872
 10
123.0160542818572
 20
-29.76660014109873
 10
123.0020661634572
 20
-29.77288448829872
 10
122.9879293522572
 20
-29.77882675709873
 10
122.9736522226572
 20
-29.78442352989872
 10
122.9622938786572
 20
-29.78859330749873
 10
122.7192010834572
 20
-29.87302095549872
  0
LWPOLYLINE
  5
B5
330
2
100
AcDbEntity
  8
0
100
AcDbPolyline
 90
        4
 70
     0
 43
0.0
 10
148.3220199697151
 20
-24.38277818909873
 10
148.3773671042573
 20
-24.98470470909873
 10
148.4190789586573
 20
-25.62893024509873
 10
148.4333734434573
 20
-26.38277818909873
  0
ENDSEC
  0
SECTION
  2
OBJECTS
  0
DICTIONARY
  5
A
330
0
100
AcDbDictionary
  3
ACAD_GROUP
350
23
  3
ACAD_LAYOUT
350
9
  3
ACAD_MLINESTYLE
350
24
  3
ACAD_PLOTSETTINGS
350
25
  3
ACAD_PLOTSTYLENAME
350
26
  3
ACDBHEADERROUNDTRIPXREC
350
12C
  3
ACDBVARIABLEDICTIONARY
350
B6
  0
DICTIONARY
  5
E4
330
2
100
AcDbDictionary
280
     1
  3
ACAD_LAYOUTSELFREF
360
14D
  0
DICTIONARY
  5
EA
330
B
100
AcDbDictionary
280
     1
  3
ACAD_LAYOUTSELFREF
360
14E
  0
DICTIONARY
  5
23
102
{ACAD_REACTORS
330
A
102
}
330
A
100
AcDbDictionary
  0
DICTIONARY
  5
9
102
{ACAD_REACTORS
330
A
102
}
330
A
100
AcDbDictionary
  0
DICTIONARY
  5
24
102
{ACAD_REACTORS
330
A
102
}
330
A
100
AcDbDictionary
  3
STANDARD
350
27
  0
DICTIONARY
  5
25
102
{ACAD_REACTORS
330
A
102
}
330
A
100
AcDbDictionary
  0
ACDBDICTIONARYWDFLT
  5
26
102
{ACAD_REACTORS
330
A
102
}
330
A
100
AcDbDictionary
281
     1
  3
Normal
350
5
100
AcDbDictionaryWithDefault
340
5
  0
DICTIONARY
  5
12C
102
{ACAD_REACTORS
330
A
102
}
330
A
100
AcDbDictionary
  3
CEPSNTYPE
350
136
  3
DIMSTYLEDATA
350
13A
  3
FINGERPRINTGUID
350
137
  3
HYPERLINKBASE
350
12F
  3
INSUNITS
350
135
  3
LAYOUTDICT
350
131
  3
LWETCUNION
350
134
  3
PLOTSETDICT
350
132
  3
PLOTSTYLNAMDICT
350
133
  3
PSVPSCALE
350
139
  3
PUCSBASE
350
13D
  3
PUCSORGBACK
350
143
  3
PUCSORGBOTTOM
350
13F
  3
PUCSORGFRONT
350
142
  3
PUCSORGLEFT
350
140
  3
PUCSORGRIGHT
350
141
  3
PUCSORGTOP
350
13E
  3
PUCSORTHOREF
350
13B
  3
PUCSORTHOVIEW
350
13C
  3
STYLESHEET
350
130
  3
TSTACKALIGN
350
12D
  3
TSTACKSIZE
350
12E
  3
UCSBASE
350
146
  3
UCSORGBACK
350
14C
  3
UCSORGBOTTOM
350
148
  3
UCSORGFRONT
350
14B
  3
UCSORGLEFT
350
149
  3
UCSORGRIGHT
350
14A
  3
UCSORGTOP
350
147
  3
UCSORTHOREF
350
144
  3
UCSORTHOVIEW
350
145
  3
VERSIONGUID
350
138
  0
DICTIONARY
  5
B6
102
{ACAD_REACTORS
330
A
102
}
330
A
100
AcDbDictionary
  3
DIMASSOC
350
B8
  3
HIDETEXT
350
B7
  0
XRECORD
  5
14D
102
{ACAD_REACTORS
330
E4
102
}
330
E4
100
AcDbXrecord
340
2
  0
XRECORD
  5
14E
102
{ACAD_REACTORS
330
EA
102
}
330
EA
100
AcDbXrecord
340
B
  0
MLINESTYLE
  5
27
102
{ACAD_REACTORS
330
24
102
}
330
24
100
AcDbMlineStyle
  2
STANDARD
 70
     0
  3

 62
   256
 51
90.0
 52
90.0
 71
     2
 49
0.5
 62
   256
  6
BYLAYER
 49
-0.5
 62
   256
  6
BYLAYER
  0
ACDBPLACEHOLDER
  5
5
102
{ACAD_REACTORS
330
26
102
}
330
0
100
AcDbPlaceHolder
280
     0
  0
XRECORD
  5
136
102
{ACAD_REACTORS
330
12C
102
}
330
12C
100
AcDbXrecord
 90
        0
  0
XRECORD
  5
13A
102
{ACAD_REACTORS
330
12C
102
}
330
12C
100
AcDbXrecord
1000
DSTYLE
1002
{
1070
   341
340
1E
1070
   342
340
1E
1002
}
  0
XRECORD
  5
137
102
{ACAD_REACTORS
330
12C
102
}
330
12C
100
AcDbXrecord
  1

  0
XRECORD
  5
12F
102
{ACAD_REACTORS
330
12C
102
}
330
12C
100
AcDbXrecord
  1

  0
XRECORD
  5
135
102
{ACAD_REACTORS
330
12C
102
}
330
12C
100
AcDbXrecord
 90
        1
  0
XRECORD
  5
131
102
{ACAD_REACTORS
330
12C
102
}
330
12C
100
AcDbXrecord
340
9
  0
XRECORD
  5
134
102
{ACAD_REACTORS
330
12C
102
}
330
12C
100
AcDbXrecord
 90
    10781
  0
XRECORD
  5
132
102
{ACAD_REACTORS
330
12C
102
}
330
12C
100
AcDbXrecord
340
25
  0
XRECORD
  5
133
102
{ACAD_REACTORS
330
12C
102
}
330
12C
100
AcDbXrecord
340
26
  0
XRECORD
  5
139
102
{ACAD_REACTORS
330
12C
102
}
330
12C
100
AcDbXrecord
 40
0.0
  0
XRECORD
  5
13D
102
{ACAD_REACTORS
330
12C
102
}
330
12C
100
AcDbXrecord
340
0
  0
XRECORD
  5
143
102
{ACAD_REACTORS
330
12C
102
}
330
12C
100
AcDbXrecord
 10
0.0
 20
0.0
 30
0.0
  0
XRECORD
  5
13F
102
{ACAD_REACTORS
330
12C
102
}
330
12C
100
AcDbXrecord
 10
0.0
 20
0.0
 30
0.0
  0
XRECORD
  5
142
102
{ACAD_REACTORS
330
12C
102
}
330
12C
100
AcDbXrecord
 10
0.0
 20
0.0
 30
0.0
  0
XRECORD
  5
140
102
{ACAD_REACTORS
330
12C
102
}
330
12C
100
AcDbXrecord
 10
0.0
 20
0.0
 30
0.0
  0
XRECORD
  5
141
102
{ACAD_REACTORS
330
12C
102
}
330
12C
100
AcDbXrecord
 10
0.0
 20
0.0
 30
0.0
  0
XRECORD
  5
13E
102
{ACAD_REACTORS
330
12C
102
}
330
12C
100
AcDbXrecord
 10
0.0
 20
0.0
 30
0.0
  0
XRECORD
  5
13B
102
{ACAD_REACTORS
330
12C
102
}
330
12C
100
AcDbXrecord
340
0
  0
XRECORD
  5
13C
102
{ACAD_REACTORS
330
12C
102
}
330
12C
100
AcDbXrecord
 70
     0
  0
XRECORD
  5
130
102
{ACAD_REACTORS
330
12C
102
}
330
12C
100
AcDbXrecord
  1

  0
XRECORD
  5
12D
102
{ACAD_REACTORS
330
12C
102
}
330
12C
100
AcDbXrecord
 90
        1
  0
XRECORD
  5
12E
102
{ACAD_REACTORS
330
12C
102
}
330
12C
100
AcDbXrecord
 90
       70
  0
XRECORD
  5
146
102
{ACAD_REACTORS
330
12C
102
}
330
12C
100
AcDbXrecord
340
0
  0
XRECORD
  5
14C
102
{ACAD_REACTORS
330
12C
102
}
330
12C
100
AcDbXrecord
 10
0.0
 20
0.0
 30
0.0
  0
XRECORD
  5
148
102
{ACAD_REACTORS
330
12C
102
}
330
12C
100
AcDbXrecord
 10
0.0
 20
0.0
 30
0.0
  0
XRECORD
  5
14B
102
{ACAD_REACTORS
330
12C
102
}
330
12C
100
AcDbXrecord
 10
0.0
 20
0.0
 30
0.0
  0
XRECORD
  5
149
102
{ACAD_REACTORS
330
12C
102
}
330
12C
100
AcDbXrecord
 10
0.0
 20
0.0
 30
0.0
  0
XRECORD
  5
14A
102
{ACAD_REACTORS
330
12C
102
}
330
12C
100
AcDbXrecord
 10
0.0
 20
0.0
 30
0.0
  0
XRECORD
  5
147
102
{ACAD_REACTORS
330
12C
102
}
330
12C
100
AcDbXrecord
 10
0.0
 20
0.0
 30
0.0
  0
XRECORD
  5
144
102
{ACAD_REACTORS
330
12C
102
}
330
12C
100
AcDbXrecord
340
0
  0
XRECORD
  5
145
102
{ACAD_REACTORS
330
12C
102
}
330
12C
100
AcDbXrecord
 70
     0
  0
XRECORD
  5
138
102
{ACAD_REACTORS
330
12C
102
}
330
12C
100
AcDbXrecord
  1
{F6D56CBA-0037-4409-B917-2D44EEDA3631}
  0
DICTIONARYVAR
  5
B8
102
{ACAD_REACTORS
330
B6
102
}
330
B6
100
DictionaryVariables
280
     0
  1
1
  0
DICTIONARYVAR
  5
B7
102
{ACAD_REACTORS
330
B6
102
}
330
B6
100
DictionaryVariables
280
     0
  1
1
  0
ENDSEC
  0
EOF
