  0
SECTION
  2
HEADER
  9
$ACADVER
  1
AC1018
  9
$ACADMAINTVER
 70
   104
  9
$DWGCODEPAGE
  3
ANSI_1252
  9
$LASTSAVEDBY
  1
daniele
  9
$INSBASE
 10
0.0
 20
0.0
 30
0.0
  9
$EXTMIN
 10
96.82328442020001
 20
26.1190199214
 30
0.0
  9
$EXTMAX
 10
134.8232392863
 20
46.9690199214
 30
0.0
  9
$LIMMIN
 10
0.0
 20
0.0
  9
$LIMMAX
 10
181.3333333333
 20
117.3333333333
  9
$ORTHOMODE
 70
     0
  9
$REGENMODE
 70
     1
  9
$FILLMODE
 70
     1
  9
$QTEXTMODE
 70
     0
  9
$MIRRTEXT
 70
     0
  9
$LTSCALE
 40
9.973333333300001
  9
$ATTMODE
 70
     1
  9
$TEXTSIZE
 40
0.2
  9
$TRACEWID
 40
0.05
  9
$TEXTSTYLE
  7
STANDARD
  9
$CLAYER
  8
0
  9
$CELTYPE
  6
BYLAYER
  9
$CECOLOR
 62
   256
  9
$CELTSCALE
 40
1.0
  9
$DISPSILH
 70
     0
  9
$DIMSCALE
 40
1.0
  9
$DIMASZ
 40
2.0
  9
$DIMEXO
 40
0.0625
  9
$DIMDLI
 40
6.890666666699999
  9
$DIMRND
 40
0.0
  9
$DIMDLE
 40
0.0
  9
$DIMEXE
 40
0.125
  9
$DIMTP
 40
0.00001
  9
$DIMTM
 40
0.00001
  9
$DIMTXT
 40
1.333333333299999
  9
$DIMCEN
 40
1.631999999999999
  9
$DIMTSZ
 40
0.0
  9
$DIMTOL
 70
     1
  9
$DIMLIM
 70
     0
  9
$DIMTIH
 70
     1
  9
$DIMTOH
 70
     1
  9
$DIMSE1
 70
     0
  9
$DIMSE2
 70
     0
  9
$DIMTAD
 70
     0
  9
$DIMZIN
 70
     0
  9
$DIMBLK
  1
_FILLED
  9
$DIMASO
 70
     1
  9
$DIMSHO
 70
     1
  9
$DIMPOST
  1

  9
$DIMAPOST
  1

  9
$DIMALT
 70
     0
  9
$DIMALTD
 70
     2
  9
$DIMALTF
 40
25.4
  9
$DIMLFAC
 40
1.0
  9
$DIMTOFL
 70
     0
  9
$DIMTVP
 40
0.0
  9
$DIMTIX
 70
     0
  9
$DIMSOXD
 70
     0
  9
$DIMSAH
 70
     0
  9
$DIMBLK1
  1

  9
$DIMBLK2
  1

  9
$DIMSTYLE
  2
STANDARD
  9
$DIMCLRD
 70
     0
  9
$DIMCLRE
 70
     0
  9
$DIMCLRT
 70
     0
  9
$DIMTFAC
 40
1.0
  9
$DIMGAP
 40
0.09
  9
$DIMJUST
 70
     0
  9
$DIMSD1
 70
     0
  9
$DIMSD2
 70
     0
  9
$DIMTOLJ
 70
     1
  9
$DIMTZIN
 70
     0
  9
$DIMALTZ
 70
     0
  9
$DIMALTTZ
 70
     0
  9
$DIMUPT
 70
     0
  9
$DIMDEC
 70
     4
  9
$DIMTDEC
 70
     4
  9
$DIMALTU
 70
     2
  9
$DIMALTTD
 70
     2
  9
$DIMTXSTY
  7
STANDARD
  9
$DIMAUNIT
 70
     0
  9
$DIMADEC
 70
     0
  9
$DIMALTRND
 40
0.0
  9
$DIMAZIN
 70
     0
  9
$DIMDSEP
 70
    46
  9
$DIMATFIT
 70
     3
  9
$DIMFRAC
 70
     0
  9
$DIMLDRBLK
  1

  9
$DIMLUNIT
 70
     2
  9
$DIMLWD
 70
    -2
  9
$DIMLWE
 70
    -2
  9
$DIMTMOVE
 70
     0
  9
$LUNITS
 70
     2
  9
$LUPREC
 70
     4
  9
$SKETCHINC
 40
0.1
  9
$FILLETRAD
 40
0.0
  9
$AUNITS
 70
     0
  9
$AUPREC
 70
     0
  9
$MENU
  1
.
  9
$ELEVATION
 40
0.0
  9
$PELEVATION
 40
0.0
  9
$THICKNESS
 40
0.0
  9
$LIMCHECK
 70
     0
  9
$CHAMFERA
 40
0.0
  9
$CHAMFERB
 40
0.0
  9
$CHAMFERC
 40
0.0
  9
$CHAMFERD
 40
0.0
  9
$SKPOLY
 70
     0
  9
$TDCREATE
 40
2456966.645808854
  9
$TDUCREATE
 40
2456966.812475521
  9
$TDUPDATE
 40
2457220.485698762
  9
$TDUUPDATE
 40
2457220.652365428
  9
$TDINDWG
 40
0.0056427199
  9
$TDUSRTIMER
 40
0.0056427199
  9
$USRTIMER
 70
     1
  9
$ANGBASE
 50
0.0
  9
$ANGDIR
 70
     0
  9
$PDMODE
 70
     3
  9
$PDSIZE
 40
0.03125
  9
$PLINEWID
 40
0.0
  9
$SPLFRAME
 70
     0
  9
$SPLINETYPE
 70
     6
  9
$SPLINESEGS
 70
     8
  9
$HANDSEED
  5
18CE
  9
$SURFTAB1
 70
     6
  9
$SURFTAB2
 70
     6
  9
$SURFTYPE
 70
     6
  9
$SURFU
 70
     6
  9
$SURFV
 70
     6
  9
$UCSBASE
  2

  9
$UCSNAME
  2

  9
$UCSORG
 10
0.0
 20
0.0
 30
0.0
  9
$UCSXDIR
 10
1.0
 20
0.0
 30
0.0
  9
$UCSYDIR
 10
0.0
 20
1.0
 30
0.0
  9
$UCSORTHOREF
  2

  9
$UCSORTHOVIEW
 70
     0
  9
$UCSORGTOP
 10
0.0
 20
0.0
 30
0.0
  9
$UCSORGBOTTOM
 10
0.0
 20
0.0
 30
0.0
  9
$UCSORGLEFT
 10
0.0
 20
0.0
 30
0.0
  9
$UCSORGRIGHT
 10
0.0
 20
0.0
 30
0.0
  9
$UCSORGFRONT
 10
0.0
 20
0.0
 30
0.0
  9
$UCSORGBACK
 10
0.0
 20
0.0
 30
0.0
  9
$PUCSBASE
  2

  9
$PUCSNAME
  2

  9
$PUCSORG
 10
0.0
 20
0.0
 30
0.0
  9
$PUCSXDIR
 10
1.0
 20
0.0
 30
0.0
  9
$PUCSYDIR
 10
0.0
 20
1.0
 30
0.0
  9
$PUCSORTHOREF
  2

  9
$PUCSORTHOVIEW
 70
     0
  9
$PUCSORGTOP
 10
0.0
 20
0.0
 30
0.0
  9
$PUCSORGBOTTOM
 10
0.0
 20
0.0
 30
0.0
  9
$PUCSORGLEFT
 10
0.0
 20
0.0
 30
0.0
  9
$PUCSORGRIGHT
 10
0.0
 20
0.0
 30
0.0
  9
$PUCSORGFRONT
 10
0.0
 20
0.0
 30
0.0
  9
$PUCSORGBACK
 10
0.0
 20
0.0
 30
0.0
  9
$USERI1
 70
     0
  9
$USERI2
 70
     0
  9
$USERI3
 70
     0
  9
$USERI4
 70
     0
  9
$USERI5
 70
     0
  9
$USERR1
 40
0.0
  9
$USERR2
 40
0.0
  9
$USERR3
 40
0.0
  9
$USERR4
 40
0.0
  9
$USERR5
 40
0.0
  9
$WORLDVIEW
 70
     1
  9
$SHADEDGE
 70
     3
  9
$SHADEDIF
 70
    70
  9
$TILEMODE
 70
     1
  9
$MAXACTVP
 70
    64
  9
$PINSBASE
 10
0.0
 20
0.0
 30
0.0
  9
$PLIMCHECK
 70
     0
  9
$PEXTMIN
 10
1.000000000000000E+20
 20
1.000000000000000E+20
 30
1.000000000000000E+20
  9
$PEXTMAX
 10
-1.000000000000000E+20
 20
-1.000000000000000E+20
 30
-1.000000000000000E+20
  9
$PLIMMIN
 10
0.0
 20
0.0
  9
$PLIMMAX
 10
12.0
 20
9.0
  9
$UNITMODE
 70
     0
  9
$VISRETAIN
 70
     1
  9
$PLINEGEN
 70
     0
  9
$PSLTSCALE
 70
     1
  9
$TREEDEPTH
 70
  3020
  9
$CMLSTYLE
  2
Standard
  9
$CMLJUST
 70
     0
  9
$CMLSCALE
 40
1.0
  9
$PROXYGRAPHICS
 70
     1
  9
$MEASUREMENT
 70
     0
  9
$CELWEIGHT
370
    -1
  9
$ENDCAPS
280
     0
  9
$JOINSTYLE
280
     0
  9
$LWDISPLAY
290
     0
  9
$INSUNITS
 70
     1
  9
$HYPERLINKBASE
  1

  9
$STYLESHEET
  1

  9
$XEDIT
290
     1
  9
$CEPSNTYPE
380
     0
  9
$PSTYLEMODE
290
     1
  9
$FINGERPRINTGUID
  2
{BAA30D28-64B2-4947-87E6-43843D4E312F}
  9
$VERSIONGUID
  2
{5673D1C5-90BB-4957-A7D4-7E6FFA8F84BC}
  9
$EXTNAMES
290
     1
  9
$PSVPSCALE
 40
0.0
  9
$OLESTARTUP
290
     0
  9
$SORTENTS
280
   127
  9
$INDEXCTL
280
     0
  9
$HIDETEXT
280
     0
  9
$XCLIPFRAME
290
     0
  9
$HALOGAP
280
     0
  9
$OBSCOLOR
 70
   257
  9
$OBSLTYPE
280
     0
  9
$INTERSECTIONDISPLAY
280
     0
  9
$INTERSECTIONCOLOR
 70
   257
  9
$DIMASSOC
280
     1
  9
$PROJECTNAME
  1

  0
ENDSEC
  0
SECTION
  2
CLASSES
  0
CLASS
  1
ACDBDICTIONARYWDFLT
  2
AcDbDictionaryWithDefault
  3
ObjectDBX Classes
 90
        0
 91
        1
280
     0
281
     0
  0
CLASS
  1
MATERIAL
  2
AcDbMaterial
  3
ObjectDBX Classes
 90
     1153
 91
        3
280
     0
281
     0
  0
CLASS
  1
VISUALSTYLE
  2
AcDbVisualStyle
  3
ObjectDBX Classes
 90
     4095
 91
       26
280
     0
281
     0
  0
CLASS
  1
TABLESTYLE
  2
AcDbTableStyle
  3
ObjectDBX Classes
 90
     4095
 91
        1
280
     0
281
     0
  0
CLASS
  1
SCALE
  2
AcDbScale
  3
ObjectDBX Classes
 90
     1153
 91
       33
280
     0
281
     0
  0
CLASS
  1
MLEADERSTYLE
  2
AcDbMLeaderStyle
  3
ACDB_MLEADERSTYLE_CLASS
 90
     4095
 91
        1
280
     0
281
     0
  0
CLASS
  1
CELLSTYLEMAP
  2
AcDbCellStyleMap
  3
ObjectDBX Classes
 90
     1152
 91
        3
280
     0
281
     0
  0
CLASS
  1
DICTIONARYVAR
  2
AcDbDictionaryVar
  3
ObjectDBX Classes
 90
        0
 91
       19
280
     0
281
     0
  0
CLASS
  1
ACDBSECTIONVIEWSTYLE
  2
AcDbSectionViewStyle
  3
ObjectDBX Classes
 90
     1025
 91
        1
280
     0
281
     0
  0
CLASS
  1
ACDBDETAILVIEWSTYLE
  2
AcDbDetailViewStyle
  3
ObjectDBX Classes
 90
     1025
 91
        1
280
     0
281
     0
  0
ENDSEC
  0
SECTION
  2
TABLES
  0
TABLE
  2
VPORT
  5
8
102
{ACAD_XDICTIONARY
360
177C
102
}
330
0
100
AcDbSymbolTable
 70
     1
  0
VPORT
  5
1F4
330
8
100
AcDbSymbolTableRecord
100
AcDbViewportTableRecord
  2
*ACTIVE
 70
     0
 10
0.0
 20
0.0
 11
1.0
 21
1.0
 12
124.981406941101
 22
36.68314925024467
 13
0.0
 23
0.0
 14
1.0
 24
1.0
 15
0.0
 25
0.0
 16
0.0
 26
0.0
 36
1.0
 17
0.0
 27
0.0
 37
0.0
 40
29.17841286123316
 41
2.246690734055355
 42
50.0
 43
0.0
 44
0.0
 50
0.0
 51
0.0
 71
     0
 72
   100
 73
     1
 74
     1
 75
     0
 76
     0
 77
     0
 78
     0
281
     0
 65
     1
110
0.0
120
0.0
130
0.0
111
1.0
121
0.0
131
0.0
112
0.0
122
1.0
132
0.0
 79
     0
146
0.0
1001
ACAD_NAV_VCDISPLAY
1070
     3
  0
ENDTAB
  0
TABLE
  2
LTYPE
  5
5
330
0
100
AcDbSymbolTable
 70
     6
  0
LTYPE
  5
14
330
5
100
AcDbSymbolTableRecord
100
AcDbLinetypeTableRecord
  2
BYBLOCK
 70
     0
  3

 72
    65
 73
     0
 40
0.0
  0
LTYPE
  5
15
330
5
100
AcDbSymbolTableRecord
100
AcDbLinetypeTableRecord
  2
BYLAYER
 70
     0
  3

 72
    65
 73
     0
 40
0.0
  0
LTYPE
  5
16
330
5
100
AcDbSymbolTableRecord
100
AcDbLinetypeTableRecord
  2
CONTINUOUS
 70
     0
  3
Solid line
 72
    65
 73
     0
 40
0.0
  0
LTYPE
  5
1F5
330
5
100
AcDbSymbolTableRecord
100
AcDbLinetypeTableRecord
  2
CENTER
 70
     0
  3
____ _ ____ _ ____ _ ____ _ ____ _ ____ _ ____
 72
    65
 73
     4
 40
0.6
 49
0.375
 74
     0
 49
-0.075
 74
     0
 49
0.075
 74
     0
 49
-0.075
 74
     0
  0
LTYPE
  5
1F6
330
5
100
AcDbSymbolTableRecord
100
AcDbLinetypeTableRecord
  2
HIDDEN
 70
     0
  3
- - - - - - - - - - - - - - - - - - - -
 72
    65
 73
     2
 40
0.2
 49
0.1
 74
     0
 49
-0.1
 74
     0
  0
LTYPE
  5
1F7
330
5
100
AcDbSymbolTableRecord
100
AcDbLinetypeTableRecord
  2
PHANTOM
 70
     0
  3
_____ _ _ _____ _ _ _____ _ _ _____
 72
    65
 73
     6
 40
0.8
 49
0.45
 74
     0
 49
-0.05
 74
     0
 49
0.1
 74
     0
 49
-0.05
 74
     0
 49
0.1
 74
     0
 49
-0.05
 74
     0
  0
LTYPE
  5
1F8
330
5
100
AcDbSymbolTableRecord
100
AcDbLinetypeTableRecord
  2
DOT
 70
     0
  3
. . . . . . . . . . . . . . . . . . . .
 72
    65
 73
     2
 40
0.2
 49
0.1
 74
     0
 49
-0.1
 74
     0
  0
LTYPE
  5
1F9
330
5
100
AcDbSymbolTableRecord
100
AcDbLinetypeTableRecord
  2
DASHED
 70
     0
  3
- - - - - - - - - - - - - - - - - - - -
 72
    65
 73
     2
 40
0.2
 49
0.1
 74
     0
 49
-0.1
 74
     0
  0
ENDTAB
  0
TABLE
  2
LAYER
  5
2
330
0
100
AcDbSymbolTable
 70
    36
  0
LAYER
  5
10
102
{ACAD_XDICTIONARY
360
17BC
102
}
330
2
100
AcDbSymbolTableRecord
100
AcDbLayerTableRecord
  2
0
 70
     0
 62
     7
  6
CONTINUOUS
370
    -3
390
F
  0
LAYER
  5
1FA
102
{ACAD_XDICTIONARY
360
17BE
102
}
330
2
100
AcDbSymbolTableRecord
100
AcDbLayerTableRecord
  2
DEFAULT_1
 70
     0
 62
     7
  6
CENTER
370
    -3
390
F
  0
LAYER
  5
1FB
102
{ACAD_XDICTIONARY
360
17C0
102
}
330
2
100
AcDbSymbolTableRecord
100
AcDbLayerTableRecord
  2
DEFAULT_2
 70
     0
 62
     7
  6
HIDDEN
370
    -3
390
F
  0
LAYER
  5
1FC
102
{ACAD_XDICTIONARY
360
17C2
102
}
330
2
100
AcDbSymbolTableRecord
100
AcDbLayerTableRecord
  2
DEFAULT_3
 70
     0
 62
     7
  6
PHANTOM
370
    -3
390
F
  0
LAYER
  5
1FD
102
{ACAD_XDICTIONARY
360
17C4
102
}
330
2
100
AcDbSymbolTableRecord
100
AcDbLayerTableRecord
  2
1_CURVES
 70
     0
 62
     7
  6
CONTINUOUS
370
    -3
390
F
  0
LAYER
  5
1FE
102
{ACAD_XDICTIONARY
360
17C6
102
}
330
2
100
AcDbSymbolTableRecord
100
AcDbLayerTableRecord
  2
1_CURVES-DEGAGEMENT-COIL
 70
     0
 62
     7
  6
CONTINUOUS
370
    -3
390
F
  0
LAYER
  5
1FF
102
{ACAD_XDICTIONARY
360
17C8
102
}
330
2
100
AcDbSymbolTableRecord
100
AcDbLayerTableRecord
  2
1_CURVES-TRAJECTOIRE-COIL
 70
     0
 62
     7
  6
CONTINUOUS
370
    -3
390
F
  0
LAYER
  5
200
102
{ACAD_XDICTIONARY
360
17CA
102
}
330
2
100
AcDbSymbolTableRecord
100
AcDbLayerTableRecord
  2
1_CURVES_CONDUIT
 70
     0
 62
     7
  6
CONTINUOUS
370
    -3
390
F
  0
LAYER
  5
201
102
{ACAD_XDICTIONARY
360
17CC
102
}
330
2
100
AcDbSymbolTableRecord
100
AcDbLayerTableRecord
  2
1_CURVES_IMPORT
 70
     0
 62
     7
  6
CONTINUOUS
370
    -3
390
F
  0
LAYER
  5
202
102
{ACAD_XDICTIONARY
360
17CE
102
}
330
2
100
AcDbSymbolTableRecord
100
AcDbLayerTableRecord
  2
1_CURVES_JETS
 70
     0
 62
     7
  6
CONTINUOUS
370
    -3
390
F
  0
LAYER
  5
203
102
{ACAD_XDICTIONARY
360
17D0
102
}
330
2
100
AcDbSymbolTableRecord
100
AcDbLayerTableRecord
  2
1_CURVES_PATINS
 70
     0
 62
     7
  6
CONTINUOUS
370
    -3
390
F
  0
LAYER
  5
204
102
{ACAD_XDICTIONARY
360
17D2
102
}
330
2
100
AcDbSymbolTableRecord
100
AcDbLayerTableRecord
  2
1_CURVES_SPEC_FRONT
 70
     0
 62
     7
  6
CONTINUOUS
370
    -3
390
F
  0
LAYER
  5
205
102
{ACAD_XDICTIONARY
360
17D4
102
}
330
2
100
AcDbSymbolTableRecord
100
AcDbLayerTableRecord
  2
1_CURVES_SPEC_RIGHT
 70
     0
 62
     7
  6
CONTINUOUS
370
    -3
390
F
  0
LAYER
  5
206
102
{ACAD_XDICTIONARY
360
17D6
102
}
330
2
100
AcDbSymbolTableRecord
100
AcDbLayerTableRecord
  2
1_CURVES_ZONE-ROBINETTERIE
 70
     0
 62
     7
  6
CONTINUOUS
370
    -3
390
F
  0
LAYER
  5
207
102
{ACAD_XDICTIONARY
360
17D8
102
}
330
2
100
AcDbSymbolTableRecord
100
AcDbLayerTableRecord
  2
2_PLANES
 70
     0
 62
     7
  6
CONTINUOUS
370
    -3
390
F
  0
LAYER
  5
208
102
{ACAD_XDICTIONARY
360
17DA
102
}
330
2
100
AcDbSymbolTableRecord
100
AcDbLayerTableRecord
  2
2_PLANES_JETS
 70
     0
 62
     7
  6
CONTINUOUS
370
    -3
390
F
  0
LAYER
  5
209
102
{ACAD_XDICTIONARY
360
17DC
102
}
330
2
100
AcDbSymbolTableRecord
100
AcDbLayerTableRecord
  2
3_POINTS
 70
     0
 62
     7
  6
CONTINUOUS
370
    -3
390
F
  0
LAYER
  5
20A
102
{ACAD_XDICTIONARY
360
17DE
102
}
330
2
100
AcDbSymbolTableRecord
100
AcDbLayerTableRecord
  2
3_POINTS_JETS
 70
     0
 62
     7
  6
CONTINUOUS
370
    -3
390
F
  0
LAYER
  5
20B
102
{ACAD_XDICTIONARY
360
17E0
102
}
330
2
100
AcDbSymbolTableRecord
100
AcDbLayerTableRecord
  2
4_CSYS
 70
     0
 62
     7
  6
CONTINUOUS
370
    -3
390
F
  0
LAYER
  5
20C
102
{ACAD_XDICTIONARY
360
17E2
102
}
330
2
100
AcDbSymbolTableRecord
100
AcDbLayerTableRecord
  2
5_AXIS
 70
     0
 62
     7
  6
CONTINUOUS
370
    -3
390
F
  0
LAYER
  5
20D
102
{ACAD_XDICTIONARY
360
17E4
102
}
330
2
100
AcDbSymbolTableRecord
100
AcDbLayerTableRecord
  2
5_AXIS_JETS
 70
     0
 62
     7
  6
CONTINUOUS
370
    -3
390
F
  0
LAYER
  5
20E
102
{ACAD_XDICTIONARY
360
17E6
102
}
330
2
100
AcDbSymbolTableRecord
100
AcDbLayerTableRecord
  2
6_AIRE_CONDUIT
 70
     0
 62
     7
  6
CONTINUOUS
370
    -3
390
F
  0
LAYER
  5
20F
102
{ACAD_XDICTIONARY
360
17E8
102
}
330
2
100
AcDbSymbolTableRecord
100
AcDbLayerTableRecord
  2
6_SURFACES
 70
     0
 62
     7
  6
CONTINUOUS
370
    -3
390
F
  0
LAYER
  5
210
102
{ACAD_XDICTIONARY
360
17EA
102
}
330
2
100
AcDbSymbolTableRecord
100
AcDbLayerTableRecord
  2
6_SURFACES_AIRE
 70
     0
 62
     7
  6
CONTINUOUS
370
    -3
390
F
  0
LAYER
  5
211
102
{ACAD_XDICTIONARY
360
17EC
102
}
330
2
100
AcDbSymbolTableRecord
100
AcDbLayerTableRecord
  2
6_SURFACES_DROP_IN
 70
     0
 62
     7
  6
CONTINUOUS
370
    -3
390
F
  0
LAYER
  5
212
102
{ACAD_XDICTIONARY
360
17EE
102
}
330
2
100
AcDbSymbolTableRecord
100
AcDbLayerTableRecord
  2
6_SURFACES_FS
 70
     0
 62
     7
  6
CONTINUOUS
370
    -3
390
F
  0
LAYER
  5
213
102
{ACAD_XDICTIONARY
360
17F0
102
}
330
2
100
AcDbSymbolTableRecord
100
AcDbLayerTableRecord
  2
6_SURFACES_OFFSET_FIBRE_ACRYLIQ
 70
     0
 62
     7
  6
CONTINUOUS
370
    -3
390
F
  0
LAYER
  5
214
102
{ACAD_XDICTIONARY
360
17F2
102
}
330
2
100
AcDbSymbolTableRecord
100
AcDbLayerTableRecord
  2
6_SURFACES_PATINS_SPECS
 70
     0
 62
     7
  6
CONTINUOUS
370
    -3
390
F
  0
LAYER
  5
215
102
{ACAD_XDICTIONARY
360
17F4
102
}
330
2
100
AcDbSymbolTableRecord
100
AcDbLayerTableRecord
  2
6_SURFACES_POUR_CONDUIT
 70
     0
 62
     7
  6
CONTINUOUS
370
    -3
390
F
  0
LAYER
  5
216
102
{ACAD_XDICTIONARY
360
17F6
102
}
330
2
100
AcDbSymbolTableRecord
100
AcDbLayerTableRecord
  2
6_SURFACES_POUR_HFL
 70
     0
 62
     7
  6
CONTINUOUS
370
    -3
390
F
  0
LAYER
  5
217
102
{ACAD_XDICTIONARY
360
17F8
102
}
330
2
100
AcDbSymbolTableRecord
100
AcDbLayerTableRecord
  2
6_SURFACES_TOOLING
 70
     0
 62
     7
  6
CONTINUOUS
370
    -3
390
F
  0
LAYER
  5
218
102
{ACAD_XDICTIONARY
360
17FA
102
}
330
2
100
AcDbSymbolTableRecord
100
AcDbLayerTableRecord
  2
7_NOTES
 70
     0
 62
     7
  6
CONTINUOUS
370
    -3
390
F
  0
LAYER
  5
219
102
{ACAD_XDICTIONARY
360
17FC
102
}
330
2
100
AcDbSymbolTableRecord
100
AcDbLayerTableRecord
  2
8_TOL_GEOM
 70
     0
 62
     7
  6
CONTINUOUS
370
    -3
390
F
  0
LAYER
  5
21A
102
{ACAD_XDICTIONARY
360
17FE
102
}
330
2
100
AcDbSymbolTableRecord
100
AcDbLayerTableRecord
  2
DEGAGEMENT_SERIGRAPHIE
 70
     0
 62
     7
  6
CONTINUOUS
370
    -3
390
F
  0
LAYER
  5
21B
102
{ACAD_XDICTIONARY
360
1800
102
}
330
2
100
AcDbSymbolTableRecord
100
AcDbLayerTableRecord
  2
NONE
 70
     0
 62
     7
  6
CONTINUOUS
370
    -3
390
F
  0
LAYER
  5
21C
102
{ACAD_XDICTIONARY
360
1802
102
}
330
2
100
AcDbSymbolTableRecord
100
AcDbLayerTableRecord
  2
XSEC_DATUMS
 70
     0
 62
     7
  6
CONTINUOUS
370
    -3
390
F
  0
ENDTAB
  0
TABLE
  2
STYLE
  5
3
330
0
100
AcDbSymbolTable
 70
     8
  0
STYLE
  5
11
330
3
100
AcDbSymbolTableRecord
100
AcDbTextStyleTableRecord
  2
STANDARD
 70
     0
 40
0.0
 41
0.8
 50
0.0
 71
     0
 42
0.2
  3
txt
  4

  0
STYLE
  5
21D
330
3
100
AcDbSymbolTableRecord
100
AcDbTextStyleTableRecord
  2
TEXTSTYLE_1
 70
     0
 40
0.0
 41
0.8
 50
0.0
 71
     0
 42
0.2
  3
gdt
  4

  0
STYLE
  5
21E
330
3
100
AcDbSymbolTableRecord
100
AcDbTextStyleTableRecord
  2
TEXTSTYLE_2
 70
     0
 40
0.0
 41
1.0
 50
0.0
 71
     0
 42
0.2
  3
trium.ttf
  4

  0
STYLE
  5
21F
330
3
100
AcDbSymbolTableRecord
100
AcDbTextStyleTableRecord
  2
TEXTSTYLE_3
 70
     0
 40
0.0
 41
1.0
 50
0.0
 71
     0
 42
0.2
  3
trium.ttf
  4

  0
STYLE
  5
220
330
3
100
AcDbSymbolTableRecord
100
AcDbTextStyleTableRecord
  2
TEXTSTYLE_4
 70
     0
 40
0.0
 41
1.0
 50
0.0
 71
     0
 42
0.2
  3
txt_____.ttf
  4

1001
ACAD
1000
txt
1071
        2
  0
STYLE
  5
221
330
3
100
AcDbSymbolTableRecord
100
AcDbTextStyleTableRecord
  2
TEXTSTYLE_5
 70
     0
 40
0.0
 41
1.0
 50
0.0
 71
     0
 42
0.2
  3
txt
  4

  0
STYLE
  5
222
330
3
100
AcDbSymbolTableRecord
100
AcDbTextStyleTableRecord
  2
TEXTSTYLE_6
 70
     0
 40
0.0
 41
1.0
 50
0.0
 71
     0
 42
0.2
  3
trium.ttf
  4

  0
STYLE
  5
223
330
3
100
AcDbSymbolTableRecord
100
AcDbTextStyleTableRecord
  2
TEXTSTYLE_7
 70
     0
 40
0.0
 41
0.8
 50
0.0
 71
     0
 42
0.2
  3
txt
  4

1001
ACAD
1000
Txt
1071
        2
  0
ENDTAB
  0
TABLE
  2
VIEW
  5
6
330
0
100
AcDbSymbolTable
 70
     0
  0
ENDTAB
  0
TABLE
  2
UCS
  5
7
330
0
100
AcDbSymbolTable
 70
     0
  0
ENDTAB
  0
TABLE
  2
APPID
  5
9
330
0
100
AcDbSymbolTable
 70
     3
  0
APPID
  5
224
330
9
100
AcDbSymbolTableRecord
100
AcDbRegAppTableRecord
  2
ACAD
 70
     0
  0
APPID
  5
17AC
330
9
100
AcDbSymbolTableRecord
100
AcDbRegAppTableRecord
  2
ACAD_MLEADERVER
 70
     0
  0
APPID
  5
1848
330
9
100
AcDbSymbolTableRecord
100
AcDbRegAppTableRecord
  2
ACAD_NAV_VCDISPLAY
 70
     0
  0
ENDTAB
  0
TABLE
  2
DIMSTYLE
  5
A
330
0
100
AcDbSymbolTable
 70
     4
100
AcDbDimStyleTable
 71
     0
  0
DIMSTYLE
105
23F
330
A
100
AcDbSymbolTableRecord
100
AcDbDimStyleTableRecord
  2
STANDARD
 70
     0
 41
2.0
 44
0.125
 47
0.00001
 48
0.00001
 71
     1
 78
     4
140
1.333333333299999
271
     5
272
     5
284
     4
340
11
341
227
342
227
343
227
344
227
  0
DIMSTYLE
105
240
330
A
100
AcDbSymbolTableRecord
100
AcDbDimStyleTableRecord
  2
DIMSTYLE_1
 70
     0
 41
2.0
 44
0.125
 47
0.00001
 48
0.00001
 78
     4
140
1.333333333299999
147
0.0625
271
     3
272
     3
284
     4
340
11
341
227
342
227
343
227
344
227
  0
DIMSTYLE
105
241
330
A
100
AcDbSymbolTableRecord
100
AcDbDimStyleTableRecord
  2
DIMSTYLE_2
 70
     0
 41
2.0
 44
0.125
 47
0.00001
 48
0.00001
 78
     4
140
1.333333333299999
147
0.0625
271
     6
272
     6
284
     4
340
11
341
227
342
227
343
227
344
227
  0
DIMSTYLE
105
242
330
A
100
AcDbSymbolTableRecord
100
AcDbDimStyleTableRecord
  2
DIMSTYLE_3
 70
     0
 41
2.0
 44
0.125
 47
0.5
 48
0.5
 78
     4
140
1.333333333299999
271
     0
272
     0
284
     4
340
11
341
227
342
227
343
227
344
227
  0
ENDTAB
  0
TABLE
  2
BLOCK_RECORD
  5
1
330
0
100
AcDbSymbolTable
 70
    24
  0
BLOCK_RECORD
  5
225
330
1
100
AcDbSymbolTableRecord
100
AcDbBlockTableRecord
  2
*Model_Space
340
1721
  0
BLOCK_RECORD
  5
226
330
1
100
AcDbSymbolTableRecord
100
AcDbBlockTableRecord
  2
*Paper_Space
340
1722
  0
BLOCK_RECORD
  5
227
330
1
100
AcDbSymbolTableRecord
100
AcDbBlockTableRecord
  2
_FILLED
340
0
102
{BLKREFS
102
}
  0
BLOCK_RECORD
  5
237
330
1
100
AcDbSymbolTableRecord
100
AcDbBlockTableRecord
  2
SYMBOL_8_BL7
340
0
  0
BLOCK_RECORD
  5
238
330
1
100
AcDbSymbolTableRecord
100
AcDbBlockTableRecord
  2
SYMBOL_12_BL6
340
0
  0
BLOCK_RECORD
  5
239
330
1
100
AcDbSymbolTableRecord
100
AcDbBlockTableRecord
  2
SYMBOL_11_BL5
340
0
  0
BLOCK_RECORD
  5
23A
330
1
100
AcDbSymbolTableRecord
100
AcDbBlockTableRecord
  2
SYMBOL_10_BL4
340
0
  0
BLOCK_RECORD
  5
23B
330
1
100
AcDbSymbolTableRecord
100
AcDbBlockTableRecord
  2
SYMBOL_5_BL3
340
0
  0
BLOCK_RECORD
  5
23C
330
1
100
AcDbSymbolTableRecord
100
AcDbBlockTableRecord
  2
SYMBOL_4_BL2
340
0
  0
BLOCK_RECORD
  5
23D
330
1
100
AcDbSymbolTableRecord
100
AcDbBlockTableRecord
  2
SYMBOL_3_BL1
340
0
  0
BLOCK_RECORD
  5
23E
330
1
100
AcDbSymbolTableRecord
100
AcDbBlockTableRecord
  2
SYMBOL_0_BL0
340
0
  0
ENDTAB
  0
ENDSEC
  0
SECTION
  2
BLOCKS
  0
BLOCK
  5
20
330
225
100
AcDbEntity
  8
0
100
AcDbBlockBegin
  2
*Model_Space
 70
     0
 10
0.0
 20
0.0
 30
0.0
  3
*Model_Space
  1

  0
ENDBLK
  5
21
330
225
100
AcDbEntity
  8
0
100
AcDbBlockEnd
  0
BLOCK
  5
1C
330
226
100
AcDbEntity
 67
     1
  8
0
100
AcDbBlockBegin
  2
*Paper_Space
 70
     0
 10
0.0
 20
0.0
 30
0.0
  3
*Paper_Space
  1

  0
ENDBLK
  5
1D
330
226
100
AcDbEntity
 67
     1
  8
0
100
AcDbBlockEnd
  0
BLOCK
  5
32A
330
227
100
AcDbEntity
  8
0
100
AcDbBlockBegin
  2
_FILLED
 70
     0
 10
0.0
 20
0.0
 30
0.0
  3
_FILLED
  1

  0
SOLID
  5
32B
330
227
100
AcDbEntity
  8
0
  6
ByBlock
 62
     0
100
AcDbTrace
 10
0.0
 20
0.0
 30
0.0
 11
-1.0
 21
0.1666666667
 31
0.0
 12
-1.0
 22
-0.1666666667
 32
0.0
 13
-1.0
 23
-0.1666666667
 33
0.0
  0
ENDBLK
  5
32C
330
227
100
AcDbEntity
  8
0
  6
ByBlock
 62
     0
100
AcDbBlockEnd
  0
BLOCK
  5
243
330
237
100
AcDbEntity
  8
0
  6
Continuous
 62
     7
100
AcDbBlockBegin
  2
SYMBOL_8_BL7
 70
     0
 10
123.4755144253
 20
51.6510813909
 30
0.0
  3
SYMBOL_8_BL7
  1

  0
TEXT
  5
244
330
237
100
AcDbEntity
  8
0
  6
Continuous
 62
     7
100
AcDbText
 10
117.1614541235
 20
53.8961153767
 30
0.0
 40
1.1626666667
  1
INTERNAL USE 
 50
10.0
  7
TEXTSTYLE_3
100
AcDbText
  0
TEXT
  5
245
330
237
100
AcDbEntity
  8
0
  6
Continuous
 62
     7
100
AcDbText
 10
116.4177699195
 20
51.894594199
 30
0.0
 40
1.1626666667
  1
DOCUMENT ONLY
 50
10.0
  7
TEXTSTYLE_3
100
AcDbText
  0
TEXT
  5
246
330
237
100
AcDbEntity
  8
0
  6
Continuous
 62
     7
100
AcDbText
 10
122.2024974827
 20
51.64616614839999
 30
0.0
 40
1.1626666667
  1
 
 50
10.0
  7
TEXTSTYLE_5
100
AcDbText
  0
TEXT
  5
247
330
237
100
AcDbEntity
  8
0
  6
Continuous
 62
     7
100
AcDbText
 10
113.7578495997
 20
47.4690717421
 30
0.0
 40
1.1626666667
  1
DOCUMENT POUR USAGE
 50
10.0
  7
TEXTSTYLE_3
100
AcDbText
  0
TEXT
  5
248
330
237
100
AcDbEntity
  8
0
  6
Continuous
 62
     7
100
AcDbText
 10
114.1869490457
 20
45.4523232817
 30
0.0
 40
1.1626666667
  1
A L'INTERNE SEULEMENT
 50
10.0
  7
TEXTSTYLE_3
100
AcDbText
  0
LINE
  5
249
330
237
100
AcDbEntity
  8
0
  6
Continuous
 62
     7
100
AcDbLine
 10
137.3320661486
 20
47.3075477729
 30
0.0
 11
137.3388250812
 21
47.31430670549999
 31
0.0
  0
LINE
  5
24A
330
237
100
AcDbEntity
  8
0
  6
Continuous
 62
     7
100
AcDbLine
 10
136.5994965822
 20
47.17837599310001
 30
0.0
 11
137.2483780273
 21
47.8272574382
 31
0.0
  0
LINE
  5
24B
330
237
100
AcDbEntity
  8
0
  6
Continuous
 62
     7
100
AcDbLine
 10
135.8669270158
 20
47.0492042133
 30
0.0
 11
137.1579309733
 21
48.34020817089999
 31
0.0
  0
LINE
  5
24C
330
237
100
AcDbEntity
  8
0
  6
Continuous
 62
     7
100
AcDbLine
 10
135.1343574493
 20
46.9200324335
 30
0.0
 11
137.0674839194
 21
48.8531589035
 31
0.0
  0
LINE
  5
24D
330
237
100
AcDbEntity
  8
0
  6
Continuous
 62
     7
100
AcDbLine
 10
134.4017878829
 20
46.79086065369999
 30
0.0
 11
136.9770368655
 21
49.3661096362
 31
0.0
  0
LINE
  5
24E
330
237
100
AcDbEntity
  8
0
  6
Continuous
 62
     7
100
AcDbLine
 10
133.6692183165
 20
46.6616888739
 30
0.0
 11
135.2102221313
 21
48.20269268859999
 31
0.0
  0
LINE
  5
24F
330
237
100
AcDbEntity
  8
0
  6
Continuous
 62
     7
100
AcDbLine
 10
135.807567324
 20
48.8000378814
 30
0.0
 11
136.8865898115
 21
49.87906036890001
 31
0.0
  0
LINE
  5
250
330
237
100
AcDbEntity
  8
0
  6
Continuous
 62
     7
100
AcDbLine
 10
132.9366487501
 20
46.5325170941
 30
0.0
 11
134.4776525649
 21
48.0735209088
 31
0.0
  0
LINE
  5
251
330
237
100
AcDbEntity
  8
0
  6
Continuous
 62
     7
100
AcDbLine
 10
135.7171202701
 20
49.312988614
 30
0.0
 11
136.7961427576
 21
50.3920111016
 31
0.0
  0
LINE
  5
252
330
237
100
AcDbEntity
  8
0
  6
Continuous
 62
     7
100
AcDbLine
 10
132.2040791837
 20
46.4033453143
 30
0.0
 11
133.7450829984
 21
47.94434912899999
 31
0.0
  0
LINE
  5
253
330
237
100
AcDbEntity
  8
0
  6
Continuous
 62
     7
100
AcDbLine
 10
135.6266732161
 20
49.8259393467
 30
0.0
 11
136.7056957036
 21
50.9049618342
 31
0.0
  0
LINE
  5
254
330
237
100
AcDbEntity
  8
0
  6
Continuous
 62
     7
100
AcDbLine
 10
131.4715096171999
 20
46.2741735344
 30
0.0
 11
133.012513432
 21
47.8151773492
 31
0.0
  0
LINE
  5
255
330
237
100
AcDbEntity
  8
0
  6
Continuous
 62
     7
100
AcDbLine
 10
135.5362261622
 20
50.3388900794
 30
0.0
 11
136.6152486497
 21
51.41791256689999
 31
0.0
  0
LINE
  5
256
330
237
100
AcDbEntity
  8
0
  6
Continuous
 62
     7
100
AcDbLine
 10
130.7389400508
 20
46.1450017546
 30
0.0
 11
132.2799438656
 21
47.6860055694
 31
0.0
  0
LINE
  5
257
330
237
100
AcDbEntity
  8
0
  6
Continuous
 62
     7
100
AcDbLine
 10
135.4457791082
 20
50.851840812
 30
0.0
 11
136.5248015957
 21
51.93086329959999
 31
0.0
  0
LINE
  5
258
330
237
100
AcDbEntity
  8
0
  6
Continuous
 62
     7
100
AcDbLine
 10
130.0063704844
 20
46.01582997479999
 30
0.0
 11
131.5473742992
 21
47.55683378959999
 31
0.0
  0
LINE
  5
259
330
237
100
AcDbEntity
  8
0
  6
Continuous
 62
     7
100
AcDbLine
 10
135.3553320543
 20
51.3647915447
 30
0.0
 11
136.4343545418
 21
52.4438140322
 31
0.0
  0
LINE
  5
25A
330
237
100
AcDbEntity
  8
0
  6
Continuous
 62
     7
100
AcDbLine
 10
129.273800918
 20
45.886658195
 30
0.0
 11
130.8148047328
 21
47.42766200979999
 31
0.0
  0
LINE
  5
25B
330
237
100
AcDbEntity
  8
0
  6
Continuous
 62
     7
100
AcDbLine
 10
135.2648850003
 20
51.8777422774
 30
0.0
 11
136.3439074879
 21
52.9567647649
 31
0.0
  0
LINE
  5
25C
330
237
100
AcDbEntity
  8
0
  6
Continuous
 62
     7
100
AcDbLine
 10
128.5412313516
 20
45.7574864152
 30
0.0
 11
130.0822351664
 21
47.29849022999999
 31
0.0
  0
LINE
  5
25D
330
237
100
AcDbEntity
  8
0
  6
Continuous
 62
     7
100
AcDbLine
 10
135.1744379464
 20
52.39069301
 30
0.0
 11
136.2534604339
 21
53.4697154976
 31
0.0
  0
LINE
  5
25E
330
237
100
AcDbEntity
  8
0
  6
Continuous
 62
     7
100
AcDbLine
 10
127.8086617852
 20
45.6283146354
 30
0.0
 11
129.3496655999
 21
47.1693184502
 31
0.0
  0
LINE
  5
25F
330
237
100
AcDbEntity
  8
0
  6
Continuous
 62
     7
100
AcDbLine
 10
135.0839908925
 20
52.90364374270001
 30
0.0
 11
136.16301338
 21
53.9826662302
 31
0.0
  0
LINE
  5
260
330
237
100
AcDbEntity
  8
0
  6
Continuous
 62
     7
100
AcDbLine
 10
127.0760922187
 20
45.4991428556
 30
0.0
 11
128.6170960335
 21
47.0401466704
 31
0.0
  0
LINE
  5
261
330
237
100
AcDbEntity
  8
0
  6
Continuous
 62
     7
100
AcDbLine
 10
134.7811112926
 20
53.20416192949999
 30
0.0
 11
136.072566326
 21
54.4956169629
 31
0.0
  0
LINE
  5
262
330
237
100
AcDbEntity
  8
0
  6
Continuous
 62
     7
100
AcDbLine
 10
126.3435226523
 20
45.3699710758
 30
0.0
 11
127.8845264671
 21
46.9109748906
 31
0.0
  0
LINE
  5
263
330
237
100
AcDbEntity
  8
0
  6
Continuous
 62
     7
100
AcDbLine
 10
134.0485417262
 20
53.0749901497
 30
0.0
 11
135.9821192721
 21
55.00856769560001
 31
0.0
  0
LINE
  5
264
330
237
100
AcDbEntity
  8
0
  6
Continuous
 62
     7
100
AcDbLine
 10
125.6109530859
 20
45.240799296
 30
0.0
 11
127.1519569007
 21
46.7818031108
 31
0.0
  0
LINE
  5
265
330
237
100
AcDbEntity
  8
0
  6
Continuous
 62
     7
100
AcDbLine
 10
133.3159721598
 20
52.94581836989999
 30
0.0
 11
134.343314458
 21
53.9731606682
 31
0.0
  0
LINE
  5
266
330
237
100
AcDbEntity
  8
0
  6
Continuous
 62
     7
100
AcDbLine
 10
134.8126497306
 20
54.4424959407
 30
0.0
 11
135.8916722181
 21
55.52151842819999
 31
0.0
  0
LINE
  5
267
330
237
100
AcDbEntity
  8
0
  6
Continuous
 62
     7
100
AcDbLine
 10
124.8783835195
 20
45.1116275162
 30
0.0
 11
126.4193873343
 21
46.652631331
 31
0.0
  0
LINE
  5
268
330
237
100
AcDbEntity
  8
0
  6
Continuous
 62
     7
100
AcDbLine
 10
132.5834025934
 20
52.8166465901
 30
0.0
 11
133.610744682
 21
53.8439886787
 31
0.0
  0
LINE
  5
269
330
237
100
AcDbEntity
  8
0
  6
Continuous
 62
     7
100
AcDbLine
 10
134.7222026767
 20
54.9554466734
 30
0.0
 11
135.8012251642
 21
56.0344691609
 31
0.0
  0
LINE
  5
26A
330
237
100
AcDbEntity
  8
0
  6
Continuous
 62
     7
100
AcDbLine
 10
124.1458139531
 20
44.98245573640001
 30
0.0
 11
125.6868177678
 21
46.5234595512
 31
0.0
  0
LINE
  5
26B
330
237
100
AcDbEntity
  8
0
  6
Continuous
 62
     7
100
AcDbLine
 10
131.850833027
 20
52.6874748103
 30
0.0
 11
132.878174906
 21
53.7148166893
 31
0.0
  0
LINE
  5
26C
330
237
100
AcDbEntity
  8
0
  6
Continuous
 62
     7
100
AcDbLine
 10
134.6317556227
 20
55.4683974061
 30
0.0
 11
135.7107781102
 21
56.54741989359999
 31
0.0
  0
LINE
  5
26D
330
237
100
AcDbEntity
  8
0
  6
Continuous
 62
     7
100
AcDbLine
 10
123.4132443866
 20
44.85328395659999
 30
0.0
 11
124.9542482014
 21
46.3942877714
 31
0.0
  0
LINE
  5
26E
330
237
100
AcDbEntity
  8
0
  6
Continuous
 62
     7
100
AcDbLine
 10
131.1182634605
 20
52.5583030305
 30
0.0
 11
132.14560513
 21
53.5856446999
 31
0.0
  0
LINE
  5
26F
330
237
100
AcDbEntity
  8
0
  6
Continuous
 62
     7
100
AcDbLine
 10
134.5413085688
 20
55.9813481387
 30
0.0
 11
135.6203310563
 21
57.0603706262
 31
0.0
  0
LINE
  5
270
330
237
100
AcDbEntity
  8
0
  6
Continuous
 62
     7
100
AcDbLine
 10
122.6806748202
 20
44.7241121768
 30
0.0
 11
124.221678635
 21
46.26511599159999
 31
0.0
  0
LINE
  5
271
330
237
100
AcDbEntity
  8
0
  6
Continuous
 62
     7
100
AcDbLine
 10
130.3856938941
 20
52.4291312507
 30
0.0
 11
131.4130353539
 21
53.4564727105
 31
0.0
  0
LINE
  5
272
330
237
100
AcDbEntity
  8
0
  6
Continuous
 62
     7
100
AcDbLine
 10
134.4508615148
 20
56.49429887140001
 30
0.0
 11
135.5298840024
 21
57.5733213589
 31
0.0
  0
LINE
  5
273
330
237
100
AcDbEntity
  8
0
  6
Continuous
 62
     7
100
AcDbLine
 10
121.9481052538
 20
44.594940397
 30
0.0
 11
123.4891090686
 21
46.1359442118
 31
0.0
  0
LINE
  5
274
330
237
100
AcDbEntity
  8
0
  6
Continuous
 62
     7
100
AcDbLine
 10
129.6531243277
 20
52.29995947089999
 30
0.0
 11
130.6804655779
 21
53.32730072109999
 31
0.0
  0
LINE
  5
275
330
237
100
AcDbEntity
  8
0
  6
Continuous
 62
     7
100
AcDbLine
 10
134.3604144609
 20
57.00724960409999
 30
0.0
 11
135.4394369484
 21
58.0862720916
 31
0.0
  0
LINE
  5
276
330
237
100
AcDbEntity
  8
0
  6
Continuous
 62
     7
100
AcDbLine
 10
121.2155356874
 20
44.4657686172
 30
0.0
 11
122.7565395022
 21
46.00677243199999
 31
0.0
  0
LINE
  5
277
330
237
100
AcDbEntity
  8
0
  6
Continuous
 62
     7
100
AcDbLine
 10
128.9205547613
 20
52.17078769109999
 30
0.0
 11
129.9478958019
 21
53.1981287317
 31
0.0
  0
LINE
  5
278
330
237
100
AcDbEntity
  8
0
  6
Continuous
 62
     7
100
AcDbLine
 10
134.269967407
 20
57.5202003367
 30
0.0
 11
135.3489898945
 21
58.5992228243
 31
0.0
  0
LINE
  5
279
330
237
100
AcDbEntity
  8
0
  6
Continuous
 62
     7
100
AcDbLine
 10
120.482966121
 20
44.33659683739999
 30
0.0
 11
122.0239699358
 21
45.8776006521
 31
0.0
  0
LINE
  5
27A
330
237
100
AcDbEntity
  8
0
  6
Continuous
 62
     7
100
AcDbLine
 10
128.1879851949
 20
52.0416159113
 30
0.0
 11
129.2153260258
 21
53.0689567422
 31
0.0
  0
LINE
  5
27B
330
237
100
AcDbEntity
  8
0
  6
Continuous
 62
     7
100
AcDbLine
 10
134.179520353
 20
58.0331510694
 30
0.0
 11
135.2585428405
 21
59.11217355689999
 31
0.0
  0
LINE
  5
27C
330
237
100
AcDbEntity
  8
0
  6
Continuous
 62
     7
100
AcDbLine
 10
119.7503965546
 20
44.2074250576
 30
0.0
 11
121.2914003693
 21
45.74842887229999
 31
0.0
  0
LINE
  5
27D
330
237
100
AcDbEntity
  8
0
  6
Continuous
 62
     7
100
AcDbLine
 10
127.4554156284
 20
51.9124441314
 30
0.0
 11
128.4827562498
 21
52.93978475279999
 31
0.0
  0
LINE
  5
27E
330
237
100
AcDbEntity
  8
0
  6
Continuous
 62
     7
100
AcDbLine
 10
134.0890732991
 20
58.54610180209999
 30
0.0
 11
135.1680957866
 21
59.6251242896
 31
0.0
  0
LINE
  5
27F
330
237
100
AcDbEntity
  8
0
  6
Continuous
 62
     7
100
AcDbLine
 10
119.0178269881
 20
44.07825327779999
 30
0.0
 11
120.5588308029
 21
45.6192570925
 31
0.0
  0
LINE
  5
280
330
237
100
AcDbEntity
  8
0
  6
Continuous
 62
     7
100
AcDbLine
 10
126.722846062
 20
51.7832723516
 30
0.0
 11
127.7501864738
 21
52.8106127634
 31
0.0
  0
LINE
  5
281
330
237
100
AcDbEntity
  8
0
  6
Continuous
 62
     7
100
AcDbLine
 10
133.9141971977
 20
58.97462348729999
 30
0.0
 11
135.0776487326
 21
60.13807502229999
 31
0.0
  0
LINE
  5
282
330
237
100
AcDbEntity
  8
0
  6
Continuous
 62
     7
100
AcDbLine
 10
118.2852574217
 20
43.949081498
 30
0.0
 11
119.8262612365
 21
45.4900853127
 31
0.0
  0
LINE
  5
283
330
237
100
AcDbEntity
  8
0
  6
Continuous
 62
     7
100
AcDbLine
 10
125.9902764956
 20
51.6541005718
 30
0.0
 11
127.0176166978
 21
52.68144077399999
 31
0.0
  0
LINE
  5
284
330
237
100
AcDbEntity
  8
0
  6
Continuous
 62
     7
100
AcDbLine
 10
133.1816276312
 20
58.8454517075
 30
0.0
 11
134.722631446
 21
60.3864555222
 31
0.0
  0
LINE
  5
285
330
237
100
AcDbEntity
  8
0
  6
Continuous
 62
     7
100
AcDbLine
 10
117.5526878553
 20
43.8199097181
 30
0.0
 11
119.0936916701
 21
45.36091353289999
 31
0.0
  0
LINE
  5
286
330
237
100
AcDbEntity
  8
0
  6
Continuous
 62
     7
100
AcDbLine
 10
125.2577069292
 20
51.524928792
 30
0.0
 11
126.2850469217
 21
52.5522687846
 31
0.0
  0
LINE
  5
287
330
237
100
AcDbEntity
  8
0
  6
Continuous
 62
     7
100
AcDbLine
 10
132.4490580648
 20
58.71627992770001
 30
0.0
 11
133.9900618796
 21
60.25728374239999
 31
0.0
  0
LINE
  5
288
330
237
100
AcDbEntity
  8
0
  6
Continuous
 62
     7
100
AcDbLine
 10
116.8201182889
 20
43.6907379383
 30
0.0
 11
118.3611221037
 21
45.2317417531
 31
0.0
  0
LINE
  5
289
330
237
100
AcDbEntity
  8
0
  6
Continuous
 62
     7
100
AcDbLine
 10
124.5251373628
 20
51.3957570122
 30
0.0
 11
125.5524771457
 21
52.4230967952
 31
0.0
  0
LINE
  5
28A
330
237
100
AcDbEntity
  8
0
  6
Continuous
 62
     7
100
AcDbLine
 10
131.7164884984
 20
58.5871081479
 30
0.0
 11
133.2574923132
 21
60.1281119626
 31
0.0
  0
LINE
  5
28B
330
237
100
AcDbEntity
  8
0
  6
Continuous
 62
     7
100
AcDbLine
 10
116.0875487225
 20
43.5615661585
 30
0.0
 11
117.6285525372
 21
45.10256997329999
 31
0.0
  0
LINE
  5
28C
330
237
100
AcDbEntity
  8
0
  6
Continuous
 62
     7
100
AcDbLine
 10
123.7925677964
 20
51.26658523239999
 30
0.0
 11
124.8199073697
 21
52.29392480569999
 31
0.0
  0
LINE
  5
28D
330
237
100
AcDbEntity
  8
0
  6
Continuous
 62
     7
100
AcDbLine
 10
130.983918932
 20
58.45793636799999
 30
0.0
 11
132.5249227468
 21
59.9989401828
 31
0.0
  0
LINE
  5
28E
330
237
100
AcDbEntity
  8
0
  6
Continuous
 62
     7
100
AcDbLine
 10
115.3549791561
 20
43.43239437869999
 30
0.0
 11
116.8959829708
 21
44.9733981935
 31
0.0
  0
LINE
  5
28F
330
237
100
AcDbEntity
  8
0
  6
Continuous
 62
     7
100
AcDbLine
 10
123.0599982299
 20
51.1374134526
 30
0.0
 11
124.0873375936
 21
52.1647528163
 31
0.0
  0
LINE
  5
290
330
237
100
AcDbEntity
  8
0
  6
Continuous
 62
     7
100
AcDbLine
 10
130.2513493656
 20
58.32876458819999
 30
0.0
 11
131.7923531803
 21
59.869768403
 31
0.0
  0
LINE
  5
291
330
237
100
AcDbEntity
  8
0
  6
Continuous
 62
     7
100
AcDbLine
 10
114.6224095896
 20
43.3032225989
 30
0.0
 11
116.1634134044
 21
44.8442264137
 31
0.0
  0
LINE
  5
292
330
237
100
AcDbEntity
  8
0
  6
Continuous
 62
     7
100
AcDbLine
 10
122.3274286635
 20
51.00824167279999
 30
0.0
 11
123.3547678176
 21
52.03558082689999
 31
0.0
  0
LINE
  5
293
330
237
100
AcDbEntity
  8
0
  6
Continuous
 62
     7
100
AcDbLine
 10
129.5187797991
 20
58.1995928084
 30
0.0
 11
131.0597836139
 21
59.7405966232
 31
0.0
  0
LINE
  5
294
330
237
100
AcDbEntity
  8
0
  6
Continuous
 62
     7
100
AcDbLine
 10
113.8898400232
 20
43.17405081909999
 30
0.0
 11
115.430843838
 21
44.7150546339
 31
0.0
  0
LINE
  5
295
330
237
100
AcDbEntity
  8
0
  6
Continuous
 62
     7
100
AcDbLine
 10
121.5948590971
 20
50.879069893
 30
0.0
 11
122.6221980416
 21
51.9064088375
 31
0.0
  0
LINE
  5
296
330
237
100
AcDbEntity
  8
0
  6
Continuous
 62
     7
100
AcDbLine
 10
128.7862102327
 20
58.07042102859999
 30
0.0
 11
130.3272140475
 21
59.6114248434
 31
0.0
  0
LINE
  5
297
330
237
100
AcDbEntity
  8
0
  6
Continuous
 62
     7
100
AcDbLine
 10
113.1572704568
 20
43.0448790393
 30
0.0
 11
114.6982742716
 21
44.5858828541
 31
0.0
  0
LINE
  5
298
330
237
100
AcDbEntity
  8
0
  6
Continuous
 62
     7
100
AcDbLine
 10
120.8622895307
 20
50.7498981132
 30
0.0
 11
121.8896282656
 21
51.77723684810001
 31
0.0
  0
LINE
  5
299
330
237
100
AcDbEntity
  8
0
  6
Continuous
 62
     7
100
AcDbLine
 10
128.0536406663
 20
57.9412492488
 30
0.0
 11
129.5946444811
 21
59.4822530636
 31
0.0
  0
LINE
  5
29A
330
237
100
AcDbEntity
  8
0
  6
Continuous
 62
     7
100
AcDbLine
 10
112.4247008904
 20
42.91570725949999
 30
0.0
 11
113.9657047052
 21
44.4567110743
 31
0.0
  0
LINE
  5
29B
330
237
100
AcDbEntity
  8
0
  6
Continuous
 62
     7
100
AcDbLine
 10
120.1297199643
 20
50.6207263334
 30
0.0
 11
121.1570584895
 21
51.64806485869999
 31
0.0
  0
LINE
  5
29C
330
237
100
AcDbEntity
  8
0
  6
Continuous
 62
     7
100
AcDbLine
 10
127.3210710999
 20
57.81207746899999
 30
0.0
 11
128.8620749147
 21
59.3530812838
 31
0.0
  0
LINE
  5
29D
330
237
100
AcDbEntity
  8
0
  6
Continuous
 62
     7
100
AcDbLine
 10
111.8733801179
 20
42.96778427359999
 30
0.0
 11
113.2331351387
 21
44.3275392945
 31
0.0
  0
LINE
  5
29E
330
237
100
AcDbEntity
  8
0
  6
Continuous
 62
     7
100
AcDbLine
 10
119.3971503978
 20
50.4915545536
 30
0.0
 11
120.4244887135
 21
51.5188928692
 31
0.0
  0
LINE
  5
29F
330
237
100
AcDbEntity
  8
0
  6
Continuous
 62
     7
100
AcDbLine
 10
126.5885015335
 20
57.6829056892
 30
0.0
 11
128.1295053483
 21
59.223909504
 31
0.0
  0
LINE
  5
2A0
330
237
100
AcDbEntity
  8
0
  6
Continuous
 62
     7
100
AcDbLine
 10
111.7829330639
 20
43.48073500629999
 30
0.0
 11
112.8619555514
 21
44.5597574938
 31
0.0
  0
LINE
  5
2A1
330
237
100
AcDbEntity
  8
0
  6
Continuous
 62
     7
100
AcDbLine
 10
118.6645808314
 20
50.3623827738
 30
0.0
 11
119.6919189375
 21
51.3897208798
 31
0.0
  0
LINE
  5
2A2
330
237
100
AcDbEntity
  8
0
  6
Continuous
 62
     7
100
AcDbLine
 10
125.8559319671
 20
57.5537339094
 30
0.0
 11
127.3969357818
 21
59.0947377242
 31
0.0
  0
LINE
  5
2A3
330
237
100
AcDbEntity
  8
0
  6
Continuous
 62
     7
100
AcDbLine
 10
111.69248601
 20
43.9936857389
 30
0.0
 11
112.7715084975
 21
45.07270822649999
 31
0.0
  0
LINE
  5
2A4
330
237
100
AcDbEntity
  8
0
  6
Continuous
 62
     7
100
AcDbLine
 10
117.932011265
 20
50.233210994
 30
0.0
 11
118.9593491615
 21
51.2605488904
 31
0.0
  0
LINE
  5
2A5
330
237
100
AcDbEntity
  8
0
  6
Continuous
 62
     7
100
AcDbLine
 10
125.1233624006
 20
57.4245621296
 30
0.0
 11
126.6643662154
 21
58.96556594439999
 31
0.0
  0
LINE
  5
2A6
330
237
100
AcDbEntity
  8
0
  6
Continuous
 62
     7
100
AcDbLine
 10
111.602038956
 20
44.50663647159999
 30
0.0
 11
112.6810614435
 21
45.5856589591
 31
0.0
  0
LINE
  5
2A7
330
237
100
AcDbEntity
  8
0
  6
Continuous
 62
     7
100
AcDbLine
 10
117.1994416986
 20
50.1040392142
 30
0.0
 11
118.2267793854
 21
51.131376901
 31
0.0
  0
LINE
  5
2A8
330
237
100
AcDbEntity
  8
0
  6
Continuous
 62
     7
100
AcDbLine
 10
124.3907928342
 20
57.2953903498
 30
0.0
 11
125.931796649
 21
58.8363941646
 31
0.0
  0
LINE
  5
2A9
330
237
100
AcDbEntity
  8
0
  6
Continuous
 62
     7
100
AcDbLine
 10
111.5115919021
 20
45.0195872043
 30
0.0
 11
112.5906143896
 21
46.0986096918
 31
0.0
  0
LINE
  5
2AA
330
237
100
AcDbEntity
  8
0
  6
Continuous
 62
     7
100
AcDbLine
 10
116.4668721322
 20
49.97486743439999
 30
0.0
 11
117.4942096094
 21
51.00220491159999
 31
0.0
  0
LINE
  5
2AB
330
237
100
AcDbEntity
  8
0
  6
Continuous
 62
     7
100
AcDbLine
 10
123.6582232678
 20
57.16621856999999
 30
0.0
 11
125.1992270826
 21
58.70722238479999
 31
0.0
  0
LINE
  5
2AC
330
237
100
AcDbEntity
  8
0
  6
Continuous
 62
     7
100
AcDbLine
 10
111.4211448481
 20
45.53253793689999
 30
0.0
 11
112.5001673357
 21
46.6115604245
 31
0.0
  0
LINE
  5
2AD
330
237
100
AcDbEntity
  8
0
  6
Continuous
 62
     7
100
AcDbLine
 10
115.7343025658
 20
49.8456956546
 30
0.0
 11
116.7616398334
 21
50.8730329222
 31
0.0
  0
LINE
  5
2AE
330
237
100
AcDbEntity
  8
0
  6
Continuous
 62
     7
100
AcDbLine
 10
122.9256537014
 20
57.0370467902
 30
0.0
 11
124.4666575162
 21
58.578050605
 31
0.0
  0
LINE
  5
2AF
330
237
100
AcDbEntity
  8
0
  6
Continuous
 62
     7
100
AcDbLine
 10
111.3306977942
 20
46.0454886696
 30
0.0
 11
112.4097202817
 21
47.1245111571
 31
0.0
  0
LINE
  5
2B0
330
237
100
AcDbEntity
  8
0
  6
Continuous
 62
     7
100
AcDbLine
 10
115.0017329993
 20
49.71652387479999
 30
0.0
 11
116.0290700573
 21
50.7438609328
 31
0.0
  0
LINE
  5
2B1
330
237
100
AcDbEntity
  8
0
  6
Continuous
 62
     7
100
AcDbLine
 10
122.193084135
 20
56.90787501039999
 30
0.0
 11
123.7340879497
 21
58.44887882520001
 31
0.0
  0
LINE
  5
2B2
330
237
100
AcDbEntity
  8
0
  6
Continuous
 62
     7
100
AcDbLine
 10
111.2402507403
 20
46.55843940229999
 30
0.0
 11
112.3192732278
 21
47.63746188979999
 31
0.0
  0
LINE
  5
2B3
330
237
100
AcDbEntity
  8
0
  6
Continuous
 62
     7
100
AcDbLine
 10
114.2691634329
 20
49.587352095
 30
0.0
 11
115.2965002813
 21
50.6146889433
 31
0.0
  0
LINE
  5
2B4
330
237
100
AcDbEntity
  8
0
  6
Continuous
 62
     7
100
AcDbLine
 10
121.4605145685
 20
56.7787032306
 30
0.0
 11
123.0015183833
 21
58.3197070454
 31
0.0
  0
LINE
  5
2B5
330
237
100
AcDbEntity
  8
0
  6
Continuous
 62
     7
100
AcDbLine
 10
111.1498036863
 20
47.07139013499999
 30
0.0
 11
112.2288261738
 21
48.1504126225
 31
0.0
  0
LINE
  5
2B6
330
237
100
AcDbEntity
  8
0
  6
Continuous
 62
     7
100
AcDbLine
 10
113.5365938665
 20
49.4581803151
 30
0.0
 11
114.5639305053
 21
50.4855169539
 31
0.0
  0
LINE
  5
2B7
330
237
100
AcDbEntity
  8
0
  6
Continuous
 62
     7
100
AcDbLine
 10
120.7279450021
 20
56.6495314508
 30
0.0
 11
122.2689488169
 21
58.1905352655
 31
0.0
  0
LINE
  5
2B8
330
237
100
AcDbEntity
  8
0
  6
Continuous
 62
     7
100
AcDbLine
 10
111.0593566324
 20
47.5843408676
 30
0.0
 11
112.1383791199
 21
48.6633633551
 31
0.0
  0
LINE
  5
2B9
330
237
100
AcDbEntity
  8
0
  6
Continuous
 62
     7
100
AcDbLine
 10
112.8040243001
 20
49.3290085353
 30
0.0
 11
113.8313607293
 21
50.3563449645
 31
0.0
  0
LINE
  5
2BA
330
237
100
AcDbEntity
  8
0
  6
Continuous
 62
     7
100
AcDbLine
 10
119.9953754357
 20
56.520359671
 30
0.0
 11
121.5363792505
 21
58.06136348569999
 31
0.0
  0
LINE
  5
2BB
330
237
100
AcDbEntity
  8
0
  6
Continuous
 62
     7
100
AcDbLine
 10
110.9689095784
 20
48.09729160029999
 30
0.0
 11
112.0479320659
 21
49.1763140878
 31
0.0
  0
LINE
  5
2BC
330
237
100
AcDbEntity
  8
0
  6
Continuous
 62
     7
100
AcDbLine
 10
112.0714547337
 20
49.1998367555
 30
0.0
 11
113.0987909532
 21
50.2271729751
 31
0.0
  0
LINE
  5
2BD
330
237
100
AcDbEntity
  8
0
  6
Continuous
 62
     7
100
AcDbLine
 10
119.2628058693
 20
56.3911878912
 30
0.0
 11
120.8038096841
 21
57.9321917059
 31
0.0
  0
LINE
  5
2BE
330
237
100
AcDbEntity
  8
0
  6
Continuous
 62
     7
100
AcDbLine
 10
110.8784625245
 20
48.610242333
 30
0.0
 11
112.3662211772
 21
50.0980009857
 31
0.0
  0
LINE
  5
2BF
330
237
100
AcDbEntity
  8
0
  6
Continuous
 62
     7
100
AcDbLine
 10
118.5302363029
 20
56.2620161114
 30
0.0
 11
120.0712401177
 21
57.8030199261
 31
0.0
  0
LINE
  5
2C0
330
237
100
AcDbEntity
  8
0
  6
Continuous
 62
     7
100
AcDbLine
 10
110.7880154705
 20
49.1231930656
 30
0.0
 11
111.8670379581
 21
50.2022155531
 31
0.0
  0
LINE
  5
2C1
330
237
100
AcDbEntity
  8
0
  6
Continuous
 62
     7
100
AcDbLine
 10
117.7976667365
 20
56.1328443316
 30
0.0
 11
119.3386705512
 21
57.6738481463
 31
0.0
  0
LINE
  5
2C2
330
237
100
AcDbEntity
  8
0
  6
Continuous
 62
     7
100
AcDbLine
 10
110.6975684166
 20
49.6361437983
 30
0.0
 11
111.7765909041
 21
50.7151662858
 31
0.0
  0
LINE
  5
2C3
330
237
100
AcDbEntity
  8
0
  6
Continuous
 62
     7
100
AcDbLine
 10
117.06509717
 20
56.0036725517
 30
0.0
 11
118.6061009848
 21
57.5446763665
 31
0.0
  0
LINE
  5
2C4
330
237
100
AcDbEntity
  8
0
  6
Continuous
 62
     7
100
AcDbLine
 10
110.6071213626
 20
50.149094531
 30
0.0
 11
111.6861438502
 21
51.2281170185
 31
0.0
  0
LINE
  5
2C5
330
237
100
AcDbEntity
  8
0
  6
Continuous
 62
     7
100
AcDbLine
 10
116.3325276036
 20
55.87450077189999
 30
0.0
 11
117.8735314184
 21
57.4155045867
 31
0.0
  0
LINE
  5
2C6
330
237
100
AcDbEntity
  8
0
  6
Continuous
 62
     7
100
AcDbLine
 10
110.5166743087
 20
50.66204526359999
 30
0.0
 11
111.5956967962
 21
51.7410677512
 31
0.0
  0
LINE
  5
2C7
330
237
100
AcDbEntity
  8
0
  6
Continuous
 62
     7
100
AcDbLine
 10
115.5999580372
 20
55.7453289921
 30
0.0
 11
117.140961852
 21
57.2863328069
 31
0.0
  0
LINE
  5
2C8
330
237
100
AcDbEntity
  8
0
  6
Continuous
 62
     7
100
AcDbLine
 10
110.4262272548
 20
51.1749959963
 30
0.0
 11
111.5052497423
 21
52.2540184838
 31
0.0
  0
LINE
  5
2C9
330
237
100
AcDbEntity
  8
0
  6
Continuous
 62
     7
100
AcDbLine
 10
114.8673884708
 20
55.61615721229999
 30
0.0
 11
116.4083922856
 21
57.1571610271
 31
0.0
  0
LINE
  5
2CA
330
237
100
AcDbEntity
  8
0
  6
Continuous
 62
     7
100
AcDbLine
 10
110.3357802008
 20
51.68794672899999
 30
0.0
 11
111.4148026883
 21
52.7669692165
 31
0.0
  0
LINE
  5
2CB
330
237
100
AcDbEntity
  8
0
  6
Continuous
 62
     7
100
AcDbLine
 10
114.1348189044
 20
55.4869854325
 30
0.0
 11
115.6758227191
 21
57.0279892473
 31
0.0
  0
LINE
  5
2CC
330
237
100
AcDbEntity
  8
0
  6
Continuous
 62
     7
100
AcDbLine
 10
110.2453331469
 20
52.2008974616
 30
0.0
 11
111.3243556344
 21
53.2799199492
 31
0.0
  0
LINE
  5
2CD
330
237
100
AcDbEntity
  8
0
  6
Continuous
 62
     7
100
AcDbLine
 10
113.402249338
 20
55.3578136527
 30
0.0
 11
114.9432531527
 21
56.8988174675
 31
0.0
  0
LINE
  5
2CE
330
237
100
AcDbEntity
  8
0
  6
Continuous
 62
     7
100
AcDbLine
 10
110.1548860929
 20
52.7138481943
 30
0.0
 11
111.2339085804
 21
53.7928706818
 31
0.0
  0
LINE
  5
2CF
330
237
100
AcDbEntity
  8
0
  6
Continuous
 62
     7
100
AcDbLine
 10
112.6696797715
 20
55.2286418729
 30
0.0
 11
114.2106835863
 21
56.7696456877
 31
0.0
  0
LINE
  5
2D0
330
237
100
AcDbEntity
  8
0
  6
Continuous
 62
     7
100
AcDbLine
 10
110.064439039
 20
53.226798927
 30
0.0
 11
111.1434615265
 21
54.30582141449999
 31
0.0
  0
LINE
  5
2D1
330
237
100
AcDbEntity
  8
0
  6
Continuous
 62
     7
100
AcDbLine
 10
111.9371102051
 20
55.0994700931
 30
0.0
 11
113.4781140199
 21
56.6404739079
 31
0.0
  0
LINE
  5
2D2
330
237
100
AcDbEntity
  8
0
  6
Continuous
 62
     7
100
AcDbLine
 10
109.973991985
 20
53.7397496596
 30
0.0
 11
111.0530144726
 21
54.8187721472
 31
0.0
  0
LINE
  5
2D3
330
237
100
AcDbEntity
  8
0
  6
Continuous
 62
     7
100
AcDbLine
 10
111.2045406387
 20
54.97029831329999
 30
0.0
 11
112.7455444535
 21
56.5113021281
 31
0.0
  0
LINE
  5
2D4
330
237
100
AcDbEntity
  8
0
  6
Continuous
 62
     7
100
AcDbLine
 10
109.8835449311
 20
54.25270039229999
 30
0.0
 11
112.0129748871
 21
56.3821303483
 31
0.0
  0
LINE
  5
2D5
330
237
100
AcDbEntity
  8
0
  6
Continuous
 62
     7
100
AcDbLine
 10
109.7930978772
 20
54.765651125
 30
0.0
 11
111.2804053206
 21
56.25295856850001
 31
0.0
  0
LINE
  5
2D6
330
237
100
AcDbEntity
  8
0
  6
Continuous
 62
     7
100
AcDbLine
 10
109.7026508232
 20
55.2786018577
 30
0.0
 11
110.5478357542
 21
56.1237867887
 31
0.0
  0
LINE
  5
2D7
330
237
100
AcDbEntity
  8
0
  6
Continuous
 62
     7
100
AcDbLine
 10
109.6122037693
 20
55.7915525903
 30
0.0
 11
109.8152661878
 21
55.99461500890001
 31
0.0
  0
ENDBLK
  5
2D8
330
237
100
AcDbEntity
  8
0
  6
ByBlock
 62
     0
100
AcDbBlockEnd
  0
BLOCK
  5
2D9
330
238
100
AcDbEntity
  8
0
  6
Continuous
 62
     7
100
AcDbBlockBegin
  2
SYMBOL_12_BL6
 70
     0
 10
82.208124535
 20
67.16850450449999
 30
0.0
  3
SYMBOL_12_BL6
  1

  0
TEXT
  5
2DA
330
238
100
AcDbEntity
  8
0
  6
Continuous
 62
     7
100
AcDbText
 10
81.64516135300001
 20
66.5018375785
 30
0.0
 40
1.333333852099999
  1
T
  7
TEXTSTYLE_2
100
AcDbText
  0
ELLIPSE
  5
2DB
330
238
100
AcDbEntity
  8
0
  6
Continuous
 62
     7
100
AcDbEllipse
 10
82.208124535
 20
67.16850450449999
 30
0.0
 11
-1.942887567899999
 21
0.0
 31
0.0
210
0.0
220
0.0
230
1.0
 40
0.6606458385
 41
0.0
 42
6.283185307179586
  0
ENDBLK
  5
2DC
330
238
100
AcDbEntity
  8
0
  6
ByBlock
 62
     0
100
AcDbBlockEnd
  0
BLOCK
  5
2DD
330
239
100
AcDbEntity
  8
0
  6
Continuous
 62
     7
100
AcDbBlockBegin
  2
SYMBOL_11_BL5
 70
     0
 10
27.1949707525
 20
92.398927477
 30
0.0
  3
SYMBOL_11_BL5
  1

  0
TEXT
  5
2DE
330
239
100
AcDbEntity
  8
0
  6
Continuous
 62
     7
100
AcDbText
 10
27.1525203367
 20
91.49303548389999
 30
0.0
 40
1.333333852099999
  1
A
 50
40.0
  7
TEXTSTYLE_2
100
AcDbText
  0
ELLIPSE
  5
2DF
330
239
100
AcDbEntity
  8
0
  6
Continuous
 62
     7
100
AcDbEllipse
 10
27.1949707525
 20
92.398927477
 30
0.0
 11
-1.488338224999999
 21
-1.248864055699999
 31
0.0
210
0.0
220
0.0
230
1.0
 40
0.6606458385
 41
0.0
 42
6.283185307179586
  0
ENDBLK
  5
2E0
330
239
100
AcDbEntity
  8
0
  6
ByBlock
 62
     0
100
AcDbBlockEnd
  0
BLOCK
  5
2E1
330
23A
100
AcDbEntity
  8
0
  6
Continuous
 62
     7
100
AcDbBlockBegin
  2
SYMBOL_10_BL4
 70
     0
 10
27.1547778297
 20
68.5958118308
 30
0.0
  3
SYMBOL_10_BL4
  1

  0
TEXT
  5
2E2
330
23A
100
AcDbEntity
  8
0
  6
Continuous
 62
     7
100
AcDbText
 10
26.2155560958
 20
68.51364057649999
 30
0.0
 40
1.333333852099999
  1
C
 50
320.0
  7
TEXTSTYLE_2
100
AcDbText
  0
ELLIPSE
  5
2E3
330
23A
100
AcDbEntity
  8
0
  6
Continuous
 62
     7
100
AcDbEllipse
 10
27.1547778297
 20
68.5958118308
 30
0.0
 11
-1.488338224999999
 21
1.248864055699999
 31
0.0
210
0.0
220
0.0
230
1.0
 40
0.6606458385
 41
0.0
 42
6.283185307179586
  0
ENDBLK
  5
2E4
330
23A
100
AcDbEntity
  8
0
  6
ByBlock
 62
     0
100
AcDbBlockEnd
  0
BLOCK
  5
2E5
330
23B
100
AcDbEntity
  8
0
  6
Continuous
 62
     7
100
AcDbBlockBegin
  2
SYMBOL_5_BL3
 70
     0
 10
54.3291931305
 20
67.4676680454
 30
0.0
  3
SYMBOL_5_BL3
  1

  0
TEXT
  5
2E6
330
23B
100
AcDbEntity
  8
0
  6
Continuous
 62
     7
100
AcDbText
 10
53.80079786319999
 20
66.80100111939999
 30
0.0
 40
1.333333852099999
  1
L
  7
TEXTSTYLE_2
100
AcDbText
  0
ELLIPSE
  5
2E7
330
23B
100
AcDbEntity
  8
0
  6
Continuous
 62
     7
100
AcDbEllipse
 10
54.3291931305
 20
67.4676680454
 30
0.0
 11
-1.942887567899999
 21
0.0
 31
0.0
210
0.0
220
0.0
230
1.0
 40
0.6606458385
 41
0.0
 42
6.283185307179586
  0
ENDBLK
  5
2E8
330
23B
100
AcDbEntity
  8
0
  6
ByBlock
 62
     0
100
AcDbBlockEnd
  0
BLOCK
  5
2E9
330
23C
100
AcDbEntity
  8
0
  6
Continuous
 62
     7
100
AcDbBlockBegin
  2
SYMBOL_4_BL2
 70
     0
 10
42.0959052332
 20
92.3651430427
 30
0.0
  3
SYMBOL_4_BL2
  1

  0
TEXT
  5
2EA
330
23C
100
AcDbEntity
  8
0
  6
Continuous
 62
     7
100
AcDbText
 10
41.6996255887
 20
91.586662449
 30
0.0
 40
1.333333852099999
  1
L
 50
12.0
  7
TEXTSTYLE_2
100
AcDbText
  0
TEXT
  5
2EB
330
23C
100
AcDbEntity
  8
0
  6
Continuous
 62
     7
100
AcDbText
 10
38.0929760046
 20
90.83273350749999
 30
0.0
 40
1.333333852099999
  1
5
 50
12.0
  7
TEXTSTYLE_2
100
AcDbText
  0
TEXT
  5
2EC
330
23C
100
AcDbEntity
  8
0
  6
Continuous
 62
     7
100
AcDbText
 10
45.3761655543
 20
92.38082323620002
 30
0.0
 40
1.333333852099999
  1
4
 50
12.0
  7
TEXTSTYLE_2
100
AcDbText
  0
ELLIPSE
  5
2ED
330
23C
100
AcDbEntity
  8
0
  6
Continuous
 62
     7
100
AcDbEllipse
 10
42.0778663038
 20
92.34862065660001
 30
0.0
 11
-1.900430813
 21
-0.4039490393
 31
0.0
210
0.0
220
0.0
230
1.0
 40
0.6606458385
 41
0.0
 42
6.283185307179586
  0
ENDBLK
  5
2EE
330
23C
100
AcDbEntity
  8
0
  6
ByBlock
 62
     0
100
AcDbBlockEnd
  0
BLOCK
  5
2EF
330
23D
100
AcDbEntity
  8
0
  6
Continuous
 62
     7
100
AcDbBlockBegin
  2
SYMBOL_3_BL1
 70
     0
 10
66.5742716315
 20
92.2559773537
 30
0.0
  3
SYMBOL_3_BL1
  1

  0
TEXT
  5
2F0
330
23D
100
AcDbEntity
  8
0
  6
Continuous
 62
     7
100
AcDbText
 10
65.8956155789
 20
91.7059813957
 30
0.0
 40
1.333333852099999
  1
L
 50
348.0
  7
TEXTSTYLE_2
100
AcDbText
  0
TEXT
  5
2F1
330
23D
100
AcDbEntity
  8
0
  6
Continuous
 62
     7
100
AcDbText
 10
62.29412670729999
 20
92.48418958049999
 30
0.0
 40
1.333333852099999
  1
4
 50
348.0
  7
TEXTSTYLE_2
100
AcDbText
  0
TEXT
  5
2F2
330
23D
100
AcDbEntity
  8
0
  6
Continuous
 62
     7
100
AcDbText
 10
69.57731625699999
 20
90.9360998518
 30
0.0
 40
1.333333852099999
  1
5
 50
348.0
  7
TEXTSTYLE_2
100
AcDbText
  0
ELLIPSE
  5
2F3
330
23D
100
AcDbEntity
  8
0
  6
Continuous
 62
     7
100
AcDbEllipse
 10
66.5510719896
 20
92.24822049649999
 30
0.0
 11
-1.900430813
 21
0.4039490393
 31
0.0
210
0.0
220
0.0
230
1.0
 40
0.6606458385
 41
0.0
 42
6.283185307179586
  0
ENDBLK
  5
2F4
330
23D
100
AcDbEntity
  8
0
  6
ByBlock
 62
     0
100
AcDbBlockEnd
  0
BLOCK
  5
2F5
330
23E
100
AcDbEntity
  8
0
  6
Continuous
 62
     7
100
AcDbBlockBegin
  2
SYMBOL_0_BL0
 70
     0
 10
160.6671083252
 20
55.3337800379
 30
0.0
  3
SYMBOL_0_BL0
  1

  0
TEXT
  5
2F6
330
23E
100
AcDbEntity
  8
0
  6
Continuous
 62
     7
100
AcDbText
 10
144.4193232491
 20
63.10721342899999
 30
0.0
 40
0.5
  1
Infomations Techniques/Technical Infomations
  7
TEXTSTYLE_2
100
AcDbText
  0
TEXT
  5
2F7
330
23E
100
AcDbEntity
  8
0
  6
Continuous
 62
     7
100
AcDbText
 10
144.6671083252
 20
61.66711337119999
 30
0.0
 40
0.6666666667
  1
NOMBRE DE JETS:     
  7
TEXTSTYLE_2
100
AcDbText
  0
TEXT
  5
2F8
330
23E
100
AcDbEntity
  8
0
  6
Continuous
 62
     7
100
AcDbText
 10
154.5115527697
 20
61.66711337119999
 30
0.0
 40
0.6666666667
  1
38
  7
TEXTSTYLE_2
100
AcDbText
  0
TEXT
  5
2F9
330
23E
100
AcDbEntity
  8
0
  6
Continuous
 62
     7
100
AcDbText
 10
144.6671083252
 20
60.6671133712
 30
0.0
 40
0.6666666667
  1
 
  7
TEXTSTYLE_2
100
AcDbText
  0
TEXT
  5
2FA
330
23E
100
AcDbEntity
  8
0
  6
Continuous
 62
     7
100
AcDbText
 10
144.6671083252
 20
59.66711337119999
 30
0.0
 40
0.6666666667
  1
NIVEAU D'EAU              GALLONS(US)        LITRES        GALLONS(UK)
  7
TEXTSTYLE_2
100
AcDbText
  0
TEXT
  5
2FB
330
23E
100
AcDbEntity
  8
0
  6
Continuous
 62
     7
100
AcDbText
 10
144.6671083252
 20
58.66711337119999
 30
0.0
 40
0.6666666667
  1
PLEIN
  7
TEXTSTYLE_2
100
AcDbText
  0
TEXT
  5
2FC
330
23E
100
AcDbEntity
  8
0
  6
Continuous
 62
     7
100
AcDbText
 10
144.6671083252
 20
57.6671133712
 30
0.0
 40
0.6666666667
  1
HAUT T.PLEIN
  7
TEXTSTYLE_2
100
AcDbText
  0
TEXT
  5
2FD
330
23E
100
AcDbEntity
  8
0
  6
Continuous
 62
     7
100
AcDbText
 10
144.6671083252
 20
56.66711337119999
 30
0.0
 40
0.6666666667
  1
MILIEU T.PLEIN
  7
TEXTSTYLE_2
100
AcDbText
  0
TEXT
  5
2FE
330
23E
100
AcDbEntity
  8
0
  6
Continuous
 62
     7
100
AcDbText
 10
144.6671083252
 20
55.6671133712
 30
0.0
 40
0.6666666667
  1
BAS T.PLEIN
  7
TEXTSTYLE_2
100
AcDbText
  0
TEXT
  5
2FF
330
23E
100
AcDbEntity
  8
0
  6
Continuous
 62
     7
100
AcDbText
 10
144.6671083252
 20
54.66711337119999
 30
0.0
 40
0.6666666667
  1
3" EN BAS T.PLEIN
  7
TEXTSTYLE_2
100
AcDbText
  0
TEXT
  5
300
330
23E
100
AcDbEntity
  8
0
  6
Continuous
 62
     7
100
AcDbText
 10
144.6671083252
 20
53.66711337119999
 30
0.0
 40
0.6666666667
  1
 
  7
TEXTSTYLE_2
100
AcDbText
  0
TEXT
  5
301
330
23E
100
AcDbEntity
  8
0
  6
Continuous
 62
     7
100
AcDbText
 10
144.4669468196
 20
53.1203264464
 30
0.0
 40
0.5
  1
Legende/Legend
  7
TEXTSTYLE_2
100
AcDbText
  0
TEXT
  5
302
330
23E
100
AcDbEntity
  8
0
  6
Continuous
 62
     7
100
AcDbText
 10
150.9957817637
 20
51.6090614687
 30
0.0
 40
0.6666666667
  1
ZONE DE ROBINETTERIE
  7
TEXTSTYLE_2
100
AcDbText
  0
TEXT
  5
303
330
23E
100
AcDbEntity
  8
0
  6
Continuous
 62
     7
100
AcDbText
 10
145.9160571967
 20
50.1138169543
 30
0.0
 40
0.6666666667
  1
L   :  SYSTEME LED       DC   :  DOUBLE DOSSIER CHAUFFANT
  7
TEXTSTYLE_2
100
AcDbText
  0
TEXT
  5
304
330
23E
100
AcDbEntity
  8
0
  6
Continuous
 62
     7
100
AcDbText
 10
145.9160571967
 20
48.780483621
 30
0.0
 40
0.6666666667
  1
C   :  CONTROLE
  7
TEXTSTYLE_2
100
AcDbText
  0
TEXT
  5
305
330
23E
100
AcDbEntity
  8
0
  6
Continuous
 62
     7
100
AcDbText
 10
145.9160571967
 20
47.4471502877
 30
0.0
 40
0.6666666667
  1
T   :  MOTEUR
  7
TEXTSTYLE_2
100
AcDbText
  0
TEXT
  5
306
330
23E
100
AcDbEntity
  8
0
  6
Continuous
 62
     7
100
AcDbText
 10
157.244249469
 20
58.66711337119999
 30
0.0
 40
0.6666666667
  1
102
  7
TEXTSTYLE_2
100
AcDbText
  0
TEXT
  5
307
330
23E
100
AcDbEntity
  8
0
  6
Continuous
 62
     7
100
AcDbText
 10
157.4998050245
 20
57.6671133712
 30
0.0
 40
0.6666666667
  1
79
  7
TEXTSTYLE_2
100
AcDbText
  0
TEXT
  5
308
330
23E
100
AcDbEntity
  8
0
  6
Continuous
 62
     7
100
AcDbText
 10
157.4998050245
 20
56.66711337119999
 30
0.0
 40
0.6666666667
  1
78
  7
TEXTSTYLE_2
100
AcDbText
  0
TEXT
  5
309
330
23E
100
AcDbEntity
  8
0
  6
Continuous
 62
     7
100
AcDbText
 10
157.4998050245
 20
55.6671133712
 30
0.0
 40
0.6666666667
  1
76
  7
TEXTSTYLE_2
100
AcDbText
  0
TEXT
  5
30A
330
23E
100
AcDbEntity
  8
0
  6
Continuous
 62
     7
100
AcDbText
 10
157.4998050245
 20
54.66711337119999
 30
0.0
 40
0.6666666667
  1
59
  7
TEXTSTYLE_2
100
AcDbText
  0
TEXT
  5
30B
330
23E
100
AcDbEntity
  8
0
  6
Continuous
 62
     7
100
AcDbText
 10
164.4200109682
 20
58.6841927734
 30
0.0
 40
0.6666666667
  1
385
  7
TEXTSTYLE_2
100
AcDbText
  0
TEXT
  5
30C
330
23E
100
AcDbEntity
  8
0
  6
Continuous
 62
     7
100
AcDbText
 10
164.4200109682
 20
57.6841927734
 30
0.0
 40
0.6666666667
  1
299
  7
TEXTSTYLE_2
100
AcDbText
  0
TEXT
  5
30D
330
23E
100
AcDbEntity
  8
0
  6
Continuous
 62
     7
100
AcDbText
 10
164.4200109682
 20
56.68419277339999
 30
0.0
 40
0.6666666667
  1
294
  7
TEXTSTYLE_2
100
AcDbText
  0
TEXT
  5
30E
330
23E
100
AcDbEntity
  8
0
  6
Continuous
 62
     7
100
AcDbText
 10
164.4200109682
 20
55.6841927734
 30
0.0
 40
0.6666666667
  1
290
  7
TEXTSTYLE_2
100
AcDbText
  0
TEXT
  5
30F
330
23E
100
AcDbEntity
  8
0
  6
Continuous
 62
     7
100
AcDbText
 10
164.4200109682
 20
54.6841927734
 30
0.0
 40
0.6666666667
  1
223
  7
TEXTSTYLE_2
100
AcDbText
  0
TEXT
  5
310
330
23E
100
AcDbEntity
  8
0
  6
Continuous
 62
     7
100
AcDbText
 10
171.3646499057
 20
58.66711337119999
 30
0.0
 40
0.6666666667
  1
85
  7
TEXTSTYLE_2
100
AcDbText
  0
TEXT
  5
311
330
23E
100
AcDbEntity
  8
0
  6
Continuous
 62
     7
100
AcDbText
 10
171.3646499057
 20
57.6671133712
 30
0.0
 40
0.6666666667
  1
66
  7
TEXTSTYLE_2
100
AcDbText
  0
TEXT
  5
312
330
23E
100
AcDbEntity
  8
0
  6
Continuous
 62
     7
100
AcDbText
 10
171.3646499057
 20
56.66711337119999
 30
0.0
 40
0.6666666667
  1
65
  7
TEXTSTYLE_2
100
AcDbText
  0
TEXT
  5
313
330
23E
100
AcDbEntity
  8
0
  6
Continuous
 62
     7
100
AcDbText
 10
171.3646499057
 20
55.6671133712
 30
0.0
 40
0.6666666667
  1
64
  7
TEXTSTYLE_2
100
AcDbText
  0
TEXT
  5
314
330
23E
100
AcDbEntity
  8
0
  6
Continuous
 62
     7
100
AcDbText
 10
171.3646499057
 20
54.66711337119999
 30
0.0
 40
0.6666666667
  1
49
  7
TEXTSTYLE_2
100
AcDbText
  0
LINE
  5
315
330
23E
100
AcDbEntity
  8
0
  6
Continuous
 62
     7
100
AcDbLine
 10
144.0004416585
 20
64.00044670459999
 30
0.0
 11
144.0004416585
 21
46.66711337119999
 31
0.0
  0
LINE
  5
316
330
23E
100
AcDbEntity
  8
0
  6
Continuous
 62
     7
100
AcDbLine
 10
144.0004416585
 20
64.00044670459999
 30
0.0
 11
177.3337749919
 21
64.00044670459999
 31
0.0
  0
LINE
  5
317
330
23E
100
AcDbEntity
  8
0
  6
Continuous
 62
     7
100
AcDbLine
 10
177.3337749919
 20
64.00044670459999
 30
0.0
 11
177.3337749919
 21
46.66711337119999
 31
0.0
  0
LINE
  5
318
330
23E
100
AcDbEntity
  8
0
  6
Continuous
 62
     7
100
AcDbLine
 10
144.0004416585
 20
46.66711337119999
 30
0.0
 11
177.3337749919
 21
46.66711337119999
 31
0.0
  0
LINE
  5
319
330
23E
100
AcDbEntity
  8
0
  6
Continuous
 62
     7
100
AcDbLine
 10
145.3337749919
 20
54.0004467046
 30
0.0
 11
176.0004416585
 21
54.0004467046
 31
0.0
  0
LINE
  5
31A
330
23E
100
AcDbEntity
  8
0
  6
Continuous
 62
     7
100
AcDbLine
 10
145.3337749919
 20
61.0004467046
 30
0.0
 11
176.0004416585
 21
61.0004467046
 31
0.0
  0
LINE
  5
31B
330
23E
100
AcDbEntity
  8
0
  6
Continuous
 62
     7
100
AcDbLine
 10
144.8093482178
 20
52.3786112089
 30
0.0
 11
144.4403274755
 21
52.00959046659999
 31
0.0
  0
LINE
  5
31C
330
23E
100
AcDbEntity
  8
0
  6
Continuous
 62
     7
100
AcDbLine
 10
145.4760148845
 20
52.3786112089
 30
0.0
 11
144.6779990941
 21
51.58059541850001
 31
0.0
  0
LINE
  5
31D
330
23E
100
AcDbEntity
  8
0
  6
Continuous
 62
     7
100
AcDbLine
 10
146.1426815512
 20
52.3786112089
 30
0.0
 11
145.3446657607
 21
51.58059541850001
 31
0.0
  0
LINE
  5
31E
330
23E
100
AcDbEntity
  8
0
  6
Continuous
 62
     7
100
AcDbLine
 10
146.8093482178
 20
52.3786112089
 30
0.0
 11
146.0113324274
 21
51.58059541850001
 31
0.0
  0
LINE
  5
31F
330
23E
100
AcDbEntity
  8
0
  6
Continuous
 62
     7
100
AcDbLine
 10
147.4760148845
 20
52.3786112089
 30
0.0
 11
146.6779990941
 21
51.58059541850001
 31
0.0
  0
LINE
  5
320
330
23E
100
AcDbEntity
  8
0
  6
Continuous
 62
     7
100
AcDbLine
 10
148.1426815512
 20
52.3786112089
 30
0.0
 11
147.3446657607
 21
51.58059541850001
 31
0.0
  0
LINE
  5
321
330
23E
100
AcDbEntity
  8
0
  6
Continuous
 62
     7
100
AcDbLine
 10
148.8093482178
 20
52.3786112089
 30
0.0
 11
148.0113324274
 21
51.58059541850001
 31
0.0
  0
LINE
  5
322
330
23E
100
AcDbEntity
  8
0
  6
Continuous
 62
     7
100
AcDbLine
 10
149.4760148845
 20
52.3786112089
 30
0.0
 11
148.6779990941
 21
51.58059541850001
 31
0.0
  0
LINE
  5
323
330
23E
100
AcDbEntity
  8
0
  6
Continuous
 62
     7
100
AcDbLine
 10
150.1426815512
 20
52.3786112089
 30
0.0
 11
149.3446657607
 21
51.58059541850001
 31
0.0
  0
LINE
  5
324
330
23E
100
AcDbEntity
  8
0
  6
Continuous
 62
     7
100
AcDbLine
 10
150.5861689853
 20
52.1554319764
 30
0.0
 11
150.0113324274
 21
51.58059541850001
 31
0.0
  0
ELLIPSE
  5
325
330
23E
100
AcDbEntity
  8
0
  6
Continuous
 62
     7
100
AcDbEllipse
 10
146.1458441407
 20
50.4313944115
 30
0.0
 11
1.0473539356
 21
0.0
 31
0.0
210
0.0
220
0.0
230
1.0
 40
0.4938647983
 41
0.0
 42
6.283185307179586
  0
ELLIPSE
  5
326
330
23E
100
AcDbEntity
  8
0
  6
Continuous
 62
     7
100
AcDbEllipse
 10
146.1458441407
 20
49.09806107819999
 30
0.0
 11
1.0473539356
 21
0.0
 31
0.0
210
0.0
220
0.0
230
1.0
 40
0.4938647983
 41
0.0
 42
6.283185307179586
  0
ELLIPSE
  5
327
330
23E
100
AcDbEntity
  8
0
  6
Continuous
 62
     7
100
AcDbEllipse
 10
146.1458441407
 20
47.7647277449
 30
0.0
 11
1.0473539356
 21
0.0
 31
0.0
210
0.0
220
0.0
230
1.0
 40
0.4938647983
 41
0.0
 42
6.283185307179586
  0
ELLIPSE
  5
328
330
23E
100
AcDbEntity
  8
0
  6
Continuous
 62
     7
100
AcDbEllipse
 10
157.1644797218
 20
50.45091576859999
 30
0.0
 11
1.0473539356
 21
0.0
 31
0.0
210
0.0
220
0.0
230
1.0
 40
0.4938647983
 41
0.0
 42
6.283185307179586
  0
ENDBLK
  5
329
330
23E
100
AcDbEntity
  8
0
  6
ByBlock
 62
     0
100
AcDbBlockEnd
  0
ENDSEC
  0
SECTION
  2
ENTITIES
  0
LINE
  5
4EA
330
225
100
AcDbEntity
  8
DEFAULT_2
  6
HIDDEN
 62
     7
100
AcDbLine
 10
117.7935400157
 20
27.4743717338
 30
0.0
 11
124.9026524092
 21
27.8736934113
 31
0.0
  0
LINE
  5
4EE
330
225
100
AcDbEntity
  8
DEFAULT_2
  6
HIDDEN
 62
     7
100
AcDbLine
 10
114.5518152439
 20
26.9690199214
 30
0.0
 11
117.0947084627
 21
26.9690199214
 31
0.0
  0
LINE
  5
551
330
225
100
AcDbEntity
  8
DEFAULT_2
  6
HIDDEN
 62
     7
100
AcDbLine
 10
106.7438712969
 20
27.8736934124
 30
0.0
 11
113.8529836909
 21
27.4743717338
 31
0.0
  0
LINE
  5
69F
330
225
100
AcDbEntity
  8
DEFAULT_2
  6
HIDDEN
 62
     7
100
AcDbLine
 10
114.0157398872
 20
27.4015418875
 30
0.0
 11
114.3750385486
 21
27.0422432261
 31
0.0
  0
LINE
  5
6A6
330
225
100
AcDbEntity
  8
DEFAULT_2
  6
HIDDEN
 62
     7
100
AcDbLine
 10
131.2220833529
 20
43.0459373231
 30
0.0
 11
131.1991160119
 21
43.0519841194
 31
0.0
  0
LINE
  5
6A7
330
225
100
AcDbEntity
  8
DEFAULT_2
  6
HIDDEN
 62
     7
100
AcDbLine
 10
131.4448600576
 20
43.8921025197
 30
0.0
 11
131.4218927165
 21
43.8981493159
 31
0.0
  0
LWPOLYLINE
  5
766
330
225
100
AcDbEntity
  8
DEFAULT_2
  6
HIDDEN
 62
     7
100
AcDbPolyline
 90
       15
 70
     0
 43
0.0
 10
99.46023889740001
 20
46.69108900770001
 10
99.71506129019999
 20
45.74008844589999
 10
100.0450006637
 20
44.5113288806
 10
100.3794432206
 20
43.28378846899999
 10
100.7193612586
 20
42.05775240269999
 10
101.0646238778
 20
40.8332109141
 10
101.4152289036
 20
39.6101886545
 10
101.7712051297
 20
38.3887186737
 10
102.1325385942
 20
37.1688225133
 10
102.4992086184
 20
35.9505199024
 10
102.8712104138
 20
34.73383483
 10
103.248541759
 20
33.518791977
 10
103.6311948123
 20
32.3054145316
 10
104.0667787671
 20
30.9462541004
 10
104.5090378475
 20
29.5892510371
  0
LWPOLYLINE
  5
98B
330
225
100
AcDbEntity
  8
DEFAULT_2
  6
HIDDEN
 62
     7
100
AcDbPolyline
 90
       13
 70
     0
 43
0.0
 10
131.4766852917
 20
44.01298322649999
 10
131.5125879623
 20
44.14982334689999
 10
131.548594284
 20
44.287777612
 10
131.5847870306
 20
44.4268244176
 10
131.6212489761
 20
44.56694215979999
 10
131.6580544179
 20
44.7081114091
 10
131.6952437468
 20
44.8503214334
 10
131.7328488771
 20
44.99356367529999
 10
131.7709017229
 20
45.1378295771
 10
131.809422264
 20
45.2831137821
 10
131.8483827417
 20
45.42942373659999
 10
131.8877434628
 20
45.57677008779999
 10
131.9274647339
 20
45.7251634825
  0
LINE
  5
98C
330
225
100
AcDbEntity
  8
DEFAULT_2
  6
HIDDEN
 62
     7
100
AcDbLine
 10
131.3363773644
 20
43.84827823659999
 30
0.0
 11
131.1492449325
 21
43.13749947149999
 31
0.0
  0
LINE
  5
98D
330
225
100
AcDbEntity
  8
DEFAULT_2
  6
HIDDEN
 62
     7
100
AcDbLine
 10
130.856093879
 20
41.6558119256
 30
0.0
 11
131.4766852917
 21
44.01298322649999
 31
0.0
  0
LINE
  5
98E
330
225
100
AcDbEntity
  8
DEFAULT_2
  6
HIDDEN
 62
     7
100
AcDbLine
 10
131.9274647339
 20
45.7251634825
 30
0.0
 11
132.1862848092
 21
46.69108900770001
 31
0.0
  0
LWPOLYLINE
  5
98F
330
225
100
AcDbEntity
  8
DEFAULT_2
  6
HIDDEN
 62
     7
100
AcDbPolyline
 90
       18
 70
     0
 43
0.0
 10
130.6475572467
 20
41.0645146586
 10
130.6538595799
 20
41.0866305955
 10
130.6601495753
 20
41.1083999769
 10
130.6664512937
 20
41.1298172361
 10
130.672788796
 20
41.1508768061
 10
130.6791861431999
 20
41.17157312009999
 10
130.6856673962
 20
41.1919006112
 10
130.692249108
 20
41.21185503729999
 10
130.6989178007
 20
41.2314374546
 10
130.7056524883
 20
41.250650244
 10
130.7124321849
 20
41.2694957865
 10
130.7192359045
 20
41.28797646299999
 10
130.7260426614
 20
41.3060946545
 10
130.7328323937
 20
41.32385372679999
 10
130.7395887365
 20
41.3412609853
 10
130.7462962487
 20
41.3583247201
 10
130.7529394894
 20
41.37505322159999
 10
130.7595030179
 20
41.3914547798
  0
LWPOLYLINE
  5
990
330
225
100
AcDbEntity
  8
DEFAULT_2
  6
HIDDEN
 62
     7
100
AcDbPolyline
 90
       10
 70
     0
 43
0.0
 10
127.1374858502
 20
29.5892510099
 10
127.5797449333
 20
30.9462540819
 10
128.0153288942
 20
32.3054145316
 10
128.3979819494
 20
33.5187919827
 10
128.7753132928
 20
34.73383483
 10
129.1473150877
 20
35.9505199009
 10
129.5139851124
 20
37.1688225133
 10
129.875318577
 20
38.3887186741
 10
130.231294803
 20
39.6101886545
 10
130.6475572467
 20
41.0645146586
  0
LWPOLYLINE
  5
991
330
225
100
AcDbEntity
  8
DEFAULT_2
  6
HIDDEN
 62
     7
100
AcDbPolyline
 90
       16
 70
     0
 43
0.0
 10
130.7595030179
 20
41.3914547798
 10
130.7735881811
 20
41.4264294572
 10
130.7810315173
 20
41.4448960414
 10
130.7882872053
 20
41.46295917199999
 10
130.7953410488
 20
41.4806405835
 10
130.8021788514
 20
41.4979620102
 10
130.8087870734
 20
41.5149453669
 10
130.8151547999
 20
41.5316132895
 10
130.8212717728
 20
41.5479885942
 10
130.8271277337
 20
41.5640940973
 10
130.8327124244
 20
41.5799526151
 10
130.8380146755
 20
41.59558274760001
 10
130.8430196728
 20
41.6109862301
 10
130.8477116912
 20
41.6261605817
 10
130.8520750054
 20
41.64110332139999
 10
130.8560938902
 20
41.65581196829999
  0
LINE
  5
992
330
225
100
AcDbEntity
  8
DEFAULT_2
  6
HIDDEN
 62
     7
100
AcDbLine
 10
117.271485158
 20
27.0422432261
 30
0.0
 11
117.6307838194
 21
27.4015418875
 31
0.0
  0
LINE
  5
159F
330
225
100
AcDbEntity
  8
0
  6
Continuous
 62
     7
100
AcDbLine
 10
96.9782958663
 20
46.7408088571
 30
0.0
 11
96.82328442020001
 21
44.9690199214
 31
0.0
  0
LINE
  5
15A0
330
225
100
AcDbEntity
  8
0
  6
Continuous
 62
     7
100
AcDbLine
 10
99.92940855030001
 20
46.7408088571
 30
0.0
 11
99.77729992459998
 21
44.9690199214
 31
0.0
  0
LWPOLYLINE
  5
15A1
330
225
100
AcDbEntity
  8
0
  6
Continuous
 62
     7
100
AcDbPolyline
 90
        3
 70
     0
 43
0.0
 10
104.3902859557
 20
29.5502255505
 10
103.6737350565
 20
31.7604080385
 10
102.9746790864
 20
33.9769106732
  0
LINE
  5
15A2
330
225
100
AcDbEntity
  8
0
  6
Continuous
 62
     7
100
AcDbLine
 10
102.387331651
 20
35.88872211530001
 30
0.0
 11
102.4076352885
 21
35.8245523103
 31
0.0
  0
LWPOLYLINE
  5
15A3
330
225
100
AcDbEntity
  8
0
  6
Continuous
 62
     7
100
AcDbPolyline
 90
       23
 70
     0
 43
0.0
 10
102.4076352885
 20
35.8245523103
 10
102.4324019661
 20
35.7461072121
 10
102.4481010339
 20
35.6962829972
 10
102.4658496658
 20
35.6398596871
 10
102.4854403023
 20
35.5774631305
 10
102.5067443706
 20
35.5094680223
 10
102.5295168648
 20
35.4366220116
 10
102.5536081035
 20
35.35937119360001
 10
102.5787510677
 20
35.27854186280001
 10
102.6048122269
 20
35.1945367443
 10
102.6315387002
 20
35.1081483408
 10
102.6585827587
 20
35.0204854356
 10
102.6857338801
 20
34.9322227316
 10
102.7128077785
 20
34.84395716170001
 10
102.739540413
 20
34.7565538475
 10
102.7656812481
 20
34.6708435661
 10
102.7910602772
 20
34.5874011721
 10
102.8154420405
 20
34.5070234613
 10
102.8386939095
 20
34.4301745063
 10
102.860586772
 20
34.3576418622
 10
102.881008005
 20
34.2898314979
 10
102.899747544
 20
34.2274752394
 10
102.9167007542
 20
34.1709560499
  0
LINE
  5
15A4
330
225
100
AcDbEntity
  8
0
  6
Continuous
 62
     7
100
AcDbLine
 10
102.9167007542
 20
34.1709560499
 30
0.0
 11
102.9445985322
 21
34.0777298048
 31
0.0
  0
LWPOLYLINE
  5
15A5
330
225
100
AcDbEntity
  8
0
  6
Continuous
 62
     7
100
AcDbPolyline
 90
        4
 70
     0
 43
0.0
 10
102.387331651
 20
35.88872211530001
 10
101.5921665912
 20
38.5549234219
 10
100.8269221419
 20
41.2133626877
 10
100.0821212779
 20
43.8968517846
  0
LWPOLYLINE
  5
15A6
330
225
100
AcDbEntity
  8
0
  6
Continuous
 62
     7
100
AcDbPolyline
 90
        4
 70
     0
 43
0.0
 10
102.9445985322
 20
34.0777298048
 10
102.9697971879
 20
33.9932929753
 10
102.9734565012
 20
33.9810139338
 10
102.9746790864
 20
33.9769106732
  0
LINE
  5
15A7
330
225
100
AcDbEntity
  8
0
  6
Continuous
 62
     7
100
AcDbLine
 10
100.0821212779
 20
43.8968517846
 30
0.0
 11
99.7927190256
 21
44.9731658512
 31
0.0
  0
LWPOLYLINE
  5
15A8
330
225
100
AcDbEntity
  8
0
  6
Continuous
 62
     7
100
AcDbPolyline
 90
       11
 70
     0
 43
0.0
 10
108.9091533685
 20
27.5138150917
 10
108.8915822222
 20
27.5544460396
 10
108.8693417684
 20
27.5927216698
 10
108.8427421723
 20
27.6281081906
 10
108.8121543915
 20
27.6601121019
 10
108.778005003
 20
27.6882870774
 10
108.740770254
 20
27.7122401892
 10
108.7009694199
 20
27.7316373873
 10
108.6591575628
 20
27.7462081586
 10
108.6159177906
 20
27.7557492992
 10
108.5718531248
 20
27.7601277485
  0
LINE
  5
15A9
330
225
100
AcDbEntity
  8
0
  6
Continuous
 62
     7
100
AcDbLine
 10
108.6652671773
 20
27.5191362254
 30
0.0
 11
108.666856659
 21
27.5152844787
 31
0.0
  0
LWPOLYLINE
  5
15AA
330
225
100
AcDbEntity
  8
0
  6
Continuous
 62
     7
100
AcDbPolyline
 90
       16
 70
     0
 43
0.0
 10
108.5718531248
 20
27.7601277482
 10
108.5805832714
 20
27.7370861529
 10
108.5888388595
 20
27.7153540178
 10
108.5966927476
 20
27.6947372072
 10
108.6042169257
 20
27.675045855
 10
108.6114451375
 20
27.6561915136
 10
108.6183678072
 20
27.6381997599
 10
108.6249806525
 20
27.6210812143
 10
108.6312844224
 20
27.6048336059
 10
108.6372595745
 20
27.5895066554
 10
108.6428702017
 20
27.5751902878
 10
108.6480675411
 20
27.562004778
 10
108.6527864349
 20
27.5501078459
 10
108.6569478096
 20
27.5396872197
 10
108.6604650904
 20
27.5309435345
 10
108.6652671773
 20
27.5191362254
  0
LINE
  5
15AB
330
225
100
AcDbEntity
  8
0
  6
Continuous
 62
     7
100
AcDbLine
 10
122.9164580283
 20
27.5490459947
 30
0.0
 11
122.9263605075
 21
27.5515360581
 31
0.0
  0
LWPOLYLINE
  5
15AC
330
225
100
AcDbEntity
  8
0
  6
Continuous
 62
     7
100
AcDbPolyline
 90
        5
 70
     0
 43
0.0
 10
122.9262894798
 20
27.5515194058
 10
122.9335295641
 20
27.5531187993
 10
122.9382718679
 20
27.554050009
 10
122.9408827237
 20
27.55451222
 10
122.9415811951
 20
27.5546263943
  0
LWPOLYLINE
  5
15AD
330
225
100
AcDbEntity
  8
0
  6
Continuous
 62
     7
100
AcDbPolyline
 90
        5
 70
     0
 43
0.0
 10
122.9435906401
 20
27.5539244645
 10
122.9669088049
 20
27.5566965321
 10
122.9840666225
 20
27.5592024209
 10
122.9948578736
 20
27.5614334645
 10
122.9989974123
 20
27.5633742835
  0
LINE
  5
15AE
330
225
100
AcDbEntity
  8
0
  6
Continuous
 62
     7
100
AcDbLine
 10
122.9315473599
 20
27.5526809143
 30
0.0
 11
122.9435906401
 21
27.5539244645
 31
0.0
  0
LWPOLYLINE
  5
15AF
330
225
100
AcDbEntity
  8
0
  6
Continuous
 62
     7
100
AcDbPolyline
 90
       11
 70
     0
 43
0.0
 10
115.8545118533
 20
26.741053664
 10
115.940058058
 20
26.7453671555
 10
116.0247355657
 20
26.7582638278
 10
116.1076845007
 20
26.7796127188
 10
116.1880625407
 20
26.8091970367
 10
116.2650534697
 20
26.8467163614
 10
116.3378754672
 20
26.8917896949
 10
116.4057890467
 20
26.9439593306
 10
116.4681045656
 20
27.0026955008
 10
116.5241892276
 20
27.0674017567
 10
116.5734735243
 20
27.1374210487
  0
LWPOLYLINE
  5
15B0
330
225
100
AcDbEntity
  8
0
  6
Continuous
 62
     7
100
AcDbPolyline
 90
        4
 70
     0
 43
0.0
 10
115.844483842
 20
26.7397232244
 10
115.8273463862
 20
26.7396016324
 10
115.8098685808
 20
26.7396467769
 10
115.794671819
 20
26.7398292609
  0
LINE
  5
15B1
330
225
100
AcDbEntity
  8
0
  6
Continuous
 62
     7
100
AcDbLine
 10
114.5518152439
 20
26.8440199214
 30
0.0
 11
115.3860983839
 21
26.8440199214
 31
0.0
  0
LINE
  5
15B2
330
225
100
AcDbEntity
  8
0
  6
Continuous
 62
     7
100
AcDbLine
 10
116.2598892342
 20
26.8440199214
 30
0.0
 11
117.0947084627
 21
26.8440199214
 31
0.0
  0
LWPOLYLINE
  5
15B3
330
225
100
AcDbEntity
  8
0
  6
Continuous
 62
     7
100
AcDbPolyline
 90
       26
 70
     0
 43
0.0
 10
115.794671819
 20
26.7398292609
 10
115.7817226841
 20
26.740103862
 10
115.770534046
 20
26.740443728
 10
115.7601793549
 20
26.7408548763
 10
115.7497272648
 20
26.7413739192
 10
115.738732304
 20
26.7420410718
 10
115.7264656235
 20
26.7429396133
 10
115.7123239906
 20
26.7441847331
 10
115.6955150931
 20
26.7459639448
 10
115.6787749944
 20
26.7480652751
 10
115.6583477106
 20
26.7510821566
 10
115.6371879171
 20
26.7547400488
 10
115.6085377303
 20
26.7605726329
 10
115.589809907
 20
26.7649425109
 10
115.5643163317
 20
26.7716146336
 10
115.5273473364
 20
26.7828131503
 10
115.4782160717
 20
26.8006101838
 10
115.4381284445
 20
26.8177424987
 10
115.3972549316
 20
26.8378043678
 10
115.3597682226
 20
26.8586890227
 10
115.3131640123
 20
26.8882990391
 10
115.254666878
 20
26.9319834772
 10
115.2096164805
 20
26.9714661171
 10
115.1611173654
 20
27.0209690615
 10
115.1187625712
 20
27.0717168005
 10
115.0732023681
 20
27.1369319787
  0
LWPOLYLINE
  5
15B4
330
225
100
AcDbEntity
  8
0
  6
Continuous
 62
     7
100
AcDbPolyline
 90
       11
 70
     0
 43
0.0
 10
115.7920118533
 20
26.741053664
 10
115.7064656483
 20
26.7453671555
 10
115.6217881404
 20
26.7582638279
 10
115.5388392051
 20
26.779612719
 10
115.458461165
 20
26.8091970371
 10
115.3814702358
 20
26.846716362
 10
115.3086482382
 20
26.8917896958
 10
115.2407346585
 20
26.9439593317
 10
115.1784191396
 20
27.0026955022
 10
115.1223344775
 20
27.0674017585
 10
115.0730501823
 20
27.1374210487
  0
LINE
  5
15B5
330
225
100
AcDbEntity
  8
0
  6
Continuous
 62
     7
100
AcDbLine
 10
109.1923000213
 20
26.735876037
 30
0.0
 11
108.9091533721
 21
27.5138150622
 31
0.0
  0
LWPOLYLINE
  5
15B6
330
225
100
AcDbEntity
  8
0
  6
Continuous
 62
     7
100
AcDbPolyline
 90
        3
 70
     0
 43
0.0
 10
116.8026526177
 20
27.3018267261
 10
116.8432669693
 20
27.3092902017
 10
116.8844558817
 20
27.3122450124
  0
LWPOLYLINE
  5
15B7
330
225
100
AcDbEntity
  8
0
  6
Continuous
 62
     7
100
AcDbPolyline
 90
        6
 70
     0
 43
0.0
 10
116.8036029857
 20
27.2980144847
 10
116.8334066045
 20
27.301074493
 10
116.8562919845
 20
27.3040662099
 10
116.8722541342
 20
27.306948736
 10
116.8815007531
 20
27.3096851292
 10
116.8844558817
 20
27.3122450124
  0
LINE
  5
15B8
330
225
100
AcDbEntity
  8
0
  6
Continuous
 62
     7
100
AcDbLine
 10
116.7919372038
 20
27.2970294977
 30
0.0
 11
116.8036029857
 21
27.2980144847
 31
0.0
  0
LINE
  5
15B9
330
225
100
AcDbEntity
  8
0
  6
Continuous
 62
     7
100
AcDbLine
 10
124.9096626585
 20
27.7488901405
 30
0.0
 11
123.0301247914
 21
27.6433157491
 31
0.0
  0
LINE
  5
15BA
330
225
100
AcDbEntity
  8
0
  6
Continuous
 62
     7
100
AcDbLine
 10
120.1433099323
 20
27.4811622075
 30
0.0
 11
117.8005502652
 21
27.349568463
 31
0.0
  0
LWPOLYLINE
  5
15BB
330
225
100
AcDbEntity
  8
0
  6
Continuous
 62
     7
100
AcDbPolyline
 90
       11
 70
     0
 43
0.0
 10
115.8545118533
 20
27.1779631411
 10
115.9396730141
 20
27.182237792
 10
116.0239771749
 20
27.1950187275
 10
116.1065759597
 20
27.2161773296
 10
116.1866381546
 20
27.2455006736
 10
116.2633580716
 20
27.2826936706
 10
116.3359636573
 20
27.3273820373
 10
116.4037242618
 20
27.3791160624
 10
116.4659579917
 20
27.4373751324
 10
116.5220385718
 20
27.5015729701
 10
116.5714016641
 20
27.5710635607
  0
LWPOLYLINE
  5
15BC
330
225
100
AcDbEntity
  8
0
  6
Continuous
 62
     7
100
AcDbPolyline
 90
       23
 70
     0
 43
0.0
 10
121.5603128835
 20
27.7441788451
 10
121.4429204203
 20
27.7399700764
 10
121.3263448061
 20
27.7355743151
 10
121.2115705395
 20
27.7310266174
 10
121.0996003084
 20
27.7263667744
 10
120.9910383408
 20
27.7216126058
 10
120.8861880713
 20
27.7167779795
 10
120.785500169
 20
27.7118779222
 10
120.6896019179
 20
27.7069347813
 10
120.5993066988
 20
27.7019936483
 10
120.5152402366
 20
27.697071316
 10
120.4375300722
 20
27.6921870309
 10
120.3663035767
 20
27.6873270163
 10
120.3024726277
 20
27.6825541889
 10
120.2472465759
 20
27.6779721724
 10
120.2011871449
 20
27.6736552149
 10
120.1643040991
 20
27.6696829124
 10
120.1359951269
 20
27.6660822689
 10
120.1150249046
 20
27.6628338464
 10
120.1002250417
 20
27.6598934816
 10
120.0906609599
 20
27.6572228102
 10
120.085601617
 20
27.65478535530001
 10
120.0845047819
 20
27.652548179
  0
LWPOLYLINE
  5
15BD
330
225
100
AcDbEntity
  8
0
  6
Continuous
 62
     7
100
AcDbPolyline
 90
       88
 70
     0
 43
0.0
 10
118.0595442174
 20
27.9341201605
 10
118.659487714
 20
27.9372375782
 10
118.9448644963
 20
27.9386651475
 10
119.2219920852
 20
27.9399548369
 10
119.4926999615
 20
27.9410784187
 10
119.7581000162
 20
27.9420071493
 10
120.018304605
 20
27.9427074727
 10
120.2739554897
 20
27.9431464626
 10
120.526420063
 20
27.9432914446
 10
120.7761580594
 20
27.9431036992
 10
121.0216918914
 20
27.9425424562
 10
121.2553180736
 20
27.9416056446
 10
121.4636001649
 20
27.9403898504
 10
121.6429022351
 20
27.9390149614
 10
121.797315921
 20
27.9375563548
 10
121.9311389401
 20
27.9360637631
 10
122.0481344288
 20
27.9345677678
 10
122.1514035979
 20
27.93308553
 10
122.2428392448
 20
27.9316356593
 10
122.3238158563
 20
27.9302353761
 10
122.3958543294
 20
27.9288912813
 10
122.4605187956
 20
27.9276006832
 10
122.5190780914
 20
27.9263591149
 10
122.572367845
 20
27.9251657113
 10
122.6207838249
 20
27.92402618340001
 10
122.6643682814
 20
27.9229532682
 10
122.7031677322
 20
27.9219590277
 10
122.7377891824
 20
27.9210395474
 10
122.7694358286
 20
27.9201711979
 10
122.7994645688
 20
27.9193213462
 10
122.8287867703
 20
27.9184659412
 10
122.8576690079
 20
27.9175974043
 10
122.8862173875
 20
27.9167135075
 10
122.9146052404
 20
27.9158110225
 10
122.9430423878
 20
27.9148852407
 10
122.971800559
 20
27.9139289741
 10
123.0010774019
 20
27.9129365114
 10
123.0308754588
 20
27.9119068911
 10
123.0610354194
 20
27.9108441619
 10
123.0913051415
 20
27.9097561603
 10
123.1214670301
 20
27.9086501182
 10
123.1513536479
 20
27.9075320929
 10
123.1808062503
 20
27.9064083492
 10
123.2097844024
 20
27.9052809912
 10
123.2386446748
 20
27.9041363585
 10
123.2682040923
 20
27.9029408632
 10
123.2992232436
 20
27.9016605402
 10
123.3318087474
 20
27.9002863827
 10
123.3656581
 20
27.8988263991
 10
123.4008273122
 20
27.8972733755
 10
123.437851826
 20
27.8955974639
 10
123.4773005534
 20
27.8937641038
 10
123.5194992999
 20
27.8917465463
 10
123.5645516448
 20
27.8895257779
 10
123.6124817865
 20
27.8870842207
 10
123.6633199856
 20
27.8844012972
 10
123.7171378605
 20
27.8814510146
 10
123.7740680661
 20
27.8781997169
 10
123.8342058889
 20
27.8746103774
 10
123.8975299447
 20
27.8706468948
 10
123.9639988473
 20
27.8662679612
 10
124.0335628255
 20
27.8614243443
 10
124.1060543137
 20
27.8560649588
 10
124.1811986997
 20
27.8501361432
 10
124.2586420495
 20
27.8435791207
 10
124.3378628816
 20
27.8363359275
 10
124.4182566361
 20
27.8283406975
 10
124.4985249334
 20
27.8195878986
 10
124.5733464084
 20
27.810587882
 10
124.6355251109
 20
27.8023466181
 10
124.68475427
 20
27.7952158466
 10
124.7240484209
 20
27.7890544094
 10
124.7559641626
 20
27.7836785172
 10
124.7819994493
 20
27.7789978665
 10
124.803124386
 20
27.7749688463
 10
124.8203267204
 20
27.7715083373
 10
124.8346826964
 20
27.7684762834
 10
124.8470998416
 20
27.7657305854
 10
124.8582256117
 20
27.7631574095
 10
124.8683138293
 20
27.760715913
 10
124.8773110003
 20
27.7584354409
 10
124.8851311
 20
27.7563584338
 10
124.8917709701
 20
27.7545102462
 10
124.8973505037
 20
27.7528822276
 10
124.9020565681
 20
27.7514405242
 10
124.9058837013
 20
27.7502050308
 10
124.9085913674
 20
27.7492789231
 10
124.9096626587
 20
27.7488901405
  0
LINE
  5
15BE
330
225
100
AcDbEntity
  8
0
  6
Continuous
 62
     7
100
AcDbLine
 10
117.3055607224
 20
27.3485468852
 30
0.0
 11
117.7311606958
 21
27.3494675827
 31
0.0
  0
LWPOLYLINE
  5
15BF
330
225
100
AcDbEntity
  8
0
  6
Continuous
 62
     7
100
AcDbPolyline
 90
        3
 70
     0
 43
0.0
 10
117.1227505138
 20
27.3482173502
 10
117.2170915379
 20
27.3483778845
 10
117.3055607224
 20
27.3485468852
  0
LWPOLYLINE
  5
15C0
330
225
100
AcDbEntity
  8
0
  6
Continuous
 62
     7
100
AcDbPolyline
 90
        4
 70
     0
 43
0.0
 10
115.8232618533
 20
27.2689002031
 10
115.8830555533
 20
27.2689863871
 10
115.9434641688
 20
27.2692486122
 10
115.9759914376
 20
27.2694855094
  0
LWPOLYLINE
  5
15C1
330
225
100
AcDbEntity
  8
0
  6
Continuous
 62
     7
100
AcDbPolyline
 90
        3
 70
     0
 43
0.0
 10
116.884523969
 20
27.347885815
 10
116.9180473792
 20
27.347925741
 10
117.1227505138
 20
27.3482173502
  0
LWPOLYLINE
  5
15C2
330
225
100
AcDbEntity
  8
0
  6
Continuous
 62
     7
100
AcDbPolyline
 90
        3
 70
     0
 43
0.0
 10
117.7311606958
 20
27.3494675827
 10
117.7961642702
 20
27.3495661344
 10
117.8005502652
 20
27.349568463
  0
LWPOLYLINE
  5
15C3
330
225
100
AcDbEntity
  8
0
  6
Continuous
 62
     7
100
AcDbPolyline
 90
       21
 70
     0
 43
0.0
 10
115.8232618533
 20
27.7745272567
 10
115.7364563803
 20
27.7744406692
 10
115.6501923003
 20
27.7741803946
 10
115.565110757
 20
27.7737464619
 10
115.4817982616
 20
27.7731391105
 10
115.4007576185
 20
27.7723583004
 10
115.3225287056
 20
27.7714044507
 10
115.2477325324
 20
27.7702803177
 10
115.1767883734
 20
27.7689864141
 10
115.110420997
 20
27.7675315716
 10
115.0495764945
 20
27.7659369925
 10
114.9947759968
 20
27.7642239908
 10
114.9461589698
 20
27.7624103338
 10
114.9036604501
 20
27.7605100437
 10
114.8669672178
 20
27.7585253256
 10
114.8357143018
 20
27.7564464765
 10
114.8097589836
 20
27.7542639906
 10
114.7891934119
 20
27.7519757955
 10
114.7741929907
 20
27.7495822337
 10
114.7649817469
 20
27.747083939
 10
114.761837967
 20
27.7444803317
  0
LWPOLYLINE
  5
15C4
330
225
100
AcDbEntity
  8
0
  6
Continuous
 62
     7
100
AcDbPolyline
 90
        8
 70
     0
 43
0.0
 10
115.8232618533
 20
27.9269159266
 10
116.0997652287
 20
27.9270619817
 10
116.3950832914
 20
27.9275185598
 10
116.7169820269
 20
27.9283279248
 10
117.0628411772
 20
27.9295056061
 10
117.4097846289
 20
27.9309480968
 10
117.7422875184
 20
27.9325156458
 10
118.0595442174
 20
27.9341201605
  0
LINE
  5
15C5
330
225
100
AcDbEntity
  8
0
  6
Continuous
 62
     7
100
AcDbLine
 10
115.8232618533
 20
27.3472843612
 30
0.0
 11
116.0418484502
 21
27.3473126714
 31
0.0
  0
LINE
  5
15C6
330
225
100
AcDbEntity
  8
0
  6
Continuous
 62
     7
100
AcDbLine
 10
115.6046875222
 20
27.3473128239
 30
0.0
 11
115.8232618533
 21
27.3472843612
 31
0.0
  0
LINE
  5
15C7
330
225
100
AcDbEntity
  8
0
  6
Continuous
 62
     7
100
AcDbLine
 10
113.8459734414
 20
27.349568463
 30
0.0
 11
113.8841656852
 21
27.3495226729
 31
0.0
  0
LWPOLYLINE
  5
15C8
330
225
100
AcDbEntity
  8
0
  6
Continuous
 62
     7
100
AcDbPolyline
 90
        4
 70
     0
 43
0.0
 10
114.4244479422
 20
27.3483869408
 10
114.5184247062
 20
27.3482259381
 10
114.6179160112
 20
27.3480748111
 10
114.7619997242
 20
27.3478859615
  0
LWPOLYLINE
  5
15C9
330
225
100
AcDbEntity
  8
0
  6
Continuous
 62
     7
100
AcDbPolyline
 90
        3
 70
     0
 43
0.0
 10
113.9967938832
 20
27.349297076
 10
114.2545521197
 20
27.3487264365
 10
114.4244479422
 20
27.3483869408
  0
LINE
  5
15CA
330
225
100
AcDbEntity
  8
0
  6
Continuous
 62
     7
100
AcDbLine
 10
113.8841656852
 20
27.3495226729
 30
0.0
 11
113.9967938832
 21
27.349297076
 31
0.0
  0
LWPOLYLINE
  5
15CB
330
225
100
AcDbEntity
  8
0
  6
Continuous
 62
     7
100
AcDbPolyline
 90
        4
 70
     0
 43
0.0
 10
115.670528174
 20
27.2694855377
 10
115.7030528088
 20
27.2692486515
 10
115.7634625793
 20
27.2689864038
 10
115.8232618533
 20
27.2689002028
  0
LINE
  5
15CC
330
225
100
AcDbEntity
  8
0
  6
Continuous
 62
     7
100
AcDbLine
 10
120.2217069768
 20
27.4182520965
 30
0.0
 11
120.2439161811
 21
27.41782525630001
 31
0.0
  0
LWPOLYLINE
  5
15CD
330
225
100
AcDbEntity
  8
0
  6
Continuous
 62
     7
100
AcDbPolyline
 90
       25
 70
     0
 43
0.0
 10
110.0862108226
 20
27.7441788341
 10
109.9729082297
 20
27.7480374109
 10
109.859828529
 20
27.7516909051
 10
109.7481116891
 20
27.75510419110001
 10
109.6387416677
 20
27.7582499289
 10
109.5322799334
 20
27.7611127116
 10
109.4291385096
 20
27.7636798535
 10
109.3296122432
 20
27.765949319
 10
109.2340690741
 20
27.7679041038
 10
109.1433529037
 20
27.7695308688
 10
109.0582580873
 20
27.7708116855
 10
108.9789837831
 20
27.7717382753
 10
108.9060760529
 20
27.7723137752
 10
108.8405558067
 20
27.7725244185
 10
108.7833656765
 20
27.7723972866
 10
108.7349877191
 20
27.7719720908
 10
108.6948848648
 20
27.7712946056
 10
108.6619830318
 20
27.7704116621
 10
108.6353690268
 20
27.7693503893
 10
108.6142102757
 20
27.7681388706
 10
108.5978362036
 20
27.7667931257
 10
108.5857243178
 20
27.7653219687
 10
108.577491547
 20
27.7637264636
 10
108.5728978844
 20
27.7619995481
 10
108.5718531248
 20
27.7601277485
  0
LWPOLYLINE
  5
15CE
330
225
100
AcDbEntity
  8
0
  6
Continuous
 62
     7
100
AcDbPolyline
 90
       11
 70
     0
 43
0.0
 10
115.7920118533
 20
27.1779631411
 10
115.7068506928
 20
27.1822377919
 10
115.6225465324
 20
27.1950187273
 10
115.5399477478
 20
27.2161773293
 10
115.4598855533
 20
27.2455006731
 10
115.3831656365
 20
27.2826936697
 10
115.310560051
 20
27.3273820361
 10
115.2427994466
 20
27.3791160608
 10
115.1805657169
 20
27.4373751303
 10
115.1244851367
 20
27.5015729676
 10
115.0751220424
 20
27.5710635608
  0
LINE
  5
15CF
330
225
100
AcDbEntity
  8
0
  6
Continuous
 62
     7
100
AcDbLine
 10
113.8459734414
 20
27.349568463
 30
0.0
 11
111.5032121055
 21
27.4811623016
 31
0.0
  0
LINE
  5
15D0
330
225
100
AcDbEntity
  8
0
  6
Continuous
 62
     7
100
AcDbLine
 10
108.6163993419
 20
27.64331572590001
 30
0.0
 11
106.7368610474
 21
27.7488901416
 31
0.0
  0
LWPOLYLINE
  5
15D1
330
225
100
AcDbEntity
  8
0
  6
Continuous
 62
     7
100
AcDbPolyline
 90
        4
 70
     0
 43
0.0
 10
120.2313252535
 20
27.4193548878
 10
120.2315181336
 20
27.4193391362
 10
120.2334382367
 20
27.4191594887
 10
120.2375093353
 20
27.41870060510001
  0
LINE
  5
15D2
330
225
100
AcDbEntity
  8
0
  6
Continuous
 62
     7
100
AcDbLine
 10
114.8429113284
 20
27.2980153521
 30
0.0
 11
114.8545259334
 21
27.2970346362
 31
0.0
  0
LINE
  5
15D3
330
225
100
AcDbEntity
  8
0
  6
Continuous
 62
     7
100
AcDbLine
 10
114.8131086906
 20
27.301075461
 30
0.0
 11
114.8429113284
 21
27.2980153521
 31
0.0
  0
LWPOLYLINE
  5
15D4
330
225
100
AcDbEntity
  8
0
  6
Continuous
 62
     7
100
AcDbPolyline
 90
        3
 70
     0
 43
0.0
 10
120.2478682945
 20
27.4185780459
 10
120.2050440082
 20
27.4240556443
 10
120.1618728756
 20
27.4245755014
  0
LINE
  5
15D5
330
225
100
AcDbEntity
  8
0
  6
Continuous
 62
     7
100
AcDbLine
 10
120.2375093353
 20
27.41870060510001
 30
0.0
 11
120.2441306777
 21
27.4177943979
 31
0.0
  0
LINE
  5
15D6
330
225
100
AcDbEntity
  8
0
  6
Continuous
 62
     7
100
AcDbLine
 10
120.2440191959
 20
27.4178111817
 30
0.0
 11
120.2532419397
 21
27.4162791241
 31
0.0
  0
LWPOLYLINE
  5
15D7
330
225
100
AcDbEntity
  8
0
  6
Continuous
 62
     7
100
AcDbPolyline
 90
        3
 70
     0
 43
0.0
 10
114.8438710785
 20
27.3018267528
 10
114.8032567334
 20
27.3092902459
 10
114.7620676502
 20
27.3122450783
  0
LINE
  5
15D8
330
225
100
AcDbEntity
  8
0
  6
Continuous
 62
     7
100
AcDbLine
 10
120.2530652525
 20
27.4163113387
 30
0.0
 11
120.2645456551
 21
27.4140080201
 31
0.0
  0
LWPOLYLINE
  5
15D9
330
225
100
AcDbEntity
  8
0
  6
Continuous
 62
     7
100
AcDbPolyline
 90
        5
 70
     0
 43
0.0
 10
114.7620678083
 20
27.3122450192
 10
114.7650213847
 20
27.3096858212
 10
114.7742649911
 20
27.3069497666
 10
114.790224648
 20
27.3040672838
 10
114.8131086906
 20
27.301075461
  0
LINE
  5
15DA
330
225
100
AcDbEntity
  8
0
  6
Continuous
 62
     7
100
AcDbLine
 10
114.2866502009
 20
26.9538548785
 30
0.0
 11
113.9273515395
 21
27.3131535398
 31
0.0
  0
LWPOLYLINE
  5
15DB
330
225
100
AcDbEntity
  8
0
  6
Continuous
 62
     7
100
AcDbPolyline
 90
       23
 70
     0
 43
0.0
 10
111.562018918
 20
27.6525481794
 10
111.560922097
 20
27.6547853497
 10
111.5558627807
 20
27.6572227984
 10
111.5462987504
 20
27.659893462
 10
111.5314989711
 20
27.6628338172
 10
111.5105288733
 20
27.666082228
 10
111.4822200781
 20
27.6696828576
 10
111.4453372631
 20
27.6736551448
 10
111.3992781034
 20
27.677972087
 10
111.3440523451
 20
27.6825540896
 10
111.2802217254
 20
27.6873269027
 10
111.2089956686
 20
27.69218689820001
 10
111.1312860132
 20
27.6970711621
 10
111.0472197925
 20
27.7019934911
 10
110.9569243603
 20
27.7069346449
 10
110.8610261224
 20
27.7118777932
 10
110.7603392394
 20
27.7167778085
 10
110.6554932805
 20
27.721612252
 10
110.5469366602
 20
27.7263662075
 10
110.4349642523
 20
27.73102616820001
 10
110.3201889308
 20
27.7355739276
 10
110.2036104494
 20
27.7399698134
 10
110.0862108233
 20
27.7441788459
  0
LINE
  5
15DC
330
225
100
AcDbEntity
  8
0
  6
Continuous
 62
     7
100
AcDbLine
 10
120.2642801479
 20
27.41406623
 30
0.0
 11
120.2776066306
 21
27.4108691992
 31
0.0
  0
LINE
  5
15DD
330
225
100
AcDbEntity
  8
0
  6
Continuous
 62
     7
100
AcDbLine
 10
120.2772731567
 20
27.4109561861
 30
0.0
 11
120.2926002504
 21
27.4065944233
 31
0.0
  0
LINE
  5
15DE
330
225
100
AcDbEntity
  8
0
  6
Continuous
 62
     7
100
AcDbLine
 10
120.292259055
 20
27.4066997772
 30
0.0
 11
120.3099179016
 21
27.4007527018
 31
0.0
  0
LINE
  5
15DF
330
225
100
AcDbEntity
  8
0
  6
Continuous
 62
     7
100
AcDbLine
 10
120.3096174348
 20
27.4008625325
 30
0.0
 11
120.3292788444
 21
27.3930333088
 31
0.0
  0
LINE
  5
15E0
330
225
100
AcDbEntity
  8
0
  6
Continuous
 62
     7
100
AcDbLine
 10
120.3290235839
 20
27.3931435715
 30
0.0
 11
120.3500920466
 21
27.3832527559
 31
0.0
  0
LWPOLYLINE
  5
15E1
330
225
100
AcDbEntity
  8
0
  6
Continuous
 62
     7
100
AcDbPolyline
 90
       21
 70
     0
 43
0.0
 10
116.884685551
 20
27.7444803387
 10
116.8815425371
 20
27.7470837045
 10
116.8723328368
 20
27.7495818117
 10
116.8573345781
 20
27.7519752335
 10
116.836771062
 20
27.7542633829
 10
116.8108167493
 20
27.756445928
 10
116.7795652019
 20
27.758524804
 10
116.7428755675
 20
27.7605094382
 10
116.7003820426
 20
27.7624096305
 10
116.6517646017
 20
27.764223412
 10
116.5969570726
 20
27.7659367125
 10
116.5361006834
 20
27.7675316205
 10
116.4697191404
 20
27.768986735
 10
116.3987714726
 20
27.7702806475
 10
116.32398236
 20
27.7714046178
 10
116.2457560754
 20
27.7723584064
 10
116.1647170733
 20
27.7731391776
 10
116.0814072591
 20
27.7737464924
 10
115.9963273075
 20
27.7741804124
 10
115.9100629309
 20
27.7744406723
 10
115.8232618533
 20
27.7745272682
  0
LWPOLYLINE
  5
15E2
330
225
100
AcDbEntity
  8
0
  6
Continuous
 62
     7
100
AcDbPolyline
 90
        7
 70
     0
 43
0.0
 10
115.04913197
 20
27.1710673708
 10
115.0216574338
 20
27.2018811808
 10
114.9909597412
 20
27.2294888175
 10
114.9574111453
 20
27.2535554991
 10
114.9214184706
 20
27.2737893829
 10
114.8834181792
 20
27.2899451045
 10
114.8438710785
 20
27.3018267528
  0
LWPOLYLINE
  5
15E3
330
225
100
AcDbEntity
  8
0
  6
Continuous
 62
     7
100
AcDbPolyline
 90
       10
 70
     0
 43
0.0
 10
115.075122129
 20
27.5710636159
 10
115.0509458053
 20
27.6047305567
 10
115.0231986035
 20
27.6355241068
 10
114.9922197307
 20
27.6630678179
 10
114.9583879008
 20
27.6870249704
 10
114.9221167049
 20
27.7071026903
 10
114.8838495551
 20
27.7230555294
 10
114.844054264
 20
27.7346884656
 10
114.8032173253
 20
27.7418592872
 10
114.761837967
 20
27.7444803317
  0
LINE
  5
15E4
330
225
100
AcDbEntity
  8
0
  6
Continuous
 62
     7
100
AcDbLine
 10
115.0730501823
 20
27.1374210487
 30
0.0
 11
115.04913197
 21
27.1710673708
 31
0.0
  0
LINE
  5
15E5
330
225
100
AcDbEntity
  8
0
  6
Continuous
 62
     7
100
AcDbLine
 10
120.3498831968
 20
27.3833589524
 30
0.0
 11
120.3716853012
 21
27.3713455624
 31
0.0
  0
LINE
  5
15E6
330
225
100
AcDbEntity
  8
0
  6
Continuous
 62
     7
100
AcDbLine
 10
120.3715187667
 20
27.371444755
 30
0.0
 11
120.3933444912
 21
27.3574011267
 31
0.0
  0
LWPOLYLINE
  5
15E7
330
225
100
AcDbEntity
  8
0
  6
Continuous
 62
     7
100
AcDbPolyline
 90
        6
 70
     0
 43
0.0
 10
120.1618728845
 20
27.4245755009
 10
120.1643481936
 20
27.4229684475
 10
120.1710482648
 20
27.4214960672
 10
120.1824893381
 20
27.4201935054
 10
120.1991965326
 20
27.4190986879
 10
120.2217069768
 20
27.4182520965
  0
LINE
  5
15E8
330
225
100
AcDbEntity
  8
0
  6
Continuous
 62
     7
100
AcDbLine
 10
120.3932104805
 20
27.35749412880001
 30
0.0
 11
120.4146406086
 21
27.3414628512
 31
0.0
  0
LINE
  5
15E9
330
225
100
AcDbEntity
  8
0
  6
Continuous
 62
     7
100
AcDbLine
 10
115.0732019152
 20
27.1369326962
 30
0.0
 11
115.0730501823
 21
27.1374210487
 31
0.0
  0
LWPOLYLINE
  5
15EA
330
225
100
AcDbEntity
  8
0
  6
Continuous
 62
     7
100
AcDbPolyline
 90
       24
 70
     0
 43
0.0
 10
111.464531884
 20
27.3581379456
 10
111.4652646978
 20
27.3608020167
 10
111.4662108579
 20
27.3641746225
 10
111.4675486143
 20
27.3688597487
 10
111.4692642258
 20
27.3747574657
 10
111.4713317642
 20
27.3817353897
 10
111.4737228418
 20
27.3896632993
 10
111.4764132811
 20
27.3984344282
 10
111.47938251
 20
27.4079651583
 10
111.4826155007
 20
27.4181981439
 10
111.4861049704
 20
27.4291048122
 10
111.4898511065
 20
27.4406817936
 10
111.49385991
 20
27.4529453453
 10
111.4981426907
 20
27.4659289231
 10
111.5027151926
 20
27.4796788775
 10
111.5075945871
 20
27.4942452353
 10
111.5128022592
 20
27.5096893049
 10
111.5183801881
 20
27.5261319456
 10
111.5243826445
 20
27.5437298227
 10
111.5308393925
 20
27.5625657445
 10
111.5377787373
 20
27.5827178999
 10
111.545250121
 20
27.6043253127
 10
111.5533108185
 20
27.6275482434
 10
111.5620189247
 20
27.6525481782
  0
LINE
  5
15EB
330
225
100
AcDbEntity
  8
0
  6
Continuous
 62
     7
100
AcDbLine
 10
111.1981802434
 20
27.406141172
 30
0.0
 11
110.9542236853
 21
26.735876037
 31
0.0
  0
LWPOLYLINE
  5
15EC
330
225
100
AcDbEntity
  8
0
  6
Continuous
 62
     7
100
AcDbPolyline
 90
       12
 70
     0
 43
0.0
 10
111.1981802542
 20
27.4061412014
 10
111.2150265159
 20
27.4453268113
 10
111.2362178487
 20
27.4823441082
 10
111.2614798343
 20
27.5167137348
 10
111.2904853415
 20
27.5479906202
 10
111.3228587621
 20
27.5757697428
 10
111.3581808751
 20
27.5996913755
 10
111.395994275
 20
27.6194457442
 10
111.4358092956
 20
27.6347770387
 10
111.4771103503
 20
27.6454867256
 10
111.5193626092
 20
27.6514361194
 10
111.5620189247
 20
27.6525481782
  0
LWPOLYLINE
  5
15ED
330
225
100
AcDbEntity
  8
0
  6
Continuous
 62
     7
100
AcDbPolyline
 90
        6
 70
     0
 43
0.0
 10
120.437495043
 20
27.3215878506
 10
120.4045690081
 20
27.3495020945
 10
120.3686511831
 20
27.3734468938
 10
120.3302177022
 20
27.3931048316
 10
120.2897780472
 20
27.4082153182
 10
120.2478682945
 20
27.4185780459
  0
LINE
  5
15EE
330
225
100
AcDbEntity
  8
0
  6
Continuous
 62
     7
100
AcDbLine
 10
120.4145307072
 20
27.3415514024
 30
0.0
 11
120.435395582
 21
27.3234373567
 31
0.0
  0
LINE
  5
15EF
330
225
100
AcDbEntity
  8
0
  6
Continuous
 62
     7
100
AcDbLine
 10
120.4353053093
 20
27.3235217966
 30
0.0
 11
120.4554071128
 21
27.3032353603
 31
0.0
  0
LINE
  5
15F0
330
225
100
AcDbEntity
  8
0
  6
Continuous
 62
     7
100
AcDbLine
 10
120.4669928139
 20
27.2900741992
 30
0.0
 11
120.437495043
 21
27.3215878506
 31
0.0
  0
LINE
  5
15F1
330
225
100
AcDbEntity
  8
0
  6
Continuous
 62
     7
100
AcDbLine
 10
114.7619940731
 20
27.3517740859
 30
0.0
 11
114.7620676502
 21
27.3122450783
 31
0.0
  0
LINE
  5
15F2
330
225
100
AcDbEntity
  8
0
  6
Continuous
 62
     7
100
AcDbLine
 10
114.7619356638
 20
27.4219775226
 30
0.0
 11
114.7619940731
 21
27.3517740859
 31
0.0
  0
LWPOLYLINE
  5
15F3
330
225
100
AcDbEntity
  8
0
  6
Continuous
 62
     7
100
AcDbPolyline
 90
        4
 70
     0
 43
0.0
 10
114.7618952269
 20
27.5202185329
 10
114.7619049321
 20
27.491929818
 10
114.7619147281
 20
27.466402492
 10
114.7619356638
 20
27.4219775226
  0
LWPOLYLINE
  5
15F4
330
225
100
AcDbEntity
  8
0
  6
Continuous
 62
     7
100
AcDbPolyline
 90
        6
 70
     0
 43
0.0
 10
114.7618379676
 20
27.7444804045
 10
114.7618479215
 20
27.6981664986
 10
114.7618576063
 20
27.6562970555
 10
114.7618670549
 20
27.6182429141
 10
114.7618763571
 20
27.5833255517
 10
114.7618952269
 20
27.5202185329
  0
LINE
  5
15F5
330
225
100
AcDbEntity
  8
0
  6
Continuous
 62
     7
100
AcDbLine
 10
115.7920118533
 20
26.741053664
 30
0.0
 11
115.7920118533
 21
27.1779631411
 31
0.0
  0
LINE
  5
15F7
330
225
100
AcDbEntity
  8
0
  6
Continuous
 62
     7
100
AcDbLine
 10
115.8545118533
 20
27.1779631411
 30
0.0
 11
115.8545118533
 21
26.741053664
 31
0.0
  0
LINE
  5
15F8
330
225
100
AcDbEntity
  8
0
  6
Continuous
 62
     7
100
AcDbLine
 10
120.4553336541
 20
27.3033154025
 30
0.0
 11
120.4744445063
 21
27.2807759613
 31
0.0
  0
LINE
  5
15F9
330
225
100
AcDbEntity
  8
0
  6
Continuous
 62
     7
100
AcDbLine
 10
120.4926712922
 20
27.2553788914
 30
0.0
 11
120.4669928139
 21
27.2900741992
 31
0.0
  0
LINE
  5
15FA
330
225
100
AcDbEntity
  8
0
  6
Continuous
 62
     7
100
AcDbLine
 10
120.474386482
 20
27.2808501605
 30
0.0
 11
120.4922475689
 21
27.2559880562
 31
0.0
  0
LWPOLYLINE
  5
15FB
330
225
100
AcDbEntity
  8
0
  6
Continuous
 62
     7
100
AcDbPolyline
 90
        7
 70
     0
 43
0.0
 10
116.884618905
 20
27.4922909942
 10
116.8846285964
 20
27.5205765323
 10
116.8846380955
 20
27.5510783489
 10
116.8846474255
 20
27.58360104
 10
116.8846567129
 20
27.6184812108
 10
116.8846661453
 20
27.6564849017
 10
116.8846857389
 20
27.7444804044
  0
LINE
  5
15FC
330
225
100
AcDbEntity
  8
0
  6
Continuous
 62
     7
100
AcDbLine
 10
116.8845989838
 20
27.4435160295
 30
0.0
 11
116.884618905
 21
27.4922909942
 31
0.0
  0
LINE
  5
15FD
330
225
100
AcDbEntity
  8
0
  6
Continuous
 62
     7
100
AcDbLine
 10
116.8845763796
 20
27.4026673221
 30
0.0
 11
116.8845989838
 21
27.4435160295
 31
0.0
  0
LWPOLYLINE
  5
15FE
330
225
100
AcDbEntity
  8
0
  6
Continuous
 62
     7
100
AcDbPolyline
 90
        3
 70
     0
 43
0.0
 10
116.8844560563
 20
27.3122450783
 10
116.8844845087
 20
27.3243145217
 10
116.8845763796
 20
27.4026673221
  0
LINE
  5
15FF
330
225
100
AcDbEntity
  8
0
  6
Continuous
 62
     7
100
AcDbLine
 10
120.4922045552
 20
27.25605342610001
 30
0.0
 11
120.5085306524
 21
27.2287995694
 31
0.0
  0
LINE
  5
1600
330
225
100
AcDbEntity
  8
0
  6
Continuous
 62
     7
100
AcDbLine
 10
120.5141900788
 20
27.2179618554
 30
0.0
 11
120.4926712922
 21
27.2553788914
 31
0.0
  0
LWPOLYLINE
  5
1601
330
225
100
AcDbEntity
  8
0
  6
Continuous
 62
     7
100
AcDbPolyline
 90
        3
 70
     0
 43
0.0
 10
120.5085026597
 20
27.2288511539
 10
120.5229595186
 20
27.1991672647
 10
120.5312638711
 20
27.1783192446
  0
LINE
  5
1602
330
225
100
AcDbEntity
  8
0
  6
Continuous
 62
     7
100
AcDbLine
 10
120.5312639164
 20
27.1783190989
 30
0.0
 11
120.5141900788
 21
27.2179618554
 31
0.0
  0
LWPOLYLINE
  5
1603
330
225
100
AcDbEntity
  8
0
  6
Continuous
 62
     7
100
AcDbPolyline
 90
       12
 70
     0
 43
0.0
 10
120.4483434589
 20
27.4061412035
 10
120.4314971966
 20
27.4453268138
 10
120.4103058633
 20
27.482344111
 10
120.3850438771
 20
27.5167137379
 10
120.3560383693
 20
27.5479906234
 10
120.323664948
 20
27.575769746
 10
120.2883428343
 20
27.5996913787
 10
120.2505294338
 20
27.6194457471
 10
120.2107144126
 20
27.6347770412
 10
120.1694133573
 20
27.6454867277
 10
120.1271610979
 20
27.6514361209
 10
120.0845047819
 20
27.652548179
  0
LINE
  5
1604
330
225
100
AcDbEntity
  8
0
  6
Continuous
 62
     7
100
AcDbLine
 10
120.5229462583
 20
27.1991978545
 30
0.0
 11
120.5312638577
 21
27.1783192809
 31
0.0
  0
LINE
  5
1605
330
225
100
AcDbEntity
  8
0
  6
Continuous
 62
     7
100
AcDbLine
 10
116.5734735243
 20
27.1374210487
 30
0.0
 11
116.5733217749
 21
27.1369326703
 31
0.0
  0
LWPOLYLINE
  5
1606
330
225
100
AcDbEntity
  8
0
  6
Continuous
 62
     7
100
AcDbPolyline
 90
       25
 70
     0
 43
0.0
 10
123.0746705745
 20
27.7601277477
 10
123.0736298779
 20
27.7619969615
 10
123.0690453705
 20
27.7637230257
 10
123.0608215388
 20
27.765318611
 10
123.0487173742
 20
27.7667901518
 10
123.032350587
 20
27.7681363207
 10
123.0111990571
 20
27.769348258
 10
122.9845927241
 20
27.770409945
 10
122.9516994649
 20
27.7712932914
 10
122.9116060102
 20
27.7719712026
 10
122.863237655
 20
27.77239685570001
 10
122.8060546406
 20
27.7725244712
 10
122.740535028
 20
27.7723142658
 10
122.6676212936
 20
27.7717390785
 10
122.588341862
 20
27.7708127082
 10
122.5032422786
 20
27.7695320505
 10
122.4125193883
 20
27.7679053496
 10
122.316972708
 20
27.765950644
 10
122.2174412589
 20
27.7636811922
 10
122.1142932015
 20
27.7611139901
 10
122.0078231452
 20
27.758251074
 10
121.8984430585
 20
27.7551051109
 10
121.7867186664
 20
27.7516916436
 10
121.6736338741
 20
27.7480380208
 10
121.5603128837
 20
27.7441788343
  0
LINE
  5
1607
330
225
100
AcDbEntity
  8
0
  6
Continuous
 62
     7
100
AcDbLine
 10
120.4483434631
 20
27.4061411719
 30
0.0
 11
120.6923000213
 21
26.735876037
 31
0.0
  0
LWPOLYLINE
  5
1608
330
225
100
AcDbEntity
  8
0
  6
Continuous
 62
     7
100
AcDbPolyline
 90
       15
 70
     0
 43
0.0
 10
120.0845047819
 20
27.65254817800001
 10
120.0928112043
 20
27.628703336
 10
120.1005531147
 20
27.6064045342
 10
120.1077691108
 20
27.5855450732
 10
120.1144983556
 20
27.566016112
 10
120.1207763674
 20
27.5477185361
 10
120.1266302722
 20
27.5305771939
 10
120.1320851836
 20
27.5145225908
 10
120.1371844009
 20
27.4994303676
 10
120.1419716015
 20
27.4851744803
 10
120.1464707362
 20
27.4716862191
 10
120.1506983924
 20
27.4589174232
 10
120.1546663924
 20
27.4468338118
 10
120.1583865632
 20
27.4354003781
 10
120.1618728756
 20
27.4245755014
  0
LWPOLYLINE
  5
1609
330
225
100
AcDbEntity
  8
0
  6
Continuous
 62
     7
100
AcDbPolyline
 90
       10
 70
     0
 43
0.0
 10
116.5714016641
 20
27.5710635607
 10
116.5955779776
 20
27.604730507
 10
116.6233251684
 20
27.6355240647
 10
116.65430403
 20
27.6630677855
 10
116.6881358487
 20
27.6870249501
 10
116.7244070338
 20
27.7071026845
 10
116.7626741734
 20
27.7230555402
 10
116.8024694555
 20
27.7346884951
 10
116.8433063865
 20
27.7418593375
 10
116.8846857389
 20
27.7444804044
  0
LWPOLYLINE
  5
160A
330
225
100
AcDbEntity
  8
0
  6
Continuous
 62
     7
100
AcDbPolyline
 90
       83
 70
     0
 43
0.0
 10
106.7368610474
 20
27.7488901416
 10
106.7409807459
 20
27.7503179654
 10
106.7557881334
 20
27.7548042883
 10
106.7863183521
 20
27.7626869331
 10
106.8329758359
 20
27.7728930639
 10
106.8900342442
 20
27.7835868629
 10
106.9539061674
 20
27.794019148
 10
107.0226296622
 20
27.8039483474
 10
107.0944665824
 20
27.8132418697
 10
107.1681044365
 20
27.8218607756
 10
107.2424543247
 20
27.8298037437
 10
107.3166066467
 20
27.8370891852
 10
107.3898619487
 20
27.8437529224
 10
107.461658942
 20
27.849836403
 10
107.5315765555
 20
27.855383955
 10
107.5992994195
 20
27.8604396348
 10
107.6645773267
 20
27.8650447866
 10
107.7272790471
 20
27.8692418168
 10
107.7873315173
 20
27.8730697537
 10
107.8446336102
 20
27.8765595504
 10
107.8991731433
 20
27.8797427575
 10
107.9510331801
 20
27.8826517233
 10
108.0002985296
 20
27.8853144604
 10
108.0470122852
 20
27.887753172
 10
108.0911350102
 20
27.8899831669
 10
108.1325618075
 20
27.8920146913
 10
108.1713473289
 20
27.8938641056
 10
108.2079421887
 20
27.8955640041
 10
108.2431952993
 20
27.8971615015
 10
108.277931424
 20
27.8986982517
 10
108.3121597739
 20
27.9001773415
 10
108.3452066176
 20
27.9015731488
 10
108.3767754973
 20
27.9028777599
 10
108.4073314297
 20
27.9041144264
 10
108.4375493296
 20
27.9053128016
 10
108.4678522352
 20
27.9064905432
 10
108.4985244718
 20
27.9076586879
 10
108.5298769906
 20
27.9088283709
 10
108.5619983183
 20
27.9100017439
 10
108.5944937017
 20
27.9111636842
 10
108.6267180118
 20
27.9122917209
 10
108.6582238808
 20
27.9133719651
 10
108.6888654168
 20
27.91440161780001
 10
108.718731104
 20
27.9153842906
 10
108.7482564016
 20
27.9163331893
 10
108.7779488748
 20
27.9172626747
 10
108.8079725746
 20
27.9181752274
 10
108.8383911309
 20
27.9190711702
 10
108.8698141405
 20
27.9199677042
 10
108.9036428563
 20
27.9209016683
 10
108.941506058
 20
27.9219106852
 10
108.9845448746
 20
27.923013277
 10
109.0333165732
 20
27.9242080882
 10
109.0880940802
 20
27.9254838866
 10
109.149171884
 20
27.926828085
 10
109.2175076379
 20
27.9282396806
 10
109.2949861941
 20
27.9297294569
 10
109.3836768204
 20
27.9313001552
 10
109.4852050081
 20
27.9329347404
 10
109.6019590018
 20
27.9346162187
 10
109.7381016367
 20
27.9363330213
 10
109.898476291
 20
27.93805115650001
 10
110.0886264737
 20
27.9397072302
 10
110.3082607463
 20
27.9411673468
 10
110.5465272291
 20
27.9422751172
 10
110.7924116875
 20
27.9429687885
 10
111.0417653338
 20
27.943270543
 10
111.2944467922
 20
27.943224161
 10
111.5511980098
 20
27.9428678381
 10
111.8131856207
 20
27.9422331183
 10
112.0813189253
 20
27.9413509441
 10
112.3560627187
 20
27.9402534371
 10
112.6385772257
 20
27.9389687789
 10
112.9308099914
 20
27.9375244725
 10
113.2340781206
 20
27.9359581233
 10
113.548963631
 20
27.9343167424
 10
113.8779016228
 20
27.9326456194
 10
114.2234334069
 20
27.931007771
 10
114.577447685
 20
27.929529416
 10
114.9179806311
 20
27.9283624521
 10
115.2388223226
 20
27.9275444534
 10
115.5402784673
 20
27.9270687912
 10
115.8232618533
 20
27.9269159266
  0
LWPOLYLINE
  5
160B
330
225
100
AcDbEntity
  8
0
  6
Continuous
 62
     7
100
AcDbPolyline
 90
       25
 70
     0
 43
0.0
 10
116.5733213421
 20
27.1369319844
 10
116.5274243892
 20
27.071280146
 10
116.4806913803
 20
27.0157897616
 10
116.4363024666
 20
26.970897757
 10
116.3822417603
 20
26.9242536356
 10
116.3302485949
 20
26.8861875953
 10
116.2789366268
 20
26.8541266257
 10
116.2262931526
 20
26.8261935621
 10
116.1884756028
 20
26.8089255989
 10
116.159566688
 20
26.7971923966
 10
116.1098992624
 20
26.7798302161
 10
116.0761499654
 20
26.7699528153
 10
116.0519087566
 20
26.7637787874
 10
116.0311582886
 20
26.7590897474
 10
116.001857951
 20
26.753384867
 10
115.9821109909
 20
26.7501340455
 10
115.9591152207
 20
26.7469401497
 10
115.9401446877
 20
26.7447765009
 10
115.9231087229
 20
26.7431890374
 10
115.9081280785
 20
26.74206353300001
 10
115.8949435894
 20
26.7412739198
 10
115.8832174665
 20
26.740720308
 10
115.8716617097
 20
26.7403000737
 10
115.859121368
 20
26.7399687799
 10
115.844483842
 20
26.7397232244
  0
LINE
  5
160C
330
225
100
AcDbEntity
  8
0
  6
Continuous
 62
     7
100
AcDbLine
 10
116.5734734522
 20
27.1374210941
 30
0.0
 11
116.597391673
 21
27.1710674115
 31
0.0
  0
LWPOLYLINE
  5
160D
330
225
100
AcDbEntity
  8
0
  6
Continuous
 62
     7
100
AcDbPolyline
 90
        7
 70
     0
 43
0.0
 10
116.597391673
 20
27.1710674115
 10
116.6248662185
 20
27.2018812149
 10
116.6555639205
 20
27.2294888432
 10
116.6891125257
 20
27.2535555145
 10
116.7251052095
 20
27.2737893861
 10
116.7631055095
 20
27.2899450937
 10
116.8026526177
 20
27.3018267261
  0
LINE
  5
160E
330
225
100
AcDbEntity
  8
0
  6
Continuous
 62
     7
100
AcDbLine
 10
117.3598735056
 20
26.9538548785
 30
0.0
 11
117.719172167
 21
27.3131535398
 31
0.0
  0
LWPOLYLINE
  5
160F
330
225
100
AcDbEntity
  8
0
  6
Continuous
 62
     7
100
AcDbPolyline
 90
       15
 70
     0
 43
0.0
 10
115.7920118533
 20
27.1779631411
 10
115.792795356
 20
27.17818819090001
 10
115.7951065762
 20
27.1784019558
 10
115.7988296195
 20
27.1785937166
 10
115.803777797
 20
27.17875385780001
 10
115.8097029864
 20
27.1788743491
 10
115.8163080741
 20
27.1789491486
 10
115.8232618533
 20
27.1789745057
 10
115.8302156325
 20
27.1789491486
 10
115.8368207201
 20
27.1788743491
 10
115.8427459096
 20
27.17875385780001
 10
115.8476940871
 20
27.1785937166
 10
115.8514171304
 20
27.1784019558
 10
115.8537283505
 20
27.17818819090001
 10
115.8545118533
 20
27.1779631411
  0
LWPOLYLINE
  5
1610
330
225
100
AcDbEntity
  8
0
  6
Continuous
 62
     7
100
AcDbPolyline
 90
       15
 70
     0
 43
0.0
 10
115.8545118533
 20
26.741053664
 10
115.8537283505
 20
26.7408286142
 10
115.8514171304
 20
26.7406148494
 10
115.8476940871
 20
26.7404230885
 10
115.8427459096
 20
26.7402629474
 10
115.8368207201
 20
26.7401424561
 10
115.8302156325
 20
26.74006765650001
 10
115.8232618533
 20
26.7400422995
 10
115.8163080741
 20
26.74006765650001
 10
115.8097029864
 20
26.7401424561
 10
115.803777797
 20
26.7402629474
 10
115.7988296195
 20
26.7404230885
 10
115.7951065762
 20
26.7406148494
 10
115.792795356
 20
26.7408286142
 10
115.7920118533
 20
26.741053664
  0
LINE
  5
1611
330
225
100
AcDbEntity
  8
0
  6
Continuous
 62
     7
100
AcDbLine
 10
122.4542236853
 20
26.735876037
 30
0.0
 11
122.7373703343
 21
27.5138150618
 31
0.0
  0
LINE
  5
1612
330
225
100
AcDbEntity
  8
0
  6
Continuous
 62
     7
100
AcDbLine
 10
123.0591785354
 20
27.7192816319
 30
0.0
 11
123.0746705816
 21
27.7601277477
 31
0.0
  0
LWPOLYLINE
  5
1613
330
225
100
AcDbEntity
  8
0
  6
Continuous
 62
     7
100
AcDbPolyline
 90
       10
 70
     0
 43
0.0
 10
122.9989974352
 20
27.5633742895
 10
123.0037548769
 20
27.5754482455
 10
123.0088327462
 20
27.5884032515
 10
123.014213401
 20
27.60219670010001
 10
123.0198749423
 20
27.6167745679
 10
123.0257913191
 20
27.6320705348
 10
123.0319596228
 20
27.6480770747
 10
123.0383846841
 20
27.6648071403
 10
123.0450555146
 20
27.6822322619
 10
123.0591785354
 20
27.7192816319
  0
LINE
  5
1614
330
225
100
AcDbEntity
  8
0
  6
Continuous
 62
     7
100
AcDbLine
 10
122.6658011571
 20
27.3171804106
 30
0.0
 11
122.6736339608
 21
27.3369372715
 31
0.0
  0
LINE
  5
1615
330
225
100
AcDbEntity
  8
0
  6
Continuous
 62
     7
100
AcDbLine
 10
122.6736369025
 20
27.3369433831
 30
0.0
 11
122.673640664
 21
27.3369528702
 31
0.0
  0
LWPOLYLINE
  5
1616
330
225
100
AcDbEntity
  8
0
  6
Continuous
 62
     7
100
AcDbPolyline
 90
       11
 70
     0
 43
0.0
 10
122.6658010679
 20
27.3171801656
 10
122.6831894908
 20
27.3574509009
 10
122.7051631092
 20
27.3954149385
 10
122.7314211634
 20
27.43055265320001
 10
122.7616042516
 20
27.4623831047
 10
122.7952992487
 20
27.4904706197
 10
122.8320449611
 20
27.5144307562
 10
122.8713384393
 20
27.5339355645
 10
122.9126418615
 20
27.5487180763
 10
122.9553898953
 20
27.5585759589
 10
122.9989974123
 20
27.5633742835
  0
LWPOLYLINE
  5
1617
330
225
100
AcDbEntity
  8
0
  6
Continuous
 62
     7
100
AcDbPolyline
 90
       11
 70
     0
 43
0.0
 10
122.7373703442
 20
27.5138150889
 10
122.7549414899
 20
27.5544460365
 10
122.7771819431
 20
27.5927216664
 10
122.8037815386
 20
27.6281081871
 10
122.8343693187
 20
27.6601120984
 10
122.8685187065
 20
27.6882870741
 10
122.9057534548
 20
27.7122401861
 10
122.9455542883
 20
27.7316373846
 10
122.9873661447
 20
27.7462081564
 10
123.0306059163
 20
27.7557492977
 10
123.0746705816
 20
27.7601277477
  0
LINE
  5
1618
330
225
100
AcDbEntity
  8
0
  6
Continuous
 62
     7
100
AcDbLine
 10
122.6736339608
 20
27.3369372715
 30
0.0
 11
122.687530103
 21
27.3658047038
 31
0.0
  0
LINE
  5
1619
330
225
100
AcDbEntity
  8
0
  6
Continuous
 62
     7
100
AcDbLine
 10
122.857828245
 20
27.5275356156
 30
0.0
 11
122.8751812383
 21
27.5351268804
 31
0.0
  0
LINE
  5
161A
330
225
100
AcDbEntity
  8
0
  6
Continuous
 62
     7
100
AcDbLine
 10
122.8750791852
 20
27.5350853358
 30
0.0
 11
122.8906600099
 21
27.5410144251
 31
0.0
  0
LINE
  5
161B
330
225
100
AcDbEntity
  8
0
  6
Continuous
 62
     7
100
AcDbLine
 10
122.8905608594
 20
27.5409792828
 30
0.0
 11
122.9044756402
 21
27.5455901072
 31
0.0
  0
LINE
  5
161C
330
225
100
AcDbEntity
  8
0
  6
Continuous
 62
     7
100
AcDbLine
 10
122.9043807415
 20
27.5455608252
 30
0.0
 11
122.9165445895
 21
27.5490692295
 31
0.0
  0
LINE
  5
161D
330
225
100
AcDbEntity
  8
0
  6
Continuous
 62
     7
100
AcDbLine
 10
122.6875146399
 20
27.36577581
 30
0.0
 11
122.7032325433
 21
27.3924357568
 31
0.0
  0
LINE
  5
161E
330
225
100
AcDbEntity
  8
0
  6
Continuous
 62
     7
100
AcDbLine
 10
122.7032067821
 20
27.3923959166
 30
0.0
 11
122.7204266917
 21
27.4168298321
 31
0.0
  0
LINE
  5
161F
330
225
100
AcDbEntity
  8
0
  6
Continuous
 62
     7
100
AcDbLine
 10
122.7203895593
 20
27.4167813667
 30
0.0
 11
122.7388200192
 21
27.4390066297
 31
0.0
  0
LINE
  5
1620
330
225
100
AcDbEntity
  8
0
  6
Continuous
 62
     7
100
AcDbLine
 10
122.7387708615
 20
27.4389517907
 30
0.0
 11
122.7581265585
 21
27.4589912978
 31
0.0
  0
LINE
  5
1621
330
225
100
AcDbEntity
  8
0
  6
Continuous
 62
     7
100
AcDbLine
 10
122.7580651553
 20
27.4589322789
 30
0.0
 11
122.7780757275
 21
27.4768299412
 31
0.0
  0
LINE
  5
1622
330
225
100
AcDbEntity
  8
0
  6
Continuous
 62
     7
100
AcDbLine
 10
122.7780022128
 20
27.4767687834
 30
0.0
 11
122.7984165916
 21
27.4925910392
 31
0.0
  0
LINE
  5
1623
330
225
100
AcDbEntity
  8
0
  6
Continuous
 62
     7
100
AcDbLine
 10
122.7983314386
 20
27.4925296223
 30
0.0
 11
122.818889452
 21
27.5063437028
 31
0.0
  0
LINE
  5
1624
330
225
100
AcDbEntity
  8
0
  6
Continuous
 62
     7
100
AcDbLine
 10
122.8187939086
 20
27.5062839996
 30
0.0
 11
122.8389669457
 21
27.5180264484
 31
0.0
  0
LINE
  5
1625
330
225
100
AcDbEntity
  8
0
  6
Continuous
 62
     7
100
AcDbLine
 10
122.8388647005
 20
27.5179711467
 30
0.0
 11
122.8579323721
 21
27.5275844023
 31
0.0
  0
LINE
  5
1626
330
225
100
AcDbEntity
  8
0
  6
Continuous
 62
     7
100
AcDbLine
 10
96.82328442020001
 20
44.9690199214
 30
0.0
 11
134.8232392863
 21
44.9690199214
 31
0.0
  0
LWPOLYLINE
  5
1627
330
225
100
AcDbEntity
  8
0
  6
Continuous
 62
     7
100
AcDbPolyline
 90
        4
 70
     0
 43
0.0
 10
130.8654443073
 20
41.3196857787
 10
130.9043160523
 20
41.4164021171
 10
130.9449717111
 20
41.52250014919999
 10
130.9746106187
 20
41.6151883958
  0
LWPOLYLINE
  5
1628
330
225
100
AcDbEntity
  8
0
  6
Continuous
 62
     7
100
AcDbPolyline
 90
        3
 70
     0
 43
0.0
 10
131.5975660435
 20
43.9811580185
 10
131.7180936154
 20
44.4867239022
 10
131.8291308163
 20
44.9690199214
  0
LWPOLYLINE
  5
1629
330
225
100
AcDbEntity
  8
0
  6
Continuous
 62
     7
100
AcDbPolyline
 90
       25
 70
     0
 43
0.0
 10
130.7678205948
 20
41.0304305349
 10
130.774346534
 20
41.0573481965
 10
130.7825722057
 20
41.0911591697
 10
130.7939402724
 20
41.13775090959999
 10
130.8083231848
 20
41.1965133223
 10
130.8257088403
 20
41.2673249731
 10
130.846104002
 20
41.3501400504
 10
130.8690494036
 20
41.4429437756
 10
130.8941267671
 20
41.54387203619999
 10
130.9214236752
 20
41.6531181367
 10
130.9512222823
 20
41.771674774
 10
130.9830824476
 20
41.8976814105
 10
131.0164748718
 20
42.02890479389999
 10
131.051635179
 20
42.1661323909
 10
131.0884086151
 20
42.308646674
 10
131.1262683285
 20
42.4543170171
 10
131.1652603997
 20
42.6032425654
 10
131.2066471099
 20
42.7601073342
 10
131.2475112236
 20
42.91385233909999
 10
131.2897413226
 20
43.0714814459
 10
131.3327266235
 20
43.23065459569999
 10
131.3784069506
 20
43.3992199025
 10
131.4279581207
 20
43.58242762939999
 10
131.481450444
 20
43.78078502899999
 10
131.5391756822
 20
43.99550647689999
  0
LINE
  5
162A
330
225
100
AcDbEntity
  8
0
  6
Continuous
 62
     7
100
AcDbLine
 10
131.6271843547
 20
44.09398888560001
 30
0.0
 11
131.6431714142
 21
44.155897156
 31
0.0
  0
LINE
  5
162B
330
225
100
AcDbEntity
  8
0
  6
Continuous
 62
     7
100
AcDbLine
 10
131.8558784612
 20
44.9690199214
 30
0.0
 11
131.7364286879
 21
44.51321681609999
 31
0.0
  0
LINE
  5
162C
330
225
100
AcDbEntity
  8
0
  6
Continuous
 62
     7
100
AcDbLine
 10
131.7072803591
 20
43.6614384829
 30
0.0
 11
131.5640667632
 21
43.11747514229999
 31
0.0
  0
LINE
  5
162D
330
225
100
AcDbEntity
  8
0
  6
Continuous
 62
     7
100
AcDbLine
 10
131.6026775537
 20
44.0004842633
 30
0.0
 11
131.6271843547
 21
44.09398888560001
 31
0.0
  0
LWPOLYLINE
  5
162E
330
225
100
AcDbEntity
  8
0
  6
Continuous
 62
     7
100
AcDbPolyline
 90
        3
 70
     0
 43
0.0
 10
130.9769746101
 20
41.6239866393
 10
131.5975994995
 20
43.98128382449999
 10
131.6026775537
 20
44.0004842633
  0
LWPOLYLINE
  5
162F
330
225
100
AcDbEntity
  8
0
  6
Continuous
 62
     7
100
AcDbPolyline
 90
        3
 70
     0
 43
0.0
 10
131.5391756514
 20
43.99550648499999
 10
131.6875491067
 20
44.55065094939999
 10
131.7985400162
 20
44.9690199214
  0
LINE
  5
1630
330
225
100
AcDbEntity
  8
0
  6
Continuous
 62
     7
100
AcDbLine
 10
130.9746106187
 20
41.6151883958
 30
0.0
 11
130.9769746101
 21
41.6239866393
 31
0.0
  0
LWPOLYLINE
  5
1631
330
225
100
AcDbEntity
  8
0
  6
Continuous
 62
     7
100
AcDbPolyline
 90
        4
 70
     0
 43
0.0
 10
130.7678205948
 20
41.0304305349
 10
130.8127524226
 20
41.1779681521
 10
130.8590373138
 20
41.3034471153
 10
130.8654443073
 20
41.3196857787
  0
LWPOLYLINE
  5
1632
330
225
100
AcDbEntity
  8
0
  6
Continuous
 62
     7
100
AcDbPolyline
 90
        5
 70
     0
 43
0.0
 10
127.2562377506
 20
29.5502255496
 10
128.1788087685
 20
32.4072459524
 10
129.0720758754
 20
35.2745491353
 10
129.9357079254
 20
38.1511065956
 10
130.7678208351
 20
41.03043155339999
  0
LWPOLYLINE
  5
1633
330
225
100
AcDbEntity
  8
0
  6
Continuous
 62
     7
100
AcDbPolyline
 90
       12
 70
     0
 43
0.0
 10
100.1737934174
 20
46.9690199214
 10
100.1408084308
 20
46.9667497493
 10
100.1084224967
 20
46.9599804622
 10
100.0772237883
 20
46.9488349996
 10
100.0477789171
 20
46.93351577819999
 10
100.0206226427
 20
46.91430101609999
 10
99.99624816040002
 20
46.8915396796
 10
99.97509814469999
 20
46.8656451458
 10
99.95755670930002
 20
46.83708769499999
 10
99.94394243120002
 20
46.8063859701
 10
99.9345025644
 20
46.7740975567
 10
99.92940855030001
 20
46.7408088571
  0
LINE
  5
1634
330
225
100
AcDbEntity
  8
0
  6
Continuous
 62
     7
100
AcDbLine
 10
97.22734454080001
 20
46.9690199214
 30
0.0
 11
134.4191791658
 21
46.9690199214
 31
0.0
  0
LWPOLYLINE
  5
1635
330
225
100
AcDbEntity
  8
0
  6
Continuous
 62
     7
100
AcDbPolyline
 90
       12
 70
     0
 43
0.0
 10
131.472730286
 20
46.9690199214
 10
131.5057152732
 20
46.96674974919999
 10
131.538101208
 20
46.95998046169999
 10
131.569299917
 20
46.9488349987
 10
131.5987447887
 20
46.93351577669999
 10
131.6259010634
 20
46.91430101399999
 10
131.6502755457999
 20
46.8915396771
 10
131.6714255613
 20
46.8656451431
 10
131.6889669966
 20
46.83708769259999
 10
131.7025812748
 20
46.80638596819999
 10
131.7120211417
 20
46.7740975556
 10
131.7171151563
 20
46.7408088571
  0
LINE
  5
1636
330
225
100
AcDbEntity
  8
0
  6
Continuous
 62
     7
100
AcDbLine
 10
131.5640667632
 20
43.11747514229999
 30
0.0
 11
131.3827456497
 21
43.1652130076
 31
0.0
  0
LINE
  5
1637
330
225
100
AcDbEntity
  8
DEFAULT_1
  6
CENTER
 62
     7
100
AcDbLine
 10
129.4671977956
 20
43.96036883689999
 30
0.0
 11
133.222559525
 21
42.9716646047
 31
0.0
  0
LINE
  5
1638
330
225
100
AcDbEntity
  8
0
  6
Continuous
 62
     7
100
AcDbLine
 10
131.7072803591
 20
43.6614384829
 30
0.0
 11
131.5259592455
 21
43.70917634819999
 31
0.0
  0
LWPOLYLINE
  5
1639
330
225
100
AcDbEntity
  8
0
  6
Continuous
 62
     7
100
AcDbPolyline
 90
        6
 70
     0
 43
0.0
 10
131.5391756514
 20
43.99550648499999
 10
131.5465652422
 20
43.9928393075
 10
131.5599157116
 20
43.98864270319999
 10
131.5766167078
 20
43.98438980389999
 10
131.591357912
 20
43.98142352679999
 10
131.5975660435
 20
43.9811580185
  0
LINE
  5
163A
330
225
100
AcDbEntity
  8
0
  6
Continuous
 62
     7
100
AcDbLine
 10
131.7171151563
 20
46.7408088571
 30
0.0
 11
131.8692237841
 21
44.9690199214
 31
0.0
  0
LINE
  5
163B
330
225
100
AcDbEntity
  8
0
  6
Continuous
 62
     7
100
AcDbLine
 10
134.6682278403
 20
46.7408088571
 30
0.0
 11
134.8232392863
 21
44.9690199214
 31
0.0
  0
ARC
  5
16EB
330
225
100
AcDbEntity
  8
DEFAULT_2
  6
HIDDEN
 62
     7
100
AcDbCircle
 10
124.7624474195
 20
30.3697588273
 30
0.0
 40
2.5
100
AcDbArc
 50
273.2149484451
 51
341.8079485798
  0
ARC
  5
16EC
330
225
100
AcDbEntity
  8
DEFAULT_2
  6
HIDDEN
 62
     7
100
AcDbCircle
 10
106.8840762867
 20
30.3697588283
 30
0.0
 40
2.5
100
AcDbArc
 50
198.1920507897
 51
266.7850515531
  0
ARC
  5
16F2
330
225
100
AcDbEntity
  8
DEFAULT_2
  6
HIDDEN
 62
     7
100
AcDbCircle
 10
132.5485037933
 20
46.5940199214
 30
0.0
 40
0.375
100
AcDbArc
 50
89.99999992719999
 51
164.9981106508
  0
ARC
  5
16F3
330
225
100
AcDbEntity
  8
DEFAULT_2
  6
HIDDEN
 62
     7
100
AcDbCircle
 10
99.0980199132
 20
46.5940199214
 30
0.0
 40
0.375
100
AcDbArc
 50
15.0018893492
 51
90.0000000728
  0
ARC
  5
16F8
330
225
100
AcDbEntity
  8
DEFAULT_2
  6
HIDDEN
 62
     7
100
AcDbCircle
 10
117.8075605146
 20
27.2247651922
 30
0.0
 40
0.25
100
AcDbArc
 50
93.2149484447
 51
134.9999999918
  0
ARC
  5
16F9
330
225
100
AcDbEntity
  8
DEFAULT_2
  6
HIDDEN
 62
     7
100
AcDbCircle
 10
117.0947084627
 20
27.2190199214
 30
0.0
 40
0.25
100
AcDbArc
 50
270.0
 51
315.0
  0
ARC
  5
16FA
330
225
100
AcDbEntity
  8
DEFAULT_2
  6
HIDDEN
 62
     7
100
AcDbCircle
 10
114.5518152439
 20
27.2190199214
 30
0.0
 40
0.25
100
AcDbArc
 50
225.0
 51
270.0
  0
ARC
  5
16FB
330
225
100
AcDbEntity
  8
DEFAULT_2
  6
HIDDEN
 62
     7
100
AcDbCircle
 10
113.8389631919
 20
27.2247651922
 30
0.0
 40
0.25
100
AcDbArc
 50
45.0000000082
 51
86.7850515473
  0
ARC
  5
16FC
330
225
100
AcDbEntity
  8
DEFAULT_2
  6
HIDDEN
 62
     7
100
AcDbCircle
 10
131.4040705802
 20
43.8304561002
 30
0.0
 40
0.07
100
AcDbArc
 50
75.25
 51
165.25
  0
ARC
  5
16FD
330
225
100
AcDbEntity
  8
DEFAULT_2
  6
HIDDEN
 62
     7
100
AcDbCircle
 10
131.2169381482
 20
43.1196773351
 30
0.0
 40
0.07
100
AcDbArc
 50
165.25
 51
255.25
  0
ARC
  5
1709
330
225
100
AcDbEntity
  8
0
  6
Continuous
 62
     7
100
AcDbCircle
 10
106.8840762867
 20
30.3697588283
 30
0.0
 40
2.625
100
AcDbArc
 50
198.1920507907
 51
266.785051552
  0
ARC
  5
170A
330
225
100
AcDbEntity
  8
0
  6
Continuous
 62
     7
100
AcDbCircle
 10
124.7624474195
 20
30.3697588273
 30
0.0
 40
2.625
100
AcDbArc
 50
273.2149484403
 51
341.8079492086
  0
ARC
  5
170B
330
225
100
AcDbEntity
  8
0
  6
Continuous
 62
     7
100
AcDbCircle
 10
110.0732618533
 20
27.0565199214
 30
0.0
 40
0.9375
100
AcDbArc
 50
200.0
 51
340.0
  0
ARC
  5
170C
330
225
100
AcDbEntity
  8
0
  6
Continuous
 62
     7
100
AcDbCircle
 10
121.5732618533
 20
27.0565199214
 30
0.0
 40
0.9375
100
AcDbArc
 50
200.0
 51
340.0
  0
ARC
  5
170D
330
225
100
AcDbEntity
  8
0
  6
Continuous
 62
     7
100
AcDbCircle
 10
114.5518152439
 20
27.2190199214
 30
0.0
 40
0.375
100
AcDbArc
 50
225.0
 51
270.0
  0
ARC
  5
170E
330
225
100
AcDbEntity
  8
0
  6
Continuous
 62
     7
100
AcDbCircle
 10
117.0947084627
 20
27.2190199214
 30
0.0
 40
0.375
100
AcDbArc
 50
270.0
 51
315.0
  0
ARC
  5
170F
330
225
100
AcDbEntity
  8
0
  6
Continuous
 62
     7
100
AcDbCircle
 10
111.4435011354
 20
26.9837281331
 30
0.0
 40
0.375
100
AcDbArc
 50
86.78505154499999
 51
159.9999999515
  0
ARC
  5
1710
330
225
100
AcDbEntity
  8
0
  6
Continuous
 62
     7
100
AcDbCircle
 10
108.6458259107
 20
27.1408746663
 30
0.0
 40
0.375
100
AcDbArc
 50
20.0000000544
 51
86.78505157020001
  0
ARC
  5
1711
330
225
100
AcDbEntity
  8
0
  6
Continuous
 62
     7
100
AcDbCircle
 10
97.22734454080001
 20
46.7190199214
 30
0.0
 40
0.25
100
AcDbArc
 50
90.0
 51
175.0
  0
ARC
  5
1712
330
225
100
AcDbEntity
  8
0
  6
Continuous
 62
     7
100
AcDbCircle
 10
134.4191791658
 20
46.7190199214
 30
0.0
 40
0.25
100
AcDbArc
 50
5.0
 51
90.0
  0
ARC
  5
1713
330
225
100
AcDbEntity
  8
0
  6
Continuous
 62
     7
100
AcDbCircle
 10
117.8075605146
 20
27.2247651922
 30
0.0
 40
0.125
100
AcDbArc
 50
93.2149484432
 51
135.0
  0
ARC
  5
1714
330
225
100
AcDbEntity
  8
0
  6
Continuous
 62
     7
100
AcDbCircle
 10
113.8389631919
 20
27.2247651922
 30
0.0
 40
0.125
100
AcDbArc
 50
45.0
 51
86.78505154879999
  0
ENDSEC
  0
SECTION
  2
OBJECTS
  0
DICTIONARY
  5
C
330
0
100
AcDbDictionary
281
     1
  3
ACAD_CIP_PREVIOUS_PRODUCT_INFO
350
1847
  3
ACAD_COLOR
350
1752
  3
ACAD_DETAILVIEWSTYLE
350
1840
  3
ACAD_GROUP
350
D
  3
ACAD_LAYOUT
350
1A
  3
ACAD_MATERIAL
350
1725
  3
ACAD_MLEADERSTYLE
350
1777
  3
ACAD_MLINESTYLE
350
17
  3
ACAD_PLOTSETTINGS
350
19
  3
ACAD_PLOTSTYLENAME
350
E
  3
ACAD_SCALELIST
350
1755
  3
ACAD_SECTIONVIEWSTYLE
350
183E
  3
ACAD_TABLESTYLE
350
1753
  3
ACAD_VISUALSTYLE
350
173E
  3
ACDB_RECOMPOSE_DATA
350
1891
  3
AcDbVariableDictionary
350
17AD
  0
DICTIONARY
  5
177C
330
8
100
AcDbDictionary
280
     1
281
     1
  0
DICTIONARY
  5
17BC
330
10
100
AcDbDictionary
280
     1
281
     1
  3
ADSK_XREC_LAYER_RECONCILED
360
17BD
  0
DICTIONARY
  5
17BE
330
1FA
100
AcDbDictionary
280
     1
281
     1
  3
ADSK_XREC_LAYER_RECONCILED
360
17BF
  0
DICTIONARY
  5
17C0
330
1FB
100
AcDbDictionary
280
     1
281
     1
  3
ADSK_XREC_LAYER_RECONCILED
360
17C1
  0
DICTIONARY
  5
17C2
330
1FC
100
AcDbDictionary
280
     1
281
     1
  3
ADSK_XREC_LAYER_RECONCILED
360
17C3
  0
DICTIONARY
  5
17C4
330
1FD
100
AcDbDictionary
280
     1
281
     1
  3
ADSK_XREC_LAYER_RECONCILED
360
17C5
  0
DICTIONARY
  5
17C6
330
1FE
100
AcDbDictionary
280
     1
281
     1
  3
ADSK_XREC_LAYER_RECONCILED
360
17C7
  0
DICTIONARY
  5
17C8
330
1FF
100
AcDbDictionary
280
     1
281
     1
  3
ADSK_XREC_LAYER_RECONCILED
360
17C9
  0
DICTIONARY
  5
17CA
330
200
100
AcDbDictionary
280
     1
281
     1
  3
ADSK_XREC_LAYER_RECONCILED
360
17CB
  0
DICTIONARY
  5
17CC
330
201
100
AcDbDictionary
280
     1
281
     1
  3
ADSK_XREC_LAYER_RECONCILED
360
17CD
  0
DICTIONARY
  5
17CE
330
202
100
AcDbDictionary
280
     1
281
     1
  3
ADSK_XREC_LAYER_RECONCILED
360
17CF
  0
DICTIONARY
  5
17D0
330
203
100
AcDbDictionary
280
     1
281
     1
  3
ADSK_XREC_LAYER_RECONCILED
360
17D1
  0
DICTIONARY
  5
17D2
330
204
100
AcDbDictionary
280
     1
281
     1
  3
ADSK_XREC_LAYER_RECONCILED
360
17D3
  0
DICTIONARY
  5
17D4
330
205
100
AcDbDictionary
280
     1
281
     1
  3
ADSK_XREC_LAYER_RECONCILED
360
17D5
  0
DICTIONARY
  5
17D6
330
206
100
AcDbDictionary
280
     1
281
     1
  3
ADSK_XREC_LAYER_RECONCILED
360
17D7
  0
DICTIONARY
  5
17D8
330
207
100
AcDbDictionary
280
     1
281
     1
  3
ADSK_XREC_LAYER_RECONCILED
360
17D9
  0
DICTIONARY
  5
17DA
330
208
100
AcDbDictionary
280
     1
281
     1
  3
ADSK_XREC_LAYER_RECONCILED
360
17DB
  0
DICTIONARY
  5
17DC
330
209
100
AcDbDictionary
280
     1
281
     1
  3
ADSK_XREC_LAYER_RECONCILED
360
17DD
  0
DICTIONARY
  5
17DE
330
20A
100
AcDbDictionary
280
     1
281
     1
  3
ADSK_XREC_LAYER_RECONCILED
360
17DF
  0
DICTIONARY
  5
17E0
330
20B
100
AcDbDictionary
280
     1
281
     1
  3
ADSK_XREC_LAYER_RECONCILED
360
17E1
  0
DICTIONARY
  5
17E2
330
20C
100
AcDbDictionary
280
     1
281
     1
  3
ADSK_XREC_LAYER_RECONCILED
360
17E3
  0
DICTIONARY
  5
17E4
330
20D
100
AcDbDictionary
280
     1
281
     1
  3
ADSK_XREC_LAYER_RECONCILED
360
17E5
  0
DICTIONARY
  5
17E6
330
20E
100
AcDbDictionary
280
     1
281
     1
  3
ADSK_XREC_LAYER_RECONCILED
360
17E7
  0
DICTIONARY
  5
17E8
330
20F
100
AcDbDictionary
280
     1
281
     1
  3
ADSK_XREC_LAYER_RECONCILED
360
17E9
  0
DICTIONARY
  5
17EA
330
210
100
AcDbDictionary
280
     1
281
     1
  3
ADSK_XREC_LAYER_RECONCILED
360
17EB
  0
DICTIONARY
  5
17EC
330
211
100
AcDbDictionary
280
     1
281
     1
  3
ADSK_XREC_LAYER_RECONCILED
360
17ED
  0
DICTIONARY
  5
17EE
330
212
100
AcDbDictionary
280
     1
281
     1
  3
ADSK_XREC_LAYER_RECONCILED
360
17EF
  0
DICTIONARY
  5
17F0
330
213
100
AcDbDictionary
280
     1
281
     1
  3
ADSK_XREC_LAYER_RECONCILED
360
17F1
  0
DICTIONARY
  5
17F2
330
214
100
AcDbDictionary
280
     1
281
     1
  3
ADSK_XREC_LAYER_RECONCILED
360
17F3
  0
DICTIONARY
  5
17F4
330
215
100
AcDbDictionary
280
     1
281
     1
  3
ADSK_XREC_LAYER_RECONCILED
360
17F5
  0
DICTIONARY
  5
17F6
330
216
100
AcDbDictionary
280
     1
281
     1
  3
ADSK_XREC_LAYER_RECONCILED
360
17F7
  0
DICTIONARY
  5
17F8
330
217
100
AcDbDictionary
280
     1
281
     1
  3
ADSK_XREC_LAYER_RECONCILED
360
17F9
  0
DICTIONARY
  5
17FA
330
218
100
AcDbDictionary
280
     1
281
     1
  3
ADSK_XREC_LAYER_RECONCILED
360
17FB
  0
DICTIONARY
  5
17FC
330
219
100
AcDbDictionary
280
     1
281
     1
  3
ADSK_XREC_LAYER_RECONCILED
360
17FD
  0
DICTIONARY
  5
17FE
330
21A
100
AcDbDictionary
280
     1
281
     1
  3
ADSK_XREC_LAYER_RECONCILED
360
17FF
  0
DICTIONARY
  5
1800
330
21B
100
AcDbDictionary
280
     1
281
     1
  3
ADSK_XREC_LAYER_RECONCILED
360
1801
  0
DICTIONARY
  5
1802
330
21C
100
AcDbDictionary
280
     1
281
     1
  3
ADSK_XREC_LAYER_RECONCILED
360
1803
  0
XRECORD
  5
1847
102
{ACAD_REACTORS
330
C
102
}
330
C
100
AcDbXrecord
280
     1
300
ACDLT
300
2016
300
ACDLT_F_S
  0
DICTIONARY
  5
1752
102
{ACAD_REACTORS
330
C
102
}
330
C
100
AcDbDictionary
281
     1
  0
DICTIONARY
  5
1840
102
{ACAD_REACTORS
330
C
102
}
330
C
100
AcDbDictionary
281
     1
  3
Imperial24
350
1841
  0
DICTIONARY
  5
D
102
{ACAD_REACTORS
330
C
102
}
330
C
100
AcDbDictionary
281
     1
  0
DICTIONARY
  5
1A
102
{ACAD_REACTORS
330
C
102
}
330
C
100
AcDbDictionary
281
     1
  3
Layout1
350
1722
  3
Model
350
1721
  0
DICTIONARY
  5
1725
102
{ACAD_REACTORS
330
C
102
}
330
C
100
AcDbDictionary
281
     1
  3
ByBlock
350
172E
  3
ByLayer
350
1726
  3
Global
350
1736
  0
DICTIONARY
  5
1777
102
{ACAD_REACTORS
330
C
102
}
330
C
100
AcDbDictionary
281
     1
  3
Standard
350
1778
  0
DICTIONARY
  5
17
102
{ACAD_REACTORS
330
C
102
}
330
C
100
AcDbDictionary
281
     1
  3
Standard
350
18
  0
DICTIONARY
  5
19
102
{ACAD_REACTORS
330
C
102
}
330
C
100
AcDbDictionary
281
     1
  0
ACDBDICTIONARYWDFLT
  5
E
102
{ACAD_REACTORS
330
C
102
}
330
C
100
AcDbDictionary
281
     1
  3
Normal
350
F
100
AcDbDictionaryWithDefault
340
F
  0
DICTIONARY
  5
1755
102
{ACAD_REACTORS
330
C
102
}
330
C
100
AcDbDictionary
281
     1
  3
A0
350
1756
  3
A1
350
1757
  3
A2
350
1758
  3
A3
350
1759
  3
A4
350
175A
  3
A5
350
175B
  3
A6
350
175C
  3
A7
350
175D
  3
A8
350
175E
  3
A9
350
175F
  3
B0
350
1760
  3
B1
350
1761
  3
B2
350
1762
  3
B3
350
1763
  3
B4
350
1764
  3
B5
350
1765
  3
B6
350
1766
  3
B7
350
1767
  3
B8
350
1768
  3
B9
350
1769
  3
C0
350
176A
  3
C1
350
176B
  3
C2
350
176C
  3
C3
350
176D
  3
C4
350
176E
  3
C5
350
176F
  3
C6
350
1770
  3
C7
350
1771
  3
C8
350
1772
  3
C9
350
1773
  3
D0
350
1774
  3
D1
350
1775
  3
D2
350
1776
  0
DICTIONARY
  5
183E
102
{ACAD_REACTORS
330
C
102
}
330
C
100
AcDbDictionary
281
     1
  3
Imperial24
350
183F
  0
DICTIONARY
  5
1753
102
{ACAD_REACTORS
330
C
102
}
330
C
100
AcDbDictionary
281
     1
  3
Standard
350
1754
  0
DICTIONARY
  5
173E
102
{ACAD_REACTORS
330
C
102
}
330
C
100
AcDbDictionary
281
     1
  3
2dWireframe
350
1744
  3
3D Hidden
350
1746
  3
3dWireframe
350
1745
  3
Basic
350
1743
  3
Brighten
350
174A
  3
ColorChange
350
174E
  3
Conceptual
350
1747
  3
Dim
350
1749
  3
EdgeColorOff
350
1751
  3
Facepattern
350
174D
  3
Flat
350
173F
  3
FlatWithEdges
350
1740
  3
Gouraud
350
1741
  3
GouraudWithEdges
350
1742
  3
Hidden
350
1838
  3
JitterOff
350
174F
  3
Linepattern
350
174C
  3
OverhangOff
350
1750
  3
Realistic
350
1748
  3
Shaded
350
183D
  3
Shaded with edges
350
183C
  3
Shades of Gray
350
1839
  3
Sketchy
350
183A
  3
Thicken
350
174B
  3
Wireframe
350
1837
  3
X-Ray
350
183B
  0
XRECORD
  5
1891
102
{ACAD_REACTORS
330
C
102
}
330
C
100
AcDbXrecord
280
     1
 90
        1
330
1754
  0
DICTIONARY
  5
17AD
102
{ACAD_REACTORS
330
C
102
}
330
C
100
AcDbDictionary
281
     1
  3
CANNOSCALE
350
17B0
  3
CMLEADERSTYLE
350
17AF
  3
CTABLESTYLE
350
17AE
  3
CVIEWDETAILSTYLE
350
188C
  3
CVIEWSECTIONSTYLE
350
188D
  3
DIMASSOC
350
17B3
  3
INDEXCTL
350
17B2
  3
LAYEREVAL
350
1834
  3
LAYERNOTIFY
350
1835
  3
LIGHTINGUNITS
350
1833
  3
MSLTSCALE
350
1832
  3
SOLIDHIST
350
188E
  3
SORTENTS
350
17B1
  3
XCLIPFRAME
350
188F
  0
XRECORD
  5
17BD
102
{ACAD_REACTORS
330
17BC
102
}
330
17BC
100
AcDbXrecord
280
     1
290
     1
  0
XRECORD
  5
17BF
102
{ACAD_REACTORS
330
17BE
102
}
330
17BE
100
AcDbXrecord
280
     1
290
     1
  0
XRECORD
  5
17C1
102
{ACAD_REACTORS
330
17C0
102
}
330
17C0
100
AcDbXrecord
280
     1
290
     1
  0
XRECORD
  5
17C3
102
{ACAD_REACTORS
330
17C2
102
}
330
17C2
100
AcDbXrecord
280
     1
290
     1
  0
XRECORD
  5
17C5
102
{ACAD_REACTORS
330
17C4
102
}
330
17C4
100
AcDbXrecord
280
     1
290
     1
  0
XRECORD
  5
17C7
102
{ACAD_REACTORS
330
17C6
102
}
330
17C6
100
AcDbXrecord
280
     1
290
     1
  0
XRECORD
  5
17C9
102
{ACAD_REACTORS
330
17C8
102
}
330
17C8
100
AcDbXrecord
280
     1
290
     1
  0
XRECORD
  5
17CB
102
{ACAD_REACTORS
330
17CA
102
}
330
17CA
100
AcDbXrecord
280
     1
290
     1
  0
XRECORD
  5
17CD
102
{ACAD_REACTORS
330
17CC
102
}
330
17CC
100
AcDbXrecord
280
     1
290
     1
  0
XRECORD
  5
17CF
102
{ACAD_REACTORS
330
17CE
102
}
330
17CE
100
AcDbXrecord
280
     1
290
     1
  0
XRECORD
  5
17D1
102
{ACAD_REACTORS
330
17D0
102
}
330
17D0
100
AcDbXrecord
280
     1
290
     1
  0
XRECORD
  5
17D3
102
{ACAD_REACTORS
330
17D2
102
}
330
17D2
100
AcDbXrecord
280
     1
290
     1
  0
XRECORD
  5
17D5
102
{ACAD_REACTORS
330
17D4
102
}
330
17D4
100
AcDbXrecord
280
     1
290
     1
  0
XRECORD
  5
17D7
102
{ACAD_REACTORS
330
17D6
102
}
330
17D6
100
AcDbXrecord
280
     1
290
     1
  0
XRECORD
  5
17D9
102
{ACAD_REACTORS
330
17D8
102
}
330
17D8
100
AcDbXrecord
280
     1
290
     1
  0
XRECORD
  5
17DB
102
{ACAD_REACTORS
330
17DA
102
}
330
17DA
100
AcDbXrecord
280
     1
290
     1
  0
XRECORD
  5
17DD
102
{ACAD_REACTORS
330
17DC
102
}
330
17DC
100
AcDbXrecord
280
     1
290
     1
  0
XRECORD
  5
17DF
102
{ACAD_REACTORS
330
17DE
102
}
330
17DE
100
AcDbXrecord
280
     1
290
     1
  0
XRECORD
  5
17E1
102
{ACAD_REACTORS
330
17E0
102
}
330
17E0
100
AcDbXrecord
280
     1
290
     1
  0
XRECORD
  5
17E3
102
{ACAD_REACTORS
330
17E2
102
}
330
17E2
100
AcDbXrecord
280
     1
290
     1
  0
XRECORD
  5
17E5
102
{ACAD_REACTORS
330
17E4
102
}
330
17E4
100
AcDbXrecord
280
     1
290
     1
  0
XRECORD
  5
17E7
102
{ACAD_REACTORS
330
17E6
102
}
330
17E6
100
AcDbXrecord
280
     1
290
     1
  0
XRECORD
  5
17E9
102
{ACAD_REACTORS
330
17E8
102
}
330
17E8
100
AcDbXrecord
280
     1
290
     1
  0
XRECORD
  5
17EB
102
{ACAD_REACTORS
330
17EA
102
}
330
17EA
100
AcDbXrecord
280
     1
290
     1
  0
XRECORD
  5
17ED
102
{ACAD_REACTORS
330
17EC
102
}
330
17EC
100
AcDbXrecord
280
     1
290
     1
  0
XRECORD
  5
17EF
102
{ACAD_REACTORS
330
17EE
102
}
330
17EE
100
AcDbXrecord
280
     1
290
     1
  0
XRECORD
  5
17F1
102
{ACAD_REACTORS
330
17F0
102
}
330
17F0
100
AcDbXrecord
280
     1
290
     1
  0
XRECORD
  5
17F3
102
{ACAD_REACTORS
330
17F2
102
}
330
17F2
100
AcDbXrecord
280
     1
290
     1
  0
XRECORD
  5
17F5
102
{ACAD_REACTORS
330
17F4
102
}
330
17F4
100
AcDbXrecord
280
     1
290
     1
  0
XRECORD
  5
17F7
102
{ACAD_REACTORS
330
17F6
102
}
330
17F6
100
AcDbXrecord
280
     1
290
     1
  0
XRECORD
  5
17F9
102
{ACAD_REACTORS
330
17F8
102
}
330
17F8
100
AcDbXrecord
280
     1
290
     1
  0
XRECORD
  5
17FB
102
{ACAD_REACTORS
330
17FA
102
}
330
17FA
100
AcDbXrecord
280
     1
290
     1
  0
XRECORD
  5
17FD
102
{ACAD_REACTORS
330
17FC
102
}
330
17FC
100
AcDbXrecord
280
     1
290
     1
  0
XRECORD
  5
17FF
102
{ACAD_REACTORS
330
17FE
102
}
330
17FE
100
AcDbXrecord
280
     1
290
     1
  0
XRECORD
  5
1801
102
{ACAD_REACTORS
330
1800
102
}
330
1800
100
AcDbXrecord
280
     1
290
     1
  0
XRECORD
  5
1803
102
{ACAD_REACTORS
330
1802
102
}
330
1802
100
AcDbXrecord
280
     1
290
     1
  0
ACDBDETAILVIEWSTYLE
  5
1841
102
{ACAD_XDICTIONARY
360
18CC
102
}
102
{ACAD_REACTORS
330
1840
102
}
330
1840
100
AcDbModelDocViewStyle
 70
     0
  3
Imperial24
290
     0
100
AcDbDetailViewStyle
 70
     0
 71
     0
 90
        3
 71
     1
340
11
 62
   256
 40
0.24
340
0
 62
   256
 40
0.24
300

 40
0.36
280
     3
 71
     2
340
16
 90
       25
 62
   256
 71
     3
340
11
 62
   256
 40
0.24
 90
        1
 40
0.75
 90
        1
300
%<\AcVar ViewType \f "%tc1">% %<\AcVar ViewDetailId>%\PSCALE %<\AcVar ViewScale \f "%sn">%
 71
     4
340
16
 90
       25
 62
   256
340
16
 90
       25
 62
   256
280
     0
  0
LAYOUT
  5
1722
102
{ACAD_REACTORS
330
1A
102
}
330
1A
100
AcDbPlotSettings
  1

  2
none_device
  4
ANSI_B_(17.00_x_11.00_Inches)
  6

 40
0.0
 41
0.0
 42
0.0
 43
0.0
 44
431.8
 45
279.4
 46
0.0
 47
0.0
 48
0.0
 49
0.0
140
0.0
141
0.0
142
1.0
143
1.0
 70
     0
 72
     0
 73
     0
 74
     0
  7

 75
     0
147
1.0
 76
     0
 77
     2
 78
   300
148
0.0
149
0.0
100
AcDbLayout
  1
Layout1
 70
     1
 71
     1
 10
0.0
 20
0.0
 11
12.0
 21
9.0
 12
0.0
 22
0.0
 32
0.0
 14
1.000000000000000E+20
 24
1.000000000000000E+20
 34
1.000000000000000E+20
 15
-1.000000000000000E+20
 25
-1.000000000000000E+20
 35
-1.000000000000000E+20
146
0.0
 13
0.0
 23
0.0
 33
0.0
 16
1.0
 26
0.0
 36
0.0
 17
0.0
 27
1.0
 37
0.0
 76
     0
330
226
  0
LAYOUT
  5
1721
102
{ACAD_REACTORS
330
1A
102
}
330
1A
100
AcDbPlotSettings
  1

  2
none_device
  4
ANSI_B_(17.00_x_11.00_Inches)
  6

 40
0.0
 41
0.0
 42
0.0
 43
0.0
 44
431.8
 45
279.4
 46
0.0
 47
0.0
 48
0.0
 49
0.0
140
0.0
141
0.0
142
1.0
143
1.0
 70
  1024
 72
     0
 73
     0
 74
     0
  7

 75
     0
147
1.0
 76
     0
 77
     2
 78
   300
148
0.0
149
0.0
100
AcDbLayout
  1
Model
 70
     0
 71
     0
 10
0.0
 20
0.0
 11
17.0
 21
11.0
 12
0.0
 22
0.0
 32
0.0
 14
0.0
 24
0.0
 34
0.0
 15
0.0
 25
0.0
 35
0.0
146
0.0
 13
0.0
 23
0.0
 33
0.0
 16
1.0
 26
0.0
 36
0.0
 17
0.0
 27
1.0
 37
0.0
 76
     0
330
225
331
1F4
  0
MATERIAL
  5
172E
102
{ACAD_XDICTIONARY
360
172F
102
}
102
{ACAD_REACTORS
330
1725
102
}
330
1725
100
AcDbMaterial
  1
ByBlock
 72
     0
 43
0.0208333333333333
 43
0.0
 43
0.0
 43
0.0
 43
0.0
 43
0.0208333333333333
 43
0.0
 43
0.0
 43
0.0
 43
0.0
 43
1.0
 43
0.0
 43
0.0
 43
0.0
 43
0.0
 43
1.0
 77
     0
 47
0.0208333333333333
 47
0.0
 47
0.0
 47
0.0
 47
0.0
 47
0.0208333333333333
 47
0.0
 47
0.0
 47
0.0
 47
0.0
 47
1.0
 47
0.0
 47
0.0
 47
0.0
 47
0.0
 47
1.0
171
     0
 49
0.0208333333333333
 49
0.0
 49
0.0
 49
0.0
 49
0.0
 49
0.0208333333333333
 49
0.0
 49
0.0
 49
0.0
 49
0.0
 49
1.0
 49
0.0
 49
0.0
 49
0.0
 49
0.0
 49
1.0
175
     0
142
0.0208333333333333
142
0.0
142
0.0
142
0.0
142
0.0
142
0.0208333333333333
142
0.0
142
0.0
142
0.0
142
0.0
142
1.0
142
0.0
142
0.0
142
0.0
142
0.0
142
1.0
179
     0
144
0.0208333333333333
144
0.0
144
0.0
144
0.0
144
0.0
144
0.0208333333333333
144
0.0
144
0.0
144
0.0
144
0.0
144
1.0
144
0.0
144
0.0
144
0.0
144
0.0
144
1.0
147
0.0208333333333333
147
0.0
147
0.0
147
0.0
147
0.0
147
0.0208333333333333
147
0.0
147
0.0
147
0.0
147
0.0
147
1.0
147
0.0
147
0.0
147
0.0
147
0.0
147
1.0
  0
MATERIAL
  5
1726
102
{ACAD_XDICTIONARY
360
1727
102
}
102
{ACAD_REACTORS
330
1725
102
}
330
1725
100
AcDbMaterial
  1
ByLayer
 72
     0
 43
0.0208333333333333
 43
0.0
 43
0.0
 43
0.0
 43
0.0
 43
0.0208333333333333
 43
0.0
 43
0.0
 43
0.0
 43
0.0
 43
1.0
 43
0.0
 43
0.0
 43
0.0
 43
0.0
 43
1.0
 77
     0
 47
0.0208333333333333
 47
0.0
 47
0.0
 47
0.0
 47
0.0
 47
0.0208333333333333
 47
0.0
 47
0.0
 47
0.0
 47
0.0
 47
1.0
 47
0.0
 47
0.0
 47
0.0
 47
0.0
 47
1.0
171
     0
 49
0.0208333333333333
 49
0.0
 49
0.0
 49
0.0
 49
0.0
 49
0.0208333333333333
 49
0.0
 49
0.0
 49
0.0
 49
0.0
 49
1.0
 49
0.0
 49
0.0
 49
0.0
 49
0.0
 49
1.0
175
     0
142
0.0208333333333333
142
0.0
142
0.0
142
0.0
142
0.0
142
0.0208333333333333
142
0.0
142
0.0
142
0.0
142
0.0
142
1.0
142
0.0
142
0.0
142
0.0
142
0.0
142
1.0
179
     0
144
0.0208333333333333
144
0.0
144
0.0
144
0.0
144
0.0
144
0.0208333333333333
144
0.0
144
0.0
144
0.0
144
0.0
144
1.0
144
0.0
144
0.0
144
0.0
144
0.0
144
1.0
147
0.0208333333333333
147
0.0
147
0.0
147
0.0
147
0.0
147
0.0208333333333333
147
0.0
147
0.0
147
0.0
147
0.0
147
1.0
147
0.0
147
0.0
147
0.0
147
0.0
147
1.0
  0
MATERIAL
  5
1736
102
{ACAD_XDICTIONARY
360
1737
102
}
102
{ACAD_REACTORS
330
1725
102
}
330
1725
100
AcDbMaterial
  1
Global
 72
     0
 43
0.0208333333333333
 43
0.0
 43
0.0
 43
0.0
 43
0.0
 43
0.0208333333333333
 43
0.0
 43
0.0
 43
0.0
 43
0.0
 43
1.0
 43
0.0
 43
0.0
 43
0.0
 43
0.0
 43
1.0
 77
     0
 47
0.0208333333333333
 47
0.0
 47
0.0
 47
0.0
 47
0.0
 47
0.0208333333333333
 47
0.0
 47
0.0
 47
0.0
 47
0.0
 47
1.0
 47
0.0
 47
0.0
 47
0.0
 47
0.0
 47
1.0
171
     0
 49
0.0208333333333333
 49
0.0
 49
0.0
 49
0.0
 49
0.0
 49
0.0208333333333333
 49
0.0
 49
0.0
 49
0.0
 49
0.0
 49
1.0
 49
0.0
 49
0.0
 49
0.0
 49
0.0
 49
1.0
175
     0
142
0.0208333333333333
142
0.0
142
0.0
142
0.0
142
0.0
142
0.0208333333333333
142
0.0
142
0.0
142
0.0
142
0.0
142
1.0
142
0.0
142
0.0
142
0.0
142
0.0
142
1.0
179
     0
144
0.0208333333333333
144
0.0
144
0.0
144
0.0
144
0.0
144
0.0208333333333333
144
0.0
144
0.0
144
0.0
144
0.0
144
1.0
144
0.0
144
0.0
144
0.0
144
0.0
144
1.0
147
0.0208333333333333
147
0.0
147
0.0
147
0.0
147
0.0
147
0.0208333333333333
147
0.0
147
0.0
147
0.0
147
0.0
147
1.0
147
0.0
147
0.0
147
0.0
147
0.0
147
1.0
  0
MLEADERSTYLE
  5
1778
102
{ACAD_REACTORS
330
1777
102
}
330
1777
100
AcDbMLeaderStyle
170
     2
171
     1
172
     0
 90
        2
 40
0.0
 41
0.0
173
     1
 91
-1056964608
340
14
 92
       -2
290
     1
 42
0.09
291
     1
 43
0.36
  3
Standard
 44
0.18
300

342
11
174
     1
178
     6
175
     1
176
     0
 93
-1056964608
 45
0.18
292
     0
297
     0
 46
0.18
 94
-1056964608
 47
1.0
 49
1.0
140
1.0
293
     1
141
0.0
294
     1
177
     0
142
1.0
295
     0
296
     0
143
0.125
1001
ACAD_MLEADERVER
1070
     2
  0
MLINESTYLE
  5
18
102
{ACAD_REACTORS
330
17
102
}
330
17
100
AcDbMlineStyle
  2
STANDARD
 70
     0
  3

 62
   256
 51
90.0
 52
90.0
 71
     2
 49
0.5
 62
   256
  6
BYLAYER
 49
-0.5
 62
   256
  6
BYLAYER
  0
ACDBPLACEHOLDER
  5
F
102
{ACAD_REACTORS
330
E
102
}
330
E
  0
SCALE
  5
1756
102
{ACAD_REACTORS
330
1755
102
}
330
1755
100
AcDbScale
 70
     0
300
1:1
140
1.0
141
1.0
290
     1
  0
SCALE
  5
1757
102
{ACAD_REACTORS
330
1755
102
}
330
1755
100
AcDbScale
 70
     0
300
1:2
140
1.0
141
2.0
290
     0
  0
SCALE
  5
1758
102
{ACAD_REACTORS
330
1755
102
}
330
1755
100
AcDbScale
 70
     0
300
1:4
140
1.0
141
4.0
290
     0
  0
SCALE
  5
1759
102
{ACAD_REACTORS
330
1755
102
}
330
1755
100
AcDbScale
 70
     0
300
1:5
140
1.0
141
5.0
290
     0
  0
SCALE
  5
175A
102
{ACAD_REACTORS
330
1755
102
}
330
1755
100
AcDbScale
 70
     0
300
1:8
140
1.0
141
8.0
290
     0
  0
SCALE
  5
175B
102
{ACAD_REACTORS
330
1755
102
}
330
1755
100
AcDbScale
 70
     0
300
1:10
140
1.0
141
10.0
290
     0
  0
SCALE
  5
175C
102
{ACAD_REACTORS
330
1755
102
}
330
1755
100
AcDbScale
 70
     0
300
1:16
140
1.0
141
16.0
290
     0
  0
SCALE
  5
175D
102
{ACAD_REACTORS
330
1755
102
}
330
1755
100
AcDbScale
 70
     0
300
1:20
140
1.0
141
20.0
290
     0
  0
SCALE
  5
175E
102
{ACAD_REACTORS
330
1755
102
}
330
1755
100
AcDbScale
 70
     0
300
1:30
140
1.0
141
30.0
290
     0
  0
SCALE
  5
175F
102
{ACAD_REACTORS
330
1755
102
}
330
1755
100
AcDbScale
 70
     0
300
1:40
140
1.0
141
40.0
290
     0
  0
SCALE
  5
1760
102
{ACAD_REACTORS
330
1755
102
}
330
1755
100
AcDbScale
 70
     0
300
1:50
140
1.0
141
50.0
290
     0
  0
SCALE
  5
1761
102
{ACAD_REACTORS
330
1755
102
}
330
1755
100
AcDbScale
 70
     0
300
1:100
140
1.0
141
100.0
290
     0
  0
SCALE
  5
1762
102
{ACAD_REACTORS
330
1755
102
}
330
1755
100
AcDbScale
 70
     0
300
2:1
140
2.0
141
1.0
290
     0
  0
SCALE
  5
1763
102
{ACAD_REACTORS
330
1755
102
}
330
1755
100
AcDbScale
 70
     0
300
4:1
140
4.0
141
1.0
290
     0
  0
SCALE
  5
1764
102
{ACAD_REACTORS
330
1755
102
}
330
1755
100
AcDbScale
 70
     0
300
8:1
140
8.0
141
1.0
290
     0
  0
SCALE
  5
1765
102
{ACAD_REACTORS
330
1755
102
}
330
1755
100
AcDbScale
 70
     0
300
10:1
140
10.0
141
1.0
290
     0
  0
SCALE
  5
1766
102
{ACAD_REACTORS
330
1755
102
}
330
1755
100
AcDbScale
 70
     0
300
100:1
140
100.0
141
1.0
290
     0
  0
SCALE
  5
1767
102
{ACAD_REACTORS
330
1755
102
}
330
1755
100
AcDbScale
 70
     0
300
1/128" = 1'-0"
140
0.0078125
141
12.0
290
     0
  0
SCALE
  5
1768
102
{ACAD_REACTORS
330
1755
102
}
330
1755
100
AcDbScale
 70
     0
300
1/64" = 1'-0"
140
0.015625
141
12.0
290
     0
  0
SCALE
  5
1769
102
{ACAD_REACTORS
330
1755
102
}
330
1755
100
AcDbScale
 70
     0
300
1/32" = 1'-0"
140
0.03125
141
12.0
290
     0
  0
SCALE
  5
176A
102
{ACAD_REACTORS
330
1755
102
}
330
1755
100
AcDbScale
 70
     0
300
1/16" = 1'-0"
140
0.0625
141
12.0
290
     0
  0
SCALE
  5
176B
102
{ACAD_REACTORS
330
1755
102
}
330
1755
100
AcDbScale
 70
     0
300
3/32" = 1'-0"
140
0.09375
141
12.0
290
     0
  0
SCALE
  5
176C
102
{ACAD_REACTORS
330
1755
102
}
330
1755
100
AcDbScale
 70
     0
300
1/8" = 1'-0"
140
0.125
141
12.0
290
     0
  0
SCALE
  5
176D
102
{ACAD_REACTORS
330
1755
102
}
330
1755
100
AcDbScale
 70
     0
300
3/16" = 1'-0"
140
0.1875
141
12.0
290
     0
  0
SCALE
  5
176E
102
{ACAD_REACTORS
330
1755
102
}
330
1755
100
AcDbScale
 70
     0
300
1/4" = 1'-0"
140
0.25
141
12.0
290
     0
  0
SCALE
  5
176F
102
{ACAD_REACTORS
330
1755
102
}
330
1755
100
AcDbScale
 70
     0
300
3/8" = 1'-0"
140
0.375
141
12.0
290
     0
  0
SCALE
  5
1770
102
{ACAD_REACTORS
330
1755
102
}
330
1755
100
AcDbScale
 70
     0
300
1/2" = 1'-0"
140
0.5
141
12.0
290
     0
  0
SCALE
  5
1771
102
{ACAD_REACTORS
330
1755
102
}
330
1755
100
AcDbScale
 70
     0
300
3/4" = 1'-0"
140
0.75
141
12.0
290
     0
  0
SCALE
  5
1772
102
{ACAD_REACTORS
330
1755
102
}
330
1755
100
AcDbScale
 70
     0
300
1" = 1'-0"
140
1.0
141
12.0
290
     0
  0
SCALE
  5
1773
102
{ACAD_REACTORS
330
1755
102
}
330
1755
100
AcDbScale
 70
     0
300
1-1/2" = 1'-0"
140
1.5
141
12.0
290
     0
  0
SCALE
  5
1774
102
{ACAD_REACTORS
330
1755
102
}
330
1755
100
AcDbScale
 70
     0
300
3" = 1'-0"
140
3.0
141
12.0
290
     0
  0
SCALE
  5
1775
102
{ACAD_REACTORS
330
1755
102
}
330
1755
100
AcDbScale
 70
     0
300
6" = 1'-0"
140
6.0
141
12.0
290
     0
  0
SCALE
  5
1776
102
{ACAD_REACTORS
330
1755
102
}
330
1755
100
AcDbScale
 70
     0
300
1'-0" = 1'-0"
140
12.0
141
12.0
290
     0
  0
ACDBSECTIONVIEWSTYLE
  5
183F
102
{ACAD_XDICTIONARY
360
18CA
102
}
102
{ACAD_REACTORS
330
183E
102
}
330
183E
100
AcDbModelDocViewStyle
 70
     0
  3
Imperial24
290
     0
100
AcDbSectionViewStyle
 70
     0
 71
     0
 90
       78
 71
     1
340
11
 62
   256
 40
0.24
340
0
340
0
 62
   256
 40
0.24
300
I, O, Q, S, X, Z
 40
0.48
 90
        3
 40
0.18
 90
        1
 71
     2
340
16
 90
       25
 62
   256
340
16
 90
       50
 62
   256
 40
0.24
 40
0.0
 40
0.24
 71
     3
340
11
 62
   256
 40
0.24
 90
        1
 40
0.75
 90
        1
300
%<\AcVar ViewType \f "%tc1">% %<\AcVar ViewSectionStartId>%-%<\AcVar ViewSectionEndId>%\PSCALE %<\AcVar ViewScale \f "%sn">%
 71
     4
 62
   256
 62
   257
300
ANSI31
 40
1.0
 90
        0
290
     0
290
     0
 90
        6
 40
0.0
 40
1.570796326794896
 40
0.2617993877991494
 40
1.308996938995747
 40
-0.2617993877991494
 40
1.832595714594046
  0
TABLESTYLE
  5
1754
102
{ACAD_XDICTIONARY
360
1779
102
}
102
{ACAD_REACTORS
330
1753
102
}
330
1753
100
AcDbTableStyle
  3
Standard
 70
     0
 71
     0
 40
0.06
 41
0.06
280
     0
281
     0
  7
STANDARD
140
0.18
170
     2
 62
     0
 63
     7
283
     0
274
    -2
284
     1
 64
     0
275
    -2
285
     1
 65
     0
276
    -2
286
     1
 66
     0
277
    -2
287
     1
 67
     0
278
    -2
288
     1
 68
     0
279
    -2
289
     1
 69
     0
  7
STANDARD
140
0.25
170
     5
 62
     0
 63
     7
283
     0
274
    -2
284
     1
 64
     0
275
    -2
285
     1
 65
     0
276
    -2
286
     1
 66
     0
277
    -2
287
     1
 67
     0
278
    -2
288
     1
 68
     0
279
    -2
289
     1
 69
     0
  7
STANDARD
140
0.18
170
     5
 62
     0
 63
     7
283
     0
274
    -2
284
     1
 64
     0
275
    -2
285
     1
 65
     0
276
    -2
286
     1
 66
     0
277
    -2
287
     1
 67
     0
278
    -2
288
     1
 68
     0
279
    -2
289
     1
 69
     0
  0
VISUALSTYLE
  5
1744
102
{ACAD_XDICTIONARY
360
189F
102
}
102
{ACAD_REACTORS
330
173E
102
}
330
173E
100
AcDbVisualStyle
  2
2dWireframe
 70
     4
 71
     0
 72
     2
 73
     0
 90
        0
 40
-0.6
 41
-30.0
 62
     5
 63
     7
 74
     1
 91
        4
 64
     7
 65
   257
 75
     1
175
     1
 42
1.0
 92
        0
 66
   257
 43
1.0
 76
     1
 77
     6
 78
     2
 67
     7
 79
     5
170
     0
171
     0
290
     0
174
     0
 93
        1
 44
0.0
173
     0
291
     0
 45
0.0
1001
ACAD
1000
AcDbSavedByObjectVersion
1070
     0
  0
VISUALSTYLE
  5
1746
102
{ACAD_XDICTIONARY
360
18A3
102
}
102
{ACAD_REACTORS
330
173E
102
}
330
173E
100
AcDbVisualStyle
  2
3D Hidden
 70
     6
 71
     1
 72
     2
 73
     2
 90
        0
 40
-0.6
 41
-30.0
 62
     5
 63
     7
 74
     2
 91
        2
 64
     7
 65
   257
 75
     2
175
     1
 42
179.0
 92
        0
 66
   257
 43
1.0
 76
     1
 77
     6
 78
     2
 67
     7
 79
     3
170
     0
171
     0
290
     0
174
     0
 93
        1
 44
0.0
173
     0
291
     0
 45
0.0
1001
ACAD
1000
AcDbSavedByObjectVersion
1070
     0
  0
VISUALSTYLE
  5
1745
102
{ACAD_XDICTIONARY
360
18A1
102
}
102
{ACAD_REACTORS
330
173E
102
}
330
173E
100
AcDbVisualStyle
  2
3dWireframe
 70
     5
 71
     0
 72
     2
 73
     0
 90
        0
 40
-0.6
 41
-30.0
 62
     5
 63
     7
 74
     1
 91
        4
 64
     7
 65
   257
 75
     1
175
     1
 42
1.0
 92
        0
 66
   257
 43
1.0
 76
     1
 77
     6
 78
     2
 67
     7
 79
     5
170
     0
171
     0
290
     0
174
     0
 93
        1
 44
0.0
173
     0
291
     0
 45
0.0
1001
ACAD
1000
AcDbSavedByObjectVersion
1070
     0
  0
VISUALSTYLE
  5
1743
102
{ACAD_XDICTIONARY
360
189D
102
}
102
{ACAD_REACTORS
330
173E
102
}
330
173E
100
AcDbVisualStyle
  2
Basic
 70
     7
 71
     1
 72
     0
 73
     1
 90
        0
 40
-0.6
 41
-30.0
 62
     5
 63
     7
 74
     0
 91
        4
 64
     7
 65
   257
 75
     1
175
     1
 42
1.0
 92
        8
 66
     7
 43
1.0
 76
     1
 77
     6
 78
     2
 67
     7
 79
     5
170
     0
171
     0
290
     0
174
     0
 93
        1
 44
0.0
173
     0
291
     1
 45
0.0
1001
ACAD
1000
AcDbSavedByObjectVersion
1070
     0
  0
VISUALSTYLE
  5
174A
102
{ACAD_XDICTIONARY
360
18AB
102
}
102
{ACAD_REACTORS
330
173E
102
}
330
173E
100
AcDbVisualStyle
  2
Brighten
 70
    12
 71
     2
 72
     2
 73
     0
 90
        0
 40
-0.6
 41
-30.0
 62
     5
 63
     7
 74
     1
 91
        4
 64
     7
 65
   257
 75
     1
175
     1
 42
1.0
 92
        8
 66
     7
 43
1.0
 76
     1
 77
     6
 78
     2
 67
     7
 79
     5
170
     0
171
     0
290
     0
174
     0
 93
        1
 44
50.0
173
     0
291
     1
 45
0.0
1001
ACAD
1000
AcDbSavedByObjectVersion
1070
     0
  0
VISUALSTYLE
  5
174E
102
{ACAD_XDICTIONARY
360
18B3
102
}
102
{ACAD_REACTORS
330
173E
102
}
330
173E
100
AcDbVisualStyle
  2
ColorChange
 70
    16
 71
     2
 72
     2
 73
     3
 90
        0
 40
-0.6
 41
-30.0
 62
     5
 63
     8
 74
     1
 91
        4
 64
     7
 65
   257
 75
     1
175
     1
 42
1.0
 92
        8
 66
     8
 43
1.0
 76
     1
 77
     6
 78
     2
 67
     7
 79
     5
170
     0
171
     0
290
     0
174
     0
 93
        1
 44
0.0
173
     0
291
     1
 45
0.0
1001
ACAD
1000
AcDbSavedByObjectVersion
1070
     0
  0
VISUALSTYLE
  5
1747
102
{ACAD_XDICTIONARY
360
18A5
102
}
102
{ACAD_REACTORS
330
173E
102
}
330
173E
100
AcDbVisualStyle
  2
Conceptual
 70
     9
 71
     3
 72
     2
 73
     0
 90
        0
 40
-0.6
 41
-30.0
 62
     5
 63
     7
 74
     2
 91
        2
 64
     7
 65
   257
 75
     1
175
     1
 42
179.0
 92
        8
 66
     7
 43
1.0
 76
     1
 77
     6
 78
     2
 67
     7
 79
     3
170
     0
171
     0
290
     0
174
     0
 93
        1
 44
0.0
173
     0
291
     0
 45
0.0
1001
ACAD
1000
AcDbSavedByObjectVersion
1070
     0
  0
VISUALSTYLE
  5
1749
102
{ACAD_XDICTIONARY
360
18A9
102
}
102
{ACAD_REACTORS
330
173E
102
}
330
173E
100
AcDbVisualStyle
  2
Dim
 70
    11
 71
     2
 72
     2
 73
     0
 90
        0
 40
-0.6
 41
-30.0
 62
     5
 63
     7
 74
     1
 91
        4
 64
     7
 65
   257
 75
     1
175
     1
 42
1.0
 92
        8
 66
     7
 43
1.0
 76
     1
 77
     6
 78
     2
 67
     7
 79
     5
170
     0
171
     0
290
     0
174
     0
 93
        1
 44
-50.0
173
     0
291
     1
 45
0.0
1001
ACAD
1000
AcDbSavedByObjectVersion
1070
     0
  0
VISUALSTYLE
  5
1751
102
{ACAD_XDICTIONARY
360
18B9
102
}
102
{ACAD_REACTORS
330
173E
102
}
330
173E
100
AcDbVisualStyle
  2
EdgeColorOff
 70
    22
 71
     2
 72
     2
 73
     0
 90
        0
 40
-0.6
 41
-30.0
 62
     5
 63
     7
 74
     1
 91
        4
 64
     7
 65
   257
 75
     1
175
     1
 42
1.0
 92
        8
 66
     7
 43
1.0
 76
     1
 77
     6
 78
     2
 67
     7
 79
     5
170
     0
171
     0
290
     0
174
     0
 93
        1
 44
0.0
173
     0
291
     1
 45
0.0
1001
ACAD
1000
AcDbSavedByObjectVersion
1070
     0
  0
VISUALSTYLE
  5
174D
102
{ACAD_XDICTIONARY
360
18B1
102
}
102
{ACAD_REACTORS
330
173E
102
}
330
173E
100
AcDbVisualStyle
  2
Facepattern
 70
    15
 71
     2
 72
     2
 73
     0
 90
        0
 40
-0.6
 41
-30.0
 62
     5
 63
     7
 74
     1
 91
        4
 64
     7
 65
   257
 75
     1
175
     1
 42
1.0
 92
        8
 66
     7
 43
1.0
 76
     1
 77
     6
 78
     2
 67
     7
 79
     5
170
     0
171
     0
290
     0
174
     0
 93
        1
 44
0.0
173
     0
291
     1
 45
0.0
1001
ACAD
1000
AcDbSavedByObjectVersion
1070
     0
  0
VISUALSTYLE
  5
173F
102
{ACAD_XDICTIONARY
360
1895
102
}
102
{ACAD_REACTORS
330
173E
102
}
330
173E
100
AcDbVisualStyle
  2
Flat
 70
     0
 71
     2
 72
     1
 73
     1
 90
        2
 40
-0.6
 41
30.0
 62
     5
 63
     7
 74
     0
 91
        4
 64
     7
 65
   257
 75
     1
175
     1
 42
1.0
 92
        8
 66
     7
 43
1.0
 76
     1
 77
     6
 78
     2
 67
     7
 79
     5
170
     0
171
     0
290
     0
174
     0
 93
       13
 44
0.0
173
     0
291
     1
 45
0.0
1001
ACAD
1000
AcDbSavedByObjectVersion
1070
     0
  0
VISUALSTYLE
  5
1740
102
{ACAD_XDICTIONARY
360
1897
102
}
102
{ACAD_REACTORS
330
173E
102
}
330
173E
100
AcDbVisualStyle
  2
FlatWithEdges
 70
     1
 71
     2
 72
     1
 73
     1
 90
        2
 40
-0.6
 41
30.0
 62
     5
 63
     7
 74
     1
 91
        4
 64
     7
 65
   257
 75
     1
175
     1
 42
1.0
 92
        0
 66
   257
 43
1.0
 76
     1
 77
     6
 78
     2
 67
     7
 79
     5
170
     0
171
     0
290
     0
174
     0
 93
       13
 44
0.0
173
     0
291
     1
 45
0.0
1001
ACAD
1000
AcDbSavedByObjectVersion
1070
     0
  0
VISUALSTYLE
  5
1741
102
{ACAD_XDICTIONARY
360
1899
102
}
102
{ACAD_REACTORS
330
173E
102
}
330
173E
100
AcDbVisualStyle
  2
Gouraud
 70
     2
 71
     2
 72
     2
 73
     1
 90
        2
 40
-0.6
 41
30.0
 62
     5
 63
     7
 74
     0
 91
        4
 64
     7
 65
   257
 75
     1
175
     1
 42
1.0
 92
        0
 66
     7
 43
1.0
 76
     1
 77
     6
 78
     2
 67
     7
 79
     5
170
     0
171
     0
290
     0
174
     0
 93
       13
 44
0.0
173
     0
291
     1
 45
0.0
1001
ACAD
1000
AcDbSavedByObjectVersion
1070
     0
  0
VISUALSTYLE
  5
1742
102
{ACAD_XDICTIONARY
360
189B
102
}
102
{ACAD_REACTORS
330
173E
102
}
330
173E
100
AcDbVisualStyle
  2
GouraudWithEdges
 70
     3
 71
     2
 72
     2
 73
     1
 90
        2
 40
-0.6
 41
30.0
 62
     5
 63
     7
 74
     1
 91
        4
 64
     7
 65
   257
 75
     1
175
     1
 42
1.0
 92
        0
 66
   257
 43
1.0
 76
     1
 77
     6
 78
     2
 67
     7
 79
     5
170
     0
171
     0
290
     0
174
     0
 93
       13
 44
0.0
173
     0
291
     1
 45
0.0
1001
ACAD
1000
AcDbSavedByObjectVersion
1070
     0
  0
VISUALSTYLE
  5
1838
102
{ACAD_XDICTIONARY
360
18BE
102
}
102
{ACAD_REACTORS
330
173E
102
}
330
173E
100
AcDbVisualStyle
  2
Hidden
 70
     6
 71
     1
 72
     2
 73
     2
 90
        0
 40
-0.6
 41
-30.0
 62
     5
 63
     7
421
 16777215
 74
     2
 91
        2
 64
     7
 65
   257
 75
     2
175
     1
 42
40.0
 92
        0
 66
   257
 43
1.0
 76
     1
 77
     6
 78
     2
 67
     7
 79
     3
170
     0
171
     0
290
     0
174
     0
 93
        1
 44
0.0
173
     0
291
     0
 45
0.0
1001
ACAD
1000
AcDbSavedByObjectVersion
1070
     0
  0
VISUALSTYLE
  5
174F
102
{ACAD_XDICTIONARY
360
18B5
102
}
102
{ACAD_REACTORS
330
173E
102
}
330
173E
100
AcDbVisualStyle
  2
JitterOff
 70
    20
 71
     2
 72
     2
 73
     0
 90
        0
 40
-0.6
 41
-30.0
 62
     5
 63
     7
 74
     1
 91
        4
 64
     7
 65
   257
 75
     1
175
     1
 42
1.0
 92
       10
 66
     7
 43
1.0
 76
     1
 77
     6
 78
     2
 67
     7
 79
     5
170
     0
171
     0
290
     0
174
     0
 93
        1
 44
0.0
173
     0
291
     1
 45
0.0
1001
ACAD
1000
AcDbSavedByObjectVersion
1070
     0
  0
VISUALSTYLE
  5
174C
102
{ACAD_XDICTIONARY
360
18AF
102
}
102
{ACAD_REACTORS
330
173E
102
}
330
173E
100
AcDbVisualStyle
  2
Linepattern
 70
    14
 71
     2
 72
     2
 73
     0
 90
        0
 40
-0.6
 41
-30.0
 62
     5
 63
     7
 74
     1
 91
        4
 64
     7
 65
   257
 75
     7
175
     7
 42
1.0
 92
        8
 66
     7
 43
1.0
 76
     1
 77
     6
 78
     2
 67
     7
 79
     5
170
     0
171
     0
290
     0
174
     0
 93
        1
 44
0.0
173
     0
291
     1
 45
0.0
1001
ACAD
1000
AcDbSavedByObjectVersion
1070
     0
  0
VISUALSTYLE
  5
1750
102
{ACAD_XDICTIONARY
360
18B7
102
}
102
{ACAD_REACTORS
330
173E
102
}
330
173E
100
AcDbVisualStyle
  2
OverhangOff
 70
    21
 71
     2
 72
     2
 73
     0
 90
        0
 40
-0.6
 41
-30.0
 62
     5
 63
     7
 74
     1
 91
        4
 64
     7
 65
   257
 75
     1
175
     1
 42
1.0
 92
        9
 66
     7
 43
1.0
 76
     1
 77
     6
 78
     2
 67
     7
 79
     5
170
     0
171
     0
290
     0
174
     0
 93
        1
 44
0.0
173
     0
291
     1
 45
0.0
1001
ACAD
1000
AcDbSavedByObjectVersion
1070
     0
  0
VISUALSTYLE
  5
1748
102
{ACAD_XDICTIONARY
360
18A7
102
}
102
{ACAD_REACTORS
330
173E
102
}
330
173E
100
AcDbVisualStyle
  2
Realistic
 70
     8
 71
     2
 72
     2
 73
     0
 90
        0
 40
-0.6
 41
-30.0
 62
     5
 63
     7
 74
     1
 91
        0
 64
     7
 65
   257
 75
     1
175
     1
 42
1.0
 92
        8
 66
     8
 43
1.0
 76
     1
 77
     6
 78
     2
 67
     7
 79
     5
170
     0
171
     0
290
     0
174
     0
 93
       13
 44
0.0
173
     0
291
     0
 45
0.0
1001
ACAD
1000
AcDbSavedByObjectVersion
1070
     0
  0
VISUALSTYLE
  5
183D
102
{ACAD_XDICTIONARY
360
18C8
102
}
102
{ACAD_REACTORS
330
173E
102
}
330
173E
100
AcDbVisualStyle
  2
Shaded
 70
    27
 71
     2
 72
     2
 73
     1
 90
        2
 40
-0.6
 41
30.0
 62
     5
 63
     7
421
 16777215
 74
     0
 91
        4
 64
     7
 65
   257
 75
     1
175
     1
 42
1.0
 92
        8
 66
   257
 43
1.0
 76
     1
 77
     6
 78
     2
 67
     8
425
  7895160
 79
     3
170
     0
171
     0
290
     0
174
     0
 93
        5
 44
0.0
173
     0
291
     0
 45
0.0
1001
ACAD
1000
AcDbSavedByObjectVersion
1070
     0
  0
VISUALSTYLE
  5
183C
102
{ACAD_XDICTIONARY
360
18C6
102
}
102
{ACAD_REACTORS
330
173E
102
}
330
173E
100
AcDbVisualStyle
  2
Shaded with edges
 70
    26
 71
     2
 72
     2
 73
     1
 90
        2
 40
-0.6
 41
30.0
 62
     5
 63
     7
421
 16777215
 74
     1
 91
       10
 64
     7
 65
   257
 75
     2
175
     1
 42
1.0
 92
        8
 66
   257
 43
1.0
 76
     1
 77
     6
 78
     2
 67
     7
 79
     3
170
     0
171
     0
290
     0
174
     0
 93
        5
 44
0.0
173
     0
291
     0
 45
0.0
1001
ACAD
1000
AcDbSavedByObjectVersion
1070
     0
  0
VISUALSTYLE
  5
1839
102
{ACAD_XDICTIONARY
360
18C0
102
}
102
{ACAD_REACTORS
330
173E
102
}
330
173E
100
AcDbVisualStyle
  2
Shades of Gray
 70
    23
 71
     2
 72
     2
 73
     3
 90
        0
 40
-0.6
 41
-30.0
 62
     5
 63
     7
421
 16777215
 74
     2
 91
        2
 64
     7
 65
     7
 75
     1
175
     1
 42
40.0
 92
        8
 66
     7
 43
1.0
 76
     1
 77
     6
 78
     2
 67
     7
 79
     3
170
     0
171
     0
290
     0
174
     0
 93
        1
 44
0.0
173
     0
291
     0
 45
0.0
1001
ACAD
1000
AcDbSavedByObjectVersion
1070
     0
  0
VISUALSTYLE
  5
183A
102
{ACAD_XDICTIONARY
360
18C2
102
}
102
{ACAD_REACTORS
330
173E
102
}
330
173E
100
AcDbVisualStyle
  2
Sketchy
 70
    24
 71
     1
 72
     2
 73
     2
 90
        0
 40
-0.6
 41
-30.0
 62
     5
 63
     7
421
 16777215
 74
     2
 91
        2
 64
     7
 65
     7
 75
     1
175
     1
 42
40.0
 92
       11
 66
     7
 43
1.0
 76
     1
 77
     6
 78
     2
 67
     7
 79
     6
170
     0
171
     0
290
     0
174
     0
 93
        1
 44
0.0
173
     0
291
     0
 45
0.0
1001
ACAD
1000
AcDbSavedByObjectVersion
1070
     0
  0
VISUALSTYLE
  5
174B
102
{ACAD_XDICTIONARY
360
18AD
102
}
102
{ACAD_REACTORS
330
173E
102
}
330
173E
100
AcDbVisualStyle
  2
Thicken
 70
    13
 71
     2
 72
     2
 73
     0
 90
        0
 40
-0.6
 41
-30.0
 62
     5
 63
     7
 74
     1
 91
        4
 64
     7
 65
   257
 75
     1
175
     1
 42
1.0
 92
       12
 66
     7
 43
1.0
 76
     1
 77
     6
 78
     2
 67
     7
 79
     5
170
     0
171
     0
290
     0
174
     0
 93
        1
 44
0.0
173
     0
291
     1
 45
0.0
1001
ACAD
1000
AcDbSavedByObjectVersion
1070
     0
  0
VISUALSTYLE
  5
1837
102
{ACAD_XDICTIONARY
360
18BC
102
}
102
{ACAD_REACTORS
330
173E
102
}
330
173E
100
AcDbVisualStyle
  2
Wireframe
 70
     5
 71
     0
 72
     2
 73
     0
 90
        0
 40
-0.6
 41
-30.0
 62
     5
 63
     7
421
 16777215
 74
     1
 91
        4
 64
     7
 65
   257
 75
     1
175
     1
 42
1.0
 92
        0
 66
   257
 43
1.0
 76
     1
 77
     6
 78
     2
 67
     7
 79
     3
170
     0
171
     0
290
     0
174
     0
 93
        1
 44
0.0
173
     0
291
     0
 45
0.0
1001
ACAD
1000
AcDbSavedByObjectVersion
1070
     0
  0
VISUALSTYLE
  5
183B
102
{ACAD_XDICTIONARY
360
18C4
102
}
102
{ACAD_REACTORS
330
173E
102
}
330
173E
100
AcDbVisualStyle
  2
X-Ray
 70
    25
 71
     2
 72
     2
 73
     1
 90
        1
 40
0.5
 41
-30.0
 62
     5
 63
     7
421
 16777215
 74
     1
 91
        0
 64
     7
 65
   257
 75
     1
175
     1
 42
1.0
 92
        8
 66
     7
 43
1.0
 76
     1
 77
     6
 78
     2
 67
     7
 79
     3
170
     0
171
     0
290
     0
174
     0
 93
       13
 44
0.0
173
     0
291
     0
 45
0.0
1001
ACAD
1000
AcDbSavedByObjectVersion
1070
     0
  0
DICTIONARYVAR
  5
17B0
102
{ACAD_REACTORS
330
17AD
102
}
330
17AD
100
DictionaryVariables
280
     0
  1
1:1
  0
DICTIONARYVAR
  5
17AF
102
{ACAD_REACTORS
330
17AD
102
}
330
17AD
100
DictionaryVariables
280
     0
  1
STANDARD
  0
DICTIONARYVAR
  5
17AE
102
{ACAD_REACTORS
330
17AD
102
}
330
17AD
100
DictionaryVariables
280
     0
  1
STANDARD
  0
DICTIONARYVAR
  5
188C
102
{ACAD_REACTORS
330
17AD
102
}
330
17AD
100
DictionaryVariables
280
     0
  1
Imperial24
  0
DICTIONARYVAR
  5
188D
102
{ACAD_REACTORS
330
17AD
102
}
330
17AD
100
DictionaryVariables
280
     0
  1
Imperial24
  0
DICTIONARYVAR
  5
17B3
102
{ACAD_REACTORS
330
17AD
102
}
330
17AD
100
DictionaryVariables
280
     0
  1
1
  0
DICTIONARYVAR
  5
17B2
102
{ACAD_REACTORS
330
17AD
102
}
330
17AD
100
DictionaryVariables
280
     0
  1
0
  0
DICTIONARYVAR
  5
1834
102
{ACAD_REACTORS
330
17AD
102
}
330
17AD
100
DictionaryVariables
280
     0
  1
1
  0
DICTIONARYVAR
  5
1835
102
{ACAD_REACTORS
330
17AD
102
}
330
17AD
100
DictionaryVariables
280
     0
  1
15
  0
DICTIONARYVAR
  5
1833
102
{ACAD_REACTORS
330
17AD
102
}
330
17AD
100
DictionaryVariables
280
     0
  1
0
  0
DICTIONARYVAR
  5
1832
102
{ACAD_REACTORS
330
17AD
102
}
330
17AD
100
DictionaryVariables
280
     0
  1
0
  0
DICTIONARYVAR
  5
188E
102
{ACAD_REACTORS
330
17AD
102
}
330
17AD
100
DictionaryVariables
280
     0
  1
1
  0
DICTIONARYVAR
  5
17B1
102
{ACAD_REACTORS
330
17AD
102
}
330
17AD
100
DictionaryVariables
280
     0
  1
127
  0
DICTIONARYVAR
  5
188F
102
{ACAD_REACTORS
330
17AD
102
}
330
17AD
100
DictionaryVariables
280
     0
  1
2
  0
DICTIONARY
  5
18CC
330
1841
100
AcDbDictionary
280
     1
281
     1
  3
ACAD_XREC_ROUNDTRIP
360
18CD
  0
DICTIONARY
  5
172F
330
172E
100
AcDbDictionary
280
     1
281
     1
  3
ACAD_XREC_ROUNDTRIP
360
1893
  3
BUMPTILE
360
1731
  3
DIFFUSETILE
360
1730
  3
OPACITYTILE
360
1734
  3
REFLECTIONTILE
360
1733
  3
REFRACTIONTILE
360
1735
  3
SPECULARTILE
360
1732
  0
DICTIONARY
  5
1727
330
1726
100
AcDbDictionary
280
     1
281
     1
  3
ACAD_XREC_ROUNDTRIP
360
1892
  3
BUMPTILE
360
1729
  3
DIFFUSETILE
360
1728
  3
OPACITYTILE
360
172C
  3
REFLECTIONTILE
360
172B
  3
REFRACTIONTILE
360
172D
  3
SPECULARTILE
360
172A
  0
DICTIONARY
  5
1737
330
1736
100
AcDbDictionary
280
     1
281
     1
  3
ACAD_XREC_ROUNDTRIP
360
1894
  3
BUMPTILE
360
1739
  3
DIFFUSETILE
360
1738
  3
OPACITYTILE
360
173C
  3
REFLECTIONTILE
360
173B
  3
REFRACTIONTILE
360
173D
  3
SPECULARTILE
360
173A
  0
DICTIONARY
  5
18CA
330
183F
100
AcDbDictionary
280
     1
281
     1
  3
ACAD_XREC_ROUNDTRIP
360
18CB
  0
DICTIONARY
  5
1779
330
1754
100
AcDbDictionary
280
     1
281
     1
  3
ACAD_ROUNDTRIP_2008_TABLESTYLE_CELLSTYLEMAP
360
1890
  3
ACAD_XREC_ROUNDTRIP
360
18BB
  0
DICTIONARY
  5
189F
330
1744
100
AcDbDictionary
280
     1
281
     1
  3
ACAD_XREC_ROUNDTRIP
360
18A0
  0
DICTIONARY
  5
18A3
330
1746
100
AcDbDictionary
280
     1
281
     1
  3
ACAD_XREC_ROUNDTRIP
360
18A4
  0
DICTIONARY
  5
18A1
330
1745
100
AcDbDictionary
280
     1
281
     1
  3
ACAD_XREC_ROUNDTRIP
360
18A2
  0
DICTIONARY
  5
189D
330
1743
100
AcDbDictionary
280
     1
281
     1
  3
ACAD_XREC_ROUNDTRIP
360
189E
  0
DICTIONARY
  5
18AB
330
174A
100
AcDbDictionary
280
     1
281
     1
  3
ACAD_XREC_ROUNDTRIP
360
18AC
  0
DICTIONARY
  5
18B3
330
174E
100
AcDbDictionary
280
     1
281
     1
  3
ACAD_XREC_ROUNDTRIP
360
18B4
  0
DICTIONARY
  5
18A5
330
1747
100
AcDbDictionary
280
     1
281
     1
  3
ACAD_XREC_ROUNDTRIP
360
18A6
  0
DICTIONARY
  5
18A9
330
1749
100
AcDbDictionary
280
     1
281
     1
  3
ACAD_XREC_ROUNDTRIP
360
18AA
  0
DICTIONARY
  5
18B9
330
1751
100
AcDbDictionary
280
     1
281
     1
  3
ACAD_XREC_ROUNDTRIP
360
18BA
  0
DICTIONARY
  5
18B1
330
174D
100
AcDbDictionary
280
     1
281
     1
  3
ACAD_XREC_ROUNDTRIP
360
18B2
  0
DICTIONARY
  5
1895
330
173F
100
AcDbDictionary
280
     1
281
     1
  3
ACAD_XREC_ROUNDTRIP
360
1896
  0
DICTIONARY
  5
1897
330
1740
100
AcDbDictionary
280
     1
281
     1
  3
ACAD_XREC_ROUNDTRIP
360
1898
  0
DICTIONARY
  5
1899
330
1741
100
AcDbDictionary
280
     1
281
     1
  3
ACAD_XREC_ROUNDTRIP
360
189A
  0
DICTIONARY
  5
189B
330
1742
100
AcDbDictionary
280
     1
281
     1
  3
ACAD_XREC_ROUNDTRIP
360
189C
  0
DICTIONARY
  5
18BE
330
1838
100
AcDbDictionary
280
     1
281
     1
  3
ACAD_XREC_ROUNDTRIP
360
18BF
  0
DICTIONARY
  5
18B5
330
174F
100
AcDbDictionary
280
     1
281
     1
  3
ACAD_XREC_ROUNDTRIP
360
18B6
  0
DICTIONARY
  5
18AF
330
174C
100
AcDbDictionary
280
     1
281
     1
  3
ACAD_XREC_ROUNDTRIP
360
18B0
  0
DICTIONARY
  5
18B7
330
1750
100
AcDbDictionary
280
     1
281
     1
  3
ACAD_XREC_ROUNDTRIP
360
18B8
  0
DICTIONARY
  5
18A7
330
1748
100
AcDbDictionary
280
     1
281
     1
  3
ACAD_XREC_ROUNDTRIP
360
18A8
  0
DICTIONARY
  5
18C8
330
183D
100
AcDbDictionary
280
     1
281
     1
  3
ACAD_XREC_ROUNDTRIP
360
18C9
  0
DICTIONARY
  5
18C6
330
183C
100
AcDbDictionary
280
     1
281
     1
  3
ACAD_XREC_ROUNDTRIP
360
18C7
  0
DICTIONARY
  5
18C0
330
1839
100
AcDbDictionary
280
     1
281
     1
  3
ACAD_XREC_ROUNDTRIP
360
18C1
  0
DICTIONARY
  5
18C2
330
183A
100
AcDbDictionary
280
     1
281
     1
  3
ACAD_XREC_ROUNDTRIP
360
18C3
  0
DICTIONARY
  5
18AD
330
174B
100
AcDbDictionary
280
     1
281
     1
  3
ACAD_XREC_ROUNDTRIP
360
18AE
  0
DICTIONARY
  5
18BC
330
1837
100
AcDbDictionary
280
     1
281
     1
  3
ACAD_XREC_ROUNDTRIP
360
18BD
  0
DICTIONARY
  5
18C4
330
183B
100
AcDbDictionary
280
     1
281
     1
  3
ACAD_XREC_ROUNDTRIP
360
18C5
  0
XRECORD
  5
18CD
102
{ACAD_REACTORS
330
18CC
102
}
330
18CC
100
AcDbXrecord
280
     1
102
DISPLAYNAME
  1
Imperial24
102
FLAGS
 90
        0
  0
XRECORD
  5
1893
102
{ACAD_REACTORS
330
172F
102
}
330
172F
100
AcDbXrecord
280
     1
102
MATERIAL
148
0.0
149
0.0
149
0.0
 93
        0
 94
      127
282
     0
 72
     0
 77
     0
171
     0
175
     0
179
     0
273
     0
  0
XRECORD
  5
1731
102
{ACAD_REACTORS
330
172F
102
}
330
172F
100
AcDbXrecord
280
     1
270
     1
271
     1
  0
XRECORD
  5
1730
102
{ACAD_REACTORS
330
172F
102
}
330
172F
100
AcDbXrecord
280
     1
270
     1
271
     1
  0
XRECORD
  5
1734
102
{ACAD_REACTORS
330
172F
102
}
330
172F
100
AcDbXrecord
280
     1
270
     1
271
     1
  0
XRECORD
  5
1733
102
{ACAD_REACTORS
330
172F
102
}
330
172F
100
AcDbXrecord
280
     1
270
     1
271
     1
  0
XRECORD
  5
1735
102
{ACAD_REACTORS
330
172F
102
}
330
172F
100
AcDbXrecord
280
     1
270
     1
271
     1
  0
XRECORD
  5
1732
102
{ACAD_REACTORS
330
172F
102
}
330
172F
100
AcDbXrecord
280
     1
270
     1
271
     1
  0
XRECORD
  5
1892
102
{ACAD_REACTORS
330
1727
102
}
330
1727
100
AcDbXrecord
280
     1
102
MATERIAL
148
0.0
149
0.0
149
0.0
 93
        0
 94
      127
282
     0
 72
     0
 77
     0
171
     0
175
     0
179
     0
273
     0
  0
XRECORD
  5
1729
102
{ACAD_REACTORS
330
1727
102
}
330
1727
100
AcDbXrecord
280
     1
270
     1
271
     1
  0
XRECORD
  5
1728
102
{ACAD_REACTORS
330
1727
102
}
330
1727
100
AcDbXrecord
280
     1
270
     1
271
     1
  0
XRECORD
  5
172C
102
{ACAD_REACTORS
330
1727
102
}
330
1727
100
AcDbXrecord
280
     1
270
     1
271
     1
  0
XRECORD
  5
172B
102
{ACAD_REACTORS
330
1727
102
}
330
1727
100
AcDbXrecord
280
     1
270
     1
271
     1
  0
XRECORD
  5
172D
102
{ACAD_REACTORS
330
1727
102
}
330
1727
100
AcDbXrecord
280
     1
270
     1
271
     1
  0
XRECORD
  5
172A
102
{ACAD_REACTORS
330
1727
102
}
330
1727
100
AcDbXrecord
280
     1
270
     1
271
     1
  0
XRECORD
  5
1894
102
{ACAD_REACTORS
330
1737
102
}
330
1737
100
AcDbXrecord
280
     1
102
MATERIAL
148
0.0
149
0.0
149
0.0
 93
        0
 94
      127
282
     0
 72
     0
 77
     0
171
     0
175
     0
179
     0
273
     0
  0
XRECORD
  5
1739
102
{ACAD_REACTORS
330
1737
102
}
330
1737
100
AcDbXrecord
280
     1
270
     1
271
     1
  0
XRECORD
  5
1738
102
{ACAD_REACTORS
330
1737
102
}
330
1737
100
AcDbXrecord
280
     1
270
     1
271
     1
  0
XRECORD
  5
173C
102
{ACAD_REACTORS
330
1737
102
}
330
1737
100
AcDbXrecord
280
     1
270
     1
271
     1
  0
XRECORD
  5
173B
102
{ACAD_REACTORS
330
1737
102
}
330
1737
100
AcDbXrecord
280
     1
270
     1
271
     1
  0
XRECORD
  5
173D
102
{ACAD_REACTORS
330
1737
102
}
330
1737
100
AcDbXrecord
280
     1
270
     1
271
     1
  0
XRECORD
  5
173A
102
{ACAD_REACTORS
330
1737
102
}
330
1737
100
AcDbXrecord
280
     1
270
     1
271
     1
  0
XRECORD
  5
18CB
102
{ACAD_REACTORS
330
18CA
102
}
330
18CA
100
AcDbXrecord
280
     1
102
DISPLAYNAME
  1
Imperial24
102
FLAGS
 90
        0
  0
CELLSTYLEMAP
  5
1890
102
{ACAD_REACTORS
330
1779
102
}
330
1779
100
AcDbCellStyleMap
 90
        3
300
CELLSTYLE
  1
TABLEFORMAT_BEGIN
 90
        5
170
     1
 91
        0
 92
    32768
 62
   257
 93
        1
300
CONTENTFORMAT
  1
CONTENTFORMAT_BEGIN
 90
        0
 91
        0
 92
      512
 93
        0
300

 40
0.0
140
1.0
 94
        5
 62
     0
340
11
144
0.25
309
CONTENTFORMAT_END
171
     0
 94
        0
309
TABLEFORMAT_END
  1
CELLSTYLE_BEGIN
 90
        1
 91
        1
300
_TITLE
309
CELLSTYLE_END
300
CELLSTYLE
  1
TABLEFORMAT_BEGIN
 90
        5
170
     1
 91
        0
 92
        0
 62
   257
 93
        1
300
CONTENTFORMAT
  1
CONTENTFORMAT_BEGIN
 90
        0
 91
        0
 92
      512
 93
        0
300

 40
0.0
140
1.0
 94
        5
 62
     0
340
11
144
0.18
309
CONTENTFORMAT_END
171
     0
 94
        0
309
TABLEFORMAT_END
  1
CELLSTYLE_BEGIN
 90
        2
 91
        1
300
_HEADER
309
CELLSTYLE_END
300
CELLSTYLE
  1
TABLEFORMAT_BEGIN
 90
        5
170
     1
 91
        0
 92
        0
 62
   257
 93
        1
300
CONTENTFORMAT
  1
CONTENTFORMAT_BEGIN
 90
        0
 91
        0
 92
      512
 93
        0
300

 40
0.0
140
1.0
 94
        2
 62
     0
340
11
144
0.18
309
CONTENTFORMAT_END
171
     0
 94
        0
309
TABLEFORMAT_END
  1
CELLSTYLE_BEGIN
 90
        3
 91
        2
300
_DATA
309
CELLSTYLE_END
  0
XRECORD
  5
18BB
102
{ACAD_REACTORS
330
1779
102
}
330
1779
100
AcDbXrecord
280
     1
102
ACAD_ROUNDTRIP_PRE2007_TABLESTYLE
 90
      512
 91
        0
  1

 92
      512
 93
        0
  2

 94
      512
 95
        0
  3

  0
XRECORD
  5
18A0
102
{ACAD_REACTORS
330
189F
102
}
330
189F
100
AcDbXrecord
280
     1
102
RTVSPost2010Prop28
280
     1
102
RTVSPost2010PropOp28
 70
     1
102
RTVSPost2010Prop29
280
     1
102
RTVSPost2010PropOp29
 70
     1
102
RTVSPost2010Prop30
280
     0
102
RTVSPost2010PropOp30
 70
     1
102
RTVSPost2010Prop31
280
     0
102
RTVSPost2010PropOp31
 70
     1
102
RTVSPost2010Prop32
280
     0
102
RTVSPost2010PropOp32
 70
     1
102
RTVSPost2010Prop33
280
     0
102
RTVSPost2010PropOp33
 70
     1
102
RTVSPost2010Prop34
280
     0
102
RTVSPost2010PropOp34
 70
     1
102
RTVSPost2010Prop35
280
     0
102
RTVSPost2010PropOp35
 70
     1
102
RTVSPost2010Prop36
280
     0
102
RTVSPost2010PropOp36
 70
     1
102
RTVSPost2010Prop37
 90
       50
102
RTVSPost2010PropOp37
 70
     1
102
RTVSPost2010Prop38
140
0.0
102
RTVSPost2010PropOp38
 70
     1
102
RTVSPost2010Prop39
140
1.0
102
RTVSPost2010PropOp39
 70
     1
102
RTVSPost2010Prop40
 90
        0
102
RTVSPost2010PropOp40
 70
     1
102
RTVSPost2010Prop41ColorIndex
 90
       18
102
RTVSPost2010Prop41ColorRGB
 90
        0
102
RTVSPost2010PropOp41
 70
     1
102
RTVSPost2010Prop42
 90
       50
102
RTVSPost2010PropOp42
 70
     1
102
RTVSPost2010Prop43
 90
        3
102
RTVSPost2010PropOp43
 70
     1
102
RTVSPost2010Prop44ColorIndex
 90
        5
102
RTVSPost2010Prop44ColorRGB
 90
      255
102
RTVSPost2010PropOp44
 70
     1
102
RTVSPost2010Prop45
280
     0
102
RTVSPost2010PropOp45
 70
     1
102
RTVSPost2010Prop46
 90
       50
102
RTVSPost2010PropOp46
 70
     1
102
RTVSPost2010Prop47
 90
       50
102
RTVSPost2010PropOp47
 70
     1
102
RTVSPost2010Prop48
 90
       50
102
RTVSPost2010PropOp48
 70
     1
102
RTVSPost2010Prop49
280
     0
102
RTVSPost2010PropOp49
 70
     1
102
RTVSPost2010Prop50
 90
       50
102
RTVSPost2010PropOp50
 70
     1
102
RTVSPost2010Prop51ColorIndex
 90
      256
102
RTVSPost2010Prop51ColorRGB
 90
-16777216
102
RTVSPost2010PropOp51
 70
     0
102
RTVSPost2010Prop52
140
1.0
102
RTVSPost2010PropOp52
 70
     0
102
RTVSPost2010Prop53
 90
        2
102
RTVSPost2010PropOp53
 70
     1
102
RTVSPost2010Prop54
  1
strokes_ogs.tif
102
RTVSPost2010PropOp54
 70
     1
102
RTVSPost2010Prop55
280
     0
102
RTVSPost2010PropOp55
 70
     1
102
RTVSPost2010Prop56
140
1.0
102
RTVSPost2010PropOp56
 70
     1
102
RTVSPost2010Prop57
140
1.0
102
RTVSPost2010PropOp57
 70
     1
102
RTVSPropertyOp0
 70
     1
102
RTVSPropertyOp1
 70
     1
102
RTVSPropertyOp2
 70
     1
102
RTVSPropertyOp3
 70
     1
102
RTVSPropertyOp4
 70
     1
102
RTVSPropertyOp5
 70
     1
102
RTVSPropertyOp6
 70
     1
102
RTVSPropertyOp7
 70
     1
102
RTVSPropertyOp8
 70
     1
102
RTVSPropertyOp9
 70
     1
102
RTVSPropertyOp10
 70
     1
102
RTVSPropertyOp11
 70
     1
102
RTVSPropertyOp12
 70
     1
102
RTVSPropertyOp13
 70
     1
102
RTVSPropertyOp14
 70
     1
102
RTVSPropertyOp15
 70
     1
102
RTVSPropertyOp16
 70
     1
102
RTVSPropertyOp17
 70
     1
102
RTVSPropertyOp18
 70
     1
102
RTVSPropertyOp19
 70
     1
102
RTVSPropertyOp20
 70
     1
102
RTVSPropertyOp21
 70
     1
102
RTVSPropertyOp22
 70
     1
102
RTVSPropertyOp23
 70
     1
102
RTVSPropertyOp24
 70
     1
102
RTVSPropertyOp25
 70
     1
102
RTVSPropertyOp26
 70
     1
102
RTVSPropertyOp27
 70
     1
102
RTVSPropertyOp28
 70
     1
102
RTVSPropertyOp29
 70
     1
102
RTVSPropertyOp30
 70
     1
102
RTVSPropertyOp31
 70
     1
102
RTVSPropertyOp32
 70
     1
102
RTVSPropertyOp33
 70
     1
102
RTVSPropertyOp34
 70
     1
102
RTVSPropertyOp35
 70
     1
102
RTVSPropertyOp36
 70
     1
102
RTVSPropertyOp37
 70
     1
102
RTVSPropertyOp38
 70
     1
102
RTVSPropertyOp39
 70
     1
102
RTVSPropertyOp40
 70
     1
102
RTVSPropertyOp41
 70
     1
102
RTVSPropertyOp42
 70
     1
102
RTVSPropertyOp43
 70
     1
102
RTVSPropertyOp44
 70
     1
102
RTVSPropertyOp45
 70
     1
102
RTVSPropertyOp46
 70
     1
102
RTVSPropertyOp47
 70
     1
102
RTVSPropertyOp48
 70
     1
102
RTVSPropertyOp49
 70
     1
102
RTVSPropertyOp50
 70
     1
102
RTVSPropertyOp51
 70
     0
102
RTVSPropertyOp52
 70
     0
102
RTVSPropertyOp53
 70
     1
102
RTVSPropertyOp54
 70
     1
102
RTVSPropertyOp55
 70
     1
102
RTVSPropertyOp56
 70
     1
102
RTVSPropertyOp57
 70
     1
102
RTVSPropertyOp58
 70
     1
102
RTVSPropertyOp59
 70
     1
102
RTVSPropertyOp60
 70
     1
102
RTVSPropertyOp61
 70
     1
102
RTVSPropertyOp62
 70
     1
  0
XRECORD
  5
18A4
102
{ACAD_REACTORS
330
18A3
102
}
330
18A3
100
AcDbXrecord
280
     1
102
RTVSPost2010Prop28
280
     0
102
RTVSPost2010PropOp28
 70
     1
102
RTVSPost2010Prop29
280
     1
102
RTVSPost2010PropOp29
 70
     1
102
RTVSPost2010Prop30
280
     1
102
RTVSPost2010PropOp30
 70
     1
102
RTVSPost2010Prop31
280
     0
102
RTVSPost2010PropOp31
 70
     1
102
RTVSPost2010Prop32
280
     0
102
RTVSPost2010PropOp32
 70
     1
102
RTVSPost2010Prop33
280
     0
102
RTVSPost2010PropOp33
 70
     1
102
RTVSPost2010Prop34
280
     0
102
RTVSPost2010PropOp34
 70
     1
102
RTVSPost2010Prop35
280
     0
102
RTVSPost2010PropOp35
 70
     1
102
RTVSPost2010Prop36
280
     0
102
RTVSPost2010PropOp36
 70
     1
102
RTVSPost2010Prop37
 90
       50
102
RTVSPost2010PropOp37
 70
     1
102
RTVSPost2010Prop38
140
0.0
102
RTVSPost2010PropOp38
 70
     1
102
RTVSPost2010Prop39
140
1.0
102
RTVSPost2010PropOp39
 70
     1
102
RTVSPost2010Prop40
 90
        0
102
RTVSPost2010PropOp40
 70
     1
102
RTVSPost2010Prop41ColorIndex
 90
       18
102
RTVSPost2010Prop41ColorRGB
 90
        0
102
RTVSPost2010PropOp41
 70
     1
102
RTVSPost2010Prop42
 90
       50
102
RTVSPost2010PropOp42
 70
     1
102
RTVSPost2010Prop43
 90
        3
102
RTVSPost2010PropOp43
 70
     1
102
RTVSPost2010Prop44ColorIndex
 90
        5
102
RTVSPost2010Prop44ColorRGB
 90
      255
102
RTVSPost2010PropOp44
 70
     1
102
RTVSPost2010Prop45
280
     0
102
RTVSPost2010PropOp45
 70
     1
102
RTVSPost2010Prop46
 90
       50
102
RTVSPost2010PropOp46
 70
     1
102
RTVSPost2010Prop47
 90
       50
102
RTVSPost2010PropOp47
 70
     1
102
RTVSPost2010Prop48
 90
       50
102
RTVSPost2010PropOp48
 70
     1
102
RTVSPost2010Prop49
280
     0
102
RTVSPost2010PropOp49
 70
     1
102
RTVSPost2010Prop50
 90
       50
102
RTVSPost2010PropOp50
 70
     1
102
RTVSPost2010Prop51ColorIndex
 90
      256
102
RTVSPost2010Prop51ColorRGB
 90
-16777216
102
RTVSPost2010PropOp51
 70
     0
102
RTVSPost2010Prop52
140
1.0
102
RTVSPost2010PropOp52
 70
     0
102
RTVSPost2010Prop53
 90
        2
102
RTVSPost2010PropOp53
 70
     1
102
RTVSPost2010Prop54
  1
strokes_ogs.tif
102
RTVSPost2010PropOp54
 70
     1
102
RTVSPost2010Prop55
280
     0
102
RTVSPost2010PropOp55
 70
     1
102
RTVSPost2010Prop56
140
1.0
102
RTVSPost2010PropOp56
 70
     1
102
RTVSPost2010Prop57
140
1.0
102
RTVSPost2010PropOp57
 70
     1
102
RTVSPropertyOp0
 70
     1
102
RTVSPropertyOp1
 70
     1
102
RTVSPropertyOp2
 70
     1
102
RTVSPropertyOp3
 70
     1
102
RTVSPropertyOp4
 70
     1
102
RTVSPropertyOp5
 70
     1
102
RTVSPropertyOp6
 70
     1
102
RTVSPropertyOp7
 70
     1
102
RTVSPropertyOp8
 70
     1
102
RTVSPropertyOp9
 70
     1
102
RTVSPropertyOp10
 70
     1
102
RTVSPropertyOp11
 70
     1
102
RTVSPropertyOp12
 70
     1
102
RTVSPropertyOp13
 70
     1
102
RTVSPropertyOp14
 70
     1
102
RTVSPropertyOp15
 70
     1
102
RTVSPropertyOp16
 70
     1
102
RTVSPropertyOp17
 70
     1
102
RTVSPropertyOp18
 70
     1
102
RTVSPropertyOp19
 70
     1
102
RTVSPropertyOp20
 70
     1
102
RTVSPropertyOp21
 70
     1
102
RTVSPropertyOp22
 70
     1
102
RTVSPropertyOp23
 70
     1
102
RTVSPropertyOp24
 70
     1
102
RTVSPropertyOp25
 70
     1
102
RTVSPropertyOp26
 70
     1
102
RTVSPropertyOp27
 70
     1
102
RTVSPropertyOp28
 70
     1
102
RTVSPropertyOp29
 70
     1
102
RTVSPropertyOp30
 70
     1
102
RTVSPropertyOp31
 70
     1
102
RTVSPropertyOp32
 70
     1
102
RTVSPropertyOp33
 70
     1
102
RTVSPropertyOp34
 70
     1
102
RTVSPropertyOp35
 70
     1
102
RTVSPropertyOp36
 70
     1
102
RTVSPropertyOp37
 70
     1
102
RTVSPropertyOp38
 70
     1
102
RTVSPropertyOp39
 70
     1
102
RTVSPropertyOp40
 70
     1
102
RTVSPropertyOp41
 70
     1
102
RTVSPropertyOp42
 70
     1
102
RTVSPropertyOp43
 70
     1
102
RTVSPropertyOp44
 70
     1
102
RTVSPropertyOp45
 70
     1
102
RTVSPropertyOp46
 70
     1
102
RTVSPropertyOp47
 70
     1
102
RTVSPropertyOp48
 70
     1
102
RTVSPropertyOp49
 70
     1
102
RTVSPropertyOp50
 70
     1
102
RTVSPropertyOp51
 70
     0
102
RTVSPropertyOp52
 70
     0
102
RTVSPropertyOp53
 70
     1
102
RTVSPropertyOp54
 70
     1
102
RTVSPropertyOp55
 70
     1
102
RTVSPropertyOp56
 70
     1
102
RTVSPropertyOp57
 70
     1
102
RTVSPropertyOp58
 70
     1
102
RTVSPropertyOp59
 70
     1
102
RTVSPropertyOp60
 70
     1
102
RTVSPropertyOp61
 70
     1
102
RTVSPropertyOp62
 70
     1
  0
XRECORD
  5
18A2
102
{ACAD_REACTORS
330
18A1
102
}
330
18A1
100
AcDbXrecord
280
     1
102
RTVSPost2010Prop28
280
     0
102
RTVSPost2010PropOp28
 70
     1
102
RTVSPost2010Prop29
280
     1
102
RTVSPost2010PropOp29
 70
     1
102
RTVSPost2010Prop30
280
     1
102
RTVSPost2010PropOp30
 70
     1
102
RTVSPost2010Prop31
280
     0
102
RTVSPost2010PropOp31
 70
     1
102
RTVSPost2010Prop32
280
     0
102
RTVSPost2010PropOp32
 70
     1
102
RTVSPost2010Prop33
280
     0
102
RTVSPost2010PropOp33
 70
     1
102
RTVSPost2010Prop34
280
     0
102
RTVSPost2010PropOp34
 70
     1
102
RTVSPost2010Prop35
280
     0
102
RTVSPost2010PropOp35
 70
     1
102
RTVSPost2010Prop36
280
     0
102
RTVSPost2010PropOp36
 70
     1
102
RTVSPost2010Prop37
 90
       50
102
RTVSPost2010PropOp37
 70
     1
102
RTVSPost2010Prop38
140
0.0
102
RTVSPost2010PropOp38
 70
     1
102
RTVSPost2010Prop39
140
1.0
102
RTVSPost2010PropOp39
 70
     1
102
RTVSPost2010Prop40
 90
        0
102
RTVSPost2010PropOp40
 70
     1
102
RTVSPost2010Prop41ColorIndex
 90
       18
102
RTVSPost2010Prop41ColorRGB
 90
        0
102
RTVSPost2010PropOp41
 70
     1
102
RTVSPost2010Prop42
 90
       50
102
RTVSPost2010PropOp42
 70
     1
102
RTVSPost2010Prop43
 90
        3
102
RTVSPost2010PropOp43
 70
     1
102
RTVSPost2010Prop44ColorIndex
 90
        5
102
RTVSPost2010Prop44ColorRGB
 90
      255
102
RTVSPost2010PropOp44
 70
     1
102
RTVSPost2010Prop45
280
     0
102
RTVSPost2010PropOp45
 70
     1
102
RTVSPost2010Prop46
 90
       50
102
RTVSPost2010PropOp46
 70
     1
102
RTVSPost2010Prop47
 90
       50
102
RTVSPost2010PropOp47
 70
     1
102
RTVSPost2010Prop48
 90
       50
102
RTVSPost2010PropOp48
 70
     1
102
RTVSPost2010Prop49
280
     0
102
RTVSPost2010PropOp49
 70
     1
102
RTVSPost2010Prop50
 90
       50
102
RTVSPost2010PropOp50
 70
     1
102
RTVSPost2010Prop51ColorIndex
 90
      256
102
RTVSPost2010Prop51ColorRGB
 90
-16777216
102
RTVSPost2010PropOp51
 70
     0
102
RTVSPost2010Prop52
140
1.0
102
RTVSPost2010PropOp52
 70
     0
102
RTVSPost2010Prop53
 90
        2
102
RTVSPost2010PropOp53
 70
     1
102
RTVSPost2010Prop54
  1
strokes_ogs.tif
102
RTVSPost2010PropOp54
 70
     1
102
RTVSPost2010Prop55
280
     0
102
RTVSPost2010PropOp55
 70
     1
102
RTVSPost2010Prop56
140
1.0
102
RTVSPost2010PropOp56
 70
     1
102
RTVSPost2010Prop57
140
1.0
102
RTVSPost2010PropOp57
 70
     1
102
RTVSPropertyOp0
 70
     1
102
RTVSPropertyOp1
 70
     1
102
RTVSPropertyOp2
 70
     1
102
RTVSPropertyOp3
 70
     1
102
RTVSPropertyOp4
 70
     1
102
RTVSPropertyOp5
 70
     1
102
RTVSPropertyOp6
 70
     1
102
RTVSPropertyOp7
 70
     1
102
RTVSPropertyOp8
 70
     1
102
RTVSPropertyOp9
 70
     1
102
RTVSPropertyOp10
 70
     1
102
RTVSPropertyOp11
 70
     1
102
RTVSPropertyOp12
 70
     1
102
RTVSPropertyOp13
 70
     1
102
RTVSPropertyOp14
 70
     1
102
RTVSPropertyOp15
 70
     1
102
RTVSPropertyOp16
 70
     1
102
RTVSPropertyOp17
 70
     1
102
RTVSPropertyOp18
 70
     1
102
RTVSPropertyOp19
 70
     1
102
RTVSPropertyOp20
 70
     1
102
RTVSPropertyOp21
 70
     1
102
RTVSPropertyOp22
 70
     1
102
RTVSPropertyOp23
 70
     1
102
RTVSPropertyOp24
 70
     1
102
RTVSPropertyOp25
 70
     1
102
RTVSPropertyOp26
 70
     1
102
RTVSPropertyOp27
 70
     1
102
RTVSPropertyOp28
 70
     1
102
RTVSPropertyOp29
 70
     1
102
RTVSPropertyOp30
 70
     1
102
RTVSPropertyOp31
 70
     1
102
RTVSPropertyOp32
 70
     1
102
RTVSPropertyOp33
 70
     1
102
RTVSPropertyOp34
 70
     1
102
RTVSPropertyOp35
 70
     1
102
RTVSPropertyOp36
 70
     1
102
RTVSPropertyOp37
 70
     1
102
RTVSPropertyOp38
 70
     1
102
RTVSPropertyOp39
 70
     1
102
RTVSPropertyOp40
 70
     1
102
RTVSPropertyOp41
 70
     1
102
RTVSPropertyOp42
 70
     1
102
RTVSPropertyOp43
 70
     1
102
RTVSPropertyOp44
 70
     1
102
RTVSPropertyOp45
 70
     1
102
RTVSPropertyOp46
 70
     1
102
RTVSPropertyOp47
 70
     1
102
RTVSPropertyOp48
 70
     1
102
RTVSPropertyOp49
 70
     1
102
RTVSPropertyOp50
 70
     1
102
RTVSPropertyOp51
 70
     0
102
RTVSPropertyOp52
 70
     0
102
RTVSPropertyOp53
 70
     1
102
RTVSPropertyOp54
 70
     1
102
RTVSPropertyOp55
 70
     1
102
RTVSPropertyOp56
 70
     1
102
RTVSPropertyOp57
 70
     1
102
RTVSPropertyOp58
 70
     1
102
RTVSPropertyOp59
 70
     1
102
RTVSPropertyOp60
 70
     1
102
RTVSPropertyOp61
 70
     1
102
RTVSPropertyOp62
 70
     1
  0
XRECORD
  5
189E
102
{ACAD_REACTORS
330
189D
102
}
330
189D
100
AcDbXrecord
280
     1
102
RTVSPost2010Prop28
280
     0
102
RTVSPost2010PropOp28
 70
     1
102
RTVSPost2010Prop29
280
     1
102
RTVSPost2010PropOp29
 70
     1
102
RTVSPost2010Prop30
280
     1
102
RTVSPost2010PropOp30
 70
     1
102
RTVSPost2010Prop31
280
     0
102
RTVSPost2010PropOp31
 70
     1
102
RTVSPost2010Prop32
280
     0
102
RTVSPost2010PropOp32
 70
     1
102
RTVSPost2010Prop33
280
     0
102
RTVSPost2010PropOp33
 70
     1
102
RTVSPost2010Prop34
280
     0
102
RTVSPost2010PropOp34
 70
     1
102
RTVSPost2010Prop35
280
     0
102
RTVSPost2010PropOp35
 70
     1
102
RTVSPost2010Prop36
280
     0
102
RTVSPost2010PropOp36
 70
     1
102
RTVSPost2010Prop37
 90
       50
102
RTVSPost2010PropOp37
 70
     1
102
RTVSPost2010Prop38
140
0.0
102
RTVSPost2010PropOp38
 70
     1
102
RTVSPost2010Prop39
140
1.0
102
RTVSPost2010PropOp39
 70
     1
102
RTVSPost2010Prop40
 90
        0
102
RTVSPost2010PropOp40
 70
     1
102
RTVSPost2010Prop41ColorIndex
 90
       18
102
RTVSPost2010Prop41ColorRGB
 90
        0
102
RTVSPost2010PropOp41
 70
     1
102
RTVSPost2010Prop42
 90
       50
102
RTVSPost2010PropOp42
 70
     1
102
RTVSPost2010Prop43
 90
        3
102
RTVSPost2010PropOp43
 70
     1
102
RTVSPost2010Prop44ColorIndex
 90
        5
102
RTVSPost2010Prop44ColorRGB
 90
      255
102
RTVSPost2010PropOp44
 70
     1
102
RTVSPost2010Prop45
280
     0
102
RTVSPost2010PropOp45
 70
     1
102
RTVSPost2010Prop46
 90
       50
102
RTVSPost2010PropOp46
 70
     1
102
RTVSPost2010Prop47
 90
       50
102
RTVSPost2010PropOp47
 70
     1
102
RTVSPost2010Prop48
 90
       50
102
RTVSPost2010PropOp48
 70
     1
102
RTVSPost2010Prop49
280
     0
102
RTVSPost2010PropOp49
 70
     1
102
RTVSPost2010Prop50
 90
       50
102
RTVSPost2010PropOp50
 70
     1
102
RTVSPost2010Prop51ColorIndex
 90
      256
102
RTVSPost2010Prop51ColorRGB
 90
-16777216
102
RTVSPost2010PropOp51
 70
     0
102
RTVSPost2010Prop52
140
1.0
102
RTVSPost2010PropOp52
 70
     0
102
RTVSPost2010Prop53
 90
        2
102
RTVSPost2010PropOp53
 70
     1
102
RTVSPost2010Prop54
  1
strokes_ogs.tif
102
RTVSPost2010PropOp54
 70
     1
102
RTVSPost2010Prop55
280
     0
102
RTVSPost2010PropOp55
 70
     1
102
RTVSPost2010Prop56
140
1.0
102
RTVSPost2010PropOp56
 70
     1
102
RTVSPost2010Prop57
140
1.0
102
RTVSPost2010PropOp57
 70
     1
102
RTVSPropertyOp0
 70
     1
102
RTVSPropertyOp1
 70
     1
102
RTVSPropertyOp2
 70
     1
102
RTVSPropertyOp3
 70
     1
102
RTVSPropertyOp4
 70
     1
102
RTVSPropertyOp5
 70
     1
102
RTVSPropertyOp6
 70
     1
102
RTVSPropertyOp7
 70
     1
102
RTVSPropertyOp8
 70
     1
102
RTVSPropertyOp9
 70
     1
102
RTVSPropertyOp10
 70
     1
102
RTVSPropertyOp11
 70
     1
102
RTVSPropertyOp12
 70
     1
102
RTVSPropertyOp13
 70
     1
102
RTVSPropertyOp14
 70
     1
102
RTVSPropertyOp15
 70
     1
102
RTVSPropertyOp16
 70
     1
102
RTVSPropertyOp17
 70
     1
102
RTVSPropertyOp18
 70
     1
102
RTVSPropertyOp19
 70
     1
102
RTVSPropertyOp20
 70
     1
102
RTVSPropertyOp21
 70
     1
102
RTVSPropertyOp22
 70
     1
102
RTVSPropertyOp23
 70
     1
102
RTVSPropertyOp24
 70
     1
102
RTVSPropertyOp25
 70
     1
102
RTVSPropertyOp26
 70
     1
102
RTVSPropertyOp27
 70
     1
102
RTVSPropertyOp28
 70
     1
102
RTVSPropertyOp29
 70
     1
102
RTVSPropertyOp30
 70
     1
102
RTVSPropertyOp31
 70
     1
102
RTVSPropertyOp32
 70
     1
102
RTVSPropertyOp33
 70
     1
102
RTVSPropertyOp34
 70
     1
102
RTVSPropertyOp35
 70
     1
102
RTVSPropertyOp36
 70
     1
102
RTVSPropertyOp37
 70
     1
102
RTVSPropertyOp38
 70
     1
102
RTVSPropertyOp39
 70
     1
102
RTVSPropertyOp40
 70
     1
102
RTVSPropertyOp41
 70
     1
102
RTVSPropertyOp42
 70
     1
102
RTVSPropertyOp43
 70
     1
102
RTVSPropertyOp44
 70
     1
102
RTVSPropertyOp45
 70
     1
102
RTVSPropertyOp46
 70
     1
102
RTVSPropertyOp47
 70
     1
102
RTVSPropertyOp48
 70
     1
102
RTVSPropertyOp49
 70
     1
102
RTVSPropertyOp50
 70
     1
102
RTVSPropertyOp51
 70
     0
102
RTVSPropertyOp52
 70
     0
102
RTVSPropertyOp53
 70
     1
102
RTVSPropertyOp54
 70
     1
102
RTVSPropertyOp55
 70
     1
102
RTVSPropertyOp56
 70
     1
102
RTVSPropertyOp57
 70
     1
102
RTVSPropertyOp58
 70
     1
102
RTVSPropertyOp59
 70
     1
102
RTVSPropertyOp60
 70
     1
102
RTVSPropertyOp61
 70
     1
102
RTVSPropertyOp62
 70
     1
  0
XRECORD
  5
18AC
102
{ACAD_REACTORS
330
18AB
102
}
330
18AB
100
AcDbXrecord
280
     1
102
RTVSPost2010Prop28
280
     0
102
RTVSPost2010PropOp28
 70
     1
102
RTVSPost2010Prop29
280
     1
102
RTVSPost2010PropOp29
 70
     1
102
RTVSPost2010Prop30
280
     1
102
RTVSPost2010PropOp30
 70
     1
102
RTVSPost2010Prop31
280
     0
102
RTVSPost2010PropOp31
 70
     1
102
RTVSPost2010Prop32
280
     0
102
RTVSPost2010PropOp32
 70
     1
102
RTVSPost2010Prop33
280
     0
102
RTVSPost2010PropOp33
 70
     1
102
RTVSPost2010Prop34
280
     0
102
RTVSPost2010PropOp34
 70
     1
102
RTVSPost2010Prop35
280
     0
102
RTVSPost2010PropOp35
 70
     1
102
RTVSPost2010Prop36
280
     0
102
RTVSPost2010PropOp36
 70
     1
102
RTVSPost2010Prop37
 90
       50
102
RTVSPost2010PropOp37
 70
     1
102
RTVSPost2010Prop38
140
0.0
102
RTVSPost2010PropOp38
 70
     1
102
RTVSPost2010Prop39
140
1.0
102
RTVSPost2010PropOp39
 70
     1
102
RTVSPost2010Prop40
 90
        0
102
RTVSPost2010PropOp40
 70
     1
102
RTVSPost2010Prop41ColorIndex
 90
       18
102
RTVSPost2010Prop41ColorRGB
 90
        0
102
RTVSPost2010PropOp41
 70
     1
102
RTVSPost2010Prop42
 90
       50
102
RTVSPost2010PropOp42
 70
     1
102
RTVSPost2010Prop43
 90
        3
102
RTVSPost2010PropOp43
 70
     1
102
RTVSPost2010Prop44ColorIndex
 90
        5
102
RTVSPost2010Prop44ColorRGB
 90
      255
102
RTVSPost2010PropOp44
 70
     1
102
RTVSPost2010Prop45
280
     0
102
RTVSPost2010PropOp45
 70
     1
102
RTVSPost2010Prop46
 90
       50
102
RTVSPost2010PropOp46
 70
     1
102
RTVSPost2010Prop47
 90
       50
102
RTVSPost2010PropOp47
 70
     1
102
RTVSPost2010Prop48
 90
       50
102
RTVSPost2010PropOp48
 70
     1
102
RTVSPost2010Prop49
280
     0
102
RTVSPost2010PropOp49
 70
     1
102
RTVSPost2010Prop50
 90
       50
102
RTVSPost2010PropOp50
 70
     1
102
RTVSPost2010Prop51ColorIndex
 90
      256
102
RTVSPost2010Prop51ColorRGB
 90
-16777216
102
RTVSPost2010PropOp51
 70
     0
102
RTVSPost2010Prop52
140
1.0
102
RTVSPost2010PropOp52
 70
     0
102
RTVSPost2010Prop53
 90
        2
102
RTVSPost2010PropOp53
 70
     1
102
RTVSPost2010Prop54
  1
strokes_ogs.tif
102
RTVSPost2010PropOp54
 70
     1
102
RTVSPost2010Prop55
280
     0
102
RTVSPost2010PropOp55
 70
     1
102
RTVSPost2010Prop56
140
1.0
102
RTVSPost2010PropOp56
 70
     1
102
RTVSPost2010Prop57
140
1.0
102
RTVSPost2010PropOp57
 70
     1
102
RTVSPropertyOp0
 70
     1
102
RTVSPropertyOp1
 70
     1
102
RTVSPropertyOp2
 70
     1
102
RTVSPropertyOp3
 70
     1
102
RTVSPropertyOp4
 70
     1
102
RTVSPropertyOp5
 70
     1
102
RTVSPropertyOp6
 70
     1
102
RTVSPropertyOp7
 70
     1
102
RTVSPropertyOp8
 70
     1
102
RTVSPropertyOp9
 70
     1
102
RTVSPropertyOp10
 70
     1
102
RTVSPropertyOp11
 70
     1
102
RTVSPropertyOp12
 70
     1
102
RTVSPropertyOp13
 70
     1
102
RTVSPropertyOp14
 70
     1
102
RTVSPropertyOp15
 70
     1
102
RTVSPropertyOp16
 70
     1
102
RTVSPropertyOp17
 70
     1
102
RTVSPropertyOp18
 70
     1
102
RTVSPropertyOp19
 70
     1
102
RTVSPropertyOp20
 70
     1
102
RTVSPropertyOp21
 70
     1
102
RTVSPropertyOp22
 70
     1
102
RTVSPropertyOp23
 70
     1
102
RTVSPropertyOp24
 70
     1
102
RTVSPropertyOp25
 70
     1
102
RTVSPropertyOp26
 70
     1
102
RTVSPropertyOp27
 70
     1
102
RTVSPropertyOp28
 70
     1
102
RTVSPropertyOp29
 70
     1
102
RTVSPropertyOp30
 70
     1
102
RTVSPropertyOp31
 70
     1
102
RTVSPropertyOp32
 70
     1
102
RTVSPropertyOp33
 70
     1
102
RTVSPropertyOp34
 70
     1
102
RTVSPropertyOp35
 70
     1
102
RTVSPropertyOp36
 70
     1
102
RTVSPropertyOp37
 70
     1
102
RTVSPropertyOp38
 70
     1
102
RTVSPropertyOp39
 70
     1
102
RTVSPropertyOp40
 70
     1
102
RTVSPropertyOp41
 70
     1
102
RTVSPropertyOp42
 70
     1
102
RTVSPropertyOp43
 70
     1
102
RTVSPropertyOp44
 70
     1
102
RTVSPropertyOp45
 70
     1
102
RTVSPropertyOp46
 70
     1
102
RTVSPropertyOp47
 70
     1
102
RTVSPropertyOp48
 70
     1
102
RTVSPropertyOp49
 70
     1
102
RTVSPropertyOp50
 70
     1
102
RTVSPropertyOp51
 70
     0
102
RTVSPropertyOp52
 70
     0
102
RTVSPropertyOp53
 70
     1
102
RTVSPropertyOp54
 70
     1
102
RTVSPropertyOp55
 70
     1
102
RTVSPropertyOp56
 70
     1
102
RTVSPropertyOp57
 70
     1
102
RTVSPropertyOp58
 70
     1
102
RTVSPropertyOp59
 70
     1
102
RTVSPropertyOp60
 70
     1
102
RTVSPropertyOp61
 70
     1
102
RTVSPropertyOp62
 70
     1
  0
XRECORD
  5
18B4
102
{ACAD_REACTORS
330
18B3
102
}
330
18B3
100
AcDbXrecord
280
     1
102
RTVSPost2010Prop28
280
     0
102
RTVSPost2010PropOp28
 70
     1
102
RTVSPost2010Prop29
280
     1
102
RTVSPost2010PropOp29
 70
     1
102
RTVSPost2010Prop30
280
     1
102
RTVSPost2010PropOp30
 70
     1
102
RTVSPost2010Prop31
280
     0
102
RTVSPost2010PropOp31
 70
     1
102
RTVSPost2010Prop32
280
     0
102
RTVSPost2010PropOp32
 70
     1
102
RTVSPost2010Prop33
280
     0
102
RTVSPost2010PropOp33
 70
     1
102
RTVSPost2010Prop34
280
     0
102
RTVSPost2010PropOp34
 70
     1
102
RTVSPost2010Prop35
280
     0
102
RTVSPost2010PropOp35
 70
     1
102
RTVSPost2010Prop36
280
     0
102
RTVSPost2010PropOp36
 70
     1
102
RTVSPost2010Prop37
 90
       50
102
RTVSPost2010PropOp37
 70
     1
102
RTVSPost2010Prop38
140
0.0
102
RTVSPost2010PropOp38
 70
     1
102
RTVSPost2010Prop39
140
1.0
102
RTVSPost2010PropOp39
 70
     1
102
RTVSPost2010Prop40
 90
        0
102
RTVSPost2010PropOp40
 70
     1
102
RTVSPost2010Prop41ColorIndex
 90
       18
102
RTVSPost2010Prop41ColorRGB
 90
        0
102
RTVSPost2010PropOp41
 70
     1
102
RTVSPost2010Prop42
 90
       50
102
RTVSPost2010PropOp42
 70
     1
102
RTVSPost2010Prop43
 90
        3
102
RTVSPost2010PropOp43
 70
     1
102
RTVSPost2010Prop44ColorIndex
 90
        5
102
RTVSPost2010Prop44ColorRGB
 90
      255
102
RTVSPost2010PropOp44
 70
     1
102
RTVSPost2010Prop45
280
     0
102
RTVSPost2010PropOp45
 70
     1
102
RTVSPost2010Prop46
 90
       50
102
RTVSPost2010PropOp46
 70
     1
102
RTVSPost2010Prop47
 90
       50
102
RTVSPost2010PropOp47
 70
     1
102
RTVSPost2010Prop48
 90
       50
102
RTVSPost2010PropOp48
 70
     1
102
RTVSPost2010Prop49
280
     0
102
RTVSPost2010PropOp49
 70
     1
102
RTVSPost2010Prop50
 90
       50
102
RTVSPost2010PropOp50
 70
     1
102
RTVSPost2010Prop51ColorIndex
 90
      256
102
RTVSPost2010Prop51ColorRGB
 90
-16777216
102
RTVSPost2010PropOp51
 70
     0
102
RTVSPost2010Prop52
140
1.0
102
RTVSPost2010PropOp52
 70
     0
102
RTVSPost2010Prop53
 90
        2
102
RTVSPost2010PropOp53
 70
     1
102
RTVSPost2010Prop54
  1
strokes_ogs.tif
102
RTVSPost2010PropOp54
 70
     1
102
RTVSPost2010Prop55
280
     0
102
RTVSPost2010PropOp55
 70
     1
102
RTVSPost2010Prop56
140
1.0
102
RTVSPost2010PropOp56
 70
     1
102
RTVSPost2010Prop57
140
1.0
102
RTVSPost2010PropOp57
 70
     1
102
RTVSPropertyOp0
 70
     1
102
RTVSPropertyOp1
 70
     1
102
RTVSPropertyOp2
 70
     1
102
RTVSPropertyOp3
 70
     1
102
RTVSPropertyOp4
 70
     1
102
RTVSPropertyOp5
 70
     1
102
RTVSPropertyOp6
 70
     1
102
RTVSPropertyOp7
 70
     1
102
RTVSPropertyOp8
 70
     1
102
RTVSPropertyOp9
 70
     1
102
RTVSPropertyOp10
 70
     1
102
RTVSPropertyOp11
 70
     1
102
RTVSPropertyOp12
 70
     1
102
RTVSPropertyOp13
 70
     1
102
RTVSPropertyOp14
 70
     1
102
RTVSPropertyOp15
 70
     1
102
RTVSPropertyOp16
 70
     1
102
RTVSPropertyOp17
 70
     1
102
RTVSPropertyOp18
 70
     1
102
RTVSPropertyOp19
 70
     1
102
RTVSPropertyOp20
 70
     1
102
RTVSPropertyOp21
 70
     1
102
RTVSPropertyOp22
 70
     1
102
RTVSPropertyOp23
 70
     1
102
RTVSPropertyOp24
 70
     1
102
RTVSPropertyOp25
 70
     1
102
RTVSPropertyOp26
 70
     1
102
RTVSPropertyOp27
 70
     1
102
RTVSPropertyOp28
 70
     1
102
RTVSPropertyOp29
 70
     1
102
RTVSPropertyOp30
 70
     1
102
RTVSPropertyOp31
 70
     1
102
RTVSPropertyOp32
 70
     1
102
RTVSPropertyOp33
 70
     1
102
RTVSPropertyOp34
 70
     1
102
RTVSPropertyOp35
 70
     1
102
RTVSPropertyOp36
 70
     1
102
RTVSPropertyOp37
 70
     1
102
RTVSPropertyOp38
 70
     1
102
RTVSPropertyOp39
 70
     1
102
RTVSPropertyOp40
 70
     1
102
RTVSPropertyOp41
 70
     1
102
RTVSPropertyOp42
 70
     1
102
RTVSPropertyOp43
 70
     1
102
RTVSPropertyOp44
 70
     1
102
RTVSPropertyOp45
 70
     1
102
RTVSPropertyOp46
 70
     1
102
RTVSPropertyOp47
 70
     1
102
RTVSPropertyOp48
 70
     1
102
RTVSPropertyOp49
 70
     1
102
RTVSPropertyOp50
 70
     1
102
RTVSPropertyOp51
 70
     0
102
RTVSPropertyOp52
 70
     0
102
RTVSPropertyOp53
 70
     1
102
RTVSPropertyOp54
 70
     1
102
RTVSPropertyOp55
 70
     1
102
RTVSPropertyOp56
 70
     1
102
RTVSPropertyOp57
 70
     1
102
RTVSPropertyOp58
 70
     1
102
RTVSPropertyOp59
 70
     1
102
RTVSPropertyOp60
 70
     1
102
RTVSPropertyOp61
 70
     1
102
RTVSPropertyOp62
 70
     1
  0
XRECORD
  5
18A6
102
{ACAD_REACTORS
330
18A5
102
}
330
18A5
100
AcDbXrecord
280
     1
102
RTVSPost2010Prop28
280
     0
102
RTVSPost2010PropOp28
 70
     1
102
RTVSPost2010Prop29
280
     1
102
RTVSPost2010PropOp29
 70
     1
102
RTVSPost2010Prop30
280
     1
102
RTVSPost2010PropOp30
 70
     1
102
RTVSPost2010Prop31
280
     0
102
RTVSPost2010PropOp31
 70
     1
102
RTVSPost2010Prop32
280
     0
102
RTVSPost2010PropOp32
 70
     1
102
RTVSPost2010Prop33
280
     0
102
RTVSPost2010PropOp33
 70
     1
102
RTVSPost2010Prop34
280
     0
102
RTVSPost2010PropOp34
 70
     1
102
RTVSPost2010Prop35
280
     0
102
RTVSPost2010PropOp35
 70
     1
102
RTVSPost2010Prop36
280
     0
102
RTVSPost2010PropOp36
 70
     1
102
RTVSPost2010Prop37
 90
       50
102
RTVSPost2010PropOp37
 70
     1
102
RTVSPost2010Prop38
140
0.0
102
RTVSPost2010PropOp38
 70
     1
102
RTVSPost2010Prop39
140
1.0
102
RTVSPost2010PropOp39
 70
     1
102
RTVSPost2010Prop40
 90
        0
102
RTVSPost2010PropOp40
 70
     1
102
RTVSPost2010Prop41ColorIndex
 90
       18
102
RTVSPost2010Prop41ColorRGB
 90
        0
102
RTVSPost2010PropOp41
 70
     1
102
RTVSPost2010Prop42
 90
       50
102
RTVSPost2010PropOp42
 70
     1
102
RTVSPost2010Prop43
 90
        3
102
RTVSPost2010PropOp43
 70
     1
102
RTVSPost2010Prop44ColorIndex
 90
        5
102
RTVSPost2010Prop44ColorRGB
 90
      255
102
RTVSPost2010PropOp44
 70
     1
102
RTVSPost2010Prop45
280
     0
102
RTVSPost2010PropOp45
 70
     1
102
RTVSPost2010Prop46
 90
       50
102
RTVSPost2010PropOp46
 70
     1
102
RTVSPost2010Prop47
 90
       50
102
RTVSPost2010PropOp47
 70
     1
102
RTVSPost2010Prop48
 90
       50
102
RTVSPost2010PropOp48
 70
     1
102
RTVSPost2010Prop49
280
     0
102
RTVSPost2010PropOp49
 70
     1
102
RTVSPost2010Prop50
 90
       50
102
RTVSPost2010PropOp50
 70
     1
102
RTVSPost2010Prop51ColorIndex
 90
      256
102
RTVSPost2010Prop51ColorRGB
 90
-16777216
102
RTVSPost2010PropOp51
 70
     0
102
RTVSPost2010Prop52
140
1.0
102
RTVSPost2010PropOp52
 70
     0
102
RTVSPost2010Prop53
 90
        2
102
RTVSPost2010PropOp53
 70
     1
102
RTVSPost2010Prop54
  1
strokes_ogs.tif
102
RTVSPost2010PropOp54
 70
     1
102
RTVSPost2010Prop55
280
     0
102
RTVSPost2010PropOp55
 70
     1
102
RTVSPost2010Prop56
140
1.0
102
RTVSPost2010PropOp56
 70
     1
102
RTVSPost2010Prop57
140
1.0
102
RTVSPost2010PropOp57
 70
     1
102
RTVSPropertyOp0
 70
     1
102
RTVSPropertyOp1
 70
     1
102
RTVSPropertyOp2
 70
     1
102
RTVSPropertyOp3
 70
     1
102
RTVSPropertyOp4
 70
     1
102
RTVSPropertyOp5
 70
     1
102
RTVSPropertyOp6
 70
     1
102
RTVSPropertyOp7
 70
     1
102
RTVSPropertyOp8
 70
     1
102
RTVSPropertyOp9
 70
     1
102
RTVSPropertyOp10
 70
     1
102
RTVSPropertyOp11
 70
     1
102
RTVSPropertyOp12
 70
     1
102
RTVSPropertyOp13
 70
     1
102
RTVSPropertyOp14
 70
     1
102
RTVSPropertyOp15
 70
     1
102
RTVSPropertyOp16
 70
     1
102
RTVSPropertyOp17
 70
     1
102
RTVSPropertyOp18
 70
     1
102
RTVSPropertyOp19
 70
     1
102
RTVSPropertyOp20
 70
     1
102
RTVSPropertyOp21
 70
     1
102
RTVSPropertyOp22
 70
     1
102
RTVSPropertyOp23
 70
     1
102
RTVSPropertyOp24
 70
     1
102
RTVSPropertyOp25
 70
     1
102
RTVSPropertyOp26
 70
     1
102
RTVSPropertyOp27
 70
     1
102
RTVSPropertyOp28
 70
     1
102
RTVSPropertyOp29
 70
     1
102
RTVSPropertyOp30
 70
     1
102
RTVSPropertyOp31
 70
     1
102
RTVSPropertyOp32
 70
     1
102
RTVSPropertyOp33
 70
     1
102
RTVSPropertyOp34
 70
     1
102
RTVSPropertyOp35
 70
     1
102
RTVSPropertyOp36
 70
     1
102
RTVSPropertyOp37
 70
     1
102
RTVSPropertyOp38
 70
     1
102
RTVSPropertyOp39
 70
     1
102
RTVSPropertyOp40
 70
     1
102
RTVSPropertyOp41
 70
     1
102
RTVSPropertyOp42
 70
     1
102
RTVSPropertyOp43
 70
     1
102
RTVSPropertyOp44
 70
     1
102
RTVSPropertyOp45
 70
     1
102
RTVSPropertyOp46
 70
     1
102
RTVSPropertyOp47
 70
     1
102
RTVSPropertyOp48
 70
     1
102
RTVSPropertyOp49
 70
     1
102
RTVSPropertyOp50
 70
     1
102
RTVSPropertyOp51
 70
     0
102
RTVSPropertyOp52
 70
     0
102
RTVSPropertyOp53
 70
     1
102
RTVSPropertyOp54
 70
     1
102
RTVSPropertyOp55
 70
     1
102
RTVSPropertyOp56
 70
     1
102
RTVSPropertyOp57
 70
     1
102
RTVSPropertyOp58
 70
     1
102
RTVSPropertyOp59
 70
     1
102
RTVSPropertyOp60
 70
     1
102
RTVSPropertyOp61
 70
     1
102
RTVSPropertyOp62
 70
     1
  0
XRECORD
  5
18AA
102
{ACAD_REACTORS
330
18A9
102
}
330
18A9
100
AcDbXrecord
280
     1
102
RTVSPost2010Prop28
280
     0
102
RTVSPost2010PropOp28
 70
     1
102
RTVSPost2010Prop29
280
     1
102
RTVSPost2010PropOp29
 70
     1
102
RTVSPost2010Prop30
280
     1
102
RTVSPost2010PropOp30
 70
     1
102
RTVSPost2010Prop31
280
     0
102
RTVSPost2010PropOp31
 70
     1
102
RTVSPost2010Prop32
280
     0
102
RTVSPost2010PropOp32
 70
     1
102
RTVSPost2010Prop33
280
     0
102
RTVSPost2010PropOp33
 70
     1
102
RTVSPost2010Prop34
280
     0
102
RTVSPost2010PropOp34
 70
     1
102
RTVSPost2010Prop35
280
     0
102
RTVSPost2010PropOp35
 70
     1
102
RTVSPost2010Prop36
280
     0
102
RTVSPost2010PropOp36
 70
     1
102
RTVSPost2010Prop37
 90
       50
102
RTVSPost2010PropOp37
 70
     1
102
RTVSPost2010Prop38
140
0.0
102
RTVSPost2010PropOp38
 70
     1
102
RTVSPost2010Prop39
140
1.0
102
RTVSPost2010PropOp39
 70
     1
102
RTVSPost2010Prop40
 90
        0
102
RTVSPost2010PropOp40
 70
     1
102
RTVSPost2010Prop41ColorIndex
 90
       18
102
RTVSPost2010Prop41ColorRGB
 90
        0
102
RTVSPost2010PropOp41
 70
     1
102
RTVSPost2010Prop42
 90
       50
102
RTVSPost2010PropOp42
 70
     1
102
RTVSPost2010Prop43
 90
        3
102
RTVSPost2010PropOp43
 70
     1
102
RTVSPost2010Prop44ColorIndex
 90
        5
102
RTVSPost2010Prop44ColorRGB
 90
      255
102
RTVSPost2010PropOp44
 70
     1
102
RTVSPost2010Prop45
280
     0
102
RTVSPost2010PropOp45
 70
     1
102
RTVSPost2010Prop46
 90
       50
102
RTVSPost2010PropOp46
 70
     1
102
RTVSPost2010Prop47
 90
       50
102
RTVSPost2010PropOp47
 70
     1
102
RTVSPost2010Prop48
 90
       50
102
RTVSPost2010PropOp48
 70
     1
102
RTVSPost2010Prop49
280
     0
102
RTVSPost2010PropOp49
 70
     1
102
RTVSPost2010Prop50
 90
       50
102
RTVSPost2010PropOp50
 70
     1
102
RTVSPost2010Prop51ColorIndex
 90
      256
102
RTVSPost2010Prop51ColorRGB
 90
-16777216
102
RTVSPost2010PropOp51
 70
     0
102
RTVSPost2010Prop52
140
1.0
102
RTVSPost2010PropOp52
 70
     0
102
RTVSPost2010Prop53
 90
        2
102
RTVSPost2010PropOp53
 70
     1
102
RTVSPost2010Prop54
  1
strokes_ogs.tif
102
RTVSPost2010PropOp54
 70
     1
102
RTVSPost2010Prop55
280
     0
102
RTVSPost2010PropOp55
 70
     1
102
RTVSPost2010Prop56
140
1.0
102
RTVSPost2010PropOp56
 70
     1
102
RTVSPost2010Prop57
140
1.0
102
RTVSPost2010PropOp57
 70
     1
102
RTVSPropertyOp0
 70
     1
102
RTVSPropertyOp1
 70
     1
102
RTVSPropertyOp2
 70
     1
102
RTVSPropertyOp3
 70
     1
102
RTVSPropertyOp4
 70
     1
102
RTVSPropertyOp5
 70
     1
102
RTVSPropertyOp6
 70
     1
102
RTVSPropertyOp7
 70
     1
102
RTVSPropertyOp8
 70
     1
102
RTVSPropertyOp9
 70
     1
102
RTVSPropertyOp10
 70
     1
102
RTVSPropertyOp11
 70
     1
102
RTVSPropertyOp12
 70
     1
102
RTVSPropertyOp13
 70
     1
102
RTVSPropertyOp14
 70
     1
102
RTVSPropertyOp15
 70
     1
102
RTVSPropertyOp16
 70
     1
102
RTVSPropertyOp17
 70
     1
102
RTVSPropertyOp18
 70
     1
102
RTVSPropertyOp19
 70
     1
102
RTVSPropertyOp20
 70
     1
102
RTVSPropertyOp21
 70
     1
102
RTVSPropertyOp22
 70
     1
102
RTVSPropertyOp23
 70
     1
102
RTVSPropertyOp24
 70
     1
102
RTVSPropertyOp25
 70
     1
102
RTVSPropertyOp26
 70
     1
102
RTVSPropertyOp27
 70
     1
102
RTVSPropertyOp28
 70
     1
102
RTVSPropertyOp29
 70
     1
102
RTVSPropertyOp30
 70
     1
102
RTVSPropertyOp31
 70
     1
102
RTVSPropertyOp32
 70
     1
102
RTVSPropertyOp33
 70
     1
102
RTVSPropertyOp34
 70
     1
102
RTVSPropertyOp35
 70
     1
102
RTVSPropertyOp36
 70
     1
102
RTVSPropertyOp37
 70
     1
102
RTVSPropertyOp38
 70
     1
102
RTVSPropertyOp39
 70
     1
102
RTVSPropertyOp40
 70
     1
102
RTVSPropertyOp41
 70
     1
102
RTVSPropertyOp42
 70
     1
102
RTVSPropertyOp43
 70
     1
102
RTVSPropertyOp44
 70
     1
102
RTVSPropertyOp45
 70
     1
102
RTVSPropertyOp46
 70
     1
102
RTVSPropertyOp47
 70
     1
102
RTVSPropertyOp48
 70
     1
102
RTVSPropertyOp49
 70
     1
102
RTVSPropertyOp50
 70
     1
102
RTVSPropertyOp51
 70
     0
102
RTVSPropertyOp52
 70
     0
102
RTVSPropertyOp53
 70
     1
102
RTVSPropertyOp54
 70
     1
102
RTVSPropertyOp55
 70
     1
102
RTVSPropertyOp56
 70
     1
102
RTVSPropertyOp57
 70
     1
102
RTVSPropertyOp58
 70
     1
102
RTVSPropertyOp59
 70
     1
102
RTVSPropertyOp60
 70
     1
102
RTVSPropertyOp61
 70
     1
102
RTVSPropertyOp62
 70
     1
  0
XRECORD
  5
18BA
102
{ACAD_REACTORS
330
18B9
102
}
330
18B9
100
AcDbXrecord
280
     1
102
RTVSPost2010Prop28
280
     0
102
RTVSPost2010PropOp28
 70
     1
102
RTVSPost2010Prop29
280
     1
102
RTVSPost2010PropOp29
 70
     1
102
RTVSPost2010Prop30
280
     1
102
RTVSPost2010PropOp30
 70
     1
102
RTVSPost2010Prop31
280
     0
102
RTVSPost2010PropOp31
 70
     1
102
RTVSPost2010Prop32
280
     0
102
RTVSPost2010PropOp32
 70
     1
102
RTVSPost2010Prop33
280
     0
102
RTVSPost2010PropOp33
 70
     1
102
RTVSPost2010Prop34
280
     0
102
RTVSPost2010PropOp34
 70
     1
102
RTVSPost2010Prop35
280
     0
102
RTVSPost2010PropOp35
 70
     1
102
RTVSPost2010Prop36
280
     0
102
RTVSPost2010PropOp36
 70
     1
102
RTVSPost2010Prop37
 90
       50
102
RTVSPost2010PropOp37
 70
     1
102
RTVSPost2010Prop38
140
0.0
102
RTVSPost2010PropOp38
 70
     1
102
RTVSPost2010Prop39
140
1.0
102
RTVSPost2010PropOp39
 70
     1
102
RTVSPost2010Prop40
 90
        0
102
RTVSPost2010PropOp40
 70
     1
102
RTVSPost2010Prop41ColorIndex
 90
       18
102
RTVSPost2010Prop41ColorRGB
 90
        0
102
RTVSPost2010PropOp41
 70
     1
102
RTVSPost2010Prop42
 90
       50
102
RTVSPost2010PropOp42
 70
     1
102
RTVSPost2010Prop43
 90
        3
102
RTVSPost2010PropOp43
 70
     1
102
RTVSPost2010Prop44ColorIndex
 90
        5
102
RTVSPost2010Prop44ColorRGB
 90
      255
102
RTVSPost2010PropOp44
 70
     1
102
RTVSPost2010Prop45
280
     0
102
RTVSPost2010PropOp45
 70
     1
102
RTVSPost2010Prop46
 90
       50
102
RTVSPost2010PropOp46
 70
     1
102
RTVSPost2010Prop47
 90
       50
102
RTVSPost2010PropOp47
 70
     1
102
RTVSPost2010Prop48
 90
       50
102
RTVSPost2010PropOp48
 70
     1
102
RTVSPost2010Prop49
280
     0
102
RTVSPost2010PropOp49
 70
     1
102
RTVSPost2010Prop50
 90
       50
102
RTVSPost2010PropOp50
 70
     1
102
RTVSPost2010Prop51ColorIndex
 90
      256
102
RTVSPost2010Prop51ColorRGB
 90
-16777216
102
RTVSPost2010PropOp51
 70
     0
102
RTVSPost2010Prop52
140
1.0
102
RTVSPost2010PropOp52
 70
     0
102
RTVSPost2010Prop53
 90
        2
102
RTVSPost2010PropOp53
 70
     1
102
RTVSPost2010Prop54
  1
strokes_ogs.tif
102
RTVSPost2010PropOp54
 70
     1
102
RTVSPost2010Prop55
280
     0
102
RTVSPost2010PropOp55
 70
     1
102
RTVSPost2010Prop56
140
1.0
102
RTVSPost2010PropOp56
 70
     1
102
RTVSPost2010Prop57
140
1.0
102
RTVSPost2010PropOp57
 70
     1
102
RTVSPropertyOp0
 70
     0
102
RTVSPropertyOp1
 70
     0
102
RTVSPropertyOp2
 70
     0
102
RTVSPropertyOp3
 70
     0
102
RTVSPropertyOp4
 70
     0
102
RTVSPropertyOp5
 70
     0
102
RTVSPropertyOp6
 70
     0
102
RTVSPropertyOp7
 70
     0
102
RTVSPropertyOp8
 70
     0
102
RTVSPropertyOp9
 70
     0
102
RTVSPropertyOp10
 70
     0
102
RTVSPropertyOp11
 70
     0
102
RTVSPropertyOp12
 70
     0
102
RTVSPropertyOp13
 70
     0
102
RTVSPropertyOp14
 70
     2
102
RTVSPropertyOp15
 70
     0
102
RTVSPropertyOp16
 70
     0
102
RTVSPropertyOp17
 70
     0
102
RTVSPropertyOp18
 70
     0
102
RTVSPropertyOp19
 70
     0
102
RTVSPropertyOp20
 70
     0
102
RTVSPropertyOp21
 70
     0
102
RTVSPropertyOp22
 70
     0
102
RTVSPropertyOp23
 70
     0
102
RTVSPropertyOp24
 70
     0
102
RTVSPropertyOp25
 70
     0
102
RTVSPropertyOp26
 70
     0
102
RTVSPropertyOp27
 70
     0
102
RTVSPropertyOp28
 70
     1
102
RTVSPropertyOp29
 70
     1
102
RTVSPropertyOp30
 70
     1
102
RTVSPropertyOp31
 70
     1
102
RTVSPropertyOp32
 70
     1
102
RTVSPropertyOp33
 70
     1
102
RTVSPropertyOp34
 70
     1
102
RTVSPropertyOp35
 70
     1
102
RTVSPropertyOp36
 70
     1
102
RTVSPropertyOp37
 70
     1
102
RTVSPropertyOp38
 70
     1
102
RTVSPropertyOp39
 70
     1
102
RTVSPropertyOp40
 70
     1
102
RTVSPropertyOp41
 70
     1
102
RTVSPropertyOp42
 70
     1
102
RTVSPropertyOp43
 70
     1
102
RTVSPropertyOp44
 70
     1
102
RTVSPropertyOp45
 70
     1
102
RTVSPropertyOp46
 70
     1
102
RTVSPropertyOp47
 70
     1
102
RTVSPropertyOp48
 70
     1
102
RTVSPropertyOp49
 70
     1
102
RTVSPropertyOp50
 70
     1
102
RTVSPropertyOp51
 70
     0
102
RTVSPropertyOp52
 70
     0
102
RTVSPropertyOp53
 70
     1
102
RTVSPropertyOp54
 70
     1
102
RTVSPropertyOp55
 70
     1
102
RTVSPropertyOp56
 70
     1
102
RTVSPropertyOp57
 70
     1
102
RTVSPropertyOp58
 70
     1
102
RTVSPropertyOp59
 70
     1
102
RTVSPropertyOp60
 70
     1
102
RTVSPropertyOp61
 70
     1
102
RTVSPropertyOp62
 70
     1
  0
XRECORD
  5
18B2
102
{ACAD_REACTORS
330
18B1
102
}
330
18B1
100
AcDbXrecord
280
     1
102
RTVSPost2010Prop28
280
     0
102
RTVSPost2010PropOp28
 70
     1
102
RTVSPost2010Prop29
280
     1
102
RTVSPost2010PropOp29
 70
     1
102
RTVSPost2010Prop30
280
     1
102
RTVSPost2010PropOp30
 70
     1
102
RTVSPost2010Prop31
280
     0
102
RTVSPost2010PropOp31
 70
     1
102
RTVSPost2010Prop32
280
     0
102
RTVSPost2010PropOp32
 70
     1
102
RTVSPost2010Prop33
280
     0
102
RTVSPost2010PropOp33
 70
     1
102
RTVSPost2010Prop34
280
     0
102
RTVSPost2010PropOp34
 70
     1
102
RTVSPost2010Prop35
280
     0
102
RTVSPost2010PropOp35
 70
     1
102
RTVSPost2010Prop36
280
     0
102
RTVSPost2010PropOp36
 70
     1
102
RTVSPost2010Prop37
 90
       50
102
RTVSPost2010PropOp37
 70
     1
102
RTVSPost2010Prop38
140
0.0
102
RTVSPost2010PropOp38
 70
     1
102
RTVSPost2010Prop39
140
1.0
102
RTVSPost2010PropOp39
 70
     1
102
RTVSPost2010Prop40
 90
        0
102
RTVSPost2010PropOp40
 70
     1
102
RTVSPost2010Prop41ColorIndex
 90
       18
102
RTVSPost2010Prop41ColorRGB
 90
        0
102
RTVSPost2010PropOp41
 70
     1
102
RTVSPost2010Prop42
 90
       50
102
RTVSPost2010PropOp42
 70
     1
102
RTVSPost2010Prop43
 90
        3
102
RTVSPost2010PropOp43
 70
     1
102
RTVSPost2010Prop44ColorIndex
 90
        5
102
RTVSPost2010Prop44ColorRGB
 90
      255
102
RTVSPost2010PropOp44
 70
     1
102
RTVSPost2010Prop45
280
     0
102
RTVSPost2010PropOp45
 70
     1
102
RTVSPost2010Prop46
 90
       50
102
RTVSPost2010PropOp46
 70
     1
102
RTVSPost2010Prop47
 90
       50
102
RTVSPost2010PropOp47
 70
     1
102
RTVSPost2010Prop48
 90
       50
102
RTVSPost2010PropOp48
 70
     1
102
RTVSPost2010Prop49
280
     0
102
RTVSPost2010PropOp49
 70
     1
102
RTVSPost2010Prop50
 90
       50
102
RTVSPost2010PropOp50
 70
     1
102
RTVSPost2010Prop51ColorIndex
 90
      256
102
RTVSPost2010Prop51ColorRGB
 90
-16777216
102
RTVSPost2010PropOp51
 70
     0
102
RTVSPost2010Prop52
140
1.0
102
RTVSPost2010PropOp52
 70
     0
102
RTVSPost2010Prop53
 90
        2
102
RTVSPost2010PropOp53
 70
     1
102
RTVSPost2010Prop54
  1
strokes_ogs.tif
102
RTVSPost2010PropOp54
 70
     1
102
RTVSPost2010Prop55
280
     0
102
RTVSPost2010PropOp55
 70
     1
102
RTVSPost2010Prop56
140
1.0
102
RTVSPost2010PropOp56
 70
     1
102
RTVSPost2010Prop57
140
1.0
102
RTVSPost2010PropOp57
 70
     1
102
RTVSPropertyOp0
 70
     1
102
RTVSPropertyOp1
 70
     1
102
RTVSPropertyOp2
 70
     1
102
RTVSPropertyOp3
 70
     1
102
RTVSPropertyOp4
 70
     1
102
RTVSPropertyOp5
 70
     1
102
RTVSPropertyOp6
 70
     1
102
RTVSPropertyOp7
 70
     1
102
RTVSPropertyOp8
 70
     1
102
RTVSPropertyOp9
 70
     1
102
RTVSPropertyOp10
 70
     1
102
RTVSPropertyOp11
 70
     1
102
RTVSPropertyOp12
 70
     1
102
RTVSPropertyOp13
 70
     1
102
RTVSPropertyOp14
 70
     1
102
RTVSPropertyOp15
 70
     1
102
RTVSPropertyOp16
 70
     1
102
RTVSPropertyOp17
 70
     1
102
RTVSPropertyOp18
 70
     1
102
RTVSPropertyOp19
 70
     1
102
RTVSPropertyOp20
 70
     1
102
RTVSPropertyOp21
 70
     1
102
RTVSPropertyOp22
 70
     1
102
RTVSPropertyOp23
 70
     1
102
RTVSPropertyOp24
 70
     1
102
RTVSPropertyOp25
 70
     1
102
RTVSPropertyOp26
 70
     1
102
RTVSPropertyOp27
 70
     1
102
RTVSPropertyOp28
 70
     1
102
RTVSPropertyOp29
 70
     1
102
RTVSPropertyOp30
 70
     1
102
RTVSPropertyOp31
 70
     1
102
RTVSPropertyOp32
 70
     1
102
RTVSPropertyOp33
 70
     1
102
RTVSPropertyOp34
 70
     1
102
RTVSPropertyOp35
 70
     1
102
RTVSPropertyOp36
 70
     1
102
RTVSPropertyOp37
 70
     1
102
RTVSPropertyOp38
 70
     1
102
RTVSPropertyOp39
 70
     1
102
RTVSPropertyOp40
 70
     1
102
RTVSPropertyOp41
 70
     1
102
RTVSPropertyOp42
 70
     1
102
RTVSPropertyOp43
 70
     1
102
RTVSPropertyOp44
 70
     1
102
RTVSPropertyOp45
 70
     1
102
RTVSPropertyOp46
 70
     1
102
RTVSPropertyOp47
 70
     1
102
RTVSPropertyOp48
 70
     1
102
RTVSPropertyOp49
 70
     1
102
RTVSPropertyOp50
 70
     1
102
RTVSPropertyOp51
 70
     0
102
RTVSPropertyOp52
 70
     0
102
RTVSPropertyOp53
 70
     1
102
RTVSPropertyOp54
 70
     1
102
RTVSPropertyOp55
 70
     1
102
RTVSPropertyOp56
 70
     1
102
RTVSPropertyOp57
 70
     1
102
RTVSPropertyOp58
 70
     1
102
RTVSPropertyOp59
 70
     1
102
RTVSPropertyOp60
 70
     1
102
RTVSPropertyOp61
 70
     1
102
RTVSPropertyOp62
 70
     1
  0
XRECORD
  5
1896
102
{ACAD_REACTORS
330
1895
102
}
330
1895
100
AcDbXrecord
280
     1
102
RTVSPost2010Prop28
280
     0
102
RTVSPost2010PropOp28
 70
     1
102
RTVSPost2010Prop29
280
     1
102
RTVSPost2010PropOp29
 70
     1
102
RTVSPost2010Prop30
280
     1
102
RTVSPost2010PropOp30
 70
     1
102
RTVSPost2010Prop31
280
     0
102
RTVSPost2010PropOp31
 70
     1
102
RTVSPost2010Prop32
280
     0
102
RTVSPost2010PropOp32
 70
     1
102
RTVSPost2010Prop33
280
     0
102
RTVSPost2010PropOp33
 70
     1
102
RTVSPost2010Prop34
280
     0
102
RTVSPost2010PropOp34
 70
     1
102
RTVSPost2010Prop35
280
     0
102
RTVSPost2010PropOp35
 70
     1
102
RTVSPost2010Prop36
280
     0
102
RTVSPost2010PropOp36
 70
     1
102
RTVSPost2010Prop37
 90
       50
102
RTVSPost2010PropOp37
 70
     1
102
RTVSPost2010Prop38
140
0.0
102
RTVSPost2010PropOp38
 70
     1
102
RTVSPost2010Prop39
140
1.0
102
RTVSPost2010PropOp39
 70
     1
102
RTVSPost2010Prop40
 90
        0
102
RTVSPost2010PropOp40
 70
     1
102
RTVSPost2010Prop41ColorIndex
 90
       18
102
RTVSPost2010Prop41ColorRGB
 90
        0
102
RTVSPost2010PropOp41
 70
     1
102
RTVSPost2010Prop42
 90
       50
102
RTVSPost2010PropOp42
 70
     1
102
RTVSPost2010Prop43
 90
        3
102
RTVSPost2010PropOp43
 70
     1
102
RTVSPost2010Prop44ColorIndex
 90
        5
102
RTVSPost2010Prop44ColorRGB
 90
      255
102
RTVSPost2010PropOp44
 70
     1
102
RTVSPost2010Prop45
280
     0
102
RTVSPost2010PropOp45
 70
     1
102
RTVSPost2010Prop46
 90
       50
102
RTVSPost2010PropOp46
 70
     1
102
RTVSPost2010Prop47
 90
       50
102
RTVSPost2010PropOp47
 70
     1
102
RTVSPost2010Prop48
 90
       50
102
RTVSPost2010PropOp48
 70
     1
102
RTVSPost2010Prop49
280
     0
102
RTVSPost2010PropOp49
 70
     1
102
RTVSPost2010Prop50
 90
       50
102
RTVSPost2010PropOp50
 70
     1
102
RTVSPost2010Prop51ColorIndex
 90
      256
102
RTVSPost2010Prop51ColorRGB
 90
-16777216
102
RTVSPost2010PropOp51
 70
     0
102
RTVSPost2010Prop52
140
1.0
102
RTVSPost2010PropOp52
 70
     0
102
RTVSPost2010Prop53
 90
        2
102
RTVSPost2010PropOp53
 70
     1
102
RTVSPost2010Prop54
  1
strokes_ogs.tif
102
RTVSPost2010PropOp54
 70
     1
102
RTVSPost2010Prop55
280
     0
102
RTVSPost2010PropOp55
 70
     1
102
RTVSPost2010Prop56
140
1.0
102
RTVSPost2010PropOp56
 70
     1
102
RTVSPost2010Prop57
140
1.0
102
RTVSPost2010PropOp57
 70
     1
102
RTVSPropertyOp0
 70
     1
102
RTVSPropertyOp1
 70
     1
102
RTVSPropertyOp2
 70
     1
102
RTVSPropertyOp3
 70
     1
102
RTVSPropertyOp4
 70
     1
102
RTVSPropertyOp5
 70
     1
102
RTVSPropertyOp6
 70
     1
102
RTVSPropertyOp7
 70
     1
102
RTVSPropertyOp8
 70
     1
102
RTVSPropertyOp9
 70
     1
102
RTVSPropertyOp10
 70
     1
102
RTVSPropertyOp11
 70
     1
102
RTVSPropertyOp12
 70
     1
102
RTVSPropertyOp13
 70
     1
102
RTVSPropertyOp14
 70
     1
102
RTVSPropertyOp15
 70
     1
102
RTVSPropertyOp16
 70
     1
102
RTVSPropertyOp17
 70
     1
102
RTVSPropertyOp18
 70
     1
102
RTVSPropertyOp19
 70
     1
102
RTVSPropertyOp20
 70
     1
102
RTVSPropertyOp21
 70
     1
102
RTVSPropertyOp22
 70
     1
102
RTVSPropertyOp23
 70
     1
102
RTVSPropertyOp24
 70
     1
102
RTVSPropertyOp25
 70
     1
102
RTVSPropertyOp26
 70
     1
102
RTVSPropertyOp27
 70
     1
102
RTVSPropertyOp28
 70
     1
102
RTVSPropertyOp29
 70
     1
102
RTVSPropertyOp30
 70
     1
102
RTVSPropertyOp31
 70
     1
102
RTVSPropertyOp32
 70
     1
102
RTVSPropertyOp33
 70
     1
102
RTVSPropertyOp34
 70
     1
102
RTVSPropertyOp35
 70
     1
102
RTVSPropertyOp36
 70
     1
102
RTVSPropertyOp37
 70
     1
102
RTVSPropertyOp38
 70
     1
102
RTVSPropertyOp39
 70
     1
102
RTVSPropertyOp40
 70
     1
102
RTVSPropertyOp41
 70
     1
102
RTVSPropertyOp42
 70
     1
102
RTVSPropertyOp43
 70
     1
102
RTVSPropertyOp44
 70
     1
102
RTVSPropertyOp45
 70
     1
102
RTVSPropertyOp46
 70
     1
102
RTVSPropertyOp47
 70
     1
102
RTVSPropertyOp48
 70
     1
102
RTVSPropertyOp49
 70
     1
102
RTVSPropertyOp50
 70
     1
102
RTVSPropertyOp51
 70
     0
102
RTVSPropertyOp52
 70
     0
102
RTVSPropertyOp53
 70
     1
102
RTVSPropertyOp54
 70
     1
102
RTVSPropertyOp55
 70
     1
102
RTVSPropertyOp56
 70
     1
102
RTVSPropertyOp57
 70
     1
102
RTVSPropertyOp58
 70
     1
102
RTVSPropertyOp59
 70
     1
102
RTVSPropertyOp60
 70
     1
102
RTVSPropertyOp61
 70
     1
102
RTVSPropertyOp62
 70
     1
  0
XRECORD
  5
1898
102
{ACAD_REACTORS
330
1897
102
}
330
1897
100
AcDbXrecord
280
     1
102
RTVSPost2010Prop28
280
     0
102
RTVSPost2010PropOp28
 70
     1
102
RTVSPost2010Prop29
280
     1
102
RTVSPost2010PropOp29
 70
     1
102
RTVSPost2010Prop30
280
     1
102
RTVSPost2010PropOp30
 70
     1
102
RTVSPost2010Prop31
280
     0
102
RTVSPost2010PropOp31
 70
     1
102
RTVSPost2010Prop32
280
     0
102
RTVSPost2010PropOp32
 70
     1
102
RTVSPost2010Prop33
280
     0
102
RTVSPost2010PropOp33
 70
     1
102
RTVSPost2010Prop34
280
     0
102
RTVSPost2010PropOp34
 70
     1
102
RTVSPost2010Prop35
280
     0
102
RTVSPost2010PropOp35
 70
     1
102
RTVSPost2010Prop36
280
     0
102
RTVSPost2010PropOp36
 70
     1
102
RTVSPost2010Prop37
 90
       50
102
RTVSPost2010PropOp37
 70
     1
102
RTVSPost2010Prop38
140
0.0
102
RTVSPost2010PropOp38
 70
     1
102
RTVSPost2010Prop39
140
1.0
102
RTVSPost2010PropOp39
 70
     1
102
RTVSPost2010Prop40
 90
        0
102
RTVSPost2010PropOp40
 70
     1
102
RTVSPost2010Prop41ColorIndex
 90
       18
102
RTVSPost2010Prop41ColorRGB
 90
        0
102
RTVSPost2010PropOp41
 70
     1
102
RTVSPost2010Prop42
 90
       50
102
RTVSPost2010PropOp42
 70
     1
102
RTVSPost2010Prop43
 90
        3
102
RTVSPost2010PropOp43
 70
     1
102
RTVSPost2010Prop44ColorIndex
 90
        5
102
RTVSPost2010Prop44ColorRGB
 90
      255
102
RTVSPost2010PropOp44
 70
     1
102
RTVSPost2010Prop45
280
     0
102
RTVSPost2010PropOp45
 70
     1
102
RTVSPost2010Prop46
 90
       50
102
RTVSPost2010PropOp46
 70
     1
102
RTVSPost2010Prop47
 90
       50
102
RTVSPost2010PropOp47
 70
     1
102
RTVSPost2010Prop48
 90
       50
102
RTVSPost2010PropOp48
 70
     1
102
RTVSPost2010Prop49
280
     0
102
RTVSPost2010PropOp49
 70
     1
102
RTVSPost2010Prop50
 90
       50
102
RTVSPost2010PropOp50
 70
     1
102
RTVSPost2010Prop51ColorIndex
 90
      256
102
RTVSPost2010Prop51ColorRGB
 90
-16777216
102
RTVSPost2010PropOp51
 70
     0
102
RTVSPost2010Prop52
140
1.0
102
RTVSPost2010PropOp52
 70
     0
102
RTVSPost2010Prop53
 90
        2
102
RTVSPost2010PropOp53
 70
     1
102
RTVSPost2010Prop54
  1
strokes_ogs.tif
102
RTVSPost2010PropOp54
 70
     1
102
RTVSPost2010Prop55
280
     0
102
RTVSPost2010PropOp55
 70
     1
102
RTVSPost2010Prop56
140
1.0
102
RTVSPost2010PropOp56
 70
     1
102
RTVSPost2010Prop57
140
1.0
102
RTVSPost2010PropOp57
 70
     1
102
RTVSPropertyOp0
 70
     1
102
RTVSPropertyOp1
 70
     1
102
RTVSPropertyOp2
 70
     1
102
RTVSPropertyOp3
 70
     1
102
RTVSPropertyOp4
 70
     1
102
RTVSPropertyOp5
 70
     1
102
RTVSPropertyOp6
 70
     1
102
RTVSPropertyOp7
 70
     1
102
RTVSPropertyOp8
 70
     1
102
RTVSPropertyOp9
 70
     1
102
RTVSPropertyOp10
 70
     1
102
RTVSPropertyOp11
 70
     1
102
RTVSPropertyOp12
 70
     1
102
RTVSPropertyOp13
 70
     1
102
RTVSPropertyOp14
 70
     1
102
RTVSPropertyOp15
 70
     1
102
RTVSPropertyOp16
 70
     1
102
RTVSPropertyOp17
 70
     1
102
RTVSPropertyOp18
 70
     1
102
RTVSPropertyOp19
 70
     1
102
RTVSPropertyOp20
 70
     1
102
RTVSPropertyOp21
 70
     1
102
RTVSPropertyOp22
 70
     1
102
RTVSPropertyOp23
 70
     1
102
RTVSPropertyOp24
 70
     1
102
RTVSPropertyOp25
 70
     1
102
RTVSPropertyOp26
 70
     1
102
RTVSPropertyOp27
 70
     1
102
RTVSPropertyOp28
 70
     1
102
RTVSPropertyOp29
 70
     1
102
RTVSPropertyOp30
 70
     1
102
RTVSPropertyOp31
 70
     1
102
RTVSPropertyOp32
 70
     1
102
RTVSPropertyOp33
 70
     1
102
RTVSPropertyOp34
 70
     1
102
RTVSPropertyOp35
 70
     1
102
RTVSPropertyOp36
 70
     1
102
RTVSPropertyOp37
 70
     1
102
RTVSPropertyOp38
 70
     1
102
RTVSPropertyOp39
 70
     1
102
RTVSPropertyOp40
 70
     1
102
RTVSPropertyOp41
 70
     1
102
RTVSPropertyOp42
 70
     1
102
RTVSPropertyOp43
 70
     1
102
RTVSPropertyOp44
 70
     1
102
RTVSPropertyOp45
 70
     1
102
RTVSPropertyOp46
 70
     1
102
RTVSPropertyOp47
 70
     1
102
RTVSPropertyOp48
 70
     1
102
RTVSPropertyOp49
 70
     1
102
RTVSPropertyOp50
 70
     1
102
RTVSPropertyOp51
 70
     0
102
RTVSPropertyOp52
 70
     0
102
RTVSPropertyOp53
 70
     1
102
RTVSPropertyOp54
 70
     1
102
RTVSPropertyOp55
 70
     1
102
RTVSPropertyOp56
 70
     1
102
RTVSPropertyOp57
 70
     1
102
RTVSPropertyOp58
 70
     1
102
RTVSPropertyOp59
 70
     1
102
RTVSPropertyOp60
 70
     1
102
RTVSPropertyOp61
 70
     1
102
RTVSPropertyOp62
 70
     1
  0
XRECORD
  5
189A
102
{ACAD_REACTORS
330
1899
102
}
330
1899
100
AcDbXrecord
280
     1
102
RTVSPost2010Prop28
280
     0
102
RTVSPost2010PropOp28
 70
     1
102
RTVSPost2010Prop29
280
     1
102
RTVSPost2010PropOp29
 70
     1
102
RTVSPost2010Prop30
280
     1
102
RTVSPost2010PropOp30
 70
     1
102
RTVSPost2010Prop31
280
     0
102
RTVSPost2010PropOp31
 70
     1
102
RTVSPost2010Prop32
280
     0
102
RTVSPost2010PropOp32
 70
     1
102
RTVSPost2010Prop33
280
     0
102
RTVSPost2010PropOp33
 70
     1
102
RTVSPost2010Prop34
280
     0
102
RTVSPost2010PropOp34
 70
     1
102
RTVSPost2010Prop35
280
     0
102
RTVSPost2010PropOp35
 70
     1
102
RTVSPost2010Prop36
280
     0
102
RTVSPost2010PropOp36
 70
     1
102
RTVSPost2010Prop37
 90
       50
102
RTVSPost2010PropOp37
 70
     1
102
RTVSPost2010Prop38
140
0.0
102
RTVSPost2010PropOp38
 70
     1
102
RTVSPost2010Prop39
140
1.0
102
RTVSPost2010PropOp39
 70
     1
102
RTVSPost2010Prop40
 90
        0
102
RTVSPost2010PropOp40
 70
     1
102
RTVSPost2010Prop41ColorIndex
 90
       18
102
RTVSPost2010Prop41ColorRGB
 90
        0
102
RTVSPost2010PropOp41
 70
     1
102
RTVSPost2010Prop42
 90
       50
102
RTVSPost2010PropOp42
 70
     1
102
RTVSPost2010Prop43
 90
        3
102
RTVSPost2010PropOp43
 70
     1
102
RTVSPost2010Prop44ColorIndex
 90
        5
102
RTVSPost2010Prop44ColorRGB
 90
      255
102
RTVSPost2010PropOp44
 70
     1
102
RTVSPost2010Prop45
280
     0
102
RTVSPost2010PropOp45
 70
     1
102
RTVSPost2010Prop46
 90
       50
102
RTVSPost2010PropOp46
 70
     1
102
RTVSPost2010Prop47
 90
       50
102
RTVSPost2010PropOp47
 70
     1
102
RTVSPost2010Prop48
 90
       50
102
RTVSPost2010PropOp48
 70
     1
102
RTVSPost2010Prop49
280
     0
102
RTVSPost2010PropOp49
 70
     1
102
RTVSPost2010Prop50
 90
       50
102
RTVSPost2010PropOp50
 70
     1
102
RTVSPost2010Prop51ColorIndex
 90
      256
102
RTVSPost2010Prop51ColorRGB
 90
-16777216
102
RTVSPost2010PropOp51
 70
     0
102
RTVSPost2010Prop52
140
1.0
102
RTVSPost2010PropOp52
 70
     0
102
RTVSPost2010Prop53
 90
        2
102
RTVSPost2010PropOp53
 70
     1
102
RTVSPost2010Prop54
  1
strokes_ogs.tif
102
RTVSPost2010PropOp54
 70
     1
102
RTVSPost2010Prop55
280
     0
102
RTVSPost2010PropOp55
 70
     1
102
RTVSPost2010Prop56
140
1.0
102
RTVSPost2010PropOp56
 70
     1
102
RTVSPost2010Prop57
140
1.0
102
RTVSPost2010PropOp57
 70
     1
102
RTVSPropertyOp0
 70
     1
102
RTVSPropertyOp1
 70
     1
102
RTVSPropertyOp2
 70
     1
102
RTVSPropertyOp3
 70
     1
102
RTVSPropertyOp4
 70
     1
102
RTVSPropertyOp5
 70
     1
102
RTVSPropertyOp6
 70
     1
102
RTVSPropertyOp7
 70
     1
102
RTVSPropertyOp8
 70
     1
102
RTVSPropertyOp9
 70
     1
102
RTVSPropertyOp10
 70
     1
102
RTVSPropertyOp11
 70
     1
102
RTVSPropertyOp12
 70
     1
102
RTVSPropertyOp13
 70
     1
102
RTVSPropertyOp14
 70
     1
102
RTVSPropertyOp15
 70
     1
102
RTVSPropertyOp16
 70
     1
102
RTVSPropertyOp17
 70
     1
102
RTVSPropertyOp18
 70
     1
102
RTVSPropertyOp19
 70
     1
102
RTVSPropertyOp20
 70
     1
102
RTVSPropertyOp21
 70
     1
102
RTVSPropertyOp22
 70
     1
102
RTVSPropertyOp23
 70
     1
102
RTVSPropertyOp24
 70
     1
102
RTVSPropertyOp25
 70
     1
102
RTVSPropertyOp26
 70
     1
102
RTVSPropertyOp27
 70
     1
102
RTVSPropertyOp28
 70
     1
102
RTVSPropertyOp29
 70
     1
102
RTVSPropertyOp30
 70
     1
102
RTVSPropertyOp31
 70
     1
102
RTVSPropertyOp32
 70
     1
102
RTVSPropertyOp33
 70
     1
102
RTVSPropertyOp34
 70
     1
102
RTVSPropertyOp35
 70
     1
102
RTVSPropertyOp36
 70
     1
102
RTVSPropertyOp37
 70
     1
102
RTVSPropertyOp38
 70
     1
102
RTVSPropertyOp39
 70
     1
102
RTVSPropertyOp40
 70
     1
102
RTVSPropertyOp41
 70
     1
102
RTVSPropertyOp42
 70
     1
102
RTVSPropertyOp43
 70
     1
102
RTVSPropertyOp44
 70
     1
102
RTVSPropertyOp45
 70
     1
102
RTVSPropertyOp46
 70
     1
102
RTVSPropertyOp47
 70
     1
102
RTVSPropertyOp48
 70
     1
102
RTVSPropertyOp49
 70
     1
102
RTVSPropertyOp50
 70
     1
102
RTVSPropertyOp51
 70
     0
102
RTVSPropertyOp52
 70
     0
102
RTVSPropertyOp53
 70
     1
102
RTVSPropertyOp54
 70
     1
102
RTVSPropertyOp55
 70
     1
102
RTVSPropertyOp56
 70
     1
102
RTVSPropertyOp57
 70
     1
102
RTVSPropertyOp58
 70
     1
102
RTVSPropertyOp59
 70
     1
102
RTVSPropertyOp60
 70
     1
102
RTVSPropertyOp61
 70
     1
102
RTVSPropertyOp62
 70
     1
  0
XRECORD
  5
189C
102
{ACAD_REACTORS
330
189B
102
}
330
189B
100
AcDbXrecord
280
     1
102
RTVSPost2010Prop28
280
     0
102
RTVSPost2010PropOp28
 70
     1
102
RTVSPost2010Prop29
280
     1
102
RTVSPost2010PropOp29
 70
     1
102
RTVSPost2010Prop30
280
     1
102
RTVSPost2010PropOp30
 70
     1
102
RTVSPost2010Prop31
280
     0
102
RTVSPost2010PropOp31
 70
     1
102
RTVSPost2010Prop32
280
     0
102
RTVSPost2010PropOp32
 70
     1
102
RTVSPost2010Prop33
280
     0
102
RTVSPost2010PropOp33
 70
     1
102
RTVSPost2010Prop34
280
     0
102
RTVSPost2010PropOp34
 70
     1
102
RTVSPost2010Prop35
280
     0
102
RTVSPost2010PropOp35
 70
     1
102
RTVSPost2010Prop36
280
     0
102
RTVSPost2010PropOp36
 70
     1
102
RTVSPost2010Prop37
 90
       50
102
RTVSPost2010PropOp37
 70
     1
102
RTVSPost2010Prop38
140
0.0
102
RTVSPost2010PropOp38
 70
     1
102
RTVSPost2010Prop39
140
1.0
102
RTVSPost2010PropOp39
 70
     1
102
RTVSPost2010Prop40
 90
        0
102
RTVSPost2010PropOp40
 70
     1
102
RTVSPost2010Prop41ColorIndex
 90
       18
102
RTVSPost2010Prop41ColorRGB
 90
        0
102
RTVSPost2010PropOp41
 70
     1
102
RTVSPost2010Prop42
 90
       50
102
RTVSPost2010PropOp42
 70
     1
102
RTVSPost2010Prop43
 90
        3
102
RTVSPost2010PropOp43
 70
     1
102
RTVSPost2010Prop44ColorIndex
 90
        5
102
RTVSPost2010Prop44ColorRGB
 90
      255
102
RTVSPost2010PropOp44
 70
     1
102
RTVSPost2010Prop45
280
     0
102
RTVSPost2010PropOp45
 70
     1
102
RTVSPost2010Prop46
 90
       50
102
RTVSPost2010PropOp46
 70
     1
102
RTVSPost2010Prop47
 90
       50
102
RTVSPost2010PropOp47
 70
     1
102
RTVSPost2010Prop48
 90
       50
102
RTVSPost2010PropOp48
 70
     1
102
RTVSPost2010Prop49
280
     0
102
RTVSPost2010PropOp49
 70
     1
102
RTVSPost2010Prop50
 90
       50
102
RTVSPost2010PropOp50
 70
     1
102
RTVSPost2010Prop51ColorIndex
 90
      256
102
RTVSPost2010Prop51ColorRGB
 90
-16777216
102
RTVSPost2010PropOp51
 70
     0
102
RTVSPost2010Prop52
140
1.0
102
RTVSPost2010PropOp52
 70
     0
102
RTVSPost2010Prop53
 90
        2
102
RTVSPost2010PropOp53
 70
     1
102
RTVSPost2010Prop54
  1
strokes_ogs.tif
102
RTVSPost2010PropOp54
 70
     1
102
RTVSPost2010Prop55
280
     0
102
RTVSPost2010PropOp55
 70
     1
102
RTVSPost2010Prop56
140
1.0
102
RTVSPost2010PropOp56
 70
     1
102
RTVSPost2010Prop57
140
1.0
102
RTVSPost2010PropOp57
 70
     1
102
RTVSPropertyOp0
 70
     1
102
RTVSPropertyOp1
 70
     1
102
RTVSPropertyOp2
 70
     1
102
RTVSPropertyOp3
 70
     1
102
RTVSPropertyOp4
 70
     1
102
RTVSPropertyOp5
 70
     1
102
RTVSPropertyOp6
 70
     1
102
RTVSPropertyOp7
 70
     1
102
RTVSPropertyOp8
 70
     1
102
RTVSPropertyOp9
 70
     1
102
RTVSPropertyOp10
 70
     1
102
RTVSPropertyOp11
 70
     1
102
RTVSPropertyOp12
 70
     1
102
RTVSPropertyOp13
 70
     1
102
RTVSPropertyOp14
 70
     1
102
RTVSPropertyOp15
 70
     1
102
RTVSPropertyOp16
 70
     1
102
RTVSPropertyOp17
 70
     1
102
RTVSPropertyOp18
 70
     1
102
RTVSPropertyOp19
 70
     1
102
RTVSPropertyOp20
 70
     1
102
RTVSPropertyOp21
 70
     1
102
RTVSPropertyOp22
 70
     1
102
RTVSPropertyOp23
 70
     1
102
RTVSPropertyOp24
 70
     1
102
RTVSPropertyOp25
 70
     1
102
RTVSPropertyOp26
 70
     1
102
RTVSPropertyOp27
 70
     1
102
RTVSPropertyOp28
 70
     1
102
RTVSPropertyOp29
 70
     1
102
RTVSPropertyOp30
 70
     1
102
RTVSPropertyOp31
 70
     1
102
RTVSPropertyOp32
 70
     1
102
RTVSPropertyOp33
 70
     1
102
RTVSPropertyOp34
 70
     1
102
RTVSPropertyOp35
 70
     1
102
RTVSPropertyOp36
 70
     1
102
RTVSPropertyOp37
 70
     1
102
RTVSPropertyOp38
 70
     1
102
RTVSPropertyOp39
 70
     1
102
RTVSPropertyOp40
 70
     1
102
RTVSPropertyOp41
 70
     1
102
RTVSPropertyOp42
 70
     1
102
RTVSPropertyOp43
 70
     1
102
RTVSPropertyOp44
 70
     1
102
RTVSPropertyOp45
 70
     1
102
RTVSPropertyOp46
 70
     1
102
RTVSPropertyOp47
 70
     1
102
RTVSPropertyOp48
 70
     1
102
RTVSPropertyOp49
 70
     1
102
RTVSPropertyOp50
 70
     1
102
RTVSPropertyOp51
 70
     0
102
RTVSPropertyOp52
 70
     0
102
RTVSPropertyOp53
 70
     1
102
RTVSPropertyOp54
 70
     1
102
RTVSPropertyOp55
 70
     1
102
RTVSPropertyOp56
 70
     1
102
RTVSPropertyOp57
 70
     1
102
RTVSPropertyOp58
 70
     1
102
RTVSPropertyOp59
 70
     1
102
RTVSPropertyOp60
 70
     1
102
RTVSPropertyOp61
 70
     1
102
RTVSPropertyOp62
 70
     1
  0
XRECORD
  5
18BF
102
{ACAD_REACTORS
330
18BE
102
}
330
18BE
100
AcDbXrecord
280
     1
102
RTVSPost2010Prop28
280
     0
102
RTVSPost2010PropOp28
 70
     1
102
RTVSPost2010Prop29
280
     1
102
RTVSPost2010PropOp29
 70
     1
102
RTVSPost2010Prop30
280
     1
102
RTVSPost2010PropOp30
 70
     1
102
RTVSPost2010Prop31
280
     0
102
RTVSPost2010PropOp31
 70
     1
102
RTVSPost2010Prop32
280
     0
102
RTVSPost2010PropOp32
 70
     1
102
RTVSPost2010Prop33
280
     0
102
RTVSPost2010PropOp33
 70
     1
102
RTVSPost2010Prop34
280
     0
102
RTVSPost2010PropOp34
 70
     1
102
RTVSPost2010Prop35
280
     0
102
RTVSPost2010PropOp35
 70
     1
102
RTVSPost2010Prop36
280
     0
102
RTVSPost2010PropOp36
 70
     1
102
RTVSPost2010Prop37
 90
       50
102
RTVSPost2010PropOp37
 70
     1
102
RTVSPost2010Prop38
140
0.0
102
RTVSPost2010PropOp38
 70
     1
102
RTVSPost2010Prop39
140
1.0
102
RTVSPost2010PropOp39
 70
     1
102
RTVSPost2010Prop40
 90
        0
102
RTVSPost2010PropOp40
 70
     1
102
RTVSPost2010Prop41ColorIndex
 90
       18
102
RTVSPost2010Prop41ColorRGB
 90
        0
102
RTVSPost2010PropOp41
 70
     1
102
RTVSPost2010Prop42
 90
       50
102
RTVSPost2010PropOp42
 70
     1
102
RTVSPost2010Prop43
 90
        3
102
RTVSPost2010PropOp43
 70
     1
102
RTVSPost2010Prop44ColorIndex
 90
        5
102
RTVSPost2010Prop44ColorRGB
 90
      255
102
RTVSPost2010PropOp44
 70
     1
102
RTVSPost2010Prop45
280
     0
102
RTVSPost2010PropOp45
 70
     1
102
RTVSPost2010Prop46
 90
       50
102
RTVSPost2010PropOp46
 70
     1
102
RTVSPost2010Prop47
 90
       50
102
RTVSPost2010PropOp47
 70
     1
102
RTVSPost2010Prop48
 90
       50
102
RTVSPost2010PropOp48
 70
     1
102
RTVSPost2010Prop49
280
     0
102
RTVSPost2010PropOp49
 70
     1
102
RTVSPost2010Prop50
 90
       50
102
RTVSPost2010PropOp50
 70
     1
102
RTVSPost2010Prop51ColorIndex
 90
      256
102
RTVSPost2010Prop51ColorRGB
 90
-16777216
102
RTVSPost2010PropOp51
 70
     0
102
RTVSPost2010Prop52
140
1.0
102
RTVSPost2010PropOp52
 70
     0
102
RTVSPost2010Prop53
 90
        2
102
RTVSPost2010PropOp53
 70
     1
102
RTVSPost2010Prop54
  1
strokes_ogs.tif
102
RTVSPost2010PropOp54
 70
     1
102
RTVSPost2010Prop55
280
     0
102
RTVSPost2010PropOp55
 70
     1
102
RTVSPost2010Prop56
140
1.0
102
RTVSPost2010PropOp56
 70
     1
102
RTVSPost2010Prop57
140
1.0
102
RTVSPost2010PropOp57
 70
     1
102
RTVSPropertyOp0
 70
     1
102
RTVSPropertyOp1
 70
     1
102
RTVSPropertyOp2
 70
     1
102
RTVSPropertyOp3
 70
     1
102
RTVSPropertyOp4
 70
     1
102
RTVSPropertyOp5
 70
     1
102
RTVSPropertyOp6
 70
     1
102
RTVSPropertyOp7
 70
     1
102
RTVSPropertyOp8
 70
     1
102
RTVSPropertyOp9
 70
     1
102
RTVSPropertyOp10
 70
     1
102
RTVSPropertyOp11
 70
     1
102
RTVSPropertyOp12
 70
     1
102
RTVSPropertyOp13
 70
     1
102
RTVSPropertyOp14
 70
     1
102
RTVSPropertyOp15
 70
     1
102
RTVSPropertyOp16
 70
     1
102
RTVSPropertyOp17
 70
     1
102
RTVSPropertyOp18
 70
     1
102
RTVSPropertyOp19
 70
     1
102
RTVSPropertyOp20
 70
     1
102
RTVSPropertyOp21
 70
     1
102
RTVSPropertyOp22
 70
     1
102
RTVSPropertyOp23
 70
     1
102
RTVSPropertyOp24
 70
     1
102
RTVSPropertyOp25
 70
     1
102
RTVSPropertyOp26
 70
     1
102
RTVSPropertyOp27
 70
     1
102
RTVSPropertyOp28
 70
     1
102
RTVSPropertyOp29
 70
     1
102
RTVSPropertyOp30
 70
     1
102
RTVSPropertyOp31
 70
     1
102
RTVSPropertyOp32
 70
     1
102
RTVSPropertyOp33
 70
     1
102
RTVSPropertyOp34
 70
     1
102
RTVSPropertyOp35
 70
     1
102
RTVSPropertyOp36
 70
     1
102
RTVSPropertyOp37
 70
     1
102
RTVSPropertyOp38
 70
     1
102
RTVSPropertyOp39
 70
     1
102
RTVSPropertyOp40
 70
     1
102
RTVSPropertyOp41
 70
     1
102
RTVSPropertyOp42
 70
     1
102
RTVSPropertyOp43
 70
     1
102
RTVSPropertyOp44
 70
     1
102
RTVSPropertyOp45
 70
     1
102
RTVSPropertyOp46
 70
     1
102
RTVSPropertyOp47
 70
     1
102
RTVSPropertyOp48
 70
     1
102
RTVSPropertyOp49
 70
     1
102
RTVSPropertyOp50
 70
     1
102
RTVSPropertyOp51
 70
     0
102
RTVSPropertyOp52
 70
     0
102
RTVSPropertyOp53
 70
     1
102
RTVSPropertyOp54
 70
     1
102
RTVSPropertyOp55
 70
     1
102
RTVSPropertyOp56
 70
     1
102
RTVSPropertyOp57
 70
     1
102
RTVSPropertyOp58
 70
     1
102
RTVSPropertyOp59
 70
     1
102
RTVSPropertyOp60
 70
     1
102
RTVSPropertyOp61
 70
     1
102
RTVSPropertyOp62
 70
     1
  0
XRECORD
  5
18B6
102
{ACAD_REACTORS
330
18B5
102
}
330
18B5
100
AcDbXrecord
280
     1
102
RTVSPost2010Prop28
280
     0
102
RTVSPost2010PropOp28
 70
     1
102
RTVSPost2010Prop29
280
     1
102
RTVSPost2010PropOp29
 70
     1
102
RTVSPost2010Prop30
280
     1
102
RTVSPost2010PropOp30
 70
     1
102
RTVSPost2010Prop31
280
     0
102
RTVSPost2010PropOp31
 70
     1
102
RTVSPost2010Prop32
280
     0
102
RTVSPost2010PropOp32
 70
     1
102
RTVSPost2010Prop33
280
     0
102
RTVSPost2010PropOp33
 70
     1
102
RTVSPost2010Prop34
280
     0
102
RTVSPost2010PropOp34
 70
     1
102
RTVSPost2010Prop35
280
     0
102
RTVSPost2010PropOp35
 70
     1
102
RTVSPost2010Prop36
280
     0
102
RTVSPost2010PropOp36
 70
     1
102
RTVSPost2010Prop37
 90
       50
102
RTVSPost2010PropOp37
 70
     1
102
RTVSPost2010Prop38
140
0.0
102
RTVSPost2010PropOp38
 70
     1
102
RTVSPost2010Prop39
140
1.0
102
RTVSPost2010PropOp39
 70
     1
102
RTVSPost2010Prop40
 90
        0
102
RTVSPost2010PropOp40
 70
     1
102
RTVSPost2010Prop41ColorIndex
 90
       18
102
RTVSPost2010Prop41ColorRGB
 90
        0
102
RTVSPost2010PropOp41
 70
     1
102
RTVSPost2010Prop42
 90
       50
102
RTVSPost2010PropOp42
 70
     1
102
RTVSPost2010Prop43
 90
        3
102
RTVSPost2010PropOp43
 70
     1
102
RTVSPost2010Prop44ColorIndex
 90
        5
102
RTVSPost2010Prop44ColorRGB
 90
      255
102
RTVSPost2010PropOp44
 70
     1
102
RTVSPost2010Prop45
280
     0
102
RTVSPost2010PropOp45
 70
     1
102
RTVSPost2010Prop46
 90
       50
102
RTVSPost2010PropOp46
 70
     1
102
RTVSPost2010Prop47
 90
       50
102
RTVSPost2010PropOp47
 70
     1
102
RTVSPost2010Prop48
 90
       50
102
RTVSPost2010PropOp48
 70
     1
102
RTVSPost2010Prop49
280
     0
102
RTVSPost2010PropOp49
 70
     1
102
RTVSPost2010Prop50
 90
       50
102
RTVSPost2010PropOp50
 70
     1
102
RTVSPost2010Prop51ColorIndex
 90
      256
102
RTVSPost2010Prop51ColorRGB
 90
-16777216
102
RTVSPost2010PropOp51
 70
     0
102
RTVSPost2010Prop52
140
1.0
102
RTVSPost2010PropOp52
 70
     0
102
RTVSPost2010Prop53
 90
        2
102
RTVSPost2010PropOp53
 70
     1
102
RTVSPost2010Prop54
  1
strokes_ogs.tif
102
RTVSPost2010PropOp54
 70
     1
102
RTVSPost2010Prop55
280
     0
102
RTVSPost2010PropOp55
 70
     1
102
RTVSPost2010Prop56
140
1.0
102
RTVSPost2010PropOp56
 70
     1
102
RTVSPost2010Prop57
140
1.0
102
RTVSPost2010PropOp57
 70
     1
102
RTVSPropertyOp0
 70
     0
102
RTVSPropertyOp1
 70
     0
102
RTVSPropertyOp2
 70
     0
102
RTVSPropertyOp3
 70
     0
102
RTVSPropertyOp4
 70
     0
102
RTVSPropertyOp5
 70
     0
102
RTVSPropertyOp6
 70
     0
102
RTVSPropertyOp7
 70
     0
102
RTVSPropertyOp8
 70
     0
102
RTVSPropertyOp9
 70
     0
102
RTVSPropertyOp10
 70
     0
102
RTVSPropertyOp11
 70
     0
102
RTVSPropertyOp12
 70
     0
102
RTVSPropertyOp13
 70
     0
102
RTVSPropertyOp14
 70
     2
102
RTVSPropertyOp15
 70
     0
102
RTVSPropertyOp16
 70
     0
102
RTVSPropertyOp17
 70
     0
102
RTVSPropertyOp18
 70
     0
102
RTVSPropertyOp19
 70
     0
102
RTVSPropertyOp20
 70
     0
102
RTVSPropertyOp21
 70
     0
102
RTVSPropertyOp22
 70
     0
102
RTVSPropertyOp23
 70
     0
102
RTVSPropertyOp24
 70
     0
102
RTVSPropertyOp25
 70
     0
102
RTVSPropertyOp26
 70
     0
102
RTVSPropertyOp27
 70
     0
102
RTVSPropertyOp28
 70
     1
102
RTVSPropertyOp29
 70
     1
102
RTVSPropertyOp30
 70
     1
102
RTVSPropertyOp31
 70
     1
102
RTVSPropertyOp32
 70
     1
102
RTVSPropertyOp33
 70
     1
102
RTVSPropertyOp34
 70
     1
102
RTVSPropertyOp35
 70
     1
102
RTVSPropertyOp36
 70
     1
102
RTVSPropertyOp37
 70
     1
102
RTVSPropertyOp38
 70
     1
102
RTVSPropertyOp39
 70
     1
102
RTVSPropertyOp40
 70
     1
102
RTVSPropertyOp41
 70
     1
102
RTVSPropertyOp42
 70
     1
102
RTVSPropertyOp43
 70
     1
102
RTVSPropertyOp44
 70
     1
102
RTVSPropertyOp45
 70
     1
102
RTVSPropertyOp46
 70
     1
102
RTVSPropertyOp47
 70
     1
102
RTVSPropertyOp48
 70
     1
102
RTVSPropertyOp49
 70
     1
102
RTVSPropertyOp50
 70
     1
102
RTVSPropertyOp51
 70
     0
102
RTVSPropertyOp52
 70
     0
102
RTVSPropertyOp53
 70
     1
102
RTVSPropertyOp54
 70
     1
102
RTVSPropertyOp55
 70
     1
102
RTVSPropertyOp56
 70
     1
102
RTVSPropertyOp57
 70
     1
102
RTVSPropertyOp58
 70
     1
102
RTVSPropertyOp59
 70
     1
102
RTVSPropertyOp60
 70
     1
102
RTVSPropertyOp61
 70
     1
102
RTVSPropertyOp62
 70
     1
  0
XRECORD
  5
18B0
102
{ACAD_REACTORS
330
18AF
102
}
330
18AF
100
AcDbXrecord
280
     1
102
RTVSPost2010Prop28
280
     0
102
RTVSPost2010PropOp28
 70
     1
102
RTVSPost2010Prop29
280
     1
102
RTVSPost2010PropOp29
 70
     1
102
RTVSPost2010Prop30
280
     1
102
RTVSPost2010PropOp30
 70
     1
102
RTVSPost2010Prop31
280
     0
102
RTVSPost2010PropOp31
 70
     1
102
RTVSPost2010Prop32
280
     0
102
RTVSPost2010PropOp32
 70
     1
102
RTVSPost2010Prop33
280
     0
102
RTVSPost2010PropOp33
 70
     1
102
RTVSPost2010Prop34
280
     0
102
RTVSPost2010PropOp34
 70
     1
102
RTVSPost2010Prop35
280
     0
102
RTVSPost2010PropOp35
 70
     1
102
RTVSPost2010Prop36
280
     0
102
RTVSPost2010PropOp36
 70
     1
102
RTVSPost2010Prop37
 90
       50
102
RTVSPost2010PropOp37
 70
     1
102
RTVSPost2010Prop38
140
0.0
102
RTVSPost2010PropOp38
 70
     1
102
RTVSPost2010Prop39
140
1.0
102
RTVSPost2010PropOp39
 70
     1
102
RTVSPost2010Prop40
 90
        0
102
RTVSPost2010PropOp40
 70
     1
102
RTVSPost2010Prop41ColorIndex
 90
       18
102
RTVSPost2010Prop41ColorRGB
 90
        0
102
RTVSPost2010PropOp41
 70
     1
102
RTVSPost2010Prop42
 90
       50
102
RTVSPost2010PropOp42
 70
     1
102
RTVSPost2010Prop43
 90
        3
102
RTVSPost2010PropOp43
 70
     1
102
RTVSPost2010Prop44ColorIndex
 90
        5
102
RTVSPost2010Prop44ColorRGB
 90
      255
102
RTVSPost2010PropOp44
 70
     1
102
RTVSPost2010Prop45
280
     0
102
RTVSPost2010PropOp45
 70
     1
102
RTVSPost2010Prop46
 90
       50
102
RTVSPost2010PropOp46
 70
     1
102
RTVSPost2010Prop47
 90
       50
102
RTVSPost2010PropOp47
 70
     1
102
RTVSPost2010Prop48
 90
       50
102
RTVSPost2010PropOp48
 70
     1
102
RTVSPost2010Prop49
280
     0
102
RTVSPost2010PropOp49
 70
     1
102
RTVSPost2010Prop50
 90
       50
102
RTVSPost2010PropOp50
 70
     1
102
RTVSPost2010Prop51ColorIndex
 90
      256
102
RTVSPost2010Prop51ColorRGB
 90
-16777216
102
RTVSPost2010PropOp51
 70
     0
102
RTVSPost2010Prop52
140
1.0
102
RTVSPost2010PropOp52
 70
     0
102
RTVSPost2010Prop53
 90
        2
102
RTVSPost2010PropOp53
 70
     1
102
RTVSPost2010Prop54
  1
strokes_ogs.tif
102
RTVSPost2010PropOp54
 70
     1
102
RTVSPost2010Prop55
280
     0
102
RTVSPost2010PropOp55
 70
     1
102
RTVSPost2010Prop56
140
1.0
102
RTVSPost2010PropOp56
 70
     1
102
RTVSPost2010Prop57
140
1.0
102
RTVSPost2010PropOp57
 70
     1
102
RTVSPropertyOp0
 70
     1
102
RTVSPropertyOp1
 70
     1
102
RTVSPropertyOp2
 70
     1
102
RTVSPropertyOp3
 70
     1
102
RTVSPropertyOp4
 70
     1
102
RTVSPropertyOp5
 70
     1
102
RTVSPropertyOp6
 70
     1
102
RTVSPropertyOp7
 70
     1
102
RTVSPropertyOp8
 70
     1
102
RTVSPropertyOp9
 70
     1
102
RTVSPropertyOp10
 70
     1
102
RTVSPropertyOp11
 70
     1
102
RTVSPropertyOp12
 70
     1
102
RTVSPropertyOp13
 70
     1
102
RTVSPropertyOp14
 70
     1
102
RTVSPropertyOp15
 70
     1
102
RTVSPropertyOp16
 70
     1
102
RTVSPropertyOp17
 70
     1
102
RTVSPropertyOp18
 70
     1
102
RTVSPropertyOp19
 70
     1
102
RTVSPropertyOp20
 70
     1
102
RTVSPropertyOp21
 70
     1
102
RTVSPropertyOp22
 70
     1
102
RTVSPropertyOp23
 70
     1
102
RTVSPropertyOp24
 70
     1
102
RTVSPropertyOp25
 70
     1
102
RTVSPropertyOp26
 70
     1
102
RTVSPropertyOp27
 70
     1
102
RTVSPropertyOp28
 70
     1
102
RTVSPropertyOp29
 70
     1
102
RTVSPropertyOp30
 70
     1
102
RTVSPropertyOp31
 70
     1
102
RTVSPropertyOp32
 70
     1
102
RTVSPropertyOp33
 70
     1
102
RTVSPropertyOp34
 70
     1
102
RTVSPropertyOp35
 70
     1
102
RTVSPropertyOp36
 70
     1
102
RTVSPropertyOp37
 70
     1
102
RTVSPropertyOp38
 70
     1
102
RTVSPropertyOp39
 70
     1
102
RTVSPropertyOp40
 70
     1
102
RTVSPropertyOp41
 70
     1
102
RTVSPropertyOp42
 70
     1
102
RTVSPropertyOp43
 70
     1
102
RTVSPropertyOp44
 70
     1
102
RTVSPropertyOp45
 70
     1
102
RTVSPropertyOp46
 70
     1
102
RTVSPropertyOp47
 70
     1
102
RTVSPropertyOp48
 70
     1
102
RTVSPropertyOp49
 70
     1
102
RTVSPropertyOp50
 70
     1
102
RTVSPropertyOp51
 70
     0
102
RTVSPropertyOp52
 70
     0
102
RTVSPropertyOp53
 70
     1
102
RTVSPropertyOp54
 70
     1
102
RTVSPropertyOp55
 70
     1
102
RTVSPropertyOp56
 70
     1
102
RTVSPropertyOp57
 70
     1
102
RTVSPropertyOp58
 70
     1
102
RTVSPropertyOp59
 70
     1
102
RTVSPropertyOp60
 70
     1
102
RTVSPropertyOp61
 70
     1
102
RTVSPropertyOp62
 70
     1
  0
XRECORD
  5
18B8
102
{ACAD_REACTORS
330
18B7
102
}
330
18B7
100
AcDbXrecord
280
     1
102
RTVSPost2010Prop28
280
     0
102
RTVSPost2010PropOp28
 70
     1
102
RTVSPost2010Prop29
280
     1
102
RTVSPost2010PropOp29
 70
     1
102
RTVSPost2010Prop30
280
     1
102
RTVSPost2010PropOp30
 70
     1
102
RTVSPost2010Prop31
280
     0
102
RTVSPost2010PropOp31
 70
     1
102
RTVSPost2010Prop32
280
     0
102
RTVSPost2010PropOp32
 70
     1
102
RTVSPost2010Prop33
280
     0
102
RTVSPost2010PropOp33
 70
     1
102
RTVSPost2010Prop34
280
     0
102
RTVSPost2010PropOp34
 70
     1
102
RTVSPost2010Prop35
280
     0
102
RTVSPost2010PropOp35
 70
     1
102
RTVSPost2010Prop36
280
     0
102
RTVSPost2010PropOp36
 70
     1
102
RTVSPost2010Prop37
 90
       50
102
RTVSPost2010PropOp37
 70
     1
102
RTVSPost2010Prop38
140
0.0
102
RTVSPost2010PropOp38
 70
     1
102
RTVSPost2010Prop39
140
1.0
102
RTVSPost2010PropOp39
 70
     1
102
RTVSPost2010Prop40
 90
        0
102
RTVSPost2010PropOp40
 70
     1
102
RTVSPost2010Prop41ColorIndex
 90
       18
102
RTVSPost2010Prop41ColorRGB
 90
        0
102
RTVSPost2010PropOp41
 70
     1
102
RTVSPost2010Prop42
 90
       50
102
RTVSPost2010PropOp42
 70
     1
102
RTVSPost2010Prop43
 90
        3
102
RTVSPost2010PropOp43
 70
     1
102
RTVSPost2010Prop44ColorIndex
 90
        5
102
RTVSPost2010Prop44ColorRGB
 90
      255
102
RTVSPost2010PropOp44
 70
     1
102
RTVSPost2010Prop45
280
     0
102
RTVSPost2010PropOp45
 70
     1
102
RTVSPost2010Prop46
 90
       50
102
RTVSPost2010PropOp46
 70
     1
102
RTVSPost2010Prop47
 90
       50
102
RTVSPost2010PropOp47
 70
     1
102
RTVSPost2010Prop48
 90
       50
102
RTVSPost2010PropOp48
 70
     1
102
RTVSPost2010Prop49
280
     0
102
RTVSPost2010PropOp49
 70
     1
102
RTVSPost2010Prop50
 90
       50
102
RTVSPost2010PropOp50
 70
     1
102
RTVSPost2010Prop51ColorIndex
 90
      256
102
RTVSPost2010Prop51ColorRGB
 90
-16777216
102
RTVSPost2010PropOp51
 70
     0
102
RTVSPost2010Prop52
140
1.0
102
RTVSPost2010PropOp52
 70
     0
102
RTVSPost2010Prop53
 90
        2
102
RTVSPost2010PropOp53
 70
     1
102
RTVSPost2010Prop54
  1
strokes_ogs.tif
102
RTVSPost2010PropOp54
 70
     1
102
RTVSPost2010Prop55
280
     0
102
RTVSPost2010PropOp55
 70
     1
102
RTVSPost2010Prop56
140
1.0
102
RTVSPost2010PropOp56
 70
     1
102
RTVSPost2010Prop57
140
1.0
102
RTVSPost2010PropOp57
 70
     1
102
RTVSPropertyOp0
 70
     0
102
RTVSPropertyOp1
 70
     0
102
RTVSPropertyOp2
 70
     0
102
RTVSPropertyOp3
 70
     0
102
RTVSPropertyOp4
 70
     0
102
RTVSPropertyOp5
 70
     0
102
RTVSPropertyOp6
 70
     0
102
RTVSPropertyOp7
 70
     0
102
RTVSPropertyOp8
 70
     0
102
RTVSPropertyOp9
 70
     0
102
RTVSPropertyOp10
 70
     0
102
RTVSPropertyOp11
 70
     0
102
RTVSPropertyOp12
 70
     0
102
RTVSPropertyOp13
 70
     0
102
RTVSPropertyOp14
 70
     2
102
RTVSPropertyOp15
 70
     0
102
RTVSPropertyOp16
 70
     0
102
RTVSPropertyOp17
 70
     0
102
RTVSPropertyOp18
 70
     0
102
RTVSPropertyOp19
 70
     0
102
RTVSPropertyOp20
 70
     0
102
RTVSPropertyOp21
 70
     0
102
RTVSPropertyOp22
 70
     0
102
RTVSPropertyOp23
 70
     0
102
RTVSPropertyOp24
 70
     0
102
RTVSPropertyOp25
 70
     0
102
RTVSPropertyOp26
 70
     0
102
RTVSPropertyOp27
 70
     0
102
RTVSPropertyOp28
 70
     1
102
RTVSPropertyOp29
 70
     1
102
RTVSPropertyOp30
 70
     1
102
RTVSPropertyOp31
 70
     1
102
RTVSPropertyOp32
 70
     1
102
RTVSPropertyOp33
 70
     1
102
RTVSPropertyOp34
 70
     1
102
RTVSPropertyOp35
 70
     1
102
RTVSPropertyOp36
 70
     1
102
RTVSPropertyOp37
 70
     1
102
RTVSPropertyOp38
 70
     1
102
RTVSPropertyOp39
 70
     1
102
RTVSPropertyOp40
 70
     1
102
RTVSPropertyOp41
 70
     1
102
RTVSPropertyOp42
 70
     1
102
RTVSPropertyOp43
 70
     1
102
RTVSPropertyOp44
 70
     1
102
RTVSPropertyOp45
 70
     1
102
RTVSPropertyOp46
 70
     1
102
RTVSPropertyOp47
 70
     1
102
RTVSPropertyOp48
 70
     1
102
RTVSPropertyOp49
 70
     1
102
RTVSPropertyOp50
 70
     1
102
RTVSPropertyOp51
 70
     0
102
RTVSPropertyOp52
 70
     0
102
RTVSPropertyOp53
 70
     1
102
RTVSPropertyOp54
 70
     1
102
RTVSPropertyOp55
 70
     1
102
RTVSPropertyOp56
 70
     1
102
RTVSPropertyOp57
 70
     1
102
RTVSPropertyOp58
 70
     1
102
RTVSPropertyOp59
 70
     1
102
RTVSPropertyOp60
 70
     1
102
RTVSPropertyOp61
 70
     1
102
RTVSPropertyOp62
 70
     1
  0
XRECORD
  5
18A8
102
{ACAD_REACTORS
330
18A7
102
}
330
18A7
100
AcDbXrecord
280
     1
102
RTVSPost2010Prop28
280
     0
102
RTVSPost2010PropOp28
 70
     1
102
RTVSPost2010Prop29
280
     1
102
RTVSPost2010PropOp29
 70
     1
102
RTVSPost2010Prop30
280
     1
102
RTVSPost2010PropOp30
 70
     1
102
RTVSPost2010Prop31
280
     0
102
RTVSPost2010PropOp31
 70
     1
102
RTVSPost2010Prop32
280
     0
102
RTVSPost2010PropOp32
 70
     1
102
RTVSPost2010Prop33
280
     0
102
RTVSPost2010PropOp33
 70
     1
102
RTVSPost2010Prop34
280
     0
102
RTVSPost2010PropOp34
 70
     1
102
RTVSPost2010Prop35
280
     0
102
RTVSPost2010PropOp35
 70
     1
102
RTVSPost2010Prop36
280
     0
102
RTVSPost2010PropOp36
 70
     1
102
RTVSPost2010Prop37
 90
       50
102
RTVSPost2010PropOp37
 70
     1
102
RTVSPost2010Prop38
140
0.0
102
RTVSPost2010PropOp38
 70
     1
102
RTVSPost2010Prop39
140
1.0
102
RTVSPost2010PropOp39
 70
     1
102
RTVSPost2010Prop40
 90
        0
102
RTVSPost2010PropOp40
 70
     1
102
RTVSPost2010Prop41ColorIndex
 90
       18
102
RTVSPost2010Prop41ColorRGB
 90
        0
102
RTVSPost2010PropOp41
 70
     1
102
RTVSPost2010Prop42
 90
       50
102
RTVSPost2010PropOp42
 70
     1
102
RTVSPost2010Prop43
 90
        3
102
RTVSPost2010PropOp43
 70
     1
102
RTVSPost2010Prop44ColorIndex
 90
        5
102
RTVSPost2010Prop44ColorRGB
 90
      255
102
RTVSPost2010PropOp44
 70
     1
102
RTVSPost2010Prop45
280
     0
102
RTVSPost2010PropOp45
 70
     1
102
RTVSPost2010Prop46
 90
       50
102
RTVSPost2010PropOp46
 70
     1
102
RTVSPost2010Prop47
 90
       50
102
RTVSPost2010PropOp47
 70
     1
102
RTVSPost2010Prop48
 90
       50
102
RTVSPost2010PropOp48
 70
     1
102
RTVSPost2010Prop49
280
     0
102
RTVSPost2010PropOp49
 70
     1
102
RTVSPost2010Prop50
 90
       50
102
RTVSPost2010PropOp50
 70
     1
102
RTVSPost2010Prop51ColorIndex
 90
      256
102
RTVSPost2010Prop51ColorRGB
 90
-16777216
102
RTVSPost2010PropOp51
 70
     0
102
RTVSPost2010Prop52
140
1.0
102
RTVSPost2010PropOp52
 70
     0
102
RTVSPost2010Prop53
 90
        2
102
RTVSPost2010PropOp53
 70
     1
102
RTVSPost2010Prop54
  1
strokes_ogs.tif
102
RTVSPost2010PropOp54
 70
     1
102
RTVSPost2010Prop55
280
     0
102
RTVSPost2010PropOp55
 70
     1
102
RTVSPost2010Prop56
140
1.0
102
RTVSPost2010PropOp56
 70
     1
102
RTVSPost2010Prop57
140
1.0
102
RTVSPost2010PropOp57
 70
     1
102
RTVSPropertyOp0
 70
     1
102
RTVSPropertyOp1
 70
     1
102
RTVSPropertyOp2
 70
     1
102
RTVSPropertyOp3
 70
     1
102
RTVSPropertyOp4
 70
     1
102
RTVSPropertyOp5
 70
     1
102
RTVSPropertyOp6
 70
     1
102
RTVSPropertyOp7
 70
     1
102
RTVSPropertyOp8
 70
     1
102
RTVSPropertyOp9
 70
     1
102
RTVSPropertyOp10
 70
     1
102
RTVSPropertyOp11
 70
     1
102
RTVSPropertyOp12
 70
     1
102
RTVSPropertyOp13
 70
     1
102
RTVSPropertyOp14
 70
     1
102
RTVSPropertyOp15
 70
     1
102
RTVSPropertyOp16
 70
     1
102
RTVSPropertyOp17
 70
     1
102
RTVSPropertyOp18
 70
     1
102
RTVSPropertyOp19
 70
     1
102
RTVSPropertyOp20
 70
     1
102
RTVSPropertyOp21
 70
     1
102
RTVSPropertyOp22
 70
     1
102
RTVSPropertyOp23
 70
     1
102
RTVSPropertyOp24
 70
     1
102
RTVSPropertyOp25
 70
     1
102
RTVSPropertyOp26
 70
     1
102
RTVSPropertyOp27
 70
     1
102
RTVSPropertyOp28
 70
     1
102
RTVSPropertyOp29
 70
     1
102
RTVSPropertyOp30
 70
     1
102
RTVSPropertyOp31
 70
     1
102
RTVSPropertyOp32
 70
     1
102
RTVSPropertyOp33
 70
     1
102
RTVSPropertyOp34
 70
     1
102
RTVSPropertyOp35
 70
     1
102
RTVSPropertyOp36
 70
     1
102
RTVSPropertyOp37
 70
     1
102
RTVSPropertyOp38
 70
     1
102
RTVSPropertyOp39
 70
     1
102
RTVSPropertyOp40
 70
     1
102
RTVSPropertyOp41
 70
     1
102
RTVSPropertyOp42
 70
     1
102
RTVSPropertyOp43
 70
     1
102
RTVSPropertyOp44
 70
     1
102
RTVSPropertyOp45
 70
     1
102
RTVSPropertyOp46
 70
     1
102
RTVSPropertyOp47
 70
     1
102
RTVSPropertyOp48
 70
     1
102
RTVSPropertyOp49
 70
     1
102
RTVSPropertyOp50
 70
     1
102
RTVSPropertyOp51
 70
     0
102
RTVSPropertyOp52
 70
     0
102
RTVSPropertyOp53
 70
     1
102
RTVSPropertyOp54
 70
     1
102
RTVSPropertyOp55
 70
     1
102
RTVSPropertyOp56
 70
     1
102
RTVSPropertyOp57
 70
     1
102
RTVSPropertyOp58
 70
     1
102
RTVSPropertyOp59
 70
     1
102
RTVSPropertyOp60
 70
     1
102
RTVSPropertyOp61
 70
     1
102
RTVSPropertyOp62
 70
     1
  0
XRECORD
  5
18C9
102
{ACAD_REACTORS
330
18C8
102
}
330
18C8
100
AcDbXrecord
280
     1
102
RTVSPost2010Prop28
280
     0
102
RTVSPost2010PropOp28
 70
     1
102
RTVSPost2010Prop29
280
     1
102
RTVSPost2010PropOp29
 70
     1
102
RTVSPost2010Prop30
280
     1
102
RTVSPost2010PropOp30
 70
     1
102
RTVSPost2010Prop31
280
     0
102
RTVSPost2010PropOp31
 70
     1
102
RTVSPost2010Prop32
280
     0
102
RTVSPost2010PropOp32
 70
     1
102
RTVSPost2010Prop33
280
     0
102
RTVSPost2010PropOp33
 70
     1
102
RTVSPost2010Prop34
280
     0
102
RTVSPost2010PropOp34
 70
     1
102
RTVSPost2010Prop35
280
     0
102
RTVSPost2010PropOp35
 70
     1
102
RTVSPost2010Prop36
280
     0
102
RTVSPost2010PropOp36
 70
     1
102
RTVSPost2010Prop37
 90
       50
102
RTVSPost2010PropOp37
 70
     1
102
RTVSPost2010Prop38
140
0.0
102
RTVSPost2010PropOp38
 70
     1
102
RTVSPost2010Prop39
140
1.0
102
RTVSPost2010PropOp39
 70
     1
102
RTVSPost2010Prop40
 90
        0
102
RTVSPost2010PropOp40
 70
     1
102
RTVSPost2010Prop41ColorIndex
 90
       18
102
RTVSPost2010Prop41ColorRGB
 90
        0
102
RTVSPost2010PropOp41
 70
     1
102
RTVSPost2010Prop42
 90
       50
102
RTVSPost2010PropOp42
 70
     1
102
RTVSPost2010Prop43
 90
        3
102
RTVSPost2010PropOp43
 70
     1
102
RTVSPost2010Prop44ColorIndex
 90
        5
102
RTVSPost2010Prop44ColorRGB
 90
      255
102
RTVSPost2010PropOp44
 70
     1
102
RTVSPost2010Prop45
280
     0
102
RTVSPost2010PropOp45
 70
     1
102
RTVSPost2010Prop46
 90
       50
102
RTVSPost2010PropOp46
 70
     1
102
RTVSPost2010Prop47
 90
       50
102
RTVSPost2010PropOp47
 70
     1
102
RTVSPost2010Prop48
 90
       50
102
RTVSPost2010PropOp48
 70
     1
102
RTVSPost2010Prop49
280
     0
102
RTVSPost2010PropOp49
 70
     1
102
RTVSPost2010Prop50
 90
       50
102
RTVSPost2010PropOp50
 70
     1
102
RTVSPost2010Prop51ColorIndex
 90
      256
102
RTVSPost2010Prop51ColorRGB
 90
-16777216
102
RTVSPost2010PropOp51
 70
     0
102
RTVSPost2010Prop52
140
1.0
102
RTVSPost2010PropOp52
 70
     0
102
RTVSPost2010Prop53
 90
        2
102
RTVSPost2010PropOp53
 70
     1
102
RTVSPost2010Prop54
  1
strokes_ogs.tif
102
RTVSPost2010PropOp54
 70
     1
102
RTVSPost2010Prop55
280
     0
102
RTVSPost2010PropOp55
 70
     1
102
RTVSPost2010Prop56
140
1.0
102
RTVSPost2010PropOp56
 70
     1
102
RTVSPost2010Prop57
140
1.0
102
RTVSPost2010PropOp57
 70
     1
102
RTVSPropertyOp0
 70
     1
102
RTVSPropertyOp1
 70
     1
102
RTVSPropertyOp2
 70
     1
102
RTVSPropertyOp3
 70
     1
102
RTVSPropertyOp4
 70
     1
102
RTVSPropertyOp5
 70
     1
102
RTVSPropertyOp6
 70
     1
102
RTVSPropertyOp7
 70
     1
102
RTVSPropertyOp8
 70
     1
102
RTVSPropertyOp9
 70
     1
102
RTVSPropertyOp10
 70
     1
102
RTVSPropertyOp11
 70
     1
102
RTVSPropertyOp12
 70
     1
102
RTVSPropertyOp13
 70
     1
102
RTVSPropertyOp14
 70
     1
102
RTVSPropertyOp15
 70
     1
102
RTVSPropertyOp16
 70
     1
102
RTVSPropertyOp17
 70
     1
102
RTVSPropertyOp18
 70
     1
102
RTVSPropertyOp19
 70
     1
102
RTVSPropertyOp20
 70
     1
102
RTVSPropertyOp21
 70
     1
102
RTVSPropertyOp22
 70
     1
102
RTVSPropertyOp23
 70
     1
102
RTVSPropertyOp24
 70
     1
102
RTVSPropertyOp25
 70
     1
102
RTVSPropertyOp26
 70
     1
102
RTVSPropertyOp27
 70
     1
102
RTVSPropertyOp28
 70
     1
102
RTVSPropertyOp29
 70
     1
102
RTVSPropertyOp30
 70
     1
102
RTVSPropertyOp31
 70
     1
102
RTVSPropertyOp32
 70
     1
102
RTVSPropertyOp33
 70
     1
102
RTVSPropertyOp34
 70
     1
102
RTVSPropertyOp35
 70
     1
102
RTVSPropertyOp36
 70
     1
102
RTVSPropertyOp37
 70
     1
102
RTVSPropertyOp38
 70
     1
102
RTVSPropertyOp39
 70
     1
102
RTVSPropertyOp40
 70
     1
102
RTVSPropertyOp41
 70
     1
102
RTVSPropertyOp42
 70
     1
102
RTVSPropertyOp43
 70
     1
102
RTVSPropertyOp44
 70
     1
102
RTVSPropertyOp45
 70
     1
102
RTVSPropertyOp46
 70
     1
102
RTVSPropertyOp47
 70
     1
102
RTVSPropertyOp48
 70
     1
102
RTVSPropertyOp49
 70
     1
102
RTVSPropertyOp50
 70
     1
102
RTVSPropertyOp51
 70
     0
102
RTVSPropertyOp52
 70
     0
102
RTVSPropertyOp53
 70
     1
102
RTVSPropertyOp54
 70
     1
102
RTVSPropertyOp55
 70
     1
102
RTVSPropertyOp56
 70
     1
102
RTVSPropertyOp57
 70
     1
102
RTVSPropertyOp58
 70
     1
102
RTVSPropertyOp59
 70
     1
102
RTVSPropertyOp60
 70
     1
102
RTVSPropertyOp61
 70
     1
102
RTVSPropertyOp62
 70
     1
  0
XRECORD
  5
18C7
102
{ACAD_REACTORS
330
18C6
102
}
330
18C6
100
AcDbXrecord
280
     1
102
RTVSPost2010Prop28
280
     0
102
RTVSPost2010PropOp28
 70
     1
102
RTVSPost2010Prop29
280
     1
102
RTVSPost2010PropOp29
 70
     1
102
RTVSPost2010Prop30
280
     1
102
RTVSPost2010PropOp30
 70
     1
102
RTVSPost2010Prop31
280
     0
102
RTVSPost2010PropOp31
 70
     1
102
RTVSPost2010Prop32
280
     0
102
RTVSPost2010PropOp32
 70
     1
102
RTVSPost2010Prop33
280
     0
102
RTVSPost2010PropOp33
 70
     1
102
RTVSPost2010Prop34
280
     0
102
RTVSPost2010PropOp34
 70
     1
102
RTVSPost2010Prop35
280
     0
102
RTVSPost2010PropOp35
 70
     1
102
RTVSPost2010Prop36
280
     0
102
RTVSPost2010PropOp36
 70
     1
102
RTVSPost2010Prop37
 90
       50
102
RTVSPost2010PropOp37
 70
     1
102
RTVSPost2010Prop38
140
0.0
102
RTVSPost2010PropOp38
 70
     1
102
RTVSPost2010Prop39
140
1.0
102
RTVSPost2010PropOp39
 70
     1
102
RTVSPost2010Prop40
 90
        0
102
RTVSPost2010PropOp40
 70
     1
102
RTVSPost2010Prop41ColorIndex
 90
       18
102
RTVSPost2010Prop41ColorRGB
 90
        0
102
RTVSPost2010PropOp41
 70
     1
102
RTVSPost2010Prop42
 90
       50
102
RTVSPost2010PropOp42
 70
     1
102
RTVSPost2010Prop43
 90
        3
102
RTVSPost2010PropOp43
 70
     1
102
RTVSPost2010Prop44ColorIndex
 90
        5
102
RTVSPost2010Prop44ColorRGB
 90
      255
102
RTVSPost2010PropOp44
 70
     1
102
RTVSPost2010Prop45
280
     0
102
RTVSPost2010PropOp45
 70
     1
102
RTVSPost2010Prop46
 90
       50
102
RTVSPost2010PropOp46
 70
     1
102
RTVSPost2010Prop47
 90
       50
102
RTVSPost2010PropOp47
 70
     1
102
RTVSPost2010Prop48
 90
       50
102
RTVSPost2010PropOp48
 70
     1
102
RTVSPost2010Prop49
280
     0
102
RTVSPost2010PropOp49
 70
     1
102
RTVSPost2010Prop50
 90
       50
102
RTVSPost2010PropOp50
 70
     1
102
RTVSPost2010Prop51ColorIndex
 90
      256
102
RTVSPost2010Prop51ColorRGB
 90
-16777216
102
RTVSPost2010PropOp51
 70
     0
102
RTVSPost2010Prop52
140
1.0
102
RTVSPost2010PropOp52
 70
     0
102
RTVSPost2010Prop53
 90
        2
102
RTVSPost2010PropOp53
 70
     1
102
RTVSPost2010Prop54
  1
strokes_ogs.tif
102
RTVSPost2010PropOp54
 70
     1
102
RTVSPost2010Prop55
280
     0
102
RTVSPost2010PropOp55
 70
     1
102
RTVSPost2010Prop56
140
1.0
102
RTVSPost2010PropOp56
 70
     1
102
RTVSPost2010Prop57
140
1.0
102
RTVSPost2010PropOp57
 70
     1
102
RTVSPropertyOp0
 70
     1
102
RTVSPropertyOp1
 70
     1
102
RTVSPropertyOp2
 70
     1
102
RTVSPropertyOp3
 70
     1
102
RTVSPropertyOp4
 70
     1
102
RTVSPropertyOp5
 70
     1
102
RTVSPropertyOp6
 70
     1
102
RTVSPropertyOp7
 70
     1
102
RTVSPropertyOp8
 70
     1
102
RTVSPropertyOp9
 70
     1
102
RTVSPropertyOp10
 70
     1
102
RTVSPropertyOp11
 70
     1
102
RTVSPropertyOp12
 70
     1
102
RTVSPropertyOp13
 70
     1
102
RTVSPropertyOp14
 70
     1
102
RTVSPropertyOp15
 70
     1
102
RTVSPropertyOp16
 70
     1
102
RTVSPropertyOp17
 70
     1
102
RTVSPropertyOp18
 70
     1
102
RTVSPropertyOp19
 70
     1
102
RTVSPropertyOp20
 70
     1
102
RTVSPropertyOp21
 70
     1
102
RTVSPropertyOp22
 70
     1
102
RTVSPropertyOp23
 70
     1
102
RTVSPropertyOp24
 70
     1
102
RTVSPropertyOp25
 70
     1
102
RTVSPropertyOp26
 70
     1
102
RTVSPropertyOp27
 70
     1
102
RTVSPropertyOp28
 70
     1
102
RTVSPropertyOp29
 70
     1
102
RTVSPropertyOp30
 70
     1
102
RTVSPropertyOp31
 70
     1
102
RTVSPropertyOp32
 70
     1
102
RTVSPropertyOp33
 70
     1
102
RTVSPropertyOp34
 70
     1
102
RTVSPropertyOp35
 70
     1
102
RTVSPropertyOp36
 70
     1
102
RTVSPropertyOp37
 70
     1
102
RTVSPropertyOp38
 70
     1
102
RTVSPropertyOp39
 70
     1
102
RTVSPropertyOp40
 70
     1
102
RTVSPropertyOp41
 70
     1
102
RTVSPropertyOp42
 70
     1
102
RTVSPropertyOp43
 70
     1
102
RTVSPropertyOp44
 70
     1
102
RTVSPropertyOp45
 70
     1
102
RTVSPropertyOp46
 70
     1
102
RTVSPropertyOp47
 70
     1
102
RTVSPropertyOp48
 70
     1
102
RTVSPropertyOp49
 70
     1
102
RTVSPropertyOp50
 70
     1
102
RTVSPropertyOp51
 70
     0
102
RTVSPropertyOp52
 70
     0
102
RTVSPropertyOp53
 70
     1
102
RTVSPropertyOp54
 70
     1
102
RTVSPropertyOp55
 70
     1
102
RTVSPropertyOp56
 70
     1
102
RTVSPropertyOp57
 70
     1
102
RTVSPropertyOp58
 70
     1
102
RTVSPropertyOp59
 70
     1
102
RTVSPropertyOp60
 70
     1
102
RTVSPropertyOp61
 70
     1
102
RTVSPropertyOp62
 70
     1
  0
XRECORD
  5
18C1
102
{ACAD_REACTORS
330
18C0
102
}
330
18C0
100
AcDbXrecord
280
     1
102
RTVSPost2010Prop28
280
     0
102
RTVSPost2010PropOp28
 70
     1
102
RTVSPost2010Prop29
280
     1
102
RTVSPost2010PropOp29
 70
     1
102
RTVSPost2010Prop30
280
     1
102
RTVSPost2010PropOp30
 70
     1
102
RTVSPost2010Prop31
280
     0
102
RTVSPost2010PropOp31
 70
     1
102
RTVSPost2010Prop32
280
     0
102
RTVSPost2010PropOp32
 70
     1
102
RTVSPost2010Prop33
280
     0
102
RTVSPost2010PropOp33
 70
     1
102
RTVSPost2010Prop34
280
     0
102
RTVSPost2010PropOp34
 70
     1
102
RTVSPost2010Prop35
280
     0
102
RTVSPost2010PropOp35
 70
     1
102
RTVSPost2010Prop36
280
     0
102
RTVSPost2010PropOp36
 70
     1
102
RTVSPost2010Prop37
 90
       50
102
RTVSPost2010PropOp37
 70
     1
102
RTVSPost2010Prop38
140
0.0
102
RTVSPost2010PropOp38
 70
     1
102
RTVSPost2010Prop39
140
1.0
102
RTVSPost2010PropOp39
 70
     1
102
RTVSPost2010Prop40
 90
        0
102
RTVSPost2010PropOp40
 70
     1
102
RTVSPost2010Prop41ColorIndex
 90
       18
102
RTVSPost2010Prop41ColorRGB
 90
        0
102
RTVSPost2010PropOp41
 70
     1
102
RTVSPost2010Prop42
 90
       50
102
RTVSPost2010PropOp42
 70
     1
102
RTVSPost2010Prop43
 90
        3
102
RTVSPost2010PropOp43
 70
     1
102
RTVSPost2010Prop44ColorIndex
 90
        5
102
RTVSPost2010Prop44ColorRGB
 90
      255
102
RTVSPost2010PropOp44
 70
     1
102
RTVSPost2010Prop45
280
     0
102
RTVSPost2010PropOp45
 70
     1
102
RTVSPost2010Prop46
 90
       50
102
RTVSPost2010PropOp46
 70
     1
102
RTVSPost2010Prop47
 90
       50
102
RTVSPost2010PropOp47
 70
     1
102
RTVSPost2010Prop48
 90
       50
102
RTVSPost2010PropOp48
 70
     1
102
RTVSPost2010Prop49
280
     0
102
RTVSPost2010PropOp49
 70
     1
102
RTVSPost2010Prop50
 90
       50
102
RTVSPost2010PropOp50
 70
     1
102
RTVSPost2010Prop51ColorIndex
 90
      256
102
RTVSPost2010Prop51ColorRGB
 90
-16777216
102
RTVSPost2010PropOp51
 70
     0
102
RTVSPost2010Prop52
140
1.0
102
RTVSPost2010PropOp52
 70
     0
102
RTVSPost2010Prop53
 90
        2
102
RTVSPost2010PropOp53
 70
     1
102
RTVSPost2010Prop54
  1
strokes_ogs.tif
102
RTVSPost2010PropOp54
 70
     1
102
RTVSPost2010Prop55
280
     0
102
RTVSPost2010PropOp55
 70
     1
102
RTVSPost2010Prop56
140
1.0
102
RTVSPost2010PropOp56
 70
     1
102
RTVSPost2010Prop57
140
1.0
102
RTVSPost2010PropOp57
 70
     1
102
RTVSPropertyOp0
 70
     1
102
RTVSPropertyOp1
 70
     1
102
RTVSPropertyOp2
 70
     1
102
RTVSPropertyOp3
 70
     1
102
RTVSPropertyOp4
 70
     1
102
RTVSPropertyOp5
 70
     1
102
RTVSPropertyOp6
 70
     1
102
RTVSPropertyOp7
 70
     1
102
RTVSPropertyOp8
 70
     1
102
RTVSPropertyOp9
 70
     1
102
RTVSPropertyOp10
 70
     1
102
RTVSPropertyOp11
 70
     1
102
RTVSPropertyOp12
 70
     1
102
RTVSPropertyOp13
 70
     1
102
RTVSPropertyOp14
 70
     1
102
RTVSPropertyOp15
 70
     1
102
RTVSPropertyOp16
 70
     1
102
RTVSPropertyOp17
 70
     1
102
RTVSPropertyOp18
 70
     1
102
RTVSPropertyOp19
 70
     1
102
RTVSPropertyOp20
 70
     1
102
RTVSPropertyOp21
 70
     1
102
RTVSPropertyOp22
 70
     1
102
RTVSPropertyOp23
 70
     1
102
RTVSPropertyOp24
 70
     1
102
RTVSPropertyOp25
 70
     1
102
RTVSPropertyOp26
 70
     1
102
RTVSPropertyOp27
 70
     1
102
RTVSPropertyOp28
 70
     1
102
RTVSPropertyOp29
 70
     1
102
RTVSPropertyOp30
 70
     1
102
RTVSPropertyOp31
 70
     1
102
RTVSPropertyOp32
 70
     1
102
RTVSPropertyOp33
 70
     1
102
RTVSPropertyOp34
 70
     1
102
RTVSPropertyOp35
 70
     1
102
RTVSPropertyOp36
 70
     1
102
RTVSPropertyOp37
 70
     1
102
RTVSPropertyOp38
 70
     1
102
RTVSPropertyOp39
 70
     1
102
RTVSPropertyOp40
 70
     1
102
RTVSPropertyOp41
 70
     1
102
RTVSPropertyOp42
 70
     1
102
RTVSPropertyOp43
 70
     1
102
RTVSPropertyOp44
 70
     1
102
RTVSPropertyOp45
 70
     1
102
RTVSPropertyOp46
 70
     1
102
RTVSPropertyOp47
 70
     1
102
RTVSPropertyOp48
 70
     1
102
RTVSPropertyOp49
 70
     1
102
RTVSPropertyOp50
 70
     1
102
RTVSPropertyOp51
 70
     0
102
RTVSPropertyOp52
 70
     0
102
RTVSPropertyOp53
 70
     1
102
RTVSPropertyOp54
 70
     1
102
RTVSPropertyOp55
 70
     1
102
RTVSPropertyOp56
 70
     1
102
RTVSPropertyOp57
 70
     1
102
RTVSPropertyOp58
 70
     1
102
RTVSPropertyOp59
 70
     1
102
RTVSPropertyOp60
 70
     1
102
RTVSPropertyOp61
 70
     1
102
RTVSPropertyOp62
 70
     1
  0
XRECORD
  5
18C3
102
{ACAD_REACTORS
330
18C2
102
}
330
18C2
100
AcDbXrecord
280
     1
102
RTVSPost2010Prop28
280
     0
102
RTVSPost2010PropOp28
 70
     1
102
RTVSPost2010Prop29
280
     1
102
RTVSPost2010PropOp29
 70
     1
102
RTVSPost2010Prop30
280
     1
102
RTVSPost2010PropOp30
 70
     1
102
RTVSPost2010Prop31
280
     0
102
RTVSPost2010PropOp31
 70
     1
102
RTVSPost2010Prop32
280
     0
102
RTVSPost2010PropOp32
 70
     1
102
RTVSPost2010Prop33
280
     0
102
RTVSPost2010PropOp33
 70
     1
102
RTVSPost2010Prop34
280
     0
102
RTVSPost2010PropOp34
 70
     1
102
RTVSPost2010Prop35
280
     0
102
RTVSPost2010PropOp35
 70
     1
102
RTVSPost2010Prop36
280
     0
102
RTVSPost2010PropOp36
 70
     1
102
RTVSPost2010Prop37
 90
       50
102
RTVSPost2010PropOp37
 70
     1
102
RTVSPost2010Prop38
140
0.0
102
RTVSPost2010PropOp38
 70
     1
102
RTVSPost2010Prop39
140
1.0
102
RTVSPost2010PropOp39
 70
     1
102
RTVSPost2010Prop40
 90
        0
102
RTVSPost2010PropOp40
 70
     1
102
RTVSPost2010Prop41ColorIndex
 90
       18
102
RTVSPost2010Prop41ColorRGB
 90
        0
102
RTVSPost2010PropOp41
 70
     1
102
RTVSPost2010Prop42
 90
       50
102
RTVSPost2010PropOp42
 70
     1
102
RTVSPost2010Prop43
 90
        3
102
RTVSPost2010PropOp43
 70
     1
102
RTVSPost2010Prop44ColorIndex
 90
        5
102
RTVSPost2010Prop44ColorRGB
 90
      255
102
RTVSPost2010PropOp44
 70
     1
102
RTVSPost2010Prop45
280
     0
102
RTVSPost2010PropOp45
 70
     1
102
RTVSPost2010Prop46
 90
       50
102
RTVSPost2010PropOp46
 70
     1
102
RTVSPost2010Prop47
 90
       50
102
RTVSPost2010PropOp47
 70
     1
102
RTVSPost2010Prop48
 90
       50
102
RTVSPost2010PropOp48
 70
     1
102
RTVSPost2010Prop49
280
     0
102
RTVSPost2010PropOp49
 70
     1
102
RTVSPost2010Prop50
 90
       50
102
RTVSPost2010PropOp50
 70
     1
102
RTVSPost2010Prop51ColorIndex
 90
      256
102
RTVSPost2010Prop51ColorRGB
 90
-16777216
102
RTVSPost2010PropOp51
 70
     0
102
RTVSPost2010Prop52
140
1.0
102
RTVSPost2010PropOp52
 70
     0
102
RTVSPost2010Prop53
 90
        2
102
RTVSPost2010PropOp53
 70
     1
102
RTVSPost2010Prop54
  1
strokes_ogs.tif
102
RTVSPost2010PropOp54
 70
     1
102
RTVSPost2010Prop55
280
     0
102
RTVSPost2010PropOp55
 70
     1
102
RTVSPost2010Prop56
140
1.0
102
RTVSPost2010PropOp56
 70
     1
102
RTVSPost2010Prop57
140
1.0
102
RTVSPost2010PropOp57
 70
     1
102
RTVSPropertyOp0
 70
     1
102
RTVSPropertyOp1
 70
     1
102
RTVSPropertyOp2
 70
     1
102
RTVSPropertyOp3
 70
     1
102
RTVSPropertyOp4
 70
     1
102
RTVSPropertyOp5
 70
     1
102
RTVSPropertyOp6
 70
     1
102
RTVSPropertyOp7
 70
     1
102
RTVSPropertyOp8
 70
     1
102
RTVSPropertyOp9
 70
     1
102
RTVSPropertyOp10
 70
     1
102
RTVSPropertyOp11
 70
     1
102
RTVSPropertyOp12
 70
     1
102
RTVSPropertyOp13
 70
     1
102
RTVSPropertyOp14
 70
     1
102
RTVSPropertyOp15
 70
     1
102
RTVSPropertyOp16
 70
     1
102
RTVSPropertyOp17
 70
     1
102
RTVSPropertyOp18
 70
     1
102
RTVSPropertyOp19
 70
     1
102
RTVSPropertyOp20
 70
     1
102
RTVSPropertyOp21
 70
     1
102
RTVSPropertyOp22
 70
     1
102
RTVSPropertyOp23
 70
     1
102
RTVSPropertyOp24
 70
     1
102
RTVSPropertyOp25
 70
     1
102
RTVSPropertyOp26
 70
     1
102
RTVSPropertyOp27
 70
     1
102
RTVSPropertyOp28
 70
     1
102
RTVSPropertyOp29
 70
     1
102
RTVSPropertyOp30
 70
     1
102
RTVSPropertyOp31
 70
     1
102
RTVSPropertyOp32
 70
     1
102
RTVSPropertyOp33
 70
     1
102
RTVSPropertyOp34
 70
     1
102
RTVSPropertyOp35
 70
     1
102
RTVSPropertyOp36
 70
     1
102
RTVSPropertyOp37
 70
     1
102
RTVSPropertyOp38
 70
     1
102
RTVSPropertyOp39
 70
     1
102
RTVSPropertyOp40
 70
     1
102
RTVSPropertyOp41
 70
     1
102
RTVSPropertyOp42
 70
     1
102
RTVSPropertyOp43
 70
     1
102
RTVSPropertyOp44
 70
     1
102
RTVSPropertyOp45
 70
     1
102
RTVSPropertyOp46
 70
     1
102
RTVSPropertyOp47
 70
     1
102
RTVSPropertyOp48
 70
     1
102
RTVSPropertyOp49
 70
     1
102
RTVSPropertyOp50
 70
     1
102
RTVSPropertyOp51
 70
     0
102
RTVSPropertyOp52
 70
     0
102
RTVSPropertyOp53
 70
     1
102
RTVSPropertyOp54
 70
     1
102
RTVSPropertyOp55
 70
     1
102
RTVSPropertyOp56
 70
     1
102
RTVSPropertyOp57
 70
     1
102
RTVSPropertyOp58
 70
     1
102
RTVSPropertyOp59
 70
     1
102
RTVSPropertyOp60
 70
     1
102
RTVSPropertyOp61
 70
     1
102
RTVSPropertyOp62
 70
     1
  0
XRECORD
  5
18AE
102
{ACAD_REACTORS
330
18AD
102
}
330
18AD
100
AcDbXrecord
280
     1
102
RTVSPost2010Prop28
280
     0
102
RTVSPost2010PropOp28
 70
     1
102
RTVSPost2010Prop29
280
     1
102
RTVSPost2010PropOp29
 70
     1
102
RTVSPost2010Prop30
280
     1
102
RTVSPost2010PropOp30
 70
     1
102
RTVSPost2010Prop31
280
     0
102
RTVSPost2010PropOp31
 70
     1
102
RTVSPost2010Prop32
280
     0
102
RTVSPost2010PropOp32
 70
     1
102
RTVSPost2010Prop33
280
     0
102
RTVSPost2010PropOp33
 70
     1
102
RTVSPost2010Prop34
280
     0
102
RTVSPost2010PropOp34
 70
     1
102
RTVSPost2010Prop35
280
     0
102
RTVSPost2010PropOp35
 70
     1
102
RTVSPost2010Prop36
280
     0
102
RTVSPost2010PropOp36
 70
     1
102
RTVSPost2010Prop37
 90
       50
102
RTVSPost2010PropOp37
 70
     1
102
RTVSPost2010Prop38
140
0.0
102
RTVSPost2010PropOp38
 70
     1
102
RTVSPost2010Prop39
140
1.0
102
RTVSPost2010PropOp39
 70
     1
102
RTVSPost2010Prop40
 90
        0
102
RTVSPost2010PropOp40
 70
     1
102
RTVSPost2010Prop41ColorIndex
 90
       18
102
RTVSPost2010Prop41ColorRGB
 90
        0
102
RTVSPost2010PropOp41
 70
     1
102
RTVSPost2010Prop42
 90
       50
102
RTVSPost2010PropOp42
 70
     1
102
RTVSPost2010Prop43
 90
        3
102
RTVSPost2010PropOp43
 70
     1
102
RTVSPost2010Prop44ColorIndex
 90
        5
102
RTVSPost2010Prop44ColorRGB
 90
      255
102
RTVSPost2010PropOp44
 70
     1
102
RTVSPost2010Prop45
280
     0
102
RTVSPost2010PropOp45
 70
     1
102
RTVSPost2010Prop46
 90
       50
102
RTVSPost2010PropOp46
 70
     1
102
RTVSPost2010Prop47
 90
       50
102
RTVSPost2010PropOp47
 70
     1
102
RTVSPost2010Prop48
 90
       50
102
RTVSPost2010PropOp48
 70
     1
102
RTVSPost2010Prop49
280
     0
102
RTVSPost2010PropOp49
 70
     1
102
RTVSPost2010Prop50
 90
       50
102
RTVSPost2010PropOp50
 70
     1
102
RTVSPost2010Prop51ColorIndex
 90
      256
102
RTVSPost2010Prop51ColorRGB
 90
-16777216
102
RTVSPost2010PropOp51
 70
     0
102
RTVSPost2010Prop52
140
1.0
102
RTVSPost2010PropOp52
 70
     0
102
RTVSPost2010Prop53
 90
        2
102
RTVSPost2010PropOp53
 70
     1
102
RTVSPost2010Prop54
  1
strokes_ogs.tif
102
RTVSPost2010PropOp54
 70
     1
102
RTVSPost2010Prop55
280
     0
102
RTVSPost2010PropOp55
 70
     1
102
RTVSPost2010Prop56
140
1.0
102
RTVSPost2010PropOp56
 70
     1
102
RTVSPost2010Prop57
140
1.0
102
RTVSPost2010PropOp57
 70
     1
102
RTVSPropertyOp0
 70
     1
102
RTVSPropertyOp1
 70
     1
102
RTVSPropertyOp2
 70
     1
102
RTVSPropertyOp3
 70
     1
102
RTVSPropertyOp4
 70
     1
102
RTVSPropertyOp5
 70
     1
102
RTVSPropertyOp6
 70
     1
102
RTVSPropertyOp7
 70
     1
102
RTVSPropertyOp8
 70
     1
102
RTVSPropertyOp9
 70
     1
102
RTVSPropertyOp10
 70
     1
102
RTVSPropertyOp11
 70
     1
102
RTVSPropertyOp12
 70
     1
102
RTVSPropertyOp13
 70
     1
102
RTVSPropertyOp14
 70
     1
102
RTVSPropertyOp15
 70
     1
102
RTVSPropertyOp16
 70
     1
102
RTVSPropertyOp17
 70
     1
102
RTVSPropertyOp18
 70
     1
102
RTVSPropertyOp19
 70
     1
102
RTVSPropertyOp20
 70
     1
102
RTVSPropertyOp21
 70
     1
102
RTVSPropertyOp22
 70
     1
102
RTVSPropertyOp23
 70
     1
102
RTVSPropertyOp24
 70
     1
102
RTVSPropertyOp25
 70
     1
102
RTVSPropertyOp26
 70
     1
102
RTVSPropertyOp27
 70
     1
102
RTVSPropertyOp28
 70
     1
102
RTVSPropertyOp29
 70
     1
102
RTVSPropertyOp30
 70
     1
102
RTVSPropertyOp31
 70
     1
102
RTVSPropertyOp32
 70
     1
102
RTVSPropertyOp33
 70
     1
102
RTVSPropertyOp34
 70
     1
102
RTVSPropertyOp35
 70
     1
102
RTVSPropertyOp36
 70
     1
102
RTVSPropertyOp37
 70
     1
102
RTVSPropertyOp38
 70
     1
102
RTVSPropertyOp39
 70
     1
102
RTVSPropertyOp40
 70
     1
102
RTVSPropertyOp41
 70
     1
102
RTVSPropertyOp42
 70
     1
102
RTVSPropertyOp43
 70
     1
102
RTVSPropertyOp44
 70
     1
102
RTVSPropertyOp45
 70
     1
102
RTVSPropertyOp46
 70
     1
102
RTVSPropertyOp47
 70
     1
102
RTVSPropertyOp48
 70
     1
102
RTVSPropertyOp49
 70
     1
102
RTVSPropertyOp50
 70
     1
102
RTVSPropertyOp51
 70
     0
102
RTVSPropertyOp52
 70
     0
102
RTVSPropertyOp53
 70
     1
102
RTVSPropertyOp54
 70
     1
102
RTVSPropertyOp55
 70
     1
102
RTVSPropertyOp56
 70
     1
102
RTVSPropertyOp57
 70
     1
102
RTVSPropertyOp58
 70
     1
102
RTVSPropertyOp59
 70
     1
102
RTVSPropertyOp60
 70
     1
102
RTVSPropertyOp61
 70
     1
102
RTVSPropertyOp62
 70
     1
  0
XRECORD
  5
18BD
102
{ACAD_REACTORS
330
18BC
102
}
330
18BC
100
AcDbXrecord
280
     1
102
RTVSPost2010Prop28
280
     0
102
RTVSPost2010PropOp28
 70
     1
102
RTVSPost2010Prop29
280
     1
102
RTVSPost2010PropOp29
 70
     1
102
RTVSPost2010Prop30
280
     1
102
RTVSPost2010PropOp30
 70
     1
102
RTVSPost2010Prop31
280
     0
102
RTVSPost2010PropOp31
 70
     1
102
RTVSPost2010Prop32
280
     0
102
RTVSPost2010PropOp32
 70
     1
102
RTVSPost2010Prop33
280
     0
102
RTVSPost2010PropOp33
 70
     1
102
RTVSPost2010Prop34
280
     0
102
RTVSPost2010PropOp34
 70
     1
102
RTVSPost2010Prop35
280
     0
102
RTVSPost2010PropOp35
 70
     1
102
RTVSPost2010Prop36
280
     0
102
RTVSPost2010PropOp36
 70
     1
102
RTVSPost2010Prop37
 90
       50
102
RTVSPost2010PropOp37
 70
     1
102
RTVSPost2010Prop38
140
0.0
102
RTVSPost2010PropOp38
 70
     1
102
RTVSPost2010Prop39
140
1.0
102
RTVSPost2010PropOp39
 70
     1
102
RTVSPost2010Prop40
 90
        0
102
RTVSPost2010PropOp40
 70
     1
102
RTVSPost2010Prop41ColorIndex
 90
       18
102
RTVSPost2010Prop41ColorRGB
 90
        0
102
RTVSPost2010PropOp41
 70
     1
102
RTVSPost2010Prop42
 90
       50
102
RTVSPost2010PropOp42
 70
     1
102
RTVSPost2010Prop43
 90
        3
102
RTVSPost2010PropOp43
 70
     1
102
RTVSPost2010Prop44ColorIndex
 90
        5
102
RTVSPost2010Prop44ColorRGB
 90
      255
102
RTVSPost2010PropOp44
 70
     1
102
RTVSPost2010Prop45
280
     0
102
RTVSPost2010PropOp45
 70
     1
102
RTVSPost2010Prop46
 90
       50
102
RTVSPost2010PropOp46
 70
     1
102
RTVSPost2010Prop47
 90
       50
102
RTVSPost2010PropOp47
 70
     1
102
RTVSPost2010Prop48
 90
       50
102
RTVSPost2010PropOp48
 70
     1
102
RTVSPost2010Prop49
280
     0
102
RTVSPost2010PropOp49
 70
     1
102
RTVSPost2010Prop50
 90
       50
102
RTVSPost2010PropOp50
 70
     1
102
RTVSPost2010Prop51ColorIndex
 90
      256
102
RTVSPost2010Prop51ColorRGB
 90
-16777216
102
RTVSPost2010PropOp51
 70
     0
102
RTVSPost2010Prop52
140
1.0
102
RTVSPost2010PropOp52
 70
     0
102
RTVSPost2010Prop53
 90
        2
102
RTVSPost2010PropOp53
 70
     1
102
RTVSPost2010Prop54
  1
strokes_ogs.tif
102
RTVSPost2010PropOp54
 70
     1
102
RTVSPost2010Prop55
280
     0
102
RTVSPost2010PropOp55
 70
     1
102
RTVSPost2010Prop56
140
1.0
102
RTVSPost2010PropOp56
 70
     1
102
RTVSPost2010Prop57
140
1.0
102
RTVSPost2010PropOp57
 70
     1
102
RTVSPropertyOp0
 70
     1
102
RTVSPropertyOp1
 70
     1
102
RTVSPropertyOp2
 70
     1
102
RTVSPropertyOp3
 70
     1
102
RTVSPropertyOp4
 70
     1
102
RTVSPropertyOp5
 70
     1
102
RTVSPropertyOp6
 70
     1
102
RTVSPropertyOp7
 70
     1
102
RTVSPropertyOp8
 70
     1
102
RTVSPropertyOp9
 70
     1
102
RTVSPropertyOp10
 70
     1
102
RTVSPropertyOp11
 70
     1
102
RTVSPropertyOp12
 70
     1
102
RTVSPropertyOp13
 70
     1
102
RTVSPropertyOp14
 70
     1
102
RTVSPropertyOp15
 70
     1
102
RTVSPropertyOp16
 70
     1
102
RTVSPropertyOp17
 70
     1
102
RTVSPropertyOp18
 70
     1
102
RTVSPropertyOp19
 70
     1
102
RTVSPropertyOp20
 70
     1
102
RTVSPropertyOp21
 70
     1
102
RTVSPropertyOp22
 70
     1
102
RTVSPropertyOp23
 70
     1
102
RTVSPropertyOp24
 70
     1
102
RTVSPropertyOp25
 70
     1
102
RTVSPropertyOp26
 70
     1
102
RTVSPropertyOp27
 70
     1
102
RTVSPropertyOp28
 70
     1
102
RTVSPropertyOp29
 70
     1
102
RTVSPropertyOp30
 70
     1
102
RTVSPropertyOp31
 70
     1
102
RTVSPropertyOp32
 70
     1
102
RTVSPropertyOp33
 70
     1
102
RTVSPropertyOp34
 70
     1
102
RTVSPropertyOp35
 70
     1
102
RTVSPropertyOp36
 70
     1
102
RTVSPropertyOp37
 70
     1
102
RTVSPropertyOp38
 70
     1
102
RTVSPropertyOp39
 70
     1
102
RTVSPropertyOp40
 70
     1
102
RTVSPropertyOp41
 70
     1
102
RTVSPropertyOp42
 70
     1
102
RTVSPropertyOp43
 70
     1
102
RTVSPropertyOp44
 70
     1
102
RTVSPropertyOp45
 70
     1
102
RTVSPropertyOp46
 70
     1
102
RTVSPropertyOp47
 70
     1
102
RTVSPropertyOp48
 70
     1
102
RTVSPropertyOp49
 70
     1
102
RTVSPropertyOp50
 70
     1
102
RTVSPropertyOp51
 70
     0
102
RTVSPropertyOp52
 70
     0
102
RTVSPropertyOp53
 70
     1
102
RTVSPropertyOp54
 70
     1
102
RTVSPropertyOp55
 70
     1
102
RTVSPropertyOp56
 70
     1
102
RTVSPropertyOp57
 70
     1
102
RTVSPropertyOp58
 70
     1
102
RTVSPropertyOp59
 70
     1
102
RTVSPropertyOp60
 70
     1
102
RTVSPropertyOp61
 70
     1
102
RTVSPropertyOp62
 70
     1
  0
XRECORD
  5
18C5
102
{ACAD_REACTORS
330
18C4
102
}
330
18C4
100
AcDbXrecord
280
     1
102
RTVSPost2010Prop28
280
     0
102
RTVSPost2010PropOp28
 70
     1
102
RTVSPost2010Prop29
280
     1
102
RTVSPost2010PropOp29
 70
     1
102
RTVSPost2010Prop30
280
     1
102
RTVSPost2010PropOp30
 70
     1
102
RTVSPost2010Prop31
280
     0
102
RTVSPost2010PropOp31
 70
     1
102
RTVSPost2010Prop32
280
     0
102
RTVSPost2010PropOp32
 70
     1
102
RTVSPost2010Prop33
280
     0
102
RTVSPost2010PropOp33
 70
     1
102
RTVSPost2010Prop34
280
     0
102
RTVSPost2010PropOp34
 70
     1
102
RTVSPost2010Prop35
280
     0
102
RTVSPost2010PropOp35
 70
     1
102
RTVSPost2010Prop36
280
     0
102
RTVSPost2010PropOp36
 70
     1
102
RTVSPost2010Prop37
 90
       50
102
RTVSPost2010PropOp37
 70
     1
102
RTVSPost2010Prop38
140
0.0
102
RTVSPost2010PropOp38
 70
     1
102
RTVSPost2010Prop39
140
1.0
102
RTVSPost2010PropOp39
 70
     1
102
RTVSPost2010Prop40
 90
        0
102
RTVSPost2010PropOp40
 70
     1
102
RTVSPost2010Prop41ColorIndex
 90
       18
102
RTVSPost2010Prop41ColorRGB
 90
        0
102
RTVSPost2010PropOp41
 70
     1
102
RTVSPost2010Prop42
 90
       50
102
RTVSPost2010PropOp42
 70
     1
102
RTVSPost2010Prop43
 90
        3
102
RTVSPost2010PropOp43
 70
     1
102
RTVSPost2010Prop44ColorIndex
 90
        5
102
RTVSPost2010Prop44ColorRGB
 90
      255
102
RTVSPost2010PropOp44
 70
     1
102
RTVSPost2010Prop45
280
     0
102
RTVSPost2010PropOp45
 70
     1
102
RTVSPost2010Prop46
 90
       50
102
RTVSPost2010PropOp46
 70
     1
102
RTVSPost2010Prop47
 90
       50
102
RTVSPost2010PropOp47
 70
     1
102
RTVSPost2010Prop48
 90
       50
102
RTVSPost2010PropOp48
 70
     1
102
RTVSPost2010Prop49
280
     0
102
RTVSPost2010PropOp49
 70
     1
102
RTVSPost2010Prop50
 90
       50
102
RTVSPost2010PropOp50
 70
     1
102
RTVSPost2010Prop51ColorIndex
 90
      256
102
RTVSPost2010Prop51ColorRGB
 90
-16777216
102
RTVSPost2010PropOp51
 70
     0
102
RTVSPost2010Prop52
140
1.0
102
RTVSPost2010PropOp52
 70
     0
102
RTVSPost2010Prop53
 90
        2
102
RTVSPost2010PropOp53
 70
     1
102
RTVSPost2010Prop54
  1
strokes_ogs.tif
102
RTVSPost2010PropOp54
 70
     1
102
RTVSPost2010Prop55
280
     0
102
RTVSPost2010PropOp55
 70
     1
102
RTVSPost2010Prop56
140
1.0
102
RTVSPost2010PropOp56
 70
     1
102
RTVSPost2010Prop57
140
1.0
102
RTVSPost2010PropOp57
 70
     1
102
RTVSPropertyOp0
 70
     1
102
RTVSPropertyOp1
 70
     1
102
RTVSPropertyOp2
 70
     1
102
RTVSPropertyOp3
 70
     1
102
RTVSPropertyOp4
 70
     1
102
RTVSPropertyOp5
 70
     1
102
RTVSPropertyOp6
 70
     1
102
RTVSPropertyOp7
 70
     1
102
RTVSPropertyOp8
 70
     1
102
RTVSPropertyOp9
 70
     1
102
RTVSPropertyOp10
 70
     1
102
RTVSPropertyOp11
 70
     1
102
RTVSPropertyOp12
 70
     1
102
RTVSPropertyOp13
 70
     1
102
RTVSPropertyOp14
 70
     1
102
RTVSPropertyOp15
 70
     1
102
RTVSPropertyOp16
 70
     1
102
RTVSPropertyOp17
 70
     1
102
RTVSPropertyOp18
 70
     1
102
RTVSPropertyOp19
 70
     1
102
RTVSPropertyOp20
 70
     1
102
RTVSPropertyOp21
 70
     1
102
RTVSPropertyOp22
 70
     1
102
RTVSPropertyOp23
 70
     1
102
RTVSPropertyOp24
 70
     1
102
RTVSPropertyOp25
 70
     1
102
RTVSPropertyOp26
 70
     1
102
RTVSPropertyOp27
 70
     1
102
RTVSPropertyOp28
 70
     1
102
RTVSPropertyOp29
 70
     1
102
RTVSPropertyOp30
 70
     1
102
RTVSPropertyOp31
 70
     1
102
RTVSPropertyOp32
 70
     1
102
RTVSPropertyOp33
 70
     1
102
RTVSPropertyOp34
 70
     1
102
RTVSPropertyOp35
 70
     1
102
RTVSPropertyOp36
 70
     1
102
RTVSPropertyOp37
 70
     1
102
RTVSPropertyOp38
 70
     1
102
RTVSPropertyOp39
 70
     1
102
RTVSPropertyOp40
 70
     1
102
RTVSPropertyOp41
 70
     1
102
RTVSPropertyOp42
 70
     1
102
RTVSPropertyOp43
 70
     1
102
RTVSPropertyOp44
 70
     1
102
RTVSPropertyOp45
 70
     1
102
RTVSPropertyOp46
 70
     1
102
RTVSPropertyOp47
 70
     1
102
RTVSPropertyOp48
 70
     1
102
RTVSPropertyOp49
 70
     1
102
RTVSPropertyOp50
 70
     1
102
RTVSPropertyOp51
 70
     0
102
RTVSPropertyOp52
 70
     0
102
RTVSPropertyOp53
 70
     1
102
RTVSPropertyOp54
 70
     1
102
RTVSPropertyOp55
 70
     1
102
RTVSPropertyOp56
 70
     1
102
RTVSPropertyOp57
 70
     1
102
RTVSPropertyOp58
 70
     1
102
RTVSPropertyOp59
 70
     1
102
RTVSPropertyOp60
 70
     1
102
RTVSPropertyOp61
 70
     1
102
RTVSPropertyOp62
 70
     1
  0
ENDSEC
  0
EOF
