  0
SECTION
  2
HEADER
  9
$ACADVER
  1
AC1032
  9
$ACADMAINTVER
 90
       55
  9
$DWGCODEPAGE
  3
ANSI_1252
  9
$LASTSAVEDBY
  1
mariehp
  9
$REQUIREDVERSIONS
160
                 0
  9
$INSBASE
 10
0.0
 20
0.0
 30
0.0
  9
$EXTMIN
 10
96.5325056057
 20
18.6908882231
 30
0.0
  9
$EXTMAX
 10
130.483368545
 20
44.5349275499
 30
0.0
  9
$LIMMIN
 10
0.0
 20
0.0
  9
$LIMMAX
 10
181.3333333333
 20
117.3333333333
  9
$ORTHOMODE
 70
     0
  9
$REGENMODE
 70
     1
  9
$FILLMODE
 70
     1
  9
$QTEXTMODE
 70
     0
  9
$MIRRTEXT
 70
     0
  9
$LTSCALE
 40
9.973333333300001
  9
$ATTMODE
 70
     1
  9
$TEXTSIZE
 40
0.2
  9
$TRACEWID
 40
0.05
  9
$TEXTSTYLE
  7
STANDARD
  9
$CLAYER
  8
0
  9
$CELTYPE
  6
BYLAYER
  9
$CECOLOR
 62
   256
  9
$CELTSCALE
 40
1.0
  9
$DISPSILH
 70
     0
  9
$DIMSCALE
 40
1.0
  9
$DIMASZ
 40
2.0
  9
$DIMEXO
 40
0.0625
  9
$DIMDLI
 40
6.890666666699999
  9
$DIMRND
 40
0.0
  9
$DIMDLE
 40
0.0
  9
$DIMEXE
 40
0.125
  9
$DIMTP
 40
0.001
  9
$DIMTM
 40
0.001
  9
$DIMTXT
 40
1.333333333299999
  9
$DIMCEN
 40
1.631999999999999
  9
$DIMTSZ
 40
0.0
  9
$DIMTOL
 70
     1
  9
$DIMLIM
 70
     0
  9
$DIMTIH
 70
     1
  9
$DIMTOH
 70
     1
  9
$DIMSE1
 70
     0
  9
$DIMSE2
 70
     0
  9
$DIMTAD
 70
     0
  9
$DIMZIN
 70
     0
  9
$DIMBLK
  1
_FILLED
  9
$DIMASO
 70
     1
  9
$DIMSHO
 70
     1
  9
$DIMPOST
  1

  9
$DIMAPOST
  1

  9
$DIMALT
 70
     1
  9
$DIMALTD
 70
     2
  9
$DIMALTF
 40
25.4
  9
$DIMLFAC
 40
1.0
  9
$DIMTOFL
 70
     0
  9
$DIMTVP
 40
0.0
  9
$DIMTIX
 70
     0
  9
$DIMSOXD
 70
     0
  9
$DIMSAH
 70
     0
  9
$DIMBLK1
  1

  9
$DIMBLK2
  1

  9
$DIMSTYLE
  2
STANDARD
  9
$DIMCLRD
 70
     0
  9
$DIMCLRE
 70
     0
  9
$DIMCLRT
 70
     0
  9
$DIMTFAC
 40
1.0
  9
$DIMGAP
 40
0.09
  9
$DIMJUST
 70
     0
  9
$DIMSD1
 70
     0
  9
$DIMSD2
 70
     0
  9
$DIMTOLJ
 70
     1
  9
$DIMTZIN
 70
     0
  9
$DIMALTZ
 70
     0
  9
$DIMALTTZ
 70
     0
  9
$DIMUPT
 70
     0
  9
$DIMDEC
 70
     4
  9
$DIMTDEC
 70
     4
  9
$DIMALTU
 70
     2
  9
$DIMALTTD
 70
     2
  9
$DIMTXSTY
  7
STANDARD
  9
$DIMAUNIT
 70
     0
  9
$DIMADEC
 70
     0
  9
$DIMALTRND
 40
0.0
  9
$DIMAZIN
 70
     0
  9
$DIMDSEP
 70
    46
  9
$DIMATFIT
 70
     3
  9
$DIMFRAC
 70
     0
  9
$DIMLDRBLK
  1

  9
$DIMLUNIT
 70
     2
  9
$DIMLWD
 70
    -2
  9
$DIMLWE
 70
    -2
  9
$DIMTMOVE
 70
     0
  9
$DIMFXL
 40
1.0
  9
$DIMFXLON
 70
     0
  9
$DIMJOGANG
 40
0.7853981633974483
  9
$DIMTFILL
 70
     0
  9
$DIMTFILLCLR
 70
     0
  9
$DIMARCSYM
 70
     0
  9
$DIMLTYPE
  6

  9
$DIMLTEX1
  6

  9
$DIMLTEX2
  6

  9
$DIMTXTDIRECTION
 70
     0
  9
$LUNITS
 70
     2
  9
$LUPREC
 70
     4
  9
$SKETCHINC
 40
0.1
  9
$FILLETRAD
 40
0.0
  9
$AUNITS
 70
     0
  9
$AUPREC
 70
     0
  9
$MENU
  1
.
  9
$ELEVATION
 40
0.0
  9
$PELEVATION
 40
0.0
  9
$THICKNESS
 40
0.0
  9
$LIMCHECK
 70
     0
  9
$CHAMFERA
 40
0.0
  9
$CHAMFERB
 40
0.0
  9
$CHAMFERC
 40
0.0
  9
$CHAMFERD
 40
0.0
  9
$SKPOLY
 70
     0
  9
$TDCREATE
 40
2459887.642106481
  9
$TDUCREATE
 40
2459887.808773149
  9
$TDUPDATE
 40
2459892.446342593
  9
$TDUUPDATE
 40
2459892.654675926
  9
$TDINDWG
 40
0.0016435185
  9
$TDUSRTIMER
 40
0.0016435185
  9
$USRTIMER
 70
     1
  9
$ANGBASE
 50
0.0
  9
$ANGDIR
 70
     0
  9
$PDMODE
 70
     3
  9
$PDSIZE
 40
0.03125
  9
$PLINEWID
 40
0.0
  9
$SPLFRAME
 70
     0
  9
$SPLINETYPE
 70
     6
  9
$SPLINESEGS
 70
     8
  9
$HANDSEED
  5
4FE1
  9
$SURFTAB1
 70
     6
  9
$SURFTAB2
 70
     6
  9
$SURFTYPE
 70
     6
  9
$SURFU
 70
     6
  9
$SURFV
 70
     6
  9
$UCSBASE
  2

  9
$UCSNAME
  2

  9
$UCSORG
 10
0.0
 20
0.0
 30
0.0
  9
$UCSXDIR
 10
1.0
 20
0.0
 30
0.0
  9
$UCSYDIR
 10
0.0
 20
1.0
 30
0.0
  9
$UCSORTHOREF
  2

  9
$UCSORTHOVIEW
 70
     0
  9
$UCSORGTOP
 10
0.0
 20
0.0
 30
0.0
  9
$UCSORGBOTTOM
 10
0.0
 20
0.0
 30
0.0
  9
$UCSORGLEFT
 10
0.0
 20
0.0
 30
0.0
  9
$UCSORGRIGHT
 10
0.0
 20
0.0
 30
0.0
  9
$UCSORGFRONT
 10
0.0
 20
0.0
 30
0.0
  9
$UCSORGBACK
 10
0.0
 20
0.0
 30
0.0
  9
$PUCSBASE
  2

  9
$PUCSNAME
  2

  9
$PUCSORG
 10
0.0
 20
0.0
 30
0.0
  9
$PUCSXDIR
 10
1.0
 20
0.0
 30
0.0
  9
$PUCSYDIR
 10
0.0
 20
1.0
 30
0.0
  9
$PUCSORTHOREF
  2

  9
$PUCSORTHOVIEW
 70
     0
  9
$PUCSORGTOP
 10
0.0
 20
0.0
 30
0.0
  9
$PUCSORGBOTTOM
 10
0.0
 20
0.0
 30
0.0
  9
$PUCSORGLEFT
 10
0.0
 20
0.0
 30
0.0
  9
$PUCSORGRIGHT
 10
0.0
 20
0.0
 30
0.0
  9
$PUCSORGFRONT
 10
0.0
 20
0.0
 30
0.0
  9
$PUCSORGBACK
 10
0.0
 20
0.0
 30
0.0
  9
$USERI1
 70
     0
  9
$USERI2
 70
     0
  9
$USERI3
 70
     0
  9
$USERI4
 70
     0
  9
$USERI5
 70
     0
  9
$USERR1
 40
0.0
  9
$USERR2
 40
0.0
  9
$USERR3
 40
0.0
  9
$USERR4
 40
0.0
  9
$USERR5
 40
0.0
  9
$WORLDVIEW
 70
     1
  9
$SHADEDGE
 70
     3
  9
$SHADEDIF
 70
    70
  9
$TILEMODE
 70
     1
  9
$MAXACTVP
 70
    64
  9
$PINSBASE
 10
0.0
 20
0.0
 30
0.0
  9
$PLIMCHECK
 70
     0
  9
$PEXTMIN
 10
1.000000000000000E+20
 20
1.000000000000000E+20
 30
1.000000000000000E+20
  9
$PEXTMAX
 10
-1.000000000000000E+20
 20
-1.000000000000000E+20
 30
-1.000000000000000E+20
  9
$PLIMMIN
 10
0.0
 20
0.0
  9
$PLIMMAX
 10
12.0
 20
9.0
  9
$UNITMODE
 70
     0
  9
$VISRETAIN
 70
     1
  9
$PLINEGEN
 70
     0
  9
$PSLTSCALE
 70
     1
  9
$TREEDEPTH
 70
  3020
  9
$CMLSTYLE
  2
Standard
  9
$CMLJUST
 70
     0
  9
$CMLSCALE
 40
1.0
  9
$PROXYGRAPHICS
 70
     1
  9
$MEASUREMENT
 70
     0
  9
$CELWEIGHT
370
    -1
  9
$ENDCAPS
280
     0
  9
$JOINSTYLE
280
     0
  9
$LWDISPLAY
290
     0
  9
$INSUNITS
 70
     1
  9
$HYPERLINKBASE
  1

  9
$STYLESHEET
  1

  9
$XEDIT
290
     1
  9
$CEPSNTYPE
380
     0
  9
$PSTYLEMODE
290
     1
  9
$FINGERPRINTGUID
  2
{8A087489-D4FE-2F46-918E-EFB05948D4A7}
  9
$VERSIONGUID
  2
{1037648B-F57B-284E-99E7-EFC6CE2A118C}
  9
$EXTNAMES
290
     1
  9
$PSVPSCALE
 40
0.0
  9
$OLESTARTUP
290
     0
  9
$SORTENTS
280
   127
  9
$INDEXCTL
280
     0
  9
$HIDETEXT
280
     0
  9
$XCLIPFRAME
280
     2
  9
$HALOGAP
280
     0
  9
$OBSCOLOR
 70
   257
  9
$OBSLTYPE
280
     0
  9
$INTERSECTIONDISPLAY
280
     0
  9
$INTERSECTIONCOLOR
 70
   257
  9
$DIMASSOC
280
     1
  9
$PROJECTNAME
  1

  9
$CAMERADISPLAY
290
     0
  9
$LENSLENGTH
 40
50.0
  9
$CAMERAHEIGHT
 40
0.0
  9
$STEPSPERSEC
 40
2.0
  9
$STEPSIZE
 40
6.0
  9
$3DDWFPREC
 40
2.0
  9
$PSOLWIDTH
 40
0.25
  9
$PSOLHEIGHT
 40
4.0
  9
$LOFTANG1
 40
1.570796326794896
  9
$LOFTANG2
 40
1.570796326794896
  9
$LOFTMAG1
 40
0.0
  9
$LOFTMAG2
 40
0.0
  9
$LOFTPARAM
 70
     7
  9
$LOFTNORMALS
280
     1
  9
$LATITUDE
 40
37.795
  9
$LONGITUDE
 40
-122.394
  9
$NORTHDIRECTION
 40
0.0
  9
$TIMEZONE
 70
 -8000
  9
$LIGHTGLYPHDISPLAY
280
     1
  9
$TILEMODELIGHTSYNCH
280
     1
  9
$CMATERIAL
347
4F09
  9
$SOLIDHIST
280
     0
  9
$SHOWHIST
280
     1
  9
$DWFFRAME
280
     2
  9
$DGNFRAME
280
     0
  9
$REALWORLDSCALE
290
     1
  9
$INTERFERECOLOR
 62
     1
  9
$INTERFEREOBJVS
345
4F2B
  9
$INTERFEREVPVS
346
4F28
  9
$CSHADOW
280
     0
  9
$SHADOWPLANELOCATION
 40
0.0
  0
ENDSEC
  0
SECTION
  2
CLASSES
  0
CLASS
  1
ACDBDICTIONARYWDFLT
  2
AcDbDictionaryWithDefault
  3
ObjectDBX Classes
 90
        0
 91
        1
280
     0
281
     0
  0
CLASS
  1
RASTERVARIABLES
  2
AcDbRasterVariables
  3
ISM
 90
        0
 91
        1
280
     0
281
     0
  0
CLASS
  1
IMAGEDEF
  2
AcDbRasterImageDef
  3
ISM
 90
        0
 91
        1
280
     0
281
     0
  0
CLASS
  1
IMAGEDEF_REACTOR
  2
AcDbRasterImageDefReactor
  3
ISM
 90
        1
 91
        0
280
     0
281
     0
  0
CLASS
  1
IMAGE
  2
AcDbRasterImage
  3
ISM
 90
     2175
 91
        0
280
     0
281
     1
  0
CLASS
  1
MATERIAL
  2
AcDbMaterial
  3
ObjectDBX Classes
 90
     1153
 91
        3
280
     0
281
     0
  0
CLASS
  1
VISUALSTYLE
  2
AcDbVisualStyle
  3
ObjectDBX Classes
 90
     4095
 91
       24
280
     0
281
     0
  0
CLASS
  1
TABLESTYLE
  2
AcDbTableStyle
  3
ObjectDBX Classes
 90
     4095
 91
        1
280
     0
281
     0
  0
CLASS
  1
SCALE
  2
AcDbScale
  3
ObjectDBX Classes
 90
     1153
 91
       17
280
     0
281
     0
  0
CLASS
  1
MLEADERSTYLE
  2
AcDbMLeaderStyle
  3
ACDB_MLEADERSTYLE_CLASS
 90
     4095
 91
        1
280
     0
281
     0
  0
CLASS
  1
ACDBSECTIONVIEWSTYLE
  2
AcDbSectionViewStyle
  3
ObjectDBX Classes
 90
     1025
 91
        1
280
     0
281
     0
  0
CLASS
  1
ACDBDETAILVIEWSTYLE
  2
AcDbDetailViewStyle
  3
ObjectDBX Classes
 90
     1025
 91
        1
280
     0
281
     0
  0
CLASS
  1
CELLSTYLEMAP
  2
AcDbCellStyleMap
  3
ObjectDBX Classes
 90
     1152
 91
        1
280
     0
281
     0
  0
CLASS
  1
DICTIONARYVAR
  2
AcDbDictionaryVar
  3
ObjectDBX Classes
 90
        0
 91
       12
280
     0
281
     0
  0
CLASS
  1
EXACXREFPANELOBJECT
  2
ExAcXREFPanelObject
  3
EXAC_ESW
 90
     1025
 91
        1
280
     0
281
     0
  0
CLASS
  1
NPOCOLLECTION
  2
AcDbImpNonPersistentObjectsCollection
  3
ObjectDBX Classes
 90
     1153
 91
        1
280
     0
281
     0
  0
ENDSEC
  0
SECTION
  2
TABLES
  0
TABLE
  2
VPORT
  5
8
102
{ACAD_XDICTIONARY
360
4F58
102
}
330
0
100
AcDbSymbolTable
 70
     1
  0
VPORT
  5
1F4
330
8
100
AcDbSymbolTableRecord
100
AcDbViewportTableRecord
  2
*ACTIVE
 70
     0
 10
0.0
 20
0.0
 11
1.0
 21
1.0
 12
120.6904092529682
 22
31.12161965614097
 13
0.0
 23
0.0
 14
1.0
 24
1.0
 15
0.0
 25
0.0
 16
0.0
 26
0.0
 36
1.0
 17
0.0
 27
0.0
 37
0.0
 40
44.26770033834513
 41
2.462820512820512
 42
50.0
 43
0.0
 44
0.0
 50
0.0
 51
0.0
 71
     0
 72
   100
 73
     1
 74
     1
 75
     0
 76
     0
 77
     0
 78
     0
281
     0
 65
     1
110
0.0
120
0.0
130
0.0
111
1.0
121
0.0
131
0.0
112
0.0
122
1.0
132
0.0
 79
     0
146
0.0
348
4F27
 60
     3
 61
     5
292
     1
282
     1
141
0.0
142
0.0
 63
   250
421
  3355443
1001
ACAD_NAV_VCDISPLAY
1070
     3
  0
ENDTAB
  0
TABLE
  2
LTYPE
  5
5
330
0
100
AcDbSymbolTable
 70
     6
  0
LTYPE
  5
14
330
5
100
AcDbSymbolTableRecord
100
AcDbLinetypeTableRecord
  2
BYBLOCK
 70
     0
  3

 72
    65
 73
     0
 40
0.0
  0
LTYPE
  5
15
330
5
100
AcDbSymbolTableRecord
100
AcDbLinetypeTableRecord
  2
BYLAYER
 70
     0
  3

 72
    65
 73
     0
 40
0.0
  0
LTYPE
  5
16
330
5
100
AcDbSymbolTableRecord
100
AcDbLinetypeTableRecord
  2
CONTINUOUS
 70
     0
  3
Solid line
 72
    65
 73
     0
 40
0.0
  0
LTYPE
  5
1F5
330
5
100
AcDbSymbolTableRecord
100
AcDbLinetypeTableRecord
  2
CENTER
 70
     0
  3
____ _ ____ _ ____ _ ____ _ ____ _ ____ _ ____
 72
    65
 73
     4
 40
0.6
 49
0.375
 74
     0
 49
-0.075
 74
     0
 49
0.075
 74
     0
 49
-0.075
 74
     0
  0
LTYPE
  5
1F6
330
5
100
AcDbSymbolTableRecord
100
AcDbLinetypeTableRecord
  2
HIDDEN
 70
     0
  3
- - - - - - - - - - - - - - - - - - - -
 72
    65
 73
     2
 40
0.2
 49
0.1
 74
     0
 49
-0.1
 74
     0
  0
LTYPE
  5
1F7
330
5
100
AcDbSymbolTableRecord
100
AcDbLinetypeTableRecord
  2
PHANTOM
 70
     0
  3
_____ _ _ _____ _ _ _____ _ _ _____
 72
    65
 73
     6
 40
0.8
 49
0.45
 74
     0
 49
-0.05
 74
     0
 49
0.1
 74
     0
 49
-0.05
 74
     0
 49
0.1
 74
     0
 49
-0.05
 74
     0
  0
LTYPE
  5
1F8
330
5
100
AcDbSymbolTableRecord
100
AcDbLinetypeTableRecord
  2
DOT
 70
     0
  3
. . . . . . . . . . . . . . . . . . . .
 72
    65
 73
     2
 40
0.2
 49
0.1
 74
     0
 49
-0.1
 74
     0
  0
LTYPE
  5
1F9
330
5
100
AcDbSymbolTableRecord
100
AcDbLinetypeTableRecord
  2
DASHED
 70
     0
  3
- - - - - - - - - - - - - - - - - - - -
 72
    65
 73
     2
 40
0.2
 49
0.1
 74
     0
 49
-0.1
 74
     0
  0
ENDTAB
  0
TABLE
  2
LAYER
  5
2
102
{ACAD_XDICTIONARY
360
4FCE
102
}
330
0
100
AcDbSymbolTable
 70
    15
  0
LAYER
  5
10
102
{ACAD_XDICTIONARY
360
4FA8
102
}
330
2
100
AcDbSymbolTableRecord
100
AcDbLayerTableRecord
  2
0
 70
     0
 62
     7
  6
CONTINUOUS
370
    -3
390
F
347
4F19
348
0
  0
LAYER
  5
1FA
102
{ACAD_XDICTIONARY
360
4FAA
102
}
330
2
100
AcDbSymbolTableRecord
100
AcDbLayerTableRecord
  2
DEFAULT_1
 70
     0
 62
     7
  6
CENTER
370
    -3
390
F
347
4F19
348
0
  0
LAYER
  5
1FB
102
{ACAD_XDICTIONARY
360
4FAC
102
}
330
2
100
AcDbSymbolTableRecord
100
AcDbLayerTableRecord
  2
DEFAULT_2
 70
     0
 62
     8
  6
HIDDEN
370
    -3
390
F
347
4F19
348
0
  0
LAYER
  5
1FC
102
{ACAD_XDICTIONARY
360
4FAE
102
}
330
2
100
AcDbSymbolTableRecord
100
AcDbLayerTableRecord
  2
DEFAULT_3
 70
     0
 62
     7
  6
PHANTOM
370
    -3
390
F
347
4F19
348
0
  0
LAYER
  5
1FD
102
{ACAD_XDICTIONARY
360
4FB0
102
}
330
2
100
AcDbSymbolTableRecord
100
AcDbLayerTableRecord
  2
1_CURVES
 70
     0
 62
     7
  6
CONTINUOUS
370
    -3
390
F
347
4F19
348
0
  0
LAYER
  5
1FE
102
{ACAD_XDICTIONARY
360
4FB2
102
}
330
2
100
AcDbSymbolTableRecord
100
AcDbLayerTableRecord
  2
2_PLANES
 70
     0
 62
     7
  6
CONTINUOUS
370
    -3
390
F
347
4F19
348
0
  0
LAYER
  5
1FF
102
{ACAD_XDICTIONARY
360
4FB4
102
}
330
2
100
AcDbSymbolTableRecord
100
AcDbLayerTableRecord
  2
3_POINTS
 70
     0
 62
     7
  6
CONTINUOUS
370
    -3
390
F
347
4F19
348
0
  0
LAYER
  5
200
102
{ACAD_XDICTIONARY
360
4FB6
102
}
330
2
100
AcDbSymbolTableRecord
100
AcDbLayerTableRecord
  2
4_CSYS
 70
     0
 62
     7
  6
CONTINUOUS
370
    -3
390
F
347
4F19
348
0
  0
LAYER
  5
201
102
{ACAD_XDICTIONARY
360
4FB8
102
}
330
2
100
AcDbSymbolTableRecord
100
AcDbLayerTableRecord
  2
5_AXIS
 70
     0
 62
     7
  6
CONTINUOUS
370
    -3
390
F
347
4F19
348
0
  0
LAYER
  5
202
102
{ACAD_XDICTIONARY
360
4FBA
102
}
330
2
100
AcDbSymbolTableRecord
100
AcDbLayerTableRecord
  2
6_SURFACES
 70
     0
 62
     7
  6
CONTINUOUS
370
    -3
390
F
347
4F19
348
0
  0
LAYER
  5
203
102
{ACAD_XDICTIONARY
360
4FBC
102
}
330
2
100
AcDbSymbolTableRecord
100
AcDbLayerTableRecord
  2
6_SURFACES_TOOLING
 70
     0
 62
     7
  6
CONTINUOUS
370
    -3
390
F
347
4F19
348
0
  0
LAYER
  5
204
102
{ACAD_XDICTIONARY
360
4FBE
102
}
330
2
100
AcDbSymbolTableRecord
100
AcDbLayerTableRecord
  2
7_NOTES
 70
     0
 62
     7
  6
CONTINUOUS
370
    -3
390
F
347
4F19
348
0
  0
LAYER
  5
205
102
{ACAD_XDICTIONARY
360
4FC0
102
}
330
2
100
AcDbSymbolTableRecord
100
AcDbLayerTableRecord
  2
8_SOLIDS
 70
     0
 62
     7
  6
CONTINUOUS
370
    -3
390
F
347
4F19
348
0
  0
LAYER
  5
206
102
{ACAD_XDICTIONARY
360
4FC2
102
}
330
2
100
AcDbSymbolTableRecord
100
AcDbLayerTableRecord
  2
DEGAGEMENT_SERIGRAPHIE
 70
     0
 62
     7
  6
CONTINUOUS
370
    -3
390
F
347
4F19
348
0
  0
LAYER
  5
207
102
{ACAD_XDICTIONARY
360
4FC4
102
}
330
2
100
AcDbSymbolTableRecord
100
AcDbLayerTableRecord
  2
XSEC_DATUMS
 70
     0
 62
     7
  6
CONTINUOUS
370
    -3
390
F
347
4F19
348
0
  0
ENDTAB
  0
TABLE
  2
STYLE
  5
3
330
0
100
AcDbSymbolTable
 70
     8
  0
STYLE
  5
11
330
3
100
AcDbSymbolTableRecord
100
AcDbTextStyleTableRecord
  2
STANDARD
 70
     0
 40
0.0
 41
1.0
 50
0.0
 71
     0
 42
0.2
  3

  4

1001
ACAD
1000
CG Triumvirate
1071
       34
  0
STYLE
  5
208
330
3
100
AcDbSymbolTableRecord
100
AcDbTextStyleTableRecord
  2
TEXTSTYLE_1
 70
     0
 40
0.0
 41
0.8
 50
0.0
 71
     0
 42
0.2
  3
gdt
  4

  0
STYLE
  5
209
330
3
100
AcDbSymbolTableRecord
100
AcDbTextStyleTableRecord
  2
TEXTSTYLE_2
 70
     0
 40
0.0
 41
1.0
 50
0.0
 71
     0
 42
0.2
  3

  4

1001
ACAD
1000
CG Triumvirate
1071
       34
  0
STYLE
  5
20A
330
3
100
AcDbSymbolTableRecord
100
AcDbTextStyleTableRecord
  2
TEXTSTYLE_3
 70
     0
 40
0.0
 41
1.0
 50
0.0
 71
     0
 42
0.2
  3
txt
  4

  0
STYLE
  5
20B
330
3
100
AcDbSymbolTableRecord
100
AcDbTextStyleTableRecord
  2
TEXTSTYLE_4
 70
     0
 40
0.0
 41
1.0
 50
0.0
 71
     0
 42
0.2
  3
txt
  4

  0
STYLE
  5
20C
330
3
100
AcDbSymbolTableRecord
100
AcDbTextStyleTableRecord
  2
TEXTSTYLE_5
 70
     0
 40
0.0
 41
1.0
 50
0.0
 71
     0
 42
0.2
  3

  4

1001
ACAD
1000
CG Triumvirate
1071
       34
  0
STYLE
  5
20D
330
3
100
AcDbSymbolTableRecord
100
AcDbTextStyleTableRecord
  2
TEXTSTYLE_6
 70
     0
 40
0.0
 41
1.0
 50
0.0
 71
     0
 42
0.2
  3
gdt
  4

  0
STYLE
  5
20E
330
3
100
AcDbSymbolTableRecord
100
AcDbTextStyleTableRecord
  2
TEXTSTYLE_7
 70
     0
 40
0.0
 41
0.8
 50
0.0
 71
     0
 42
0.2
  3
txt
  4

  0
ENDTAB
  0
TABLE
  2
VIEW
  5
6
330
0
100
AcDbSymbolTable
 70
     0
  0
ENDTAB
  0
TABLE
  2
UCS
  5
7
330
0
100
AcDbSymbolTable
 70
     0
  0
ENDTAB
  0
TABLE
  2
APPID
  5
9
330
0
100
AcDbSymbolTable
 70
     3
  0
APPID
  5
20F
330
9
100
AcDbSymbolTableRecord
100
AcDbRegAppTableRecord
  2
ACAD
 70
     0
  0
APPID
  5
4F92
330
9
100
AcDbSymbolTableRecord
100
AcDbRegAppTableRecord
  2
ACAD_MLEADERVER
 70
     0
  0
APPID
  5
4FC6
330
9
100
AcDbSymbolTableRecord
100
AcDbRegAppTableRecord
  2
ACAD_NAV_VCDISPLAY
 70
     0
  0
ENDTAB
  0
TABLE
  2
DIMSTYLE
  5
A
330
0
100
AcDbSymbolTable
 70
     4
100
AcDbDimStyleTable
 71
     0
  0
DIMSTYLE
105
229
330
A
100
AcDbSymbolTableRecord
100
AcDbDimStyleTableRecord
  2
STANDARD
 70
     0
 41
2.0
 44
0.125
 47
0.001
 48
0.001
 71
     1
 78
     4
 79
     1
140
1.333333333299999
143
2.54
170
     1
179
     3
271
     3
272
     3
284
     4
340
11
341
212
342
212
343
212
344
212
  0
DIMSTYLE
105
22A
330
A
100
AcDbSymbolTableRecord
100
AcDbDimStyleTableRecord
  2
DIMSTYLE_1
 70
     0
 41
2.0
 44
0.125
 47
0.001
 48
0.001
 78
     4
 79
     1
140
1.333333333299999
143
2.54
147
0.0625
170
     1
171
     1
179
     3
272
    16
274
     3
284
     4
340
11
341
212
342
212
343
212
344
212
  0
DIMSTYLE
105
22B
330
A
100
AcDbSymbolTableRecord
100
AcDbDimStyleTableRecord
  2
DIMSTYLE_2
 70
     0
 41
2.0
 44
0.125
 47
0.001
 48
0.001
 78
     4
 79
     1
140
1.333333333299999
143
2.54
147
0.0625
170
     1
171
     1
179
     3
271
     5
272
    32
274
     1
284
     4
340
11
341
212
342
212
343
212
344
212
  0
DIMSTYLE
105
22C
330
A
100
AcDbSymbolTableRecord
100
AcDbDimStyleTableRecord
  2
DIMSTYLE_3
 70
     0
 41
2.0
 44
0.125
 47
0.5
 48
0.5
 78
     4
 79
     1
140
1.333333333299999
143
2.54
147
0.0625
179
     3
271
     0
272
     1
284
     4
340
11
341
212
342
212
343
212
344
212
  0
ENDTAB
  0
TABLE
  2
BLOCK_RECORD
  5
1
330
0
100
AcDbSymbolTable
 70
    23
  0
BLOCK_RECORD
  5
210
330
1
100
AcDbSymbolTableRecord
100
AcDbBlockTableRecord
  2
*Model_Space
340
4F00
 70
     0
280
     1
281
     0
  0
BLOCK_RECORD
  5
211
330
1
100
AcDbSymbolTableRecord
100
AcDbBlockTableRecord
  2
*Paper_Space
340
4F01
 70
     0
280
     1
281
     0
  0
BLOCK_RECORD
  5
212
330
1
100
AcDbSymbolTableRecord
100
AcDbBlockTableRecord
  2
_FILLED
340
0
102
{BLKREFS
102
}
 70
     0
280
     1
281
     0
  0
BLOCK_RECORD
  5
226
330
1
100
AcDbSymbolTableRecord
100
AcDbBlockTableRecord
  2
L03-NOTE_POIDS_BAINS_BL2
340
0
 70
     0
280
     1
281
     0
  0
BLOCK_RECORD
  5
227
330
1
100
AcDbSymbolTableRecord
100
AcDbBlockTableRecord
  2
L03-USAGE_INTERNE_SEULEM_BL1
340
0
 70
     0
280
     1
281
     0
  0
BLOCK_RECORD
  5
228
330
1
100
AcDbSymbolTableRecord
100
AcDbBlockTableRecord
  2
L03-NOTE_SPECS_BAINS_BL0
340
0
 70
     0
280
     1
281
     0
  0
ENDTAB
  0
ENDSEC
  0
SECTION
  2
BLOCKS
  0
BLOCK
  5
20
330
210
100
AcDbEntity
  8
0
100
AcDbBlockBegin
  2
*Model_Space
 70
     0
 10
0.0
 20
0.0
 30
0.0
  3
*Model_Space
  1

  0
ENDBLK
  5
21
330
210
100
AcDbEntity
  8
0
100
AcDbBlockEnd
  0
BLOCK
  5
1C
330
211
100
AcDbEntity
 67
     1
  8
0
100
AcDbBlockBegin
  2
*Paper_Space
 70
     0
 10
0.0
 20
0.0
 30
0.0
  3
*Paper_Space
  1

  0
ENDBLK
  5
1D
330
211
100
AcDbEntity
 67
     1
  8
0
100
AcDbBlockEnd
  0
BLOCK
  5
30C
330
212
100
AcDbEntity
  8
0
100
AcDbBlockBegin
  2
_FILLED
 70
     0
 10
0.0
 20
0.0
 30
0.0
  3
_FILLED
  1

  0
SOLID
  5
30D
330
212
100
AcDbEntity
  8
0
  6
ByBlock
 62
     0
100
AcDbTrace
 10
0.0
 20
0.0
 30
0.0
 11
-1.0
 21
0.1666666667
 31
0.0
 12
-1.0
 22
-0.1666666667
 32
0.0
 13
-1.0
 23
-0.1666666667
 33
0.0
  0
ENDBLK
  5
30E
330
212
100
AcDbEntity
  8
0
  6
ByBlock
 62
     0
100
AcDbBlockEnd
  0
BLOCK
  5
22D
330
226
100
AcDbEntity
  8
0
  6
Continuous
 62
     2
100
AcDbBlockBegin
  2
L03-NOTE_POIDS_BAINS_BL2
 70
     0
 10
160.6672071951
 20
65.85708951179999
 30
0.0
  3
L03-NOTE_POIDS_BAINS_BL2
  1

  0
TEXT
  5
22E
330
226
100
AcDbEntity
  8
0
  6
Continuous
 62
     2
100
AcDbText
 10
144.3827704794
 20
66.8195252328
 30
0.0
 40
0.5
  1
Volume Poids/Volume Weight
 41
1.009888658810809
 72
     5
 11
153.7142519609
 21
66.8195252328
 31
0.0
100
AcDbText
  0
TEXT
  5
22F
330
226
100
AcDbEntity
  8
0
  6
Continuous
 62
     2
100
AcDbText
 10
144.6666666667
 20
65.37942517499999
 30
0.0
 40
0.6666666667
  1
                                            IN^ 3                 LITRES                LBS
 41
1.044938206881293
 72
     5
 11
172.7037037037
 21
65.37942517499999
 31
0.0
100
AcDbText
  0
TEXT
  5
230
330
226
100
AcDbEntity
  8
0
  6
Continuous
 62
     2
100
AcDbText
 10
144.6666666667
 20
64.37942517499999
 30
0.0
 40
0.6666666667
  1
BAIN
 41
1.006412515405184
 72
     5
 11
146.8543209877
 21
64.37942517499999
 31
0.0
100
AcDbText
  0
TEXT
  5
231
330
226
100
AcDbEntity
  8
0
  6
Continuous
 62
     2
100
AcDbText
 10
144.6666666667
 20
63.379425175
 30
0.0
 40
0.6666666667
  1
 
 41
1.059207179591827
 72
     5
 11
144.9407407407
 21
63.379425175
 31
0.0
100
AcDbText
  0
TEXT
  5
232
330
226
100
AcDbEntity
  8
0
  6
Continuous
 62
     2
100
AcDbText
 10
144.6666666667
 20
62.379425175
 30
0.0
 40
0.6666666667
  1
 
 41
1.059207179591827
 72
     5
 11
144.9407407407
 21
62.379425175
 31
0.0
100
AcDbText
  0
TEXT
  5
233
330
226
100
AcDbEntity
  8
0
  6
Continuous
 62
     2
100
AcDbText
 10
144.6666666667
 20
61.379425175
 30
0.0
 40
0.6666666667
  1
 
 41
1.059207179591827
 72
     5
 11
144.9407407407
 21
61.379425175
 31
0.0
100
AcDbText
  0
TEXT
  5
234
330
226
100
AcDbEntity
  8
0
  6
Continuous
 62
     2
100
AcDbText
 10
156.9882522549
 20
64.37942517499999
 30
0.0
 40
0.6666666667
  1
4625
 41
0.9867720164271732
 72
     5
 11
159.0326966993
 21
64.37942517499999
 31
0.0
100
AcDbText
  0
TEXT
  5
235
330
226
100
AcDbEntity
  8
0
  6
Continuous
 62
     2
100
AcDbText
 10
157.87343744
 20
63.379425175
 30
0.0
 40
0.6666666667
  1
 
 41
1.059207179978246
 72
     5
 11
158.1475115141
 21
63.379425175
 31
0.0
100
AcDbText
  0
TEXT
  5
236
330
226
100
AcDbEntity
  8
0
  6
Continuous
 62
     2
100
AcDbText
 10
163.7714211615
 20
64.3965045771
 30
0.0
 40
0.6666666667
  1
75.791
 41
0.9933517750926444
 72
     5
 11
166.6010507912
 21
64.3965045771
 31
0.0
100
AcDbText
  0
TEXT
  5
237
330
226
100
AcDbEntity
  8
0
  6
Continuous
 62
     2
100
AcDbText
 10
165.0491989393
 20
63.3965045771
 30
0.0
 40
0.6666666667
  1
 
 41
1.059207179978356
 72
     5
 11
165.3232730134
 21
63.3965045771
 31
0.0
100
AcDbText
  0
TEXT
  5
238
330
226
100
AcDbEntity
  8
0
  6
Continuous
 62
     2
100
AcDbText
 10
165.0491989393
 20
62.3965045771
 30
0.0
 40
0.6666666667
  1
 
 41
1.059207179978356
 72
     5
 11
165.3232730134
 21
62.3965045771
 31
0.0
100
AcDbText
  0
TEXT
  5
239
330
226
100
AcDbEntity
  8
0
  6
Continuous
 62
     2
100
AcDbText
 10
171.1086526916
 20
64.37942517499999
 30
0.0
 40
0.6666666667
  1
284
 41
0.9867720164271871
 72
     5
 11
172.6419860249
 21
64.37942517499999
 31
0.0
100
AcDbText
  0
TEXT
  5
23A
330
226
100
AcDbEntity
  8
0
  6
Continuous
 62
     2
100
AcDbText
 10
171.7382823212
 20
63.379425175
 30
0.0
 40
0.6666666667
  1
 
 41
1.059207179978137
 72
     5
 11
172.0123563952999
 21
63.379425175
 31
0.0
100
AcDbText
  0
TEXT
  5
23B
330
226
100
AcDbEntity
  8
0
  6
Continuous
 62
     2
100
AcDbText
 10
171.7382823212
 20
62.379425175
 30
0.0
 40
0.6666666667
  1
 
 41
1.059207179978137
 72
     5
 11
172.0123563952999
 21
62.379425175
 31
0.0
100
AcDbText
  0
LINE
  5
23C
330
226
100
AcDbEntity
  8
0
  6
Continuous
 62
     7
100
AcDbLine
 10
144.0
 20
67.7127585083
 30
0.0
 11
177.3333333333
 21
67.7127585083
 31
0.0
  0
LINE
  5
23D
330
226
100
AcDbEntity
  8
0
  6
Continuous
 62
     7
100
AcDbLine
 10
177.3333333333
 20
67.7127585083
 30
0.0
 11
177.3344143901
 21
64.0018102952
 31
0.0
  0
LINE
  5
23E
330
226
100
AcDbEntity
  8
0
  6
Continuous
 62
     7
100
AcDbLine
 10
144.0
 20
67.7127585083
 30
0.0
 11
144.0008869072
 21
64.0016895751
 31
0.0
  0
LINE
  5
23F
330
226
100
AcDbEntity
  8
0
  6
Continuous
 62
     7
100
AcDbLine
 10
144.000891253
 20
64.0014205154
 30
0.0
 11
177.3342245863999
 21
64.0014205154
 31
0.0
  0
ENDBLK
  5
240
330
226
100
AcDbEntity
  8
0
  6
ByBlock
 62
     0
100
AcDbBlockEnd
  0
BLOCK
  5
241
330
227
100
AcDbEntity
  8
0
  6
Continuous
 62
     2
100
AcDbBlockBegin
  2
L03-USAGE_INTERNE_SEULEM_BL1
 70
     0
 10
120.0279457248
 20
52.1058371577
 30
0.0
  3
L03-USAGE_INTERNE_SEULEM_BL1
  1

  0
TEXT
  5
242
330
227
100
AcDbEntity
  8
0
  6
Continuous
 62
     7
100
AcDbText
 10
113.713885423
 20
54.3508711435
 30
0.0
 40
1.1626666667
  1
INTERNAL USE 
 50
9.999999999799975
 41
1.005097163394939
  7
TEXTSTYLE_2
 72
     5
 11
125.8636410437
 21
56.4932008684
 31
0.0
100
AcDbText
  0
TEXT
  5
243
330
227
100
AcDbEntity
  8
0
  6
Continuous
 62
     7
100
AcDbText
 10
112.970201219
 20
52.3493499658
 30
0.0
 40
1.1626666667
  1
DOCUMENT ONLY
 50
10.00000000006675
 41
1.004804631892241
  7
TEXTSTYLE_2
 72
     5
 11
127.0791844477
 21
54.83714437939999
 31
0.0
100
AcDbText
  0
TEXT
  5
244
330
227
100
AcDbEntity
  8
0
  6
Continuous
 62
     7
100
AcDbText
 10
119.092068598
 20
52.160368761
 30
0.0
 40
1.1626666667
  1
 
 50
10.00000000680091
 41
1.059207179708311
  7
TEXTSTYLE_2
 72
     5
 11
119.5627921141
 21
52.2433700174
 31
0.0
100
AcDbText
  0
TEXT
  5
245
330
227
100
AcDbEntity
  8
0
  6
Continuous
 62
     7
100
AcDbText
 10
110.3102808993
 20
47.92382750899999
 30
0.0
 40
1.1626666667
  1
DOCUMENT POUR USAGE
 50
10.00000000001812
 41
1.000408784561171
  7
TEXTSTYLE_2
 72
     5
 11
130.6701331628
 21
51.5138187863
 31
0.0
100
AcDbText
  0
TEXT
  5
246
330
227
100
AcDbEntity
  8
0
  6
Continuous
 62
     7
100
AcDbText
 10
110.7393803453
 20
45.90707904859999
 30
0.0
 40
1.1626666667
  1
A L'INTERNE SEULEMENT
 50
10.00000000005671
 41
1.011903875566034
  7
TEXTSTYLE_2
 72
     5
 11
130.9253617605
 21
49.4664122042
 31
0.0
100
AcDbText
  0
LINE
  5
247
330
227
100
AcDbEntity
  8
0
  6
Continuous
 62
     1
100
AcDbLine
 10
133.8844974481
 20
47.76230353969999
 30
0.0
 11
133.8912563808
 21
47.76906247239999
 31
0.0
  0
LINE
  5
248
330
227
100
AcDbEntity
  8
0
  6
Continuous
 62
     1
100
AcDbLine
 10
133.1519278817
 20
47.63313175989999
 30
0.0
 11
133.8008093268
 21
48.28201320499999
 31
0.0
  0
LINE
  5
249
330
227
100
AcDbEntity
  8
0
  6
Continuous
 62
     1
100
AcDbLine
 10
132.4193583153
 20
47.5039599801
 30
0.0
 11
133.7103622729
 21
48.79496393770001
 31
0.0
  0
LINE
  5
24A
330
227
100
AcDbEntity
  8
0
  6
Continuous
 62
     1
100
AcDbLine
 10
131.6867887489
 20
47.37478820029999
 30
0.0
 11
133.619915219
 21
49.3079146704
 31
0.0
  0
LINE
  5
24B
330
227
100
AcDbEntity
  8
0
  6
Continuous
 62
     1
100
AcDbLine
 10
130.9542191825
 20
47.2456164205
 30
0.0
 11
133.529468165
 21
49.820865403
 31
0.0
  0
LINE
  5
24C
330
227
100
AcDbEntity
  8
0
  6
Continuous
 62
     1
100
AcDbLine
 10
130.2216496161
 20
47.11644464069999
 30
0.0
 11
131.7626534308
 21
48.6574484555
 31
0.0
  0
LINE
  5
24D
330
227
100
AcDbEntity
  8
0
  6
Continuous
 62
     1
100
AcDbLine
 10
132.3599986236
 20
49.2547936482
 30
0.0
 11
133.4390211111
 21
50.3338161357
 31
0.0
  0
LINE
  5
24E
330
227
100
AcDbEntity
  8
0
  6
Continuous
 62
     1
100
AcDbLine
 10
129.4890800496
 20
46.9872728609
 30
0.0
 11
131.0300838644
 21
48.5282766757
 31
0.0
  0
LINE
  5
24F
330
227
100
AcDbEntity
  8
0
  6
Continuous
 62
     1
100
AcDbLine
 10
132.2695515696
 20
49.7677443809
 30
0.0
 11
133.3485740571
 21
50.8467668684
 31
0.0
  0
LINE
  5
250
330
227
100
AcDbEntity
  8
0
  6
Continuous
 62
     1
100
AcDbLine
 10
128.7565104832
 20
46.8581010811
 30
0.0
 11
130.297514298
 21
48.3991048959
 31
0.0
  0
LINE
  5
251
330
227
100
AcDbEntity
  8
0
  6
Continuous
 62
     1
100
AcDbLine
 10
132.1791045157
 20
50.2806951135
 30
0.0
 11
133.2581270032
 21
51.35971760109999
 31
0.0
  0
LINE
  5
252
330
227
100
AcDbEntity
  8
0
  6
Continuous
 62
     1
100
AcDbLine
 10
128.0239409168
 20
46.72892930129999
 30
0.0
 11
129.5649447316
 21
48.26993311609999
 31
0.0
  0
LINE
  5
253
330
227
100
AcDbEntity
  8
0
  6
Continuous
 62
     1
100
AcDbLine
 10
132.0886574617
 20
50.7936458462
 30
0.0
 11
133.1676799492
 21
51.87266833369999
 31
0.0
  0
LINE
  5
254
330
227
100
AcDbEntity
  8
0
  6
Continuous
 62
     1
100
AcDbLine
 10
127.2913713504
 20
46.59975752149999
 30
0.0
 11
128.8323751652
 21
48.1407613363
 31
0.0
  0
LINE
  5
255
330
227
100
AcDbEntity
  8
0
  6
Continuous
 62
     1
100
AcDbLine
 10
131.9982104078
 20
51.3065965789
 30
0.0
 11
133.0772328953
 21
52.38561906640001
 31
0.0
  0
LINE
  5
256
330
227
100
AcDbEntity
  8
0
  6
Continuous
 62
     1
100
AcDbLine
 10
126.558801784
 20
46.47058574169999
 30
0.0
 11
128.0998055987
 21
48.0115895565
 31
0.0
  0
LINE
  5
257
330
227
100
AcDbEntity
  8
0
  6
Continuous
 62
     1
100
AcDbLine
 10
131.9077633538
 20
51.8195473115
 30
0.0
 11
132.9867858414
 21
52.89856979909999
 31
0.0
  0
LINE
  5
258
330
227
100
AcDbEntity
  8
0
  6
Continuous
 62
     1
100
AcDbLine
 10
125.8262322175
 20
46.34141396189999
 30
0.0
 11
127.3672360323
 21
47.8824177766
 31
0.0
  0
LINE
  5
259
330
227
100
AcDbEntity
  8
0
  6
Continuous
 62
     1
100
AcDbLine
 10
131.8173162999
 20
52.3324980442
 30
0.0
 11
132.8963387874
 21
53.4115205317
 31
0.0
  0
LINE
  5
25A
330
227
100
AcDbEntity
  8
0
  6
Continuous
 62
     1
100
AcDbLine
 10
125.0936626511
 20
46.2122421821
 30
0.0
 11
126.6346664659
 21
47.7532459968
 31
0.0
  0
LINE
  5
25B
330
227
100
AcDbEntity
  8
0
  6
Continuous
 62
     1
100
AcDbLine
 10
131.7268692459
 20
52.84544877689999
 30
0.0
 11
132.8058917335
 21
53.9244712644
 31
0.0
  0
LINE
  5
25C
330
227
100
AcDbEntity
  8
0
  6
Continuous
 62
     1
100
AcDbLine
 10
124.3610930847
 20
46.08307040229999
 30
0.0
 11
125.9020968995
 21
47.62407421699999
 31
0.0
  0
LINE
  5
25D
330
227
100
AcDbEntity
  8
0
  6
Continuous
 62
     1
100
AcDbLine
 10
131.636422192
 20
53.3583995096
 30
0.0
 11
132.7154446795
 21
54.4374219971
 31
0.0
  0
LINE
  5
25E
330
227
100
AcDbEntity
  8
0
  6
Continuous
 62
     1
100
AcDbLine
 10
123.6285235183
 20
45.9538986225
 30
0.0
 11
125.1695273331
 21
47.4949024372
 31
0.0
  0
LINE
  5
25F
330
227
100
AcDbEntity
  8
0
  6
Continuous
 62
     1
100
AcDbLine
 10
131.3335425922
 20
53.6589176963
 30
0.0
 11
132.6249976256
 21
54.9503727297
 31
0.0
  0
LINE
  5
260
330
227
100
AcDbEntity
  8
0
  6
Continuous
 62
     1
100
AcDbLine
 10
122.8959539519
 20
45.82472684259999
 30
0.0
 11
124.4369577667
 21
47.3657306574
 31
0.0
  0
LINE
  5
261
330
227
100
AcDbEntity
  8
0
  6
Continuous
 62
     1
100
AcDbLine
 10
130.6009730258
 20
53.52974591649999
 30
0.0
 11
132.5345505716
 21
55.46332346239999
 31
0.0
  0
LINE
  5
262
330
227
100
AcDbEntity
  8
0
  6
Continuous
 62
     1
100
AcDbLine
 10
122.1633843855
 20
45.69555506279999
 30
0.0
 11
123.7043882002
 21
47.2365588776
 31
0.0
  0
LINE
  5
263
330
227
100
AcDbEntity
  8
0
  6
Continuous
 62
     1
100
AcDbLine
 10
129.8684034593
 20
53.4005741367
 30
0.0
 11
130.8957457576
 21
54.427916435
 31
0.0
  0
LINE
  5
264
330
227
100
AcDbEntity
  8
0
  6
Continuous
 62
     1
100
AcDbLine
 10
131.3650810302
 20
54.89725170759999
 30
0.0
 11
132.4441035177
 21
55.97627419510001
 31
0.0
  0
LINE
  5
265
330
227
100
AcDbEntity
  8
0
  6
Continuous
 62
     1
100
AcDbLine
 10
121.430814819
 20
45.566383283
 30
0.0
 11
122.9718186338
 21
47.1073870978
 31
0.0
  0
LINE
  5
266
330
227
100
AcDbEntity
  8
0
  6
Continuous
 62
     1
100
AcDbLine
 10
129.1358338929
 20
53.27140235689999
 30
0.0
 11
130.1631759816
 21
54.29874444560001
 31
0.0
  0
LINE
  5
267
330
227
100
AcDbEntity
  8
0
  6
Continuous
 62
     1
100
AcDbLine
 10
131.2746339762
 20
55.4102024402
 30
0.0
 11
132.3536564637
 21
56.48922492770001
 31
0.0
  0
LINE
  5
268
330
227
100
AcDbEntity
  8
0
  6
Continuous
 62
     1
100
AcDbLine
 10
120.6982452526
 20
45.43721150319999
 30
0.0
 11
122.2392490674
 21
46.978215318
 31
0.0
  0
LINE
  5
269
330
227
100
AcDbEntity
  8
0
  6
Continuous
 62
     1
100
AcDbLine
 10
128.4032643265
 20
53.1422305771
 30
0.0
 11
129.4306062055
 21
54.1695724562
 31
0.0
  0
LINE
  5
26A
330
227
100
AcDbEntity
  8
0
  6
Continuous
 62
     1
100
AcDbLine
 10
131.1841869223
 20
55.9231531729
 30
0.0
 11
132.2632094098
 21
57.0021756604
 31
0.0
  0
LINE
  5
26B
330
227
100
AcDbEntity
  8
0
  6
Continuous
 62
     1
100
AcDbLine
 10
119.9656756862
 20
45.3080397234
 30
0.0
 11
121.506679501
 21
46.8490435382
 31
0.0
  0
LINE
  5
26C
330
227
100
AcDbEntity
  8
0
  6
Continuous
 62
     1
100
AcDbLine
 10
127.6706947601
 20
53.0130587973
 30
0.0
 11
128.6980364295
 21
54.0404004667
 31
0.0
  0
LINE
  5
26D
330
227
100
AcDbEntity
  8
0
  6
Continuous
 62
     1
100
AcDbLine
 10
131.0937398683
 20
56.43610390560001
 30
0.0
 11
132.1727623559
 21
57.5151263931
 31
0.0
  0
LINE
  5
26E
330
227
100
AcDbEntity
  8
0
  6
Continuous
 62
     1
100
AcDbLine
 10
119.2331061198
 20
45.17886794359999
 30
0.0
 11
120.7741099346
 21
46.7198717584
 31
0.0
  0
LINE
  5
26F
330
227
100
AcDbEntity
  8
0
  6
Continuous
 62
     1
100
AcDbLine
 10
126.9381251937
 20
52.8838870175
 30
0.0
 11
127.9654666535
 21
53.91122847729999
 31
0.0
  0
LINE
  5
270
330
227
100
AcDbEntity
  8
0
  6
Continuous
 62
     1
100
AcDbLine
 10
131.0032928144
 20
56.94905463819999
 30
0.0
 11
132.0823153019
 21
58.02807712579999
 31
0.0
  0
LINE
  5
271
330
227
100
AcDbEntity
  8
0
  6
Continuous
 62
     1
100
AcDbLine
 10
118.5005365534
 20
45.0496961638
 30
0.0
 11
120.0415403681
 21
46.5906999786
 31
0.0
  0
LINE
  5
272
330
227
100
AcDbEntity
  8
0
  6
Continuous
 62
     1
100
AcDbLine
 10
126.2055556273
 20
52.75471523770001
 30
0.0
 11
127.2328968775
 21
53.7820564879
 31
0.0
  0
LINE
  5
273
330
227
100
AcDbEntity
  8
0
  6
Continuous
 62
     1
100
AcDbLine
 10
130.9128457605
 20
57.4620053709
 30
0.0
 11
131.991868248
 21
58.5410278584
 31
0.0
  0
LINE
  5
274
330
227
100
AcDbEntity
  8
0
  6
Continuous
 62
     1
100
AcDbLine
 10
117.7679669869
 20
44.920524384
 30
0.0
 11
119.3089708017
 21
46.4615281988
 31
0.0
  0
LINE
  5
275
330
227
100
AcDbEntity
  8
0
  6
Continuous
 62
     1
100
AcDbLine
 10
125.4729860608
 20
52.6255434579
 30
0.0
 11
126.5003271014
 21
53.6528844985
 31
0.0
  0
LINE
  5
276
330
227
100
AcDbEntity
  8
0
  6
Continuous
 62
     1
100
AcDbLine
 10
130.8223987065
 20
57.97495610359999
 30
0.0
 11
131.901421194
 21
59.05397859109999
 31
0.0
  0
LINE
  5
277
330
227
100
AcDbEntity
  8
0
  6
Continuous
 62
     1
100
AcDbLine
 10
117.0353974205
 20
44.7913526042
 30
0.0
 11
118.5764012353
 21
46.33235641899999
 31
0.0
  0
LINE
  5
278
330
227
100
AcDbEntity
  8
0
  6
Continuous
 62
     1
100
AcDbLine
 10
124.7404164944
 20
52.4963716781
 30
0.0
 11
125.7677573254
 21
53.5237125091
 31
0.0
  0
LINE
  5
279
330
227
100
AcDbEntity
  8
0
  6
Continuous
 62
     1
100
AcDbLine
 10
130.7319516526
 20
58.48790683619999
 30
0.0
 11
131.8109741401
 21
59.56692932380001
 31
0.0
  0
LINE
  5
27A
330
227
100
AcDbEntity
  8
0
  6
Continuous
 62
     1
100
AcDbLine
 10
116.3028278541
 20
44.6621808244
 30
0.0
 11
117.8438316689
 21
46.2031846392
 31
0.0
  0
LINE
  5
27B
330
227
100
AcDbEntity
  8
0
  6
Continuous
 62
     1
100
AcDbLine
 10
124.007846928
 20
52.3671998983
 30
0.0
 11
125.0351875494
 21
53.3945405197
 31
0.0
  0
LINE
  5
27C
330
227
100
AcDbEntity
  8
0
  6
Continuous
 62
     1
100
AcDbLine
 10
130.6415045986
 20
59.0008575689
 30
0.0
 11
131.7205270861
 21
60.0798800564
 31
0.0
  0
LINE
  5
27D
330
227
100
AcDbEntity
  8
0
  6
Continuous
 62
     1
100
AcDbLine
 10
115.5702582877
 20
44.53300904459999
 30
0.0
 11
117.1112621025
 21
46.07401285939999
 31
0.0
  0
LINE
  5
27E
330
227
100
AcDbEntity
  8
0
  6
Continuous
 62
     1
100
AcDbLine
 10
123.2752773616
 20
52.2380281185
 30
0.0
 11
124.3026177733
 21
53.26536853020001
 31
0.0
  0
LINE
  5
27F
330
227
100
AcDbEntity
  8
0
  6
Continuous
 62
     1
100
AcDbLine
 10
130.4666284972
 20
59.42937925409999
 30
0.0
 11
131.6300800322
 21
60.5928307891
 31
0.0
  0
LINE
  5
280
330
227
100
AcDbEntity
  8
0
  6
Continuous
 62
     1
100
AcDbLine
 10
114.8376887213
 20
44.40383726479999
 30
0.0
 11
116.3786925361
 21
45.9448410796
 31
0.0
  0
LINE
  5
281
330
227
100
AcDbEntity
  8
0
  6
Continuous
 62
     1
100
AcDbLine
 10
122.5427077952
 20
52.1088563387
 30
0.0
 11
123.5700479973
 21
53.1361965408
 31
0.0
  0
LINE
  5
282
330
227
100
AcDbEntity
  8
0
  6
Continuous
 62
     1
100
AcDbLine
 10
129.7340589308
 20
59.3002074743
 30
0.0
 11
131.2750627456
 21
60.84121128909999
 31
0.0
  0
LINE
  5
283
330
227
100
AcDbEntity
  8
0
  6
Continuous
 62
     1
100
AcDbLine
 10
114.1051191549
 20
44.27466548499999
 30
0.0
 11
115.6461229696
 21
45.81566929979999
 31
0.0
  0
LINE
  5
284
330
227
100
AcDbEntity
  8
0
  6
Continuous
 62
     1
100
AcDbLine
 10
121.8101382287
 20
51.9796845589
 30
0.0
 11
122.8374782213
 21
53.0070245514
 31
0.0
  0
LINE
  5
285
330
227
100
AcDbEntity
  8
0
  6
Continuous
 62
     1
100
AcDbLine
 10
129.0014893644
 20
59.1710356945
 30
0.0
 11
130.5424931791
 21
60.71203950930001
 31
0.0
  0
LINE
  5
286
330
227
100
AcDbEntity
  8
0
  6
Continuous
 62
     1
100
AcDbLine
 10
113.3725495884
 20
44.1454937052
 30
0.0
 11
114.9135534032
 21
45.68649752
 31
0.0
  0
LINE
  5
287
330
227
100
AcDbEntity
  8
0
  6
Continuous
 62
     1
100
AcDbLine
 10
121.0775686623
 20
51.8505127791
 30
0.0
 11
122.1049084453
 21
52.877852562
 31
0.0
  0
LINE
  5
288
330
227
100
AcDbEntity
  8
0
  6
Continuous
 62
     1
100
AcDbLine
 10
128.268919798
 20
59.0418639147
 30
0.0
 11
129.8099236127
 21
60.58286772949999
 31
0.0
  0
LINE
  5
289
330
227
100
AcDbEntity
  8
0
  6
Continuous
 62
     1
100
AcDbLine
 10
112.639980022
 20
44.0163219254
 30
0.0
 11
114.1809838368
 21
45.5573257401
 31
0.0
  0
LINE
  5
28A
330
227
100
AcDbEntity
  8
0
  6
Continuous
 62
     1
100
AcDbLine
 10
120.3449990959
 20
51.7213409993
 30
0.0
 11
121.3723386692
 21
52.7486805726
 31
0.0
  0
LINE
  5
28B
330
227
100
AcDbEntity
  8
0
  6
Continuous
 62
     1
100
AcDbLine
 10
127.5363502315
 20
58.9126921349
 30
0.0
 11
129.0773540463
 21
60.45369594970001
 31
0.0
  0
LINE
  5
28C
330
227
100
AcDbEntity
  8
0
  6
Continuous
 62
     1
100
AcDbLine
 10
111.9074104556
 20
43.8871501456
 30
0.0
 11
113.4484142704
 21
45.42815396029999
 31
0.0
  0
LINE
  5
28D
330
227
100
AcDbEntity
  8
0
  6
Continuous
 62
     1
100
AcDbLine
 10
119.6124295295
 20
51.5921692195
 30
0.0
 11
120.6397688932
 21
52.61950858319999
 31
0.0
  0
LINE
  5
28E
330
227
100
AcDbEntity
  8
0
  6
Continuous
 62
     1
100
AcDbLine
 10
126.8037806651
 20
58.7835203551
 30
0.0
 11
128.3447844799
 21
60.3245241699
 31
0.0
  0
LINE
  5
28F
330
227
100
AcDbEntity
  8
0
  6
Continuous
 62
     1
100
AcDbLine
 10
111.1748408892
 20
43.7579783658
 30
0.0
 11
112.715844704
 21
45.2989821805
 31
0.0
  0
LINE
  5
290
330
227
100
AcDbEntity
  8
0
  6
Continuous
 62
     1
100
AcDbLine
 10
118.8798599631
 20
51.4629974396
 30
0.0
 11
119.9071991172
 21
52.4903365937
 31
0.0
  0
LINE
  5
291
330
227
100
AcDbEntity
  8
0
  6
Continuous
 62
     1
100
AcDbLine
 10
126.0712110987
 20
58.6543485753
 30
0.0
 11
127.6122149135
 21
60.19535238999999
 31
0.0
  0
LINE
  5
292
330
227
100
AcDbEntity
  8
0
  6
Continuous
 62
     1
100
AcDbLine
 10
110.4422713228
 20
43.628806586
 30
0.0
 11
111.9832751375
 21
45.16981040069999
 31
0.0
  0
LINE
  5
293
330
227
100
AcDbEntity
  8
0
  6
Continuous
 62
     1
100
AcDbLine
 10
118.1472903967
 20
51.33382565979999
 30
0.0
 11
119.1746293411
 21
52.3611646043
 31
0.0
  0
LINE
  5
294
330
227
100
AcDbEntity
  8
0
  6
Continuous
 62
     1
100
AcDbLine
 10
125.3386415323
 20
58.5251767955
 30
0.0
 11
126.8796453471
 21
60.06618061020001
 31
0.0
  0
LINE
  5
295
330
227
100
AcDbEntity
  8
0
  6
Continuous
 62
     1
100
AcDbLine
 10
109.7097017564
 20
43.4996348062
 30
0.0
 11
111.2507055711
 21
45.0406386209
 31
0.0
  0
LINE
  5
296
330
227
100
AcDbEntity
  8
0
  6
Continuous
 62
     1
100
AcDbLine
 10
117.4147208302
 20
51.20465388
 30
0.0
 11
118.4420595651
 21
52.2319926149
 31
0.0
  0
LINE
  5
297
330
227
100
AcDbEntity
  8
0
  6
Continuous
 62
     1
100
AcDbLine
 10
124.6060719659
 20
58.3960050157
 30
0.0
 11
126.1470757806
 21
59.93700883039999
 31
0.0
  0
LINE
  5
298
330
227
100
AcDbEntity
  8
0
  6
Continuous
 62
     1
100
AcDbLine
 10
108.9771321899
 20
43.3704630263
 30
0.0
 11
110.5181360047
 21
44.91146684109999
 31
0.0
  0
LINE
  5
299
330
227
100
AcDbEntity
  8
0
  6
Continuous
 62
     1
100
AcDbLine
 10
116.6821512638
 20
51.0754821002
 30
0.0
 11
117.7094897891
 21
52.1028206255
 31
0.0
  0
LINE
  5
29A
330
227
100
AcDbEntity
  8
0
  6
Continuous
 62
     1
100
AcDbLine
 10
123.8735023994
 20
58.2668332359
 30
0.0
 11
125.4145062142
 21
59.80783705060001
 31
0.0
  0
LINE
  5
29B
330
227
100
AcDbEntity
  8
0
  6
Continuous
 62
     1
100
AcDbLine
 10
108.4258114174
 20
43.42254004039999
 30
0.0
 11
109.7855664383
 21
44.7822950613
 31
0.0
  0
LINE
  5
29C
330
227
100
AcDbEntity
  8
0
  6
Continuous
 62
     1
100
AcDbLine
 10
115.9495816974
 20
50.9463103204
 30
0.0
 11
116.9769200131
 21
51.97364863609999
 31
0.0
  0
LINE
  5
29D
330
227
100
AcDbEntity
  8
0
  6
Continuous
 62
     1
100
AcDbLine
 10
123.140932833
 20
58.13766145609999
 30
0.0
 11
124.6819366478
 21
59.67866527079999
 31
0.0
  0
LINE
  5
29E
330
227
100
AcDbEntity
  8
0
  6
Continuous
 62
     1
100
AcDbLine
 10
108.3353643635
 20
43.93549077310001
 30
0.0
 11
109.414386851
 21
45.0145132606
 31
0.0
  0
LINE
  5
29F
330
227
100
AcDbEntity
  8
0
  6
Continuous
 62
     1
100
AcDbLine
 10
115.217012131
 20
50.81713854060001
 30
0.0
 11
116.244350237
 21
51.8444766467
 31
0.0
  0
LINE
  5
2A0
330
227
100
AcDbEntity
  8
0
  6
Continuous
 62
     1
100
AcDbLine
 10
122.4083632666
 20
58.0084896762
 30
0.0
 11
123.9493670814
 21
59.54949349100001
 31
0.0
  0
LINE
  5
2A1
330
227
100
AcDbEntity
  8
0
  6
Continuous
 62
     1
100
AcDbLine
 10
108.2449173095
 20
44.44844150579999
 30
0.0
 11
109.323939797
 21
45.5274639933
 31
0.0
  0
LINE
  5
2A2
330
227
100
AcDbEntity
  8
0
  6
Continuous
 62
     1
100
AcDbLine
 10
114.4844425646
 20
50.6879667608
 30
0.0
 11
115.511780461
 21
51.7153046573
 31
0.0
  0
LINE
  5
2A3
330
227
100
AcDbEntity
  8
0
  6
Continuous
 62
     1
100
AcDbLine
 10
121.6757937002
 20
57.8793178964
 30
0.0
 11
123.216797515
 21
59.4203217112
 31
0.0
  0
LINE
  5
2A4
330
227
100
AcDbEntity
  8
0
  6
Continuous
 62
     1
100
AcDbLine
 10
108.1544702556
 20
44.9613922384
 30
0.0
 11
109.2334927431
 21
46.040414726
 31
0.0
  0
LINE
  5
2A5
330
227
100
AcDbEntity
  8
0
  6
Continuous
 62
     1
100
AcDbLine
 10
113.7518729981
 20
50.55879498100001
 30
0.0
 11
114.779210685
 21
51.58613266779999
 31
0.0
  0
LINE
  5
2A6
330
227
100
AcDbEntity
  8
0
  6
Continuous
 62
     1
100
AcDbLine
 10
120.9432241338
 20
57.7501461166
 30
0.0
 11
122.4842279486
 21
59.2911499314
 31
0.0
  0
LINE
  5
2A7
330
227
100
AcDbEntity
  8
0
  6
Continuous
 62
     1
100
AcDbLine
 10
108.0640232016
 20
45.47434297109999
 30
0.0
 11
109.1430456892
 21
46.5533654586
 31
0.0
  0
LINE
  5
2A8
330
227
100
AcDbEntity
  8
0
  6
Continuous
 62
     1
100
AcDbLine
 10
113.0193034317
 20
50.4296232012
 30
0.0
 11
114.0466409089
 21
51.4569606784
 31
0.0
  0
LINE
  5
2A9
330
227
100
AcDbEntity
  8
0
  6
Continuous
 62
     1
100
AcDbLine
 10
120.2106545674
 20
57.62097433680001
 30
0.0
 11
121.7516583821
 21
59.1619781516
 31
0.0
  0
LINE
  5
2AA
330
227
100
AcDbEntity
  8
0
  6
Continuous
 62
     1
100
AcDbLine
 10
107.9735761477
 20
45.9872937038
 30
0.0
 11
109.0525986352
 21
47.0663161913
 31
0.0
  0
LINE
  5
2AB
330
227
100
AcDbEntity
  8
0
  6
Continuous
 62
     1
100
AcDbLine
 10
112.2867338653
 20
50.3004514214
 30
0.0
 11
113.3140711329
 21
51.327788689
 31
0.0
  0
LINE
  5
2AC
330
227
100
AcDbEntity
  8
0
  6
Continuous
 62
     1
100
AcDbLine
 10
119.4780850009
 20
57.491802557
 30
0.0
 11
121.0190888157
 21
59.03280637179999
 31
0.0
  0
LINE
  5
2AD
330
227
100
AcDbEntity
  8
0
  6
Continuous
 62
     1
100
AcDbLine
 10
107.8831290938
 20
46.5002444364
 30
0.0
 11
108.9621515813
 21
47.57926692399999
 31
0.0
  0
LINE
  5
2AE
330
227
100
AcDbEntity
  8
0
  6
Continuous
 62
     1
100
AcDbLine
 10
111.5541642989
 20
50.1712796416
 30
0.0
 11
112.5815013569
 21
51.1986166996
 31
0.0
  0
LINE
  5
2AF
330
227
100
AcDbEntity
  8
0
  6
Continuous
 62
     1
100
AcDbLine
 10
118.7455154345
 20
57.3626307772
 30
0.0
 11
120.2865192493
 21
58.90363459199999
 31
0.0
  0
LINE
  5
2B0
330
227
100
AcDbEntity
  8
0
  6
Continuous
 62
     1
100
AcDbLine
 10
107.7926820398
 20
47.01319516909999
 30
0.0
 11
108.8717045273
 21
48.0922176566
 31
0.0
  0
LINE
  5
2B1
330
227
100
AcDbEntity
  8
0
  6
Continuous
 62
     1
100
AcDbLine
 10
110.8215947325
 20
50.0421078618
 30
0.0
 11
111.8489315809
 21
51.0694447102
 31
0.0
  0
LINE
  5
2B2
330
227
100
AcDbEntity
  8
0
  6
Continuous
 62
     1
100
AcDbLine
 10
118.0129458681
 20
57.23345899739999
 30
0.0
 11
119.5539496829
 21
58.7744628122
 31
0.0
  0
LINE
  5
2B3
330
227
100
AcDbEntity
  8
0
  6
Continuous
 62
     1
100
AcDbLine
 10
107.7022349859
 20
47.5261459018
 30
0.0
 11
108.7812574734
 21
48.6051683893
 31
0.0
  0
LINE
  5
2B4
330
227
100
AcDbEntity
  8
0
  6
Continuous
 62
     1
100
AcDbLine
 10
110.0890251661
 20
49.91293608199999
 30
0.0
 11
111.1163618048
 21
50.94027272079999
 31
0.0
  0
LINE
  5
2B5
330
227
100
AcDbEntity
  8
0
  6
Continuous
 62
     1
100
AcDbLine
 10
117.2803763017
 20
57.1042872176
 30
0.0
 11
118.8213801165
 21
58.64529103239999
 31
0.0
  0
LINE
  5
2B6
330
227
100
AcDbEntity
  8
0
  6
Continuous
 62
     1
100
AcDbLine
 10
107.6117879319
 20
48.03909663449999
 30
0.0
 11
108.6908104194
 21
49.118119122
 31
0.0
  0
LINE
  5
2B7
330
227
100
AcDbEntity
  8
0
  6
Continuous
 62
     1
100
AcDbLine
 10
109.3564555996
 20
49.7837643022
 30
0.0
 11
110.3837920288
 21
50.8111007313
 31
0.0
  0
LINE
  5
2B8
330
227
100
AcDbEntity
  8
0
  6
Continuous
 62
     1
100
AcDbLine
 10
116.5478067353
 20
56.9751154378
 30
0.0
 11
118.08881055
 21
58.5161192526
 31
0.0
  0
LINE
  5
2B9
330
227
100
AcDbEntity
  8
0
  6
Continuous
 62
     1
100
AcDbLine
 10
107.521340878
 20
48.5520473671
 30
0.0
 11
108.6003633655
 21
49.6310698546
 31
0.0
  0
LINE
  5
2BA
330
227
100
AcDbEntity
  8
0
  6
Continuous
 62
     1
100
AcDbLine
 10
108.6238860332
 20
49.65459252239999
 30
0.0
 11
109.6512222528
 21
50.6819287419
 31
0.0
  0
LINE
  5
2BB
330
227
100
AcDbEntity
  8
0
  6
Continuous
 62
     1
100
AcDbLine
 10
115.8152371688
 20
56.845943658
 30
0.0
 11
117.3562409836
 21
58.38694747279999
 31
0.0
  0
LINE
  5
2BC
330
227
100
AcDbEntity
  8
0
  6
Continuous
 62
     1
100
AcDbLine
 10
107.430893824
 20
49.06499809979999
 30
0.0
 11
108.9186524767
 21
50.5527567525
 31
0.0
  0
LINE
  5
2BD
330
227
100
AcDbEntity
  8
0
  6
Continuous
 62
     1
100
AcDbLine
 10
115.0826676024
 20
56.7167718782
 30
0.0
 11
116.6236714172
 21
58.257775693
 31
0.0
  0
LINE
  5
2BE
330
227
100
AcDbEntity
  8
0
  6
Continuous
 62
     1
100
AcDbLine
 10
107.3404467701
 20
49.5779488325
 30
0.0
 11
108.4194692576
 21
50.65697132
 31
0.0
  0
LINE
  5
2BF
330
227
100
AcDbEntity
  8
0
  6
Continuous
 62
     1
100
AcDbLine
 10
114.350098036
 20
56.5876000984
 30
0.0
 11
115.8911018508
 21
58.1286039132
 31
0.0
  0
LINE
  5
2C0
330
227
100
AcDbEntity
  8
0
  6
Continuous
 62
     1
100
AcDbLine
 10
107.2499997161
 20
50.0908995651
 30
0.0
 11
108.3290222037
 21
51.1699220526
 31
0.0
  0
LINE
  5
2C1
330
227
100
AcDbEntity
  8
0
  6
Continuous
 62
     1
100
AcDbLine
 10
113.6175284696
 20
56.4584283186
 30
0.0
 11
115.1585322844
 21
57.9994321334
 31
0.0
  0
LINE
  5
2C2
330
227
100
AcDbEntity
  8
0
  6
Continuous
 62
     1
100
AcDbLine
 10
107.1595526622
 20
50.60385029779999
 30
0.0
 11
108.2385751497
 21
51.6828727853
 31
0.0
  0
LINE
  5
2C3
330
227
100
AcDbEntity
  8
0
  6
Continuous
 62
     1
100
AcDbLine
 10
112.8849589032
 20
56.3292565388
 30
0.0
 11
114.425962718
 21
57.8702603536
 31
0.0
  0
LINE
  5
2C4
330
227
100
AcDbEntity
  8
0
  6
Continuous
 62
     1
100
AcDbLine
 10
107.0691056083
 20
51.1168010305
 30
0.0
 11
108.1481280958
 21
52.195823518
 31
0.0
  0
LINE
  5
2C5
330
227
100
AcDbEntity
  8
0
  6
Continuous
 62
     1
100
AcDbLine
 10
112.1523893368
 20
56.200084759
 30
0.0
 11
113.6933931515
 21
57.74108857369999
 31
0.0
  0
LINE
  5
2C6
330
227
100
AcDbEntity
  8
0
  6
Continuous
 62
     1
100
AcDbLine
 10
106.9786585543
 20
51.6297517631
 30
0.0
 11
108.0576810418
 21
52.7087742507
 31
0.0
  0
LINE
  5
2C7
330
227
100
AcDbEntity
  8
0
  6
Continuous
 62
     1
100
AcDbLine
 10
111.4198197703
 20
56.0709129792
 30
0.0
 11
112.9608235851
 21
57.6119167939
 31
0.0
  0
LINE
  5
2C8
330
227
100
AcDbEntity
  8
0
  6
Continuous
 62
     1
100
AcDbLine
 10
106.8882115004
 20
52.1427024958
 30
0.0
 11
107.9672339879
 21
53.2217249833
 31
0.0
  0
LINE
  5
2C9
330
227
100
AcDbEntity
  8
0
  6
Continuous
 62
     1
100
AcDbLine
 10
110.6872502039
 20
55.94174119939999
 30
0.0
 11
112.2282540187
 21
57.4827450141
 31
0.0
  0
LINE
  5
2CA
330
227
100
AcDbEntity
  8
0
  6
Continuous
 62
     1
100
AcDbLine
 10
106.7977644464
 20
52.6556532285
 30
0.0
 11
107.8767869339
 21
53.734675716
 31
0.0
  0
LINE
  5
2CB
330
227
100
AcDbEntity
  8
0
  6
Continuous
 62
     1
100
AcDbLine
 10
109.9546806375
 20
55.8125694196
 30
0.0
 11
111.4956844523
 21
57.3535732343
 31
0.0
  0
LINE
  5
2CC
330
227
100
AcDbEntity
  8
0
  6
Continuous
 62
     1
100
AcDbLine
 10
106.7073173925
 20
53.1686039611
 30
0.0
 11
107.78633988
 21
54.2476264487
 31
0.0
  0
LINE
  5
2CD
330
227
100
AcDbEntity
  8
0
  6
Continuous
 62
     1
100
AcDbLine
 10
109.2221110711
 20
55.6833976397
 30
0.0
 11
110.7631148859
 21
57.2244014545
 31
0.0
  0
LINE
  5
2CE
330
227
100
AcDbEntity
  8
0
  6
Continuous
 62
     1
100
AcDbLine
 10
106.6168703385
 20
53.6815546938
 30
0.0
 11
107.6958928261
 21
54.7605771813
 31
0.0
  0
LINE
  5
2CF
330
227
100
AcDbEntity
  8
0
  6
Continuous
 62
     1
100
AcDbLine
 10
108.4895415047
 20
55.5542258599
 30
0.0
 11
110.0305453194
 21
57.0952296747
 31
0.0
  0
LINE
  5
2D0
330
227
100
AcDbEntity
  8
0
  6
Continuous
 62
     1
100
AcDbLine
 10
106.5264232846
 20
54.19450542649999
 30
0.0
 11
107.6054457721
 21
55.273527914
 31
0.0
  0
LINE
  5
2D1
330
227
100
AcDbEntity
  8
0
  6
Continuous
 62
     1
100
AcDbLine
 10
107.7569719383
 20
55.42505408010001
 30
0.0
 11
109.297975753
 21
56.9660578949
 31
0.0
  0
LINE
  5
2D2
330
227
100
AcDbEntity
  8
0
  6
Continuous
 62
     1
100
AcDbLine
 10
106.4359762307
 20
54.7074561592
 30
0.0
 11
108.5654061866
 21
56.8368861151
 31
0.0
  0
LINE
  5
2D3
330
227
100
AcDbEntity
  8
0
  6
Continuous
 62
     1
100
AcDbLine
 10
106.3455291767
 20
55.2204068918
 30
0.0
 11
107.8328366202
 21
56.70771433529999
 31
0.0
  0
LINE
  5
2D4
330
227
100
AcDbEntity
  8
0
  6
Continuous
 62
     1
100
AcDbLine
 10
106.2550821228
 20
55.7333576245
 30
0.0
 11
107.1002670538
 21
56.5785425555
 31
0.0
  0
LINE
  5
2D5
330
227
100
AcDbEntity
  8
0
  6
Continuous
 62
     1
100
AcDbLine
 10
106.1646350688
 20
56.2463083572
 30
0.0
 11
106.3676974874
 21
56.44937077569999
 31
0.0
  0
ENDBLK
  5
2D6
330
227
100
AcDbEntity
  8
0
  6
ByBlock
 62
     0
100
AcDbBlockEnd
  0
BLOCK
  5
2D7
330
228
100
AcDbEntity
  8
0
  6
Continuous
 62
     2
100
AcDbBlockBegin
  2
L03-NOTE_SPECS_BAINS_BL0
 70
     0
 10
160.6665744185
 20
55.3333957601
 30
0.0
  3
L03-NOTE_SPECS_BAINS_BL0
  1

  0
TEXT
  5
2D8
330
228
100
AcDbEntity
  8
0
  6
Continuous
 62
     2
100
AcDbText
 10
144.4187893423
 20
63.1068291512
 30
0.0
 40
0.5
  1
Infomations Techniques/Technical Infomations
 41
1.013057755184423
 72
     5
 11
159.0113819349
 21
63.1068291512
 31
0.0
100
AcDbText
  0
TEXT
  5
2D9
330
228
100
AcDbEntity
  8
0
  6
Continuous
 62
     2
100
AcDbText
 10
144.6665744185
 20
61.6667290935
 30
0.0
 40
0.6666666667
  1
NOMBRE DE JETS:     
 41
1.011916664616728
 72
     5
 11
154.5110188629
 21
61.6667290935
 31
0.0
100
AcDbText
  0
TEXT
  5
2DA
330
228
100
AcDbEntity
  8
0
  6
Continuous
 62
     2
100
AcDbText
 10
154.5110188629
 20
61.6667290935
 30
0.0
 40
0.6666666667
  1
0
 41
0.9867720166202269
 72
     5
 11
155.0221299741
 21
61.6667290935
 31
0.0
100
AcDbText
  0
TEXT
  5
2DB
330
228
100
AcDbEntity
  8
0
  6
Continuous
 62
     2
100
AcDbText
 10
144.6665744185
 20
60.6667290935
 30
0.0
 40
0.6666666667
  1
 
 41
1.059207179978246
 72
     5
 11
144.9406484926
 21
60.6667290935
 31
0.0
100
AcDbText
  0
TEXT
  5
2DC
330
228
100
AcDbEntity
  8
0
  6
Continuous
 62
     2
100
AcDbText
 10
144.6665744185
 20
59.6667290935
 30
0.0
 40
0.6666666667
  1
NIVEAU D'EAU              GALLONS(US)        LITRES        GALLONS(UK)
 41
1.013954636348307
 72
     5
 11
175.2295373815
 21
59.6667290935
 31
0.0
100
AcDbText
  0
TEXT
  5
2DD
330
228
100
AcDbEntity
  8
0
  6
Continuous
 62
     2
100
AcDbText
 10
144.6665744185
 20
58.6667290935
 30
0.0
 40
0.6666666667
  1
PLEIN
 41
1.002633071523457
 72
     5
 11
147.3653398506
 21
58.6667290935
 31
0.0
100
AcDbText
  0
TEXT
  5
2DE
330
228
100
AcDbEntity
  8
0
  6
Continuous
 62
     2
100
AcDbText
 10
144.6665744185
 20
57.6667290935
 30
0.0
 40
0.6666666667
  1
HAUT T.PLEIN
 41
1.006689230333168
 72
     5
 11
151.0221299741
 21
57.6667290935
 31
0.0
100
AcDbText
  0
TEXT
  5
2DF
330
228
100
AcDbEntity
  8
0
  6
Continuous
 62
     2
100
AcDbText
 10
144.6665744185
 20
56.6667290935
 30
0.0
 40
0.6666666667
  1
MILIEU T.PLEIN
 41
1.007652585888674
 72
     5
 11
151.6023768876
 21
56.6667290935
 31
0.0
100
AcDbText
  0
TEXT
  5
2E0
330
228
100
AcDbEntity
  8
0
  6
Continuous
 62
     2
100
AcDbText
 10
144.6665744185
 20
55.6667290935
 30
0.0
 40
0.6666666667
  1
BAS T.PLEIN
 41
1.005308655981163
 72
     5
 11
150.3381793568
 21
55.6667290935
 31
0.0
100
AcDbText
  0
TEXT
  5
2E1
330
228
100
AcDbEntity
  8
0
  6
Continuous
 62
     2
100
AcDbText
 10
144.6665744185
 20
54.6667290935
 30
0.0
 40
0.6666666667
  1
3" EN BAS T.PLEIN
 41
1.018706183095093
 72
     5
 11
153.123364542
 21
54.6667290935
 31
0.0
100
AcDbText
  0
TEXT
  5
2E2
330
228
100
AcDbEntity
  8
0
  6
Continuous
 62
     2
100
AcDbText
 10
144.6665744185
 20
53.6667290935
 30
0.0
 40
0.6666666667
  1
 
 41
1.059207179978246
 72
     5
 11
144.9406484926
 21
53.6667290935
 31
0.0
100
AcDbText
  0
TEXT
  5
2E3
330
228
100
AcDbEntity
  8
0
  6
Continuous
 62
     2
100
AcDbText
 10
144.4664129129
 20
53.1199421686
 30
0.0
 40
0.5
  1
Legende/Legend
 41
1.009227457802888
 72
     5
 11
149.7590055055
 21
53.1199421686
 31
0.0
100
AcDbText
  0
TEXT
  5
2E4
330
228
100
AcDbEntity
  8
0
  6
Continuous
 62
     2
100
AcDbText
 10
150.995247857
 20
51.6086771909
 30
0.0
 40
0.6666666667
  1
ZONE DE ROBINETTERIE
 41
0.997890886722307
 72
     5
 11
162.2520379804
 21
51.6086771909
 31
0.0
100
AcDbText
  0
TEXT
  5
2E5
330
228
100
AcDbEntity
  8
0
  6
Continuous
 62
     2
100
AcDbText
 10
145.91552329
 20
50.1134326765
 30
0.0
 40
0.6666666667
  1
L   :  SYSTEME LED       DC   :  DOUBLE DOSSIER CHAUFFANT
 41
1.010592021546647
 72
     5
 11
173.6858936604
 21
50.1134326765
 31
0.0
100
AcDbText
  0
TEXT
  5
2E6
330
228
100
AcDbEntity
  8
0
  6
Continuous
 62
     2
100
AcDbText
 10
145.91552329
 20
48.7800993432
 30
0.0
 40
0.6666666667
  1
C   :  CONTROLE
 41
1.009046208436576
 72
     5
 11
153.3821899567
 21
48.7800993432
 31
0.0
100
AcDbText
  0
TEXT
  5
2E7
330
228
100
AcDbEntity
  8
0
  6
Continuous
 62
     2
100
AcDbText
 10
145.91552329
 20
47.4467660099
 30
0.0
 40
0.6666666667
  1
T   :  MOTEUR
 41
1.013017531859368
 72
     5
 11
152.152560327
 21
47.4467660099
 31
0.0
100
AcDbText
  0
TEXT
  5
2E8
330
228
100
AcDbEntity
  8
0
  6
Continuous
 62
     2
100
AcDbText
 10
157.2437155622
 20
58.6667290935
 30
0.0
 40
0.6666666667
  1
118
 41
0.9867720164915338
 72
     5
 11
158.7770488956
 21
58.6667290935
 31
0.0
100
AcDbText
  0
TEXT
  5
2E9
330
228
100
AcDbEntity
  8
0
  6
Continuous
 62
     2
100
AcDbText
 10
157.2437155622
 20
57.6667290935
 30
0.0
 40
0.6666666667
  1
103
 41
0.9867720164915338
 72
     5
 11
158.7770488956
 21
57.6667290935
 31
0.0
100
AcDbText
  0
TEXT
  5
2EA
330
228
100
AcDbEntity
  8
0
  6
Continuous
 62
     2
100
AcDbText
 10
157.2437155622
 20
56.6667290935
 30
0.0
 40
0.6666666667
  1
103
 41
0.9867720164915338
 72
     5
 11
158.7770488956
 21
56.6667290935
 31
0.0
100
AcDbText
  0
TEXT
  5
2EB
330
228
100
AcDbEntity
  8
0
  6
Continuous
 62
     2
100
AcDbText
 10
157.2437155622
 20
55.6667290935
 30
0.0
 40
0.6666666667
  1
103
 41
0.9867720164915338
 72
     5
 11
158.7770488956
 21
55.6667290935
 31
0.0
100
AcDbText
  0
TEXT
  5
2EC
330
228
100
AcDbEntity
  8
0
  6
Continuous
 62
     2
100
AcDbText
 10
157.4992711178
 20
54.6667290935
 30
0.0
 40
0.6666666667
  1
81
 41
0.9867720164271595
 72
     5
 11
158.52149334
 21
54.6667290935
 31
0.0
100
AcDbText
  0
TEXT
  5
2ED
330
228
100
AcDbEntity
  8
0
  6
Continuous
 62
     2
100
AcDbText
 10
164.4194770615
 20
58.68380849560001
 30
0.0
 40
0.6666666667
  1
446
 41
0.9867720164271688
 72
     5
 11
165.9528103948
 21
58.68380849560001
 31
0.0
100
AcDbText
  0
TEXT
  5
2EE
330
228
100
AcDbEntity
  8
0
  6
Continuous
 62
     2
100
AcDbText
 10
164.4194770615
 20
57.6838084956
 30
0.0
 40
0.6666666667
  1
390
 41
0.9867720164271688
 72
     5
 11
165.9528103948
 21
57.6838084956
 31
0.0
100
AcDbText
  0
TEXT
  5
2EF
330
228
100
AcDbEntity
  8
0
  6
Continuous
 62
     2
100
AcDbText
 10
164.4194770615
 20
56.6838084956
 30
0.0
 40
0.6666666667
  1
390
 41
0.9867720164271688
 72
     5
 11
165.9528103948
 21
56.6838084956
 31
0.0
100
AcDbText
  0
TEXT
  5
2F0
330
228
100
AcDbEntity
  8
0
  6
Continuous
 62
     2
100
AcDbText
 10
164.4194770615
 20
55.6838084956
 30
0.0
 40
0.6666666667
  1
390
 41
0.9867720164271688
 72
     5
 11
165.9528103948
 21
55.6838084956
 31
0.0
100
AcDbText
  0
TEXT
  5
2F1
330
228
100
AcDbEntity
  8
0
  6
Continuous
 62
     2
100
AcDbText
 10
164.4194770615
 20
54.6838084956
 30
0.0
 40
0.6666666667
  1
307
 41
0.9867720164271688
 72
     5
 11
165.9528103948
 21
54.6838084956
 31
0.0
100
AcDbText
  0
TEXT
  5
2F2
330
228
100
AcDbEntity
  8
0
  6
Continuous
 62
     2
100
AcDbText
 10
171.364115999
 20
58.6667290935
 30
0.0
 40
0.6666666667
  1
98
 41
0.9867720164271595
 72
     5
 11
172.3863382212
 21
58.6667290935
 31
0.0
100
AcDbText
  0
TEXT
  5
2F3
330
228
100
AcDbEntity
  8
0
  6
Continuous
 62
     2
100
AcDbText
 10
171.364115999
 20
57.6667290935
 30
0.0
 40
0.6666666667
  1
86
 41
0.9867720164271595
 72
     5
 11
172.3863382212
 21
57.6667290935
 31
0.0
100
AcDbText
  0
TEXT
  5
2F4
330
228
100
AcDbEntity
  8
0
  6
Continuous
 62
     2
100
AcDbText
 10
171.364115999
 20
56.6667290935
 30
0.0
 40
0.6666666667
  1
86
 41
0.9867720164271595
 72
     5
 11
172.3863382212
 21
56.6667290935
 31
0.0
100
AcDbText
  0
TEXT
  5
2F5
330
228
100
AcDbEntity
  8
0
  6
Continuous
 62
     2
100
AcDbText
 10
171.364115999
 20
55.6667290935
 30
0.0
 40
0.6666666667
  1
86
 41
0.9867720164271595
 72
     5
 11
172.3863382212
 21
55.6667290935
 31
0.0
100
AcDbText
  0
TEXT
  5
2F6
330
228
100
AcDbEntity
  8
0
  6
Continuous
 62
     2
100
AcDbText
 10
171.364115999
 20
54.6667290935
 30
0.0
 40
0.6666666667
  1
68
 41
0.9867720164271595
 72
     5
 11
172.3863382212
 21
54.6667290935
 31
0.0
100
AcDbText
  0
LINE
  5
2F7
330
228
100
AcDbEntity
  8
0
  6
Continuous
 62
     7
100
AcDbLine
 10
143.9999077518
 20
64.00006242679999
 30
0.0
 11
143.9999077518
 21
46.6667290935
 31
0.0
  0
LINE
  5
2F8
330
228
100
AcDbEntity
  8
0
  6
Continuous
 62
     7
100
AcDbLine
 10
143.9999077518
 20
64.00006242679999
 30
0.0
 11
177.3332410852
 21
64.00006242679999
 31
0.0
  0
LINE
  5
2F9
330
228
100
AcDbEntity
  8
0
  6
Continuous
 62
     7
100
AcDbLine
 10
177.3332410852
 20
64.00006242679999
 30
0.0
 11
177.3332410852
 21
46.6667290935
 31
0.0
  0
LINE
  5
2FA
330
228
100
AcDbEntity
  8
0
  6
Continuous
 62
     7
100
AcDbLine
 10
143.9999077518
 20
46.6667290935
 30
0.0
 11
177.3332410852
 21
46.6667290935
 31
0.0
  0
LINE
  5
2FB
330
228
100
AcDbEntity
  8
0
  6
Continuous
 62
     7
100
AcDbLine
 10
145.3332410852
 20
54.00006242679999
 30
0.0
 11
175.9999077518
 21
54.00006242679999
 31
0.0
  0
LINE
  5
2FC
330
228
100
AcDbEntity
  8
0
  6
Continuous
 62
     7
100
AcDbLine
 10
145.3332410852
 20
61.0000624268
 30
0.0
 11
175.9999077518
 21
61.0000624268
 31
0.0
  0
LINE
  5
2FD
330
228
100
AcDbEntity
  8
0
  6
Continuous
 62
     7
100
AcDbLine
 10
144.8088143111
 20
52.3782269312
 30
0.0
 11
144.4397935688
 21
52.0092061888
 31
0.0
  0
LINE
  5
2FE
330
228
100
AcDbEntity
  8
0
  6
Continuous
 62
     7
100
AcDbLine
 10
145.4754809778
 20
52.3782269312
 30
0.0
 11
144.6774651873
 21
51.58021114069999
 31
0.0
  0
LINE
  5
2FF
330
228
100
AcDbEntity
  8
0
  6
Continuous
 62
     7
100
AcDbLine
 10
146.1421476444
 20
52.3782269312
 30
0.0
 11
145.344131854
 21
51.58021114069999
 31
0.0
  0
LINE
  5
300
330
228
100
AcDbEntity
  8
0
  6
Continuous
 62
     7
100
AcDbLine
 10
146.8088143111
 20
52.3782269312
 30
0.0
 11
146.0107985207
 21
51.58021114069999
 31
0.0
  0
LINE
  5
301
330
228
100
AcDbEntity
  8
0
  6
Continuous
 62
     7
100
AcDbLine
 10
147.4754809778
 20
52.3782269312
 30
0.0
 11
146.6774651873
 21
51.58021114069999
 31
0.0
  0
LINE
  5
302
330
228
100
AcDbEntity
  8
0
  6
Continuous
 62
     7
100
AcDbLine
 10
148.1421476444
 20
52.3782269312
 30
0.0
 11
147.344131854
 21
51.58021114069999
 31
0.0
  0
LINE
  5
303
330
228
100
AcDbEntity
  8
0
  6
Continuous
 62
     7
100
AcDbLine
 10
148.8088143111
 20
52.3782269312
 30
0.0
 11
148.0107985207
 21
51.58021114069999
 31
0.0
  0
LINE
  5
304
330
228
100
AcDbEntity
  8
0
  6
Continuous
 62
     7
100
AcDbLine
 10
149.4754809778
 20
52.3782269312
 30
0.0
 11
148.6774651873
 21
51.58021114069999
 31
0.0
  0
LINE
  5
305
330
228
100
AcDbEntity
  8
0
  6
Continuous
 62
     7
100
AcDbLine
 10
150.1421476444
 20
52.3782269312
 30
0.0
 11
149.344131854
 21
51.58021114069999
 31
0.0
  0
LINE
  5
306
330
228
100
AcDbEntity
  8
0
  6
Continuous
 62
     7
100
AcDbLine
 10
150.5856350786
 20
52.15504769859999
 30
0.0
 11
150.0107985207
 21
51.58021114069999
 31
0.0
  0
ELLIPSE
  5
307
330
228
100
AcDbEntity
  8
0
  6
Continuous
 62
     7
100
AcDbEllipse
 10
146.145310234
 20
50.4310101337
 30
0.0
 11
1.0473539356
 21
0.0
 31
0.0
210
0.0
220
0.0
230
1.0
 40
0.4938647983
 41
0.0
 42
6.283185307179586
  0
ELLIPSE
  5
308
330
228
100
AcDbEntity
  8
0
  6
Continuous
 62
     7
100
AcDbEllipse
 10
146.145310234
 20
49.0976768004
 30
0.0
 11
1.0473539356
 21
0.0
 31
0.0
210
0.0
220
0.0
230
1.0
 40
0.4938647983
 41
0.0
 42
6.283185307179586
  0
ELLIPSE
  5
309
330
228
100
AcDbEntity
  8
0
  6
Continuous
 62
     7
100
AcDbEllipse
 10
146.145310234
 20
47.7643434671
 30
0.0
 11
1.0473539356
 21
0.0
 31
0.0
210
0.0
220
0.0
230
1.0
 40
0.4938647983
 41
0.0
 42
6.283185307179586
  0
ELLIPSE
  5
30A
330
228
100
AcDbEntity
  8
0
  6
Continuous
 62
     7
100
AcDbEllipse
 10
157.1639458151
 20
50.4505314908
 30
0.0
 11
1.0473539356
 21
0.0
 31
0.0
210
0.0
220
0.0
230
1.0
 40
0.4938647983
 41
0.0
 42
6.283185307179586
  0
ENDBLK
  5
30B
330
228
100
AcDbEntity
  8
0
  6
ByBlock
 62
     0
100
AcDbBlockEnd
  0
ENDSEC
  0
SECTION
  2
ENTITIES
  0
TEXT
  5
42D
330
210
100
AcDbEntity
  8
0
  6
Continuous
 62
     2
100
AcDbText
 10
168.210790069
 20
31.1666666667
 30
0.0
 40
0.3333333333
  1
 
 41
1.059207179750927
  7
TEXTSTYLE_2
 72
     5
 11
168.347827106
 21
31.1666666667
 31
0.0
100
AcDbText
  0
LINE
  5
86B
330
210
100
AcDbEntity
  8
DEFAULT_2
  6
HIDDEN
 62
     8
100
AcDbLine
 10
112.5079370753
 20
22.7246917889
 30
0.0
 11
112.5079370753
 21
24.2246917889
 31
0.0
  0
LINE
  5
86C
330
210
100
AcDbEntity
  8
DEFAULT_2
  6
HIDDEN
 62
     8
100
AcDbLine
 10
114.5079370753
 20
24.2246917889
 30
0.0
 11
114.5079370753
 21
22.7246917889
 31
0.0
  0
LWPOLYLINE
  5
4BB5
330
210
100
AcDbEntity
  8
DEFAULT_2
  6
HIDDEN
 62
     8
100
AcDbPolyline
 90
       13
 70
     0
 43
0.0
 10
98.96967372889999
 20
33.6817261028
 10
98.9713981991
 20
33.67370037460001
 10
98.97427003190001
 20
33.663033884
 10
98.97773700489999
 20
33.6526314335
 10
98.98177483860001
 20
33.64252153360001
 10
98.98635596840001
 20
33.6327356794
 10
98.99144700509999
 20
33.6233098395
 10
98.99702105280001
 20
33.6142617484
 10
99.00304389
 20
33.6056181505
 10
99.00946415600001
 20
33.597421087
 10
99.01623898990001
 20
33.5896907193
 10
99.02333892969998
 20
33.5824287243
 10
99.03072888030001
 20
33.5756424433
  0
LINE
  5
4BB6
330
210
100
AcDbEntity
  8
DEFAULT_2
  6
HIDDEN
 62
     8
100
AcDbLine
 10
101.3446655946
 20
29.4261831491
 30
0.0
 11
101.3478588656
 21
29.4118245496
 31
0.0
  0
LINE
  5
4BB7
330
210
100
AcDbEntity
  8
0
  6
Continuous
 62
     7
100
AcDbLine
 10
103.6778795435
 20
19.7849275499
 30
0.0
 11
123.3379946071
 21
19.7849275499
 31
0.0
  0
LINE
  5
4BB8
330
210
100
AcDbEntity
  8
DEFAULT_2
  6
HIDDEN
 62
     8
100
AcDbLine
 10
115.0704370751
 20
21.5349275499
 30
0.0
 11
111.9454370753
 21
21.5349275499
 31
0.0
  0
LINE
  5
4BB9
330
210
100
AcDbEntity
  8
DEFAULT_2
  6
HIDDEN
 62
     8
100
AcDbLine
 10
115.0704370753
 20
21.6813741593
 30
0.0
 11
111.9454370753
 21
21.6813741593
 31
0.0
  0
LINE
  5
4BBA
330
210
100
AcDbEntity
  8
DEFAULT_2
  6
HIDDEN
 62
     8
100
AcDbLine
 10
115.497244017
 20
23.5419992767
 30
0.0
 11
122.6446706825
 21
23.9842814638
 31
0.0
  0
LINE
  5
4BBB
330
210
100
AcDbEntity
  8
DEFAULT_2
  6
HIDDEN
 62
     8
100
AcDbLine
 10
112.1329370753
 20
23.0349275499
 30
0.0
 11
114.8829370753
 21
23.0349275499
 31
0.0
  0
LWPOLYLINE
  5
4BBC
330
210
100
AcDbEntity
  8
DEFAULT_2
  6
HIDDEN
 62
     8
100
AcDbPolyline
 90
       69
 70
     0
 43
0.0
 10
104.3712034682
 20
23.9842814638
 10
111.5183364144
 20
23.5420183882
 10
111.5201683175
 20
23.541893501
 10
111.5221507565
 20
23.5417430742
 10
111.5242027395
 20
23.5415706267
 10
111.5263022483
 20
23.5413765282
 10
111.5284704343
 20
23.5411572971
 10
111.5306913962
 20
23.5409128934
 10
111.532962127
 20
23.5406422001
 10
111.5352848466
 20
23.5403434684
 10
111.5376515979
 20
23.5400162732
 10
111.5400621721
 20
23.5396592692
 10
111.5425159116
 20
23.5392711509
 10
111.5450042314
 20
23.5388519726
 10
111.5475269895
 20
23.5384005524
 10
111.5500833858
 20
23.5379158065
 10
111.5526639089
 20
23.537398443
 10
111.5552679964
 20
23.5368476126
 10
111.5578952399
 20
23.5362624267
 10
111.5605364462
 20
23.5356440916
 10
111.563187783
 20
23.5349928612
 10
111.5658521498
 20
23.5343073735
 10
111.5685304813
 20
23.5335866473
 10
111.5712209074
 20
23.5328304356
 10
111.5739242404
 20
23.5320377516
 10
111.576645348
 20
23.5312062757
 10
111.5793836247
 20
23.5303351873
 10
111.5821383854
 20
23.5294236853
 10
111.5849142297
 20
23.5284691118
 10
111.5877104169
 20
23.5274704642
 10
111.5905261189
 20
23.5264267609
 10
111.5933656298
 20
23.5253350068
 10
111.5962290327
 20
23.5241936134
 10
111.5991143268
 20
23.5230017937
 10
111.6020225238
 20
23.5217574941
 10
111.6049538281
 20
23.5204588863
 10
111.6079058078
 20
23.5191052737
 10
111.610875458
 20
23.5176963014
 10
111.6138616822
 20
23.5162307666
 10
111.6168631736
 20
23.514707556
 10
111.6198766241
 20
23.5131266159
 10
111.6229007155
 20
23.5114869285
 10
111.6259342017
 20
23.509787429
 10
111.6289739076
 20
23.5080281728
 10
111.6320180371
 20
23.5062085096
 10
111.6350656792
 20
23.504327263
 10
111.6381149835
 20
23.5023838219
 10
111.6411642864
 20
23.5003774805
 10
111.6442123344
 20
23.4983072641
 10
111.64725784
 20
23.4961721977
 10
111.6502992373
 20
23.4939714856
 10
111.6533349246
 20
23.4917043553
 10
111.6563634872
 20
23.4893698836
 10
111.6593832352
 20
23.4869673438
 10
111.6623924392
 20
23.484496039
 10
111.6653895494
 20
23.48195511530001
 10
111.6683727486
 20
23.4793439302
 10
111.6713401796
 20
23.4766618761
 10
111.674290156
 20
23.4739081831
 10
111.6772207323
 20
23.4710823086
 10
111.6801299238
 20
23.4681837496
 10
111.6830159072
 20
23.465211836
 10
111.6858766094
 20
23.462166141
 10
111.6887099196
 20
23.459046283
 10
111.6915138784
 20
23.4558517086
 10
111.6942862878
 20
23.4525821236
 10
111.6970249129
 20
23.4492372858
 10
111.6997276602
 20
23.445816777
 10
111.7022284843
 20
23.4425390047
  0
LINE
  5
4BBD
330
210
100
AcDbEntity
  8
DEFAULT_2
  6
HIDDEN
 62
     8
100
AcDbLine
 10
111.9329370753
 20
23.1349275499
 30
0.0
 11
111.7022287833
 21
23.4425386059
 31
0.0
  0
LINE
  5
4BBE
330
210
100
AcDbEntity
  8
DEFAULT_2
  6
HIDDEN
 62
     8
100
AcDbLine
 10
111.5079370753
 20
41.75817047199999
 30
0.0
 11
111.5079370753
 21
41.7819060042
 31
0.0
  0
LINE
  5
4BBF
330
210
100
AcDbEntity
  8
DEFAULT_2
  6
HIDDEN
 62
     8
100
AcDbLine
 10
111.7891870753
 20
41.7894014354
 30
0.0
 11
111.7891870753
 21
41.75817047199999
 31
0.0
  0
LINE
  5
4BC0
330
210
100
AcDbEntity
  8
DEFAULT_2
  6
HIDDEN
 62
     8
100
AcDbLine
 10
111.8516870753
 20
41.7894014354
 30
0.0
 11
111.8516870753
 21
41.75817047199999
 31
0.0
  0
LINE
  5
4BC1
330
210
100
AcDbEntity
  8
DEFAULT_2
  6
HIDDEN
 62
     8
100
AcDbLine
 10
111.9454370753
 20
41.7429019422
 30
0.0
 11
111.9454370753
 21
41.8647315692
 31
0.0
  0
LINE
  5
4BC2
330
210
100
AcDbEntity
  8
DEFAULT_2
  6
HIDDEN
 62
     8
100
AcDbLine
 10
112.1954370753
 20
41.8594540026
 30
0.0
 11
112.1954370753
 21
41.74399255149999
 31
0.0
  0
LINE
  5
4BC3
330
210
100
AcDbEntity
  8
DEFAULT_2
  6
HIDDEN
 62
     8
100
AcDbLine
 10
112.1954370753
 20
22.5735242302
 30
0.0
 11
112.1954370753
 21
22.5354275499
 31
0.0
  0
LINE
  5
4BC4
330
210
100
AcDbEntity
  8
DEFAULT_2
  6
HIDDEN
 62
     8
100
AcDbLine
 10
112.1954370753
 20
22.0727155739
 30
0.0
 11
112.1954370753
 21
22.0344275499
 31
0.0
  0
LINE
  5
4BC5
330
210
100
AcDbEntity
  8
DEFAULT_2
  6
HIDDEN
 62
     8
100
AcDbLine
 10
112.5079370753
 20
21.5349275499
 30
0.0
 11
112.5079370753
 21
22.0344275499
 31
0.0
  0
LINE
  5
4BC6
330
210
100
AcDbEntity
  8
DEFAULT_2
  6
HIDDEN
 62
     8
100
AcDbLine
 10
112.5079370753
 20
22.5354275499
 30
0.0
 11
112.5079370753
 21
23.0349275499
 31
0.0
  0
LINE
  5
4BC7
330
210
100
AcDbEntity
  8
0
  6
Continuous
 62
     7
100
AcDbLine
 10
128.4063848463
 20
32.7845998263
 30
0.0
 11
128.5120610715
 21
32.8036849928
 31
0.0
  0
LINE
  5
4BC8
330
210
100
AcDbEntity
  8
0
  6
Continuous
 62
     7
100
AcDbLine
 10
128.2748778132
 20
32.7608825547
 30
0.0
 11
128.4063848463
 21
32.7845998263
 31
0.0
  0
LWPOLYLINE
  5
4BC9
330
210
100
AcDbEntity
  8
0
  6
Continuous
 62
     7
100
AcDbPolyline
 90
        9
 70
     0
 43
0.0
 10
127.0431140756
 20
32.54045043820001
 10
127.2312044184
 20
32.5739073829
 10
127.4065703546
 20
32.6051673858
 10
127.5691771877
 20
32.6342099544
 10
127.7189898249
 20
32.6610161045
 10
127.8559730759
 20
32.6855669735
 10
127.9800906791
 20
32.7078450937
 10
128.0913055373
 20
32.727834161
 10
128.2748778132
 20
32.7608825547
  0
LWPOLYLINE
  5
4BCA
330
210
100
AcDbEntity
  8
0
  6
Continuous
 62
     7
100
AcDbPolyline
 90
        4
 70
     0
 43
0.0
 10
126.4104636957
 20
32.428460356
 10
126.6288970359
 20
32.4670320908
 10
126.8423335463
 20
32.5048181037
 10
127.0431140756
 20
32.54045043820001
  0
LWPOLYLINE
  5
4BCB
330
210
100
AcDbEntity
  8
0
  6
Continuous
 62
     7
100
AcDbPolyline
 90
        5
 70
     0
 43
0.0
 10
99.78466970020001
 20
32.5739073886
 10
99.9727600557
 20
32.5404504416
 10
100.1735405952
 20
32.50481810530001
 10
100.3869771124
 20
32.4670320913
 10
100.6054104549
 20
32.428460356
  0
LWPOLYLINE
  5
4BCC
330
210
100
AcDbEntity
  8
0
  6
Continuous
 62
     7
100
AcDbPolyline
 90
        7
 70
     0
 43
0.0
 10
98.92456851110001
 20
32.7278341794
 10
99.03578336649999
 20
32.7078451126
 10
99.1599009761
 20
32.6855669912
 10
99.2968842446
 20
32.661016119
 10
99.44669690090002
 20
32.6342099655
 10
99.60930374950002
 20
32.6051673941
 10
99.78466970020001
 20
32.5739073886
  0
LINE
  5
4BCD
330
210
100
AcDbEntity
  8
0
  6
Continuous
 62
     7
100
AcDbLine
 10
98.74099626639999
 20
32.7608825675
 30
0.0
 11
98.92456851110001
 21
32.7278341794
 31
0.0
  0
LINE
  5
4BCE
330
210
100
AcDbEntity
  8
0
  6
Continuous
 62
     7
100
AcDbLine
 10
98.5633606456
 20
32.7929274607
 30
0.0
 11
98.74099626639999
 21
32.7608825675
 31
0.0
  0
LINE
  5
4BCF
330
210
100
AcDbEntity
  8
0
  6
Continuous
 62
     7
100
AcDbLine
 10
98.5038130791
 20
32.8036849928
 30
0.0
 11
98.56336062860002
 21
32.7929274638
 31
0.0
  0
LWPOLYLINE
  5
4BD0
330
210
100
AcDbEntity
  8
DEFAULT_2
  6
HIDDEN
 62
     8
100
AcDbPolyline
 90
        6
 70
     0
 43
0.0
 10
99.12384832829999
 20
33.5320025381
 10
99.1285924083
 20
33.5310702422
 10
99.14426336540001
 20
33.5283654933
 10
99.17133190020001
 20
33.5238093826
 10
99.2103088049
 20
33.5173131843
 10
99.3251782657
 20
33.4982639858
  0
LINE
  5
4BD1
330
210
100
AcDbEntity
  8
0
  6
Continuous
 62
     7
100
AcDbLine
 10
113.5079328632
 20
25.22575600070001
 30
0.0
 11
113.5079328843
 21
25.1119682011
 31
0.0
  0
LINE
  5
4BD2
330
210
100
AcDbEntity
  8
DEFAULT_1
  6
CENTER
 62
     7
100
AcDbLine
 10
113.5079370753
 20
29.4624240838
 30
0.0
 11
113.5079328632
 21
25.22575600070001
 31
0.0
  0
LINE
  5
4BD3
330
210
100
AcDbEntity
  8
DEFAULT_1
  6
CENTER
 62
     7
100
AcDbLine
 10
113.5079328843
 20
25.1119682011
 30
0.0
 11
113.5079413189
 21
22.3803108658
 31
0.0
  0
LINE
  5
4BD4
330
210
100
AcDbEntity
  8
DEFAULT_1
  6
CENTER
 62
     7
100
AcDbLine
 10
113.5079370753
 20
19.7849275499
 30
0.0
 11
113.5079370753
 21
18.6908882231
 31
0.0
  0
LINE
  5
4BD5
330
210
100
AcDbEntity
  8
DEFAULT_1
  6
CENTER
 62
     7
100
AcDbLine
 10
113.507941325
 20
22.234036042
 30
0.0
 11
113.5079370753
 21
19.9219260596
 31
0.0
  0
LINE
  5
4BD6
330
210
100
AcDbEntity
  8
0
  6
Continuous
 62
     7
100
AcDbLine
 10
113.5079370753
 20
19.9219260596
 30
0.0
 11
113.5079370753
 21
19.7849275499
 31
0.0
  0
LINE
  5
4BD7
330
210
100
AcDbEntity
  8
0
  6
Continuous
 62
     7
100
AcDbLine
 10
113.5079370753
 20
43.81304427579999
 30
0.0
 11
113.5079370753
 21
43.8132424381
 31
0.0
  0
LINE
  5
4BD8
330
210
100
AcDbEntity
  8
DEFAULT_2
  6
HIDDEN
 62
     8
100
AcDbLine
 10
113.507941325
 20
22.234036042
 30
0.0
 11
113.5079413189
 21
22.3803108658
 31
0.0
  0
LINE
  5
4BD9
330
210
100
AcDbEntity
  8
DEFAULT_2
  6
HIDDEN
 62
     8
100
AcDbLine
 10
114.5079370753
 20
21.5349275499
 30
0.0
 11
114.5079370753
 21
22.0344275499
 31
0.0
  0
LINE
  5
4BDA
330
210
100
AcDbEntity
  8
DEFAULT_2
  6
HIDDEN
 62
     8
100
AcDbLine
 10
114.5079370753
 20
22.5354275499
 30
0.0
 11
114.5079370753
 21
23.0349275499
 31
0.0
  0
LWPOLYLINE
  5
4BDB
330
210
100
AcDbEntity
  8
DEFAULT_2
  6
HIDDEN
 62
     8
100
AcDbPolyline
 90
       14
 70
     0
 43
0.0
 10
125.871163973
 20
33.18756392
 10
126.0951757852
 20
33.22691298920001
 10
126.3112598012
 20
33.264584627
 10
126.5128070176
 20
33.2994640726
 10
126.699897056
 20
33.3316131032
 10
126.8726167319
 20
33.3610947036
 10
127.0310645355
 20
33.3879730724
 10
127.1753549607
 20
33.4123120353
 10
127.3056346481
 20
33.4341770248
 10
127.4220892126
 20
33.4536361897
 10
127.5249098205
 20
33.4707558654
 10
127.6143408672
 20
33.4856064047
 10
127.6906952612
 20
33.4982638825
 10
127.8055650099
 20
33.5173131285
  0
LWPOLYLINE
  5
4BDC
330
210
100
AcDbEntity
  8
DEFAULT_2
  6
HIDDEN
 62
     8
100
AcDbPolyline
 90
        5
 70
     0
 43
0.0
 10
127.8055650099
 20
33.5173131285
 10
127.8445420449
 20
33.52380934820001
 10
127.8716106943
 20
33.5283654779
 10
127.8872817403
 20
33.53107024150001
 10
127.8920258763
 20
33.5320025467
  0
LWPOLYLINE
  5
4BDD
330
210
100
AcDbEntity
  8
DEFAULT_2
  6
HIDDEN
 62
     8
100
AcDbPolyline
 90
       13
 70
     0
 43
0.0
 10
99.3251782657
 20
33.4982639858
 10
99.40153251040001
 20
33.4856065329
 10
99.4909634174
 20
33.4707560171
 10
99.59378390339999
 20
33.4536363622
 10
99.7102383728
 20
33.434177214
 10
99.84051800000001
 20
33.4123122355
 10
99.98480840790001
 20
33.3879732766
 10
100.1432562447
 20
33.3610949034
 10
100.315976012
 20
33.3316132885
 10
100.503066207
 20
33.2994642323
 10
100.7046136516
 20
33.2645847482
 10
100.9206979743
 20
33.2269130577
 10
101.1447101776
 20
33.18756392
  0
LINE
  5
4BDE
330
210
100
AcDbEntity
  8
DEFAULT_2
  6
HIDDEN
 62
     8
100
AcDbLine
 10
114.8204370753
 20
22.0727155739
 30
0.0
 11
114.8204370753
 21
22.0344275499
 31
0.0
  0
LINE
  5
4BDF
330
210
100
AcDbEntity
  8
DEFAULT_2
  6
HIDDEN
 62
     8
100
AcDbLine
 10
114.8204370753
 20
41.74399255149999
 30
0.0
 11
114.8204370753
 21
41.8594540026
 31
0.0
  0
LINE
  5
4BE0
330
210
100
AcDbEntity
  8
DEFAULT_2
  6
HIDDEN
 62
     8
100
AcDbLine
 10
115.0704370753
 20
41.7429019422
 30
0.0
 11
115.0704370753
 21
41.8647315692
 31
0.0
  0
LINE
  5
4BE1
330
210
100
AcDbEntity
  8
DEFAULT_2
  6
HIDDEN
 62
     8
100
AcDbLine
 10
115.1641870753
 20
41.75817047199999
 30
0.0
 11
115.1641870753
 21
41.7894014354
 31
0.0
  0
LINE
  5
4BE2
330
210
100
AcDbEntity
  8
DEFAULT_2
  6
HIDDEN
 62
     8
100
AcDbLine
 10
115.2266870753
 20
41.75817047199999
 30
0.0
 11
115.2266870753
 21
41.7894014354
 31
0.0
  0
LINE
  5
4BE3
330
210
100
AcDbEntity
  8
DEFAULT_2
  6
HIDDEN
 62
     8
100
AcDbLine
 10
115.5079370753
 20
41.7819060042
 30
0.0
 11
115.5079370753
 21
41.75817047199999
 31
0.0
  0
LINE
  5
4BE4
330
210
100
AcDbEntity
  8
DEFAULT_2
  6
HIDDEN
 62
     8
100
AcDbLine
 10
115.3136453673
 20
23.4425386059
 30
0.0
 11
115.0829370753
 21
23.1349275499
 31
0.0
  0
LWPOLYLINE
  5
4BE5
330
210
100
AcDbEntity
  8
DEFAULT_2
  6
HIDDEN
 62
     8
100
AcDbPolyline
 90
       73
 70
     0
 43
0.0
 10
115.3136456663
 20
23.4425390047
 10
115.3150988628
 20
23.4444572945
 10
115.3172903954
 20
23.4472794568
 10
115.3195164726
 20
23.4500631489
 10
115.3217763468
 20
23.452808041
 10
115.3240692699
 20
23.4555138175
 10
115.326393883
 20
23.4581794863
 10
115.3287494086
 20
23.4608047861
 10
115.3311350705
 20
23.46338947
 10
115.3335494546
 20
23.4659326417
 10
115.3359917599
 20
23.4684341101
 10
115.3384611884
 20
23.4708936989
 10
115.3409562785
 20
23.4733106098
 10
115.343476212
 20
23.4756847233
 10
115.3460201751
 20
23.478015935
 10
115.3485866664
 20
23.4803035462
 10
115.3511748569
 20
23.4825475099
 10
115.3537839234
 20
23.4847477937
 10
115.3564123325
 20
23.4869037996
 10
115.3590592503
 20
23.4890155531
 10
115.3617238505
 20
23.4910830937
 10
115.3644045751
 20
23.4931059245
 10
115.3671005917
 20
23.4950841426
 10
115.3698110768
 20
23.4970178587
 10
115.3725344551
 20
23.4989066766
 10
115.3752699011
 20
23.5007507636
 10
115.3780166005
 20
23.5025503005
 10
115.3807729691
 20
23.5043049912
 10
115.3835381917
 20
23.5060150702
 10
115.386311471
 20
23.5076807879
 10
115.3890912286
 20
23.50930195090001
 10
115.3918766788
 20
23.510878866
 10
115.3946670332
 20
23.5124118422
 10
115.3974606934
 20
23.5139007679
 10
115.4002568899
 20
23.5153460103
 10
115.403054865
 20
23.5167479456
 10
115.4058530261
 20
23.5181065539
 10
115.408650629
 20
23.5194222623
 10
115.411446947
 20
23.520695508
 10
115.4142404058
 20
23.5219263628
 10
115.4170302934
 20
23.5231153111
 10
115.4198159155
 20
23.5242628458
 10
115.4225957207
 20
23.5253691256
 10
115.4253690341
 20
23.5264346886
 10
115.4281351963
 20
23.5274600787
 10
115.4308926805
 20
23.5284455357
 10
115.4336408534
 20
23.5293916471
 10
115.4363790923
 20
23.5302990031
 10
115.439105889
 20
23.5311679167
 10
115.4418206357
 20
23.5319990147
 10
115.4445227672
 20
23.5327929355
 10
115.4472108467
 20
23.5335500746
 10
115.4498846916
 20
23.5342711982
 10
115.4525434015
 20
23.5349568716
 10
115.4551844623
 20
23.5356072867
 10
115.4578074614
 20
23.536223205
 10
115.4604118004
 20
23.5368053387
 10
115.4629946805
 20
23.537353945
 10
115.4655556088
 20
23.53786982989999
 10
115.4680941449
 20
23.5383538034
 10
115.4706075642
 20
23.5388062698
 10
115.4730958755
 20
23.539228171
 10
115.4755582227
 20
23.5396202898
 10
115.4779905741
 20
23.5399829612
 10
115.4804014087
 20
23.5403183347
 10
115.4827814889
 20
23.5406259981
 10
115.4851000849
 20
23.5409034079
 10
115.4873610312
 20
23.5411527892
 10
115.4895596146
 20
23.5413753396
 10
115.4916520505
 20
23.5415689185
 10
115.4936387935
 20
23.5417363012
 10
115.4955184032
 20
23.5418799588
 10
115.497244017
 20
23.5419992767
  0
LWPOLYLINE
  5
4BE6
330
210
100
AcDbEntity
  8
DEFAULT_2
  6
HIDDEN
 62
     8
100
AcDbPolyline
 90
       13
 70
     0
 43
0.0
 10
127.982834905
 20
33.57366473800001
 10
127.9902563216
 20
33.5802575135
 10
127.997415551
 20
33.5873350134
 10
128.0042760904
 20
33.5948929023
 10
128.0108076061
 20
33.6029332234
 10
128.0169642412
 20
33.6114378598
 10
128.0226899706
 20
33.620364647
 10
128.0279479199
 20
33.6296882568
 10
128.0327092687
 20
33.6393932776
 10
128.0369373172
 20
33.6494441216
 10
128.0406017031
 20
33.65981008929999
 10
128.0436755986
 20
33.6704639556
 10
128.0462004219
 20
33.6817261036
  0
LINE
  5
4BE7
330
210
100
AcDbEntity
  8
DEFAULT_2
  6
HIDDEN
 62
     8
100
AcDbLine
 10
97.1285461121
 20
44.5313768931
 30
0.0
 11
97.12771713489999
 21
44.5315386163
 31
0.0
  0
LINE
  5
4BE8
330
210
100
AcDbEntity
  8
0
  6
Continuous
 62
     7
100
AcDbLine
 10
97.13041022459998
 20
44.53099902319999
 30
0.0
 11
97.12771713489999
 21
44.5315386163
 31
0.0
  0
LWPOLYLINE
  5
4BE9
330
210
100
AcDbEntity
  8
0
  6
Continuous
 62
     7
100
AcDbPolyline
 90
        9
 70
     0
 43
0.0
 10
99.53840204590001
 20
44.0328903286
 10
99.2665410681
 20
44.0887971588
 10
99.0227680765
 20
44.1390103027
 10
98.793716443
 20
44.18625218499999
 10
98.57938674209998
 20
44.23051131689999
 10
98.37979643629999
 20
44.2717730127
 10
98.19497663760001
 20
44.31002037609999
 10
98.0249232262
 20
44.34524399739999
 10
97.86963135629999
 20
44.37743554399999
  0
LINE
  5
4BEA
330
210
100
AcDbEntity
  8
0
  6
Continuous
 62
     7
100
AcDbLine
 10
97.86963135629999
 20
44.37743554399999
 30
0.0
 11
97.60341540909999
 21
44.4326733097
 31
0.0
  0
LINE
  5
4BEB
330
210
100
AcDbEntity
  8
0
  6
Continuous
 62
     7
100
AcDbLine
 10
98.02508179410001
 20
44.3452254679
 30
0.0
 11
97.7292957899
 21
44.40658304189999
 31
0.0
  0
LWPOLYLINE
  5
4BEC
330
210
100
AcDbEntity
  8
0
  6
Continuous
 62
     7
100
AcDbPolyline
 90
        4
 70
     0
 43
0.0
 10
97.31517603209999
 20
44.49260388869999
 10
97.19688557259999
 20
44.5171911583
 10
97.1599521751
 20
44.52486681919999
 10
97.13041418420001
 20
44.5309982105
  0
LINE
  5
4BED
330
210
100
AcDbEntity
  8
0
  6
Continuous
 62
     7
100
AcDbLine
 10
97.60341540909999
 20
44.4326733097
 30
0.0
 11
97.39636291040001
 21
44.4756788804
 31
0.0
  0
LWPOLYLINE
  5
4BEE
330
210
100
AcDbEntity
  8
0
  6
Continuous
 62
     7
100
AcDbPolyline
 90
        4
 70
     0
 43
0.0
 10
97.7292957899
 20
44.40658304189999
 10
97.49264206219999
 20
44.455726193
 10
97.3965106876
 20
44.4757002131
 10
97.31517603209999
 20
44.49260388869999
  0
LINE
  5
4BEF
330
210
100
AcDbEntity
  8
0
  6
Continuous
 62
     7
100
AcDbLine
 10
97.39636291040001
 20
44.4756788804
 30
0.0
 11
97.24855416700002
 21
44.5064063056
 31
0.0
  0
LINE
  5
4BF0
330
210
100
AcDbEntity
  8
0
  6
Continuous
 62
     7
100
AcDbLine
 10
97.24855416700002
 20
44.5064063056
 30
0.0
 11
97.13780052190001
 21
44.5294556006
 31
0.0
  0
LINE
  5
4BF1
330
210
100
AcDbEntity
  8
0
  6
Continuous
 62
     7
100
AcDbLine
 10
129.8854633681
 20
44.53099890669999
 30
0.0
 11
129.8559277574
 21
44.52484337789999
 31
0.0
  0
LINE
  5
4BF2
330
210
100
AcDbEntity
  8
0
  6
Continuous
 62
     7
100
AcDbLine
 10
129.8559277574
 20
44.52484337789999
 30
0.0
 11
129.7008063141
 21
44.4925756665
 31
0.0
  0
LINE
  5
4BF3
330
210
100
AcDbEntity
  8
0
  6
Continuous
 62
     7
100
AcDbLine
 10
129.8189967463
 20
44.517192856
 30
0.0
 11
129.7007244617
 21
44.49260936359999
 31
0.0
  0
LINE
  5
4BF4
330
210
100
AcDbEntity
  8
0
  6
Continuous
 62
     7
100
AcDbLine
 10
129.7007244617
 20
44.49260936359999
 30
0.0
 11
129.6193770433
 21
44.4757030352
 31
0.0
  0
LINE
  5
4BF5
330
210
100
AcDbEntity
  8
0
  6
Continuous
 62
     7
100
AcDbLine
 10
129.7008063141
 20
44.4925756665
 30
0.0
 11
129.5233764183
 21
44.45570643249999
 31
0.0
  0
LINE
  5
4BF6
330
210
100
AcDbEntity
  8
0
  6
Continuous
 62
     7
100
AcDbLine
 10
129.8778623294
 20
44.5294240632
 30
0.0
 11
129.8189967463
 21
44.517192856
 31
0.0
  0
LINE
  5
4BF7
330
210
100
AcDbEntity
  8
0
  6
Continuous
 62
     7
100
AcDbLine
 10
129.6193770433
 20
44.4757030352
 30
0.0
 11
129.4123103023
 21
44.4326870031
 31
0.0
  0
LWPOLYLINE
  5
4BF8
330
210
100
AcDbEntity
  8
0
  6
Continuous
 62
     7
100
AcDbPolyline
 90
       10
 70
     0
 43
0.0
 10
129.5233764183
 20
44.45570643249999
 10
129.2867254325
 20
44.4065767008
 10
129.1462228336
 20
44.3774314047
 10
128.9909302425
 20
44.3452397117
 10
128.8208768016
 20
44.3100160879
 10
128.636057779
 20
44.2717688892
 10
128.4364691692
 20
44.2305075483
 10
128.2221421972
 20
44.186248984
 10
127.9930944383
 20
44.1390079043
 10
127.7493265797
 20
44.08879582029999
  0
LWPOLYLINE
  5
4BF9
330
210
100
AcDbEntity
  8
0
  6
Continuous
 62
     7
100
AcDbPolyline
 90
        3
 70
     0
 43
0.0
 10
129.4123103023
 20
44.4326870031
 10
129.1460941169
 20
44.3774315881
 10
128.990808127
 20
44.34522873729999
  0
LWPOLYLINE
  5
4BFA
330
210
100
AcDbEntity
  8
0
  6
Continuous
 62
     7
100
AcDbPolyline
 90
       43
 70
     0
 43
0.0
 10
127.7493265797
 20
44.08879582029999
 10
127.4774721048
 20
44.0328903286
 10
127.4512863519
 20
44.0276567688
 10
127.424489364
 20
44.02258191829999
 10
127.3966863448
 20
44.0176855846
 10
127.3673090744
 20
44.0129245564
 10
127.3355758251
 20
44.008214994
 10
127.3011709847
 20
44.00354784970001
 10
127.2641703166
 20
43.99895698029999
 10
127.2244871804
 20
43.994443471
 10
127.1821419703
 20
43.990015583
 10
127.1372501015
 20
43.98568583369999
 10
127.0898963238
 20
43.9814591183
 10
127.0402811229
 20
43.97734707149999
 10
126.9885117529
 20
43.9733503117
 10
126.9344901168
 20
43.9694546915
 10
126.8784116917
 20
43.96566764600001
 10
126.8203810835
 20
43.9619896623
 10
126.7600435829
 20
43.95839380239999
 10
126.6974998962
 20
43.9548837567
 10
126.6328552292
 20
43.95146355579999
 10
126.5656227504
 20
43.94810635899999
 10
126.4958522437
 20
43.94481698719999
 10
126.423608643
 20
43.94159990659999
 10
126.3483141923
 20
43.9384322337
 10
126.2699863327
 20
43.935320417
 10
126.1886524275
 20
43.93226960129999
 10
126.1036558814
 20
43.92926180039999
 10
126.0149316096
 20
43.92630237109999
 10
125.9225489455
 20
43.9234010976
 10
125.8259813045
 20
43.920549036
 10
125.7251210945
 20
43.9177517613
 10
125.6201094412
 20
43.9150206513
 10
125.5107764795
 20
43.9123575368
 10
125.3971800867
 20
43.909768945
 10
125.2794115831
 20
43.9072600451
 10
125.1573701374
 20
43.9048296271
 10
125.0312045646
 20
43.9024788518
 10
124.9010541311
 20
43.90020473939999
 10
124.766834836
 20
43.8979961105
 10
124.6286706423
 20
43.8958400289
 10
124.486901193
 20
43.89371994939999
 10
124.3743029722
 20
43.89207856359999
  0
LINE
  5
4BFB
330
210
100
AcDbEntity
  8
DEFAULT_2
  6
HIDDEN
 62
     8
100
AcDbLine
 10
129.8854633681
 20
44.53099890669999
 30
0.0
 11
129.8850752401
 21
44.5309177626
 31
0.0
  0
LINE
  5
4BFC
330
210
100
AcDbEntity
  8
0
  6
Continuous
 62
     7
100
AcDbLine
 10
129.8889144851
 20
44.53168300419999
 30
0.0
 11
129.8854633681
 21
44.53099890669999
 31
0.0
  0
LINE
  5
4BFD
330
210
100
AcDbEntity
  8
DEFAULT_2
  6
HIDDEN
 62
     8
100
AcDbLine
 10
115.0704370753
 20
41.7429019422
 30
0.0
 11
111.9454370753
 21
41.7429019422
 31
0.0
  0
LINE
  5
4BFE
330
210
100
AcDbEntity
  8
DEFAULT_2
  6
HIDDEN
 62
     8
100
AcDbLine
 10
114.8204370753
 20
41.74399255149999
 30
0.0
 11
112.1954370753
 21
41.74399255149999
 31
0.0
  0
LINE
  5
4BFF
330
210
100
AcDbEntity
  8
DEFAULT_2
  6
HIDDEN
 62
     8
100
AcDbLine
 10
114.8204370753
 20
41.74617376999999
 30
0.0
 11
112.1954370753
 21
41.74617376999999
 31
0.0
  0
LINE
  5
4C00
330
210
100
AcDbEntity
  8
DEFAULT_2
  6
HIDDEN
 62
     8
100
AcDbLine
 10
114.8204370753
 20
41.7483549886
 30
0.0
 11
112.1954370753
 21
41.7483549886
 31
0.0
  0
LINE
  5
4C01
330
210
100
AcDbEntity
  8
DEFAULT_2
  6
HIDDEN
 62
     8
100
AcDbLine
 10
115.0704370753
 20
41.7666374744
 30
0.0
 11
111.9454370753
 21
41.7666374744
 31
0.0
  0
LINE
  5
4C02
330
210
100
AcDbEntity
  8
DEFAULT_2
  6
HIDDEN
 62
     8
100
AcDbLine
 10
114.8204370753
 20
41.7679859555
 30
0.0
 11
112.1954370753
 21
41.7679859555
 31
0.0
  0
LINE
  5
4C03
330
210
100
AcDbEntity
  8
DEFAULT_2
  6
HIDDEN
 62
     8
100
AcDbLine
 10
114.8204370753
 20
41.77016717399999
 30
0.0
 11
112.1954370753
 21
41.77016717399999
 31
0.0
  0
LINE
  5
4C04
330
210
100
AcDbEntity
  8
DEFAULT_2
  6
HIDDEN
 62
     8
100
AcDbLine
 10
114.8204370753
 20
41.7723483926
 30
0.0
 11
112.1954370753
 21
41.7723483926
 31
0.0
  0
LINE
  5
4C05
330
210
100
AcDbEntity
  8
DEFAULT_2
  6
HIDDEN
 62
     8
100
AcDbLine
 10
111.9454370753
 20
41.7734390018
 30
0.0
 11
115.0704370753
 21
41.7734390018
 31
0.0
  0
LINE
  5
4C06
330
210
100
AcDbEntity
  8
DEFAULT_2
  6
HIDDEN
 62
     8
100
AcDbLine
 10
114.8204370753
 20
41.77522351479999
 30
0.0
 11
112.1954370753
 21
41.77522351479999
 31
0.0
  0
LINE
  5
4C07
330
210
100
AcDbEntity
  8
DEFAULT_2
  6
HIDDEN
 62
     8
100
AcDbLine
 10
114.8204370753
 20
41.7774047334
 30
0.0
 11
112.1954370753
 21
41.7774047334
 31
0.0
  0
LINE
  5
4C08
330
210
100
AcDbEntity
  8
DEFAULT_2
  6
HIDDEN
 62
     8
100
AcDbLine
 10
111.9454370753
 20
41.797174534
 30
0.0
 11
115.0704370753
 21
41.797174534
 31
0.0
  0
LINE
  5
4C09
330
210
100
AcDbEntity
  8
DEFAULT_2
  6
HIDDEN
 62
     8
100
AcDbLine
 10
114.8204370753
 20
41.8013981374
 30
0.0
 11
112.1954370753
 21
41.8013981374
 31
0.0
  0
LINE
  5
4C0A
330
210
100
AcDbEntity
  8
DEFAULT_2
  6
HIDDEN
 62
     8
100
AcDbLine
 10
114.8204370753
 20
41.8035793559
 30
0.0
 11
112.1954370753
 21
41.8035793559
 31
0.0
  0
LINE
  5
4C0B
330
210
100
AcDbEntity
  8
DEFAULT_2
  6
HIDDEN
 62
     8
100
AcDbLine
 10
112.1954370753
 20
41.8075641241
 30
0.0
 11
114.8204370753
 21
41.8075641241
 31
0.0
  0
LINE
  5
4C0C
330
210
100
AcDbEntity
  8
DEFAULT_2
  6
HIDDEN
 62
     8
100
AcDbLine
 10
114.8204370753
 20
41.81533798159999
 30
0.0
 11
112.1954370753
 21
41.81533798159999
 31
0.0
  0
LINE
  5
4C0D
330
210
100
AcDbEntity
  8
DEFAULT_2
  6
HIDDEN
 62
     8
100
AcDbLine
 10
112.1954370753
 20
41.8284252929
 30
0.0
 11
114.8204370753
 21
41.8284252929
 31
0.0
  0
LINE
  5
4C0E
330
210
100
AcDbEntity
  8
DEFAULT_2
  6
HIDDEN
 62
     8
100
AcDbLine
 10
114.8204370753
 20
41.83373874659999
 30
0.0
 11
112.1954370753
 21
41.83373874659999
 31
0.0
  0
LINE
  5
4C0F
330
210
100
AcDbEntity
  8
DEFAULT_2
  6
HIDDEN
 62
     8
100
AcDbLine
 10
115.0704370753
 20
41.83903779699999
 30
0.0
 11
111.9454370753
 21
41.83903779699999
 31
0.0
  0
LINE
  5
4C10
330
210
100
AcDbEntity
  8
DEFAULT_2
  6
HIDDEN
 62
     8
100
AcDbLine
 10
114.8204370753
 20
41.84427272149999
 30
0.0
 11
112.1954370753
 21
41.84427272149999
 31
0.0
  0
LINE
  5
4C11
330
210
100
AcDbEntity
  8
DEFAULT_2
  6
HIDDEN
 62
     8
100
AcDbLine
 10
114.8204370753
 20
41.8442909967
 30
0.0
 11
112.1954370753
 21
41.8442909967
 31
0.0
  0
LINE
  5
4C12
330
210
100
AcDbEntity
  8
DEFAULT_2
  6
HIDDEN
 62
     8
100
AcDbLine
 10
112.1954370753
 20
41.8594540026
 30
0.0
 11
114.8204370753
 21
41.8594540026
 31
0.0
  0
LINE
  5
4C13
330
210
100
AcDbEntity
  8
DEFAULT_2
  6
HIDDEN
 62
     8
100
AcDbLine
 10
111.9454370753
 20
41.86468892709999
 30
0.0
 11
115.0704370753
 21
41.86468892709999
 31
0.0
  0
LINE
  5
4C14
330
210
100
AcDbEntity
  8
DEFAULT_2
  6
HIDDEN
 62
     8
100
AcDbLine
 10
111.9454370753
 20
41.8647315692
 30
0.0
 11
115.0704370753
 21
41.8647315692
 31
0.0
  0
LINE
  5
4C15
330
210
100
AcDbEntity
  8
DEFAULT_2
  6
HIDDEN
 62
     8
100
AcDbLine
 10
125.671208556
 20
29.4261831491
 30
0.0
 11
125.668015285
 21
29.4118245496
 31
0.0
  0
LWPOLYLINE
  5
4C16
330
210
100
AcDbEntity
  8
0
  6
Continuous
 62
     7
100
AcDbPolyline
 90
       22
 70
     0
 43
0.0
 10
124.3743065213
 20
43.8920786171
 10
123.9056957834
 20
43.8854420944
 10
123.3996040304
 20
43.8786001556
 10
122.8911450478
 20
43.8720667093
 10
122.3804559605
 20
43.86584867649999
 10
121.8676548001
 20
43.85995242039999
 10
121.3528516545
 20
43.85438405529999
 10
120.83616378
 20
43.84914940729999
 10
120.3177150362
 20
43.84425353029999
 10
119.7976255222
 20
43.8397013913
 10
119.2760180459
 20
43.83549783189999
 10
118.753019507
 20
43.83164718739999
 10
118.2287561917
 20
43.8281535289
 10
117.7033540356
 20
43.8250203833
 10
117.1769370555
 20
43.8222508051
 10
116.6496287799
 20
43.8198479375
 10
116.1215557668
 20
43.8178143617
 10
115.59284488
 20
43.8161520235
 10
115.0636198826
 20
43.8148624978
 10
114.5340034431
 20
43.81394709489999
 10
114.0041217478
 20
43.81340716979999
 10
113.5079370753
 20
43.8132424381
  0
LWPOLYLINE
  5
4C17
330
210
100
AcDbEntity
  8
0
  6
Continuous
 62
     7
100
AcDbPolyline
 90
       22
 70
     0
 43
0.0
 10
113.5079370753
 20
43.8132424381
 10
113.0117524029
 20
43.81340716979999
 10
112.4818707075
 20
43.81394709489999
 10
111.9522542681
 20
43.8148624978
 10
111.4230292706
 20
43.8161520235
 10
110.8943183838
 20
43.8178143617
 10
110.3662453708
 20
43.8198479375
 10
109.8389370952
 20
43.8222508051
 10
109.3125201151
 20
43.8250203833
 10
108.787117959
 20
43.8281535289
 10
108.2628546436
 20
43.83164718739999
 10
107.7398561047
 20
43.83549783189999
 10
107.2182486284
 20
43.8397013913
 10
106.6981591144
 20
43.84425353029999
 10
106.1797103706
 20
43.84914940729999
 10
105.6630224961
 20
43.85438405529999
 10
105.1482193505
 20
43.85995242039999
 10
104.6354181901
 20
43.86584867649999
 10
104.1247291028
 20
43.8720667093
 10
103.6162701203
 20
43.8786001556
 10
103.1101783672
 20
43.8854420944
 10
102.6415676293
 20
43.8920786171
  0
LWPOLYLINE
  5
4C18
330
210
100
AcDbEntity
  8
0
  6
Continuous
 62
     7
100
AcDbPolyline
 90
       42
 70
     0
 43
0.0
 10
102.6415711784
 20
43.89207856359999
 10
102.5289729576
 20
43.89371994939999
 10
102.3872035083
 20
43.8958400289
 10
102.2490393147
 20
43.8979961105
 10
102.1148200196
 20
43.90020473939999
 10
101.984669586
 20
43.9024788518
 10
101.8585040132
 20
43.9048296271
 10
101.7364625676
 20
43.9072600451
 10
101.618694064
 20
43.909768945
 10
101.5050976711
 20
43.9123575368
 10
101.3957647094
 20
43.9150206513
 10
101.2907530562
 20
43.9177517613
 10
101.1898928461
 20
43.920549036
 10
101.0933252051
 20
43.9234010976
 10
101.000942541
 20
43.92630237109999
 10
100.9122182693
 20
43.92926180039999
 10
100.8272217232
 20
43.93226960129999
 10
100.7458878179
 20
43.935320417
 10
100.6675599583
 20
43.9384322337
 10
100.5922655077
 20
43.94159990659999
 10
100.5200219069
 20
43.94481698719999
 10
100.4502514003
 20
43.94810635899999
 10
100.3830189214
 20
43.95146355579999
 10
100.3183742544
 20
43.9548837567
 10
100.2558305678
 20
43.95839380239999
 10
100.1954930671
 20
43.9619896623
 10
100.1374624589
 20
43.96566764600001
 10
100.0813840339
 20
43.9694546915
 10
100.0273623977
 20
43.9733503117
 10
99.9755930277
 20
43.97734707149999
 10
99.9259778268
 20
43.9814591183
 10
99.8786240491
 20
43.98568583369999
 10
99.83373218030001
 20
43.990015583
 10
99.79138697030002
 20
43.994443471
 10
99.7517038341
 20
43.99895698029999
 10
99.7147031659
 20
44.00354784970001
 10
99.6802983255
 20
44.008214994
 10
99.64856507629999
 20
44.0129245564
 10
99.61918780579999
 20
44.0176855846
 10
99.5913847867
 20
44.02258191829999
 10
99.56458779870001
 20
44.0276567688
 10
99.53840204590001
 20
44.0328903286
  0
LINE
  5
4C19
330
210
100
AcDbEntity
  8
0
  6
Continuous
 62
     7
100
AcDbLine
 10
102.6415676293
 20
43.8920786171
 30
0.0
 11
102.6388545779
 21
43.89192173659999
 31
0.0
  0
LWPOLYLINE
  5
4C1A
330
210
100
AcDbEntity
  8
0
  6
Continuous
 62
     7
100
AcDbPolyline
 90
       11
 70
     0
 43
0.0
 10
129.9236445528
 20
44.5349275499
 10
129.920100086
 20
44.53489404499999
 10
129.9159979636
 20
44.53477156449999
 10
129.9120060148
 20
44.53456598729999
 10
129.9082514823
 20
44.53429462579999
 10
129.9049831589
 20
44.5339965812
 10
129.9019518781
 20
44.5336684676
 10
129.8985403026
 20
44.53323936229999
 10
129.8945473152
 20
44.5326560703
 10
129.8901844712
 20
44.53191786109999
 10
129.8883945248
 20
44.53158423749999
  0
LINE
  5
4C1B
330
210
100
AcDbEntity
  8
0
  6
Continuous
 62
     7
100
AcDbLine
 10
130.295868545
 20
44.5349275499
 30
0.0
 11
129.9236445386
 21
44.5349275499
 31
0.0
  0
LINE
  5
4C1C
330
210
100
AcDbEntity
  8
0
  6
Continuous
 62
     7
100
AcDbLine
 10
97.09222961200001
 20
44.5349275499
 30
0.0
 11
96.72000560569999
 21
44.5349275499
 31
0.0
  0
LINE
  5
4C1D
330
210
100
AcDbEntity
  8
0
  6
Continuous
 62
     7
100
AcDbLine
 10
124.3770195728
 20
43.89192173659999
 30
0.0
 11
124.3743065213
 21
43.8920786171
 31
0.0
  0
ARC
  5
4C73
330
210
100
AcDbEntity
  8
DEFAULT_2
  6
HIDDEN
 62
     8
100
AcDbCircle
 10
113.5056115396
 20
-3563.8141325922
 30
0.0
 40
3605.551254336801
100
AcDbArc
 50
89.9999630449
 51
90.16095940860001
  0
ARC
  5
4C74
330
210
100
AcDbEntity
  8
0
  6
Continuous
 62
     7
100
AcDbCircle
 10
113.4633906899
 20
793.4061881786999
 30
0.0
 40
749.6101786739
100
AcDbArc
 50
270.0034048629
 51
270.8299090726
  0
ARC
  5
4C75
330
210
100
AcDbEntity
  8
0
  6
Continuous
 62
     7
100
AcDbCircle
 10
113.5033319312
 20
793.3508930928999
 30
0.0
 40
749.5378488313
100
AcDbArc
 50
270.000352024
 51
270.8312298932
  0
ARC
  5
4C76
330
210
100
AcDbEntity
  8
0
  6
Continuous
 62
     7
100
AcDbCircle
 10
-39.6264272248
 20
65.88539344109999
 30
0.0
 40
170.0052839234
100
AcDbArc
 50
346.1624182897
 51
348.690742649
  0
ARC
  5
4C77
330
210
100
AcDbEntity
  8
0
  6
Continuous
 62
     7
100
AcDbCircle
 10
-32.0583164954
 20
64.4960194242
 30
0.0
 40
163.7871551178
100
AcDbArc
 50
348.895961169
 51
352.9256102583
  0
ARC
  5
4C78
330
210
100
AcDbEntity
  8
DEFAULT_2
  6
HIDDEN
 62
     8
100
AcDbCircle
 10
-32.0601274399
 20
64.497146464
 30
0.0
 40
161.5832481784
100
AcDbArc
 50
347.4644232961
 51
348.5337078486
  0
ARC
  5
4C79
330
210
100
AcDbEntity
  8
DEFAULT_2
  6
HIDDEN
 62
     8
100
AcDbCircle
 10
-32.0477245506
 20
64.49435332090001
 30
0.0
 40
161.5705347129
100
AcDbArc
 50
346.266230688
 51
347.4592193398
  0
ARC
  5
4C7A
330
210
100
AcDbEntity
  8
DEFAULT_2
  6
HIDDEN
 62
     8
100
AcDbCircle
 10
-32.03449319900001
 20
64.4918935255
 30
0.0
 40
161.5570813096
100
AcDbArc
 50
348.5440803608999
 51
348.8811844048
  0
ARC
  5
4C7B
330
210
100
AcDbEntity
  8
0
  6
Continuous
 62
     7
100
AcDbCircle
 10
102.9720700494
 20
26.3994801085
 30
0.0
 40
1.1840468759
100
AcDbArc
 50
269.1427642427
 51
269.5437655872
  0
ARC
  5
4C7C
330
210
100
AcDbEntity
  8
0
  6
Continuous
 62
     7
100
AcDbCircle
 10
101.9350934677
 20
25.3148513303
 30
0.0
 40
0.375
100
AcDbArc
 50
193.8376210233
 51
213.9761903344
  0
ARC
  5
4C7D
330
210
100
AcDbEntity
  8
DEFAULT_2
  6
HIDDEN
 62
     8
100
AcDbCircle
 10
112.1329370753
 20
23.2849275499
 30
0.0
 40
0.25
100
AcDbArc
 50
216.8698976458
 51
270.0
  0
ARC
  5
4C7E
330
210
100
AcDbEntity
  8
0
  6
Continuous
 62
     7
100
AcDbCircle
 10
103.6778795435
 20
19.9729275499
 30
0.0
 40
0.188
100
AcDbArc
 50
185.8613445911
 51
270.0
  0
ARC
  5
4C7F
330
210
100
AcDbEntity
  8
DEFAULT_2
  6
HIDDEN
 62
     8
100
AcDbCircle
 10
97.09222959859999
 20
44.3474275499
 30
0.0
 40
0.1875
100
AcDbArc
 50
79.0899979105
 51
90.0
  0
ARC
  5
4C80
330
210
100
AcDbEntity
  8
DEFAULT_2
  6
HIDDEN
 62
     8
100
AcDbCircle
 10
99.153887989
 20
33.7171005018
 30
0.0
 40
0.1875
100
AcDbArc
 50
190.873069109
 51
268.0000000028
  0
ARC
  5
4C81
330
210
100
AcDbEntity
  8
DEFAULT_2
  6
HIDDEN
 62
     8
100
AcDbCircle
 10
97.09222959859999
 20
44.3474275499
 30
0.0
 40
0.1875
100
AcDbArc
 50
7.0903040807
 51
78.2494515351
  0
ARC
  5
4C82
330
210
100
AcDbEntity
  8
0
  6
Continuous
 62
     7
100
AcDbCircle
 10
98.5372703098
 20
32.9881758155
 30
0.0
 40
0.1874999999
100
AcDbArc
 50
191.104068946
 51
259.7211762473
  0
ARC
  5
4C83
330
210
100
AcDbEntity
  8
0
  6
Continuous
 62
     7
100
AcDbCircle
 10
96.72000560569999
 20
44.3474275499
 30
0.0
 40
0.1875
100
AcDbArc
 50
90.0
 51
187.074233744
  0
ARC
  5
4C84
330
210
100
AcDbEntity
  8
0
  6
Continuous
 62
     7
100
AcDbCircle
 10
99.48235382260001
 20
43.8589068121
 30
0.0
 40
0.1816931012
100
AcDbArc
 50
78.46752078739999
 51
90.38836304150001
  0
ARC
  5
4C85
330
210
100
AcDbEntity
  8
DEFAULT_2
  6
HIDDEN
 62
     8
100
AcDbCircle
 10
113.510262611
 20
-3563.8141326056
 30
0.0
 40
3605.5512543501
100
AcDbArc
 50
89.8390405914
 51
90.00003695510001
  0
ARC
  5
4C86
330
210
100
AcDbEntity
  8
0
  6
Continuous
 62
     7
100
AcDbCircle
 10
113.5125422194
 20
793.3508930924999
 30
0.0
 40
749.5378488308999
100
AcDbArc
 50
269.1687701068
 51
269.999647976
  0
ARC
  5
4C87
330
210
100
AcDbEntity
  8
0
  6
Continuous
 62
     7
100
AcDbCircle
 10
113.5207478591
 20
789.0772328255999
 30
0.0
 40
745.2812221072999
100
AcDbArc
 50
269.1635633961
 51
269.9990151317
  0
ARC
  5
4C88
330
210
100
AcDbEntity
  8
0
  6
Continuous
 62
     7
100
AcDbCircle
 10
266.6423013756
 20
65.88539344109999
 30
0.0
 40
170.0052839236
100
AcDbArc
 50
191.309257351
 51
193.8375817103
  0
ARC
  5
4C89
330
210
100
AcDbEntity
  8
0
  6
Continuous
 62
     7
100
AcDbCircle
 10
259.074190646
 20
64.4960194242
 30
0.0
 40
163.7871551177
100
AcDbArc
 50
187.0743897417
 51
191.104038831
  0
ARC
  5
4C8A
330
210
100
AcDbEntity
  8
DEFAULT_2
  6
HIDDEN
 62
     8
100
AcDbCircle
 10
259.0760015941
 20
64.4971464648
 30
0.0
 40
161.583248182
100
AcDbArc
 50
191.4662927023
 51
192.5355767039
  0
ARC
  5
4C8B
330
210
100
AcDbEntity
  8
DEFAULT_2
  6
HIDDEN
 62
     8
100
AcDbCircle
 10
259.0635987011999
 20
64.49435332100001
 30
0.0
 40
161.5705347129
100
AcDbArc
 50
192.5407806601
 51
193.733769312
  0
ARC
  5
4C8C
330
210
100
AcDbEntity
  8
DEFAULT_2
  6
HIDDEN
 62
     8
100
AcDbCircle
 10
259.0503673587
 20
64.49189352729999
 30
0.0
 40
161.5570813188
100
AcDbArc
 50
191.1188155952
 51
191.4559199509
  0
ARC
  5
4C8D
330
210
100
AcDbEntity
  8
0
  6
Continuous
 62
     7
100
AcDbCircle
 10
127.018576077
 20
46.4259373314
 30
0.0
 40
2.4403638858
100
AcDbArc
 50
280.2050322572
 51
280.99664732
  0
ARC
  5
4C8E
330
210
100
AcDbEntity
  8
0
  6
Continuous
 62
     7
100
AcDbCircle
 10
124.0438084026
 20
26.399104925
 30
0.0
 40
1.18367167
100
AcDbArc
 50
270.4561706963001
 51
270.8572995769
  0
ARC
  5
4C8F
330
210
100
AcDbEntity
  8
0
  6
Continuous
 62
     7
100
AcDbCircle
 10
125.0807806829
 20
25.3148513303
 30
0.0
 40
0.375
100
AcDbArc
 50
326.0238096656
 51
346.1623789767
  0
ARC
  5
4C90
330
210
100
AcDbEntity
  8
DEFAULT_2
  6
HIDDEN
 62
     8
100
AcDbCircle
 10
114.8829370753
 20
23.2849275499
 30
0.0
 40
0.25
100
AcDbArc
 50
270.0
 51
323.1301023542
  0
ARC
  5
4C91
330
210
100
AcDbEntity
  8
0
  6
Continuous
 62
     7
100
AcDbCircle
 10
123.3379946071
 20
19.9729275499
 30
0.0
 40
0.188
100
AcDbArc
 50
270.0
 51
354.1386554089
  0
ARC
  5
4C92
330
210
100
AcDbEntity
  8
DEFAULT_2
  6
HIDDEN
 62
     8
100
AcDbCircle
 10
127.8619861616
 20
33.7171005018
 30
0.0
 40
0.1875
100
AcDbArc
 50
271.9999999972
 51
349.126930891
  0
ARC
  5
4C93
330
210
100
AcDbEntity
  8
DEFAULT_2
  6
HIDDEN
 62
     8
100
AcDbCircle
 10
129.923644552
 20
44.3474275499
 30
0.0
 40
0.1875
100
AcDbArc
 50
90.0
 51
100.6743686526
  0
ARC
  5
4C94
330
210
100
AcDbEntity
  8
DEFAULT_2
  6
HIDDEN
 62
     8
100
AcDbCircle
 10
129.923644552
 20
44.3474275499
 30
0.0
 40
0.1875
100
AcDbArc
 50
101.8706549054
 51
172.9096959193
  0
ARC
  5
4C95
330
210
100
AcDbEntity
  8
0
  6
Continuous
 62
     7
100
AcDbCircle
 10
128.4786038409
 20
32.9881758155
 30
0.0
 40
0.1874999999
100
AcDbArc
 50
280.2788237528
 51
348.895931054
  0
ARC
  5
4C96
330
210
100
AcDbEntity
  8
0
  6
Continuous
 62
     7
100
AcDbCircle
 10
130.295868545
 20
44.3474275499
 30
0.0
 40
0.1875
100
AcDbArc
 50
352.925766256
 51
90.0
  0
ARC
  5
4C97
330
210
100
AcDbEntity
  8
0
  6
Continuous
 62
     7
100
AcDbCircle
 10
128.4786038409
 20
32.9881758155
 30
0.0
 40
0.1874999999
100
AcDbArc
 50
272.0001691893
 51
280.2373635927
  0
ARC
  5
4C98
330
210
100
AcDbEntity
  8
0
  6
Continuous
 62
     7
100
AcDbCircle
 10
127.5335203281
 20
43.8589068121
 30
0.0
 40
0.1816931012
100
AcDbArc
 50
89.6116369585
 51
101.5324792125
  0
SPLINE
  5
4EAC
330
210
100
AcDbEntity
  8
DEFAULT_2
  6
HIDDEN
 62
     8
100
AcDbSpline
210
0.0
220
0.0
230
1.0
 70
     8
 71
     3
 72
    36
 73
    32
 74
     0
 42
0.0000001
 43
0.0000000001
 40
0.0
 40
0.0
 40
0.0
 40
0.0
 40
0.0977656828
 40
0.1945908668
 40
0.2895444221
 40
0.3817131203
 40
0.4702107014
 40
0.5541864460000001
 40
0.6328334500000001
 40
0.7053965274
 40
0.7711796995999999
 40
0.8295532770999999
 40
0.8799606173
 40
0.9020248255
 40
0.9219253885999998
 40
0.9396165304
 40
0.9550587267
 40
0.9682194562999999
 40
0.9739365279999999
 40
0.9790750564999999
 40
0.9836339212
 40
0.9876132089
 40
0.9910147737999999
 40
0.9938434890999999
 40
0.9961097249999999
 40
0.9970387961
 40
0.9978377791999999
 40
0.9985148033999999
 40
0.9990833820999998
 40
0.9995662751999999
 40
1.0
 40
1.0
 40
1.0
 40
1.0
 10
111.9454370753
 20
41.7734390018
 30
0.0
 10
111.9311428788
 20
41.7734390018
 30
0.0
 10
111.9026919706
 20
41.7733904566
 30
0.0
 10
111.8603585279
 20
41.7731723732
 30
0.0
 10
111.8188444114
 20
41.77281130519999
 30
0.0
 10
111.7785493939
 20
41.77231084129999
 30
0.0
 10
111.7398615161
 20
41.7716759774
 30
0.0
 10
111.7031533283
 20
41.7709130824
 30
0.0
 10
111.6687782915
 20
41.7700299045
 30
0.0
 10
111.6370673791
 20
41.7690354644
 30
0.0
 10
111.6083257948
 20
41.76794041449999
 30
0.0
 10
111.5828301753
 20
41.7667561211
 30
0.0
 10
111.5637300445
 20
41.76566432179999
 30
0.0
 10
111.5502562276
 20
41.7647359621
 30
0.0
 10
111.5415603994
 20
41.7640561487
 30
0.0
 10
111.533837126
 20
41.7633637734
 30
0.0
 10
111.5271048771
 20
41.76266074309999
 30
0.0
 10
111.5221245926
 20
41.7620432076
 30
0.0
 10
111.5186499466
 20
41.7615355582
 30
0.0
 10
111.5164257104
 20
41.7611713184
 30
0.0
 10
111.5144595235
 20
41.7608059156
 30
0.0
 10
111.5127524142
 20
41.76043972179999
 30
0.0
 10
111.5113047763
 20
41.7600734246
 30
0.0
 10
111.5101171242
 20
41.759707425
 30
0.0
 10
111.5092952512
 20
41.7593860008
 30
0.0
 10
111.5087743807
 20
41.75912079249999
 30
0.0
 10
111.5084751313
 20
41.7589350756
 30
0.0
 10
111.508240151
 20
41.75874885579999
 30
0.0
 10
111.5080689792
 20
41.7585608256
 30
0.0
 10
111.5079622696
 20
41.7583687136
 30
0.0
 10
111.5079370753
 20
41.7582338864
 30
0.0
 10
111.5079370753
 20
41.75817047199999
 30
0.0
  0
SPLINE
  5
4EAD
330
210
100
AcDbEntity
  8
DEFAULT_2
  6
HIDDEN
 62
     8
100
AcDbSpline
210
0.0
220
0.0
230
1.0
 70
     8
 71
     3
 72
    28
 73
    24
 74
     0
 42
0.0000001
 43
0.0000000001
 40
0.0
 40
0.0
 40
0.0
 40
0.0
 40
0.0050960757
 40
0.0074852216
 40
0.0103417481
 40
0.0175702796
 40
0.0270330714
 40
0.0390218007
 40
0.0538468243
 40
0.0718260939
 40
0.093242415
 40
0.1182918545
 40
0.1470248063
 40
0.1793103029
 40
0.2531639232
 40
0.336346369
 40
0.4254529397
 40
0.5180839844000001
 40
0.6128091987
 40
0.708786363
 40
0.8055124579000001
 40
0.9026583368999999
 40
1.0
 40
1.0
 40
1.0
 40
1.0
 10
111.9870742343
 20
41.84999107409999
 30
0.0
 10
111.9870116236
 20
41.8500033592
 30
0.0
 10
111.9872535457
 20
41.84994954639999
 30
0.0
 10
111.9873475829
 20
41.8499248979
 30
0.0
 10
111.9875088856
 20
41.8498836182
 30
0.0
 10
111.9877384234
 20
41.8498206503
 30
0.0
 10
111.9880860488
 20
41.8497192323
 30
0.0
 10
111.9885181725
 20
41.8495829996
 30
0.0
 10
111.9890493964
 20
41.8494017313
 30
0.0
 10
111.9896857642
 20
41.8491654946
 30
0.0
 10
111.9904335345
 20
41.84886186399999
 30
0.0
 10
111.9912934781
 20
41.84847808519999
 30
0.0
 10
111.9922604083
 20
41.8480017117
 30
0.0
 10
111.993742951
 20
41.8471923546
 30
0.0
 10
111.9957405631
 20
41.8459087228
 30
0.0
 10
111.9981530703
 20
41.8439816414
 30
0.0
 10
112.0005041977
 20
41.8416316626
 30
0.0
 10
112.0026568772
 20
41.8389107844
 30
0.0
 10
112.0045159378
 20
41.83587942379999
 30
0.0
 10
112.0060168671
 20
41.83259891899999
 30
0.0
 10
112.0071165858
 20
41.82913090989999
 30
0.0
 10
112.0077869861
 20
41.8255380913
 30
0.0
 10
112.0079370753
 20
41.82310038639999
 30
0.0
 10
112.0079370753
 20
41.8218816373
 30
0.0
  0
SPLINE
  5
4EAE
330
210
100
AcDbEntity
  8
DEFAULT_2
  6
HIDDEN
 62
     8
100
AcDbSpline
210
0.0
220
0.0
230
1.0
 70
     8
 71
     3
 72
    30
 73
    26
 74
     0
 42
0.0000001
 43
0.0000000001
 40
0.0
 40
0.0
 40
0.0
 40
0.0
 40
0.1946051854
 40
0.2895658621
 40
0.3817415111
 40
0.4702457190000001
 40
0.5542277924
 40
0.6328806705
 40
0.7054492266
 40
0.7712373065000002
 40
0.8296153121999999
 40
0.8800264031999999
 40
0.9219939146999999
 40
0.9396863606
 40
0.9551296949999999
 40
0.96829143
 40
0.9791474554
 40
0.9837066233999999
 40
0.9876862195000001
 40
0.9910880648999999
 40
0.9939169448000001
 40
0.9961833997999999
 40
0.9971125359
 40
0.9979115541
 40
1.0
 40
1.0
 40
1.0
 40
1.0
 10
112.1954370753
 20
41.81533798159999
 30
0.0
 10
112.1832438582
 20
41.81533798159999
 30
0.0
 10
112.1651006772
 20
41.8153990416
 30
0.0
 10
112.1411830801
 20
41.8156069824
 30
0.0
 10
112.1239137843
 20
41.8158214815
 30
0.0
 10
112.1073332645
 20
41.8160935638
 30
0.0
 10
112.0916011855
 20
41.81642051639999
 30
0.0
 10
112.0768690277
 20
41.8167990301
 30
0.0
 10
112.0632786338
 20
41.8172251915
 30
0.0
 10
112.0509608272
 20
41.81769458349999
 30
0.0
 10
112.0400340801
 20
41.8182018762
 30
0.0
 10
112.0306035043
 20
41.8187417338
 30
0.0
 10
112.0237241335
 20
41.81923596469999
 30
0.0
 10
112.0190371085
 20
41.8196559331
 30
0.0
 10
112.0161518107
 20
41.8199571489
 30
0.0
 10
112.0136980131
 20
41.8202617893
 30
0.0
 10
112.0119272921
 20
41.82053022289999
 30
0.0
 10
112.01073242
 20
41.8207521367
 30
0.0
 10
112.010000764
 20
41.8209091336
 30
0.0
 10
112.0093804705
 20
41.8210660022
 30
0.0
 10
112.0088711263
 20
41.8212231714
 30
0.0
 10
112.0085197268
 20
41.82136019869999
 30
0.0
 10
112.0082951598
 20
41.821475012
 30
0.0
 10
112.0080965277
 20
41.8215971134
 30
0.0
 10
112.0079370753
 20
41.8217507832
 30
0.0
 10
112.0079370753
 20
41.8218816373
 30
0.0
  0
SPLINE
  5
4EAF
330
210
100
AcDbEntity
  8
DEFAULT_2
  6
HIDDEN
 62
     8
100
AcDbSpline
210
0.0
220
0.0
230
1.0
 70
     8
 71
     3
 72
    28
 73
    24
 74
     0
 42
0.0000001
 43
0.0000000001
 40
0.0
 40
0.0
 40
0.0
 40
0.0
 40
0.0050960757
 40
0.0074852216
 40
0.0103417481
 40
0.0175702796
 40
0.0270330714
 40
0.0390218007
 40
0.0538468243
 40
0.0718260939
 40
0.093242415
 40
0.1182918545
 40
0.1470248063
 40
0.1793103029
 40
0.2531639232
 40
0.336346369
 40
0.4254529397
 40
0.5180839844000001
 40
0.6128091987
 40
0.708786363
 40
0.8055124579000001
 40
0.9026583368999999
 40
1.0
 40
1.0
 40
1.0
 40
1.0
 10
115.0287999164
 20
41.84999107409999
 30
0.0
 10
115.028862527
 20
41.8500033592
 30
0.0
 10
115.0286206049
 20
41.84994954639999
 30
0.0
 10
115.0285265678
 20
41.8499248979
 30
0.0
 10
115.0283652651
 20
41.8498836182
 30
0.0
 10
115.0281357272
 20
41.8498206503
 30
0.0
 10
115.0277881019
 20
41.8497192323
 30
0.0
 10
115.0273559781
 20
41.8495829996
 30
0.0
 10
115.0268247542
 20
41.8494017313
 30
0.0
 10
115.0261883865
 20
41.8491654946
 30
0.0
 10
115.0254406161
 20
41.84886186399999
 30
0.0
 10
115.0245806725
 20
41.84847808519999
 30
0.0
 10
115.0236137423
 20
41.8480017117
 30
0.0
 10
115.0221311996
 20
41.8471923546
 30
0.0
 10
115.0201335876
 20
41.8459087228
 30
0.0
 10
115.0177210804
 20
41.8439816414
 30
0.0
 10
115.0153699529
 20
41.8416316626
 30
0.0
 10
115.0132172734
 20
41.8389107844
 30
0.0
 10
115.0113582128
 20
41.83587942379999
 30
0.0
 10
115.0098572835
 20
41.83259891899999
 30
0.0
 10
115.0087575648
 20
41.82913090989999
 30
0.0
 10
115.0080871645
 20
41.8255380913
 30
0.0
 10
115.0079370753
 20
41.82310038639999
 30
0.0
 10
115.0079370753
 20
41.8218816373
 30
0.0
  0
SPLINE
  5
4EB0
330
210
100
AcDbEntity
  8
DEFAULT_2
  6
HIDDEN
 62
     8
100
AcDbSpline
210
0.0
220
0.0
230
1.0
 70
     8
 71
     3
 72
    35
 73
    31
 74
     0
 42
0.0000001
 43
0.0000000001
 40
0.0
 40
0.0
 40
0.0
 40
0.0
 40
0.0977658208
 40
0.1945911776
 40
0.2895448892
 40
0.3817137358
 40
0.4702114575
 40
0.5541873339
 40
0.6328344609000001
 40
0.7053976546
 40
0.7711809387000001
 40
0.8295546195
 40
0.8799620476000001
 40
0.9020262922
 40
0.9219268864
 40
0.9396180541999999
 40
0.9550602714
 40
0.9682210170999999
 40
0.9739380954999999
 40
0.9790766292
 40
0.9836355104
 40
0.9876147896999999
 40
0.9910163800999999
 40
0.9938450754000001
 40
0.9961113428
 40
0.9978377616999999
 40
0.9985148042
 40
0.9990833929999999
 40
0.9995662774999999
 40
1.0
 40
1.0
 40
1.0
 40
1.0
 10
112.1954370753
 20
41.74399255149999
 30
0.0
 10
112.1821638955
 20
41.74399255149999
 30
0.0
 10
112.1557451952
 20
41.74403762919999
 30
0.0
 10
112.1164355697
 20
41.7442401352
 30
0.0
 10
112.0778867445
 20
41.74457541259999
 30
0.0
 10
112.0404699423
 20
41.74504012909999
 30
0.0
 10
112.0045454849
 20
41.74562964559999
 30
0.0
 10
111.9704593117
 20
41.7463380482
 30
0.0
 10
111.9385396356
 20
41.74715814199999
 30
0.0
 10
111.9090937882
 20
41.7480815507
 30
0.0
 10
111.8824051721
 20
41.7490983826
 30
0.0
 10
111.8587306652
 20
41.7501980835
 30
0.0
 10
111.8409948271
 20
41.7512118971
 30
0.0
 10
111.8284834248
 20
41.7520739454
 30
0.0
 10
111.8204087276
 20
41.7527052008
 30
0.0
 10
111.8132371174
 20
41.7533481206
 30
0.0
 10
111.8069857456
 20
41.75400093469999
 30
0.0
 10
111.8023611957
 20
41.7545743601
 30
0.0
 10
111.7991347429
 20
41.7550457496
 30
0.0
 10
111.7970693731
 20
41.7553839706
 30
0.0
 10
111.7952436518
 20
41.7557232794
 30
0.0
 10
111.7936584079
 20
41.7560632934
 30
0.0
 10
111.7923143805
 20
41.7564035026
 30
0.0
 10
111.7912109733
 20
41.7567431318
 30
0.0
 10
111.7903483658
 20
41.7570817317
 30
0.0
 10
111.7897859077
 20
41.75738232349999
 30
0.0
 10
111.789468472
 20
41.7576333647
 30
0.0
 10
111.789309555
 20
41.7578080045
 30
0.0
 10
111.7892104675
 20
41.7579863903
 30
0.0
 10
111.7891870828
 20
41.7581115877
 30
0.0
 10
111.7891870828
 20
41.75817047199999
 30
0.0
  0
SPLINE
  5
4EB1
330
210
100
AcDbEntity
  8
DEFAULT_2
  6
HIDDEN
 62
     8
100
AcDbSpline
210
0.0
220
0.0
230
1.0
 70
     8
 71
     3
 72
    35
 73
    31
 74
     0
 42
0.0000001
 43
0.0000000001
 40
0.0
 40
0.0
 40
0.0
 40
0.0
 40
0.0977657772
 40
0.1945910918
 40
0.2895447637
 40
0.3817135745
 40
0.4702112654
 40
0.5541871171000001
 40
0.6328342266
 40
0.7053974107
 40
0.7711806940000001
 40
0.8295543832999999
 40
0.8799618295999998
 40
0.9020260870999999
 40
0.9219266967000001
 40
0.9396178824999999
 40
0.9550601201
 40
0.9682208886999999
 40
0.9739379793999999
 40
0.9790765259999998
 40
0.9836354205999999
 40
0.9876147139
 40
0.9910163186
 40
0.9938450287
 40
0.9961113109000001
 40
0.9978377442000001
 40
0.9985147931999998
 40
0.9990833875999999
 40
0.9995662761
 40
1.0
 40
1.0
 40
1.0
 40
1.0
 10
112.1954370753
 20
41.77522351479999
 30
0.0
 10
112.1821639017
 20
41.77522351479999
 30
0.0
 10
112.1557452138
 20
41.7752685925
 30
0.0
 10
112.1164356063
 20
41.7754710983
 30
0.0
 10
112.0778867981
 20
41.7758063754
 30
0.0
 10
112.0404700112
 20
41.7762710914
 30
0.0
 10
112.0045455672
 20
41.7768606074
 30
0.0
 10
111.9704594048
 20
41.7775690094
 30
0.0
 10
111.9385397365
 20
41.7783891026
 30
0.0
 10
111.9090938936
 20
41.77931251039999
 30
0.0
 10
111.8824052784
 20
41.78032934149999
 30
0.0
 10
111.8587307686
 20
41.7814290415
 30
0.0
 10
111.8409949255
 20
41.7824428544
 30
0.0
 10
111.8284835172
 20
41.78330490199999
 30
0.0
 10
111.8204088138
 20
41.7839361569
 30
0.0
 10
111.8132371964
 20
41.7845790764
 30
0.0
 10
111.8069858164
 20
41.78523188999999
 30
0.0
 10
111.8023612589
 20
41.78580531499999
 30
0.0
 10
111.7991347997
 20
41.7862767042
 30
0.0
 10
111.7970694246
 20
41.786614925
 30
0.0
 10
111.7952436976
 20
41.78695423359999
 30
0.0
 10
111.793658448
 20
41.7872942474
 30
0.0
 10
111.7923144145
 20
41.7876344565
 30
0.0
 10
111.7912110012
 20
41.7879740855
 30
0.0
 10
111.7903483872
 20
41.7883126854
 30
0.0
 10
111.7897859236
 20
41.78861327689999
 30
0.0
 10
111.7894684832
 20
41.7888643178
 30
0.0
 10
111.7893095627
 20
41.78903895739999
 30
0.0
 10
111.7892104716
 20
41.7892173428
 30
0.0
 10
111.789187084
 20
41.7893425403
 30
0.0
 10
111.7891870828
 20
41.7894014249
 30
0.0
  0
SPLINE
  5
4EB2
330
210
100
AcDbEntity
  8
DEFAULT_2
  6
HIDDEN
 62
     8
100
AcDbSpline
210
0.0
220
0.0
230
1.0
 70
     8
 71
     3
 72
    33
 73
    29
 74
     0
 42
0.0000001
 43
0.0000000001
 40
0.0
 40
0.0
 40
0.0
 40
0.0
 40
0.0004337262
 40
0.0009166221
 40
0.0014852033
 40
0.0021622264
 40
0.0038886733
 40
0.0061549237
 40
0.0089836295
 40
0.0123852233
 40
0.0163644946
 40
0.0209233951
 40
0.0260619143
 40
0.0317790145
 40
0.0449397646
 40
0.0603819869
 40
0.0780731658
 40
0.120037595
 40
0.1704450686
 40
0.2288187797
 40
0.294602099
 40
0.3671653546
 40
0.4458125453
 40
0.5297884784
 40
0.6182862628
 40
0.7104551853
 40
0.8054089559999999
 40
1.0
 40
1.0
 40
1.0
 40
1.0
 10
115.1016870753
 20
41.75817047199999
 30
0.0
 10
115.1016870753
 20
41.7582112384
 30
0.0
 10
115.1016708794
 20
41.75829791449999
 30
0.0
 10
115.1016022739
 20
41.7584214083
 30
0.0
 10
115.10149226
 20
41.7585423148
 30
0.0
 10
115.1012725013
 20
41.75871611899999
 30
0.0
 10
115.1008831015
 20
41.75892420949999
 30
0.0
 10
115.1002859147
 20
41.759158634
 30
0.0
 10
115.0995220163
 20
41.7593937573
 30
0.0
 10
115.0985915365
 20
41.75962928789999
 30
0.0
 10
115.0974940596
 20
41.7598646833
 30
0.0
 10
115.0962300996
 20
41.76009958709999
 30
0.0
 10
115.0948002271
 20
41.7603337425
 30
0.0
 10
115.0925665294
 20
41.76066008769999
 30
0.0
 10
115.0893649167
 20
41.7610570642
 30
0.0
 10
115.0850370501
 20
41.7615090741
 30
0.0
 10
115.0780064782
 20
41.7621389465
 30
0.0
 10
115.0676874388
 20
41.7628803432
 30
0.0
 10
115.0535415691
 20
41.7636901071
 30
0.0
 10
115.0371514486
 20
41.7644510556
 30
0.0
 10
115.0186747418
 20
41.7651551394
 30
0.0
 10
114.9982891474
 20
41.7657943839
 30
0.0
 10
114.976190912
 20
41.7663621523
 30
0.0
 10
114.9525927917
 20
41.7668525831
 30
0.0
 10
114.9277220152
 20
41.76726070509999
 30
0.0
 10
114.9018180717
 20
41.7675824551
 30
0.0
 10
114.865941676
 20
41.7678943647
 30
0.0
 10
114.8387269027
 20
41.7679859555
 30
0.0
 10
114.8204370753
 20
41.7679859555
 30
0.0
  0
SPLINE
  5
4EB3
330
210
100
AcDbEntity
  8
DEFAULT_2
  6
HIDDEN
 62
     8
100
AcDbSpline
210
0.0
220
0.0
230
1.0
 70
     8
 71
     3
 72
    34
 73
    30
 74
     0
 42
0.0000001
 43
0.0000000001
 40
0.0
 40
0.0
 40
0.0
 40
0.0
 40
0.0004337258
 40
0.0009166206
 40
0.0014852009
 40
0.002162225
 40
0.003888673
 40
0.0061549168
 40
0.008983631
 40
0.0123852116
 40
0.0163644944
 40
0.0209233814
 40
0.0260619044
 40
0.0317790013
 40
0.0449397527
 40
0.0603819733
 40
0.0780731431
 40
0.097973739
 40
0.1200379867
 40
0.1704454316
 40
0.2288191356
 40
0.2946024385
 40
0.3671656457
 40
0.4458127874000001
 40
0.5297886884000001
 40
0.6182864430000001
 40
0.71045532
 40
0.8054090499999999
 40
1.0
 40
1.0
 40
1.0
 40
1.0
 10
115.1641870753
 20
41.7894014354
 30
0.0
 10
115.1641870753
 20
41.78945126099999
 30
0.0
 10
115.1641672807
 20
41.7895571982
 30
0.0
 10
115.1640834303
 20
41.7897081353
 30
0.0
 10
115.163948969
 20
41.7898559102
 30
0.0
 10
115.1636803742
 20
41.7900683371
 30
0.0
 10
115.1632044414
 20
41.7903226694
 30
0.0
 10
115.1624745464
 20
41.7906091902
 30
0.0
 10
115.1615408927
 20
41.79089656019999
 30
0.0
 10
115.1604036392
 20
41.7911844342
 30
0.0
 10
115.1590622789
 20
41.7914721366
 30
0.0
 10
115.1575174385
 20
41.79175924369999
 30
0.0
 10
115.155769817
 20
41.7920454323
 30
0.0
 10
115.1530397406
 20
41.7924442981
 30
0.0
 10
115.1491266581
 20
41.79292950579999
 30
0.0
 10
115.143837036
 20
41.7934818864
 30
0.0
 10
115.1377687514
 20
41.7940258957
 30
0.0
 10
115.1309363165
 20
41.7945600348
 30
0.0
 10
115.120349746
 20
41.7952894604
 30
0.0
 10
115.1053424978
 20
41.7961473026
 30
0.0
 10
115.0853102219
 20
41.7970778186
 30
0.0
 10
115.062727547
 20
41.79793821479999
 30
0.0
 10
115.0378118318
 20
41.7987195608
 30
0.0
 10
115.0108028771
 20
41.79941348619999
 30
0.0
 10
114.9819607304
 20
41.80001290559999
 30
0.0
 10
114.9515631128
 20
41.80051171969999
 30
0.0
 10
114.9199027362
 20
41.8009049703
 30
0.0
 10
114.8760538087
 20
41.80128619309999
 30
0.0
 10
114.8427913082
 20
41.8013981374
 30
0.0
 10
114.8204370753
 20
41.8013981374
 30
0.0
  0
SPLINE
  5
4EB4
330
210
100
AcDbEntity
  8
DEFAULT_2
  6
HIDDEN
 62
     8
100
AcDbSpline
210
0.0
220
0.0
230
1.0
 70
     8
 71
     3
 72
    34
 73
    30
 74
     0
 42
0.0000001
 43
0.0000000001
 40
0.0
 40
0.0
 40
0.0
 40
0.0
 40
0.0004337258
 40
0.0009166206
 40
0.0014852009
 40
0.002162225
 40
0.003888673
 40
0.0061549168
 40
0.008983631
 40
0.0123852116
 40
0.0163644944
 40
0.0209233814
 40
0.0260619044
 40
0.0317790013
 40
0.0449397527
 40
0.0603819733
 40
0.0780731431
 40
0.097973739
 40
0.1200379867
 40
0.1704454316
 40
0.2288191356
 40
0.2946024385
 40
0.3671656457
 40
0.4458127874000001
 40
0.5297886884000001
 40
0.6182864430000001
 40
0.71045532
 40
0.8054090499999999
 40
1.0
 40
1.0
 40
1.0
 40
1.0
 10
115.1641870753
 20
41.75817047199999
 30
0.0
 10
115.1641870753
 20
41.7582202976
 30
0.0
 10
115.1641672807
 20
41.75832623489999
 30
0.0
 10
115.1640834303
 20
41.75847717189999
 30
0.0
 10
115.163948969
 20
41.75862494679999
 30
0.0
 10
115.1636803742
 20
41.75883737369999
 30
0.0
 10
115.1632044414
 20
41.7590917061
 30
0.0
 10
115.1624745464
 20
41.75937822689999
 30
0.0
 10
115.1615408927
 20
41.75966559679999
 30
0.0
 10
115.1604036392
 20
41.75995347079999
 30
0.0
 10
115.1590622789
 20
41.76024117319999
 30
0.0
 10
115.1575174385
 20
41.7605282803
 30
0.0
 10
115.155769817
 20
41.760814469
 30
0.0
 10
115.1530397406
 20
41.7612133348
 30
0.0
 10
115.1491266581
 20
41.7616985424
 30
0.0
 10
115.143837036
 20
41.762250923
 30
0.0
 10
115.1377687514
 20
41.7627949323
 30
0.0
 10
115.1309363165
 20
41.76332907139999
 30
0.0
 10
115.120349746
 20
41.7640584971
 30
0.0
 10
115.1053424978
 20
41.7649163393
 30
0.0
 10
115.0853102219
 20
41.7658468552
 30
0.0
 10
115.062727547
 20
41.7667072514
 30
0.0
 10
115.0378118318
 20
41.76748859749999
 30
0.0
 10
115.0108028771
 20
41.7681825228
 30
0.0
 10
114.9819607304
 20
41.7687819423
 30
0.0
 10
114.9515631128
 20
41.7692807564
 30
0.0
 10
114.9199027362
 20
41.76967400689999
 30
0.0
 10
114.8760538087
 20
41.7700552298
 30
0.0
 10
114.8427913082
 20
41.77016717399999
 30
0.0
 10
114.8204370753
 20
41.77016717399999
 30
0.0
  0
SPLINE
  5
4EB5
330
210
100
AcDbEntity
  8
DEFAULT_2
  6
HIDDEN
 62
     8
100
AcDbSpline
210
0.0
220
0.0
230
1.0
 70
     8
 71
     3
 72
    33
 73
    29
 74
     0
 42
0.0000001
 43
0.0000000001
 40
0.0
 40
0.0
 40
0.0
 40
0.0
 40
0.194591044
 40
0.2895448147
 40
0.3817137372
 40
0.4702115216
 40
0.5541874547
 40
0.6328346454
 40
0.705397901
 40
0.7711812203
 40
0.8295549314
 40
0.879962405
 40
0.9219268341999999
 40
0.9396180131000001
 40
0.9550602354
 40
0.9682209854999999
 40
0.9739380857
 40
0.9790766048999998
 40
0.9836355054000001
 40
0.9876147766999999
 40
0.9910163705
 40
0.9938450762999998
 40
0.9961113266999999
 40
0.9978377736
 40
0.9985147966999999
 40
0.9990833779
 40
0.9995662738
 40
1.0
 40
1.0
 40
1.0
 40
1.0
 10
112.1954370753
 20
41.7483549886
 30
0.0
 10
112.177147248
 20
41.7483549886
 30
0.0
 10
112.1499324747
 20
41.7484465794
 30
0.0
 10
112.114056079
 20
41.748758489
 30
0.0
 10
112.0881521354
 20
41.7490802389
 30
0.0
 10
112.0632813589
 20
41.74948836099999
 30
0.0
 10
112.0396832386
 20
41.7499787918
 30
0.0
 10
112.0175850032
 20
41.7505465602
 30
0.0
 10
111.9971994088
 20
41.7511858047
 30
0.0
 10
111.978722702
 20
41.7518898884
 30
0.0
 10
111.9623325815
 20
41.752650837
 30
0.0
 10
111.9481867118
 20
41.75346060089999
 30
0.0
 10
111.9378676725
 20
41.75420199749999
 30
0.0
 10
111.9308371005
 20
41.75483187
 30
0.0
 10
111.9265092339
 20
41.7552838799
 30
0.0
 10
111.9233076213
 20
41.7556808563
 30
0.0
 10
111.9210739235
 20
41.7560072016
 30
0.0
 10
111.9196440511
 20
41.75624135689999
 30
0.0
 10
111.918380091
 20
41.75647626079999
 30
0.0
 10
111.9172826141
 20
41.75671165619999
 30
0.0
 10
111.9163521344
 20
41.75694718679999
 30
0.0
 10
111.9155882359
 20
41.7571823101
 30
0.0
 10
111.9149910491
 20
41.7574167345
 30
0.0
 10
111.9146016494
 20
41.757624825
 30
0.0
 10
111.9143818907
 20
41.7577986292
 30
0.0
 10
111.9142718767
 20
41.7579195358
 30
0.0
 10
111.9142032712
 20
41.7580430296
 30
0.0
 10
111.9141870753
 20
41.7581297056
 30
0.0
 10
111.9141870753
 20
41.75817047199999
 30
0.0
  0
SPLINE
  5
4EB6
330
210
100
AcDbEntity
  8
DEFAULT_2
  6
HIDDEN
 62
     8
100
AcDbSpline
210
0.0
220
0.0
230
1.0
 70
     8
 71
     3
 72
    28
 73
    24
 74
     0
 42
0.0000001
 43
0.0000000001
 40
0.0
 40
0.0
 40
0.0
 40
0.0
 40
0.1816606719
 40
0.3575616894
 40
0.4415943449000001
 40
0.5221125637
 40
0.5984695739000001
 40
0.6700470839000001
 40
0.7362577547
 40
0.7965456716000001
 40
0.8503826890999999
 40
0.8747221545
 40
0.8972567665000001
 40
0.9179197543999999
 40
0.9366386581
 40
0.9533300695999999
 40
0.9678899881999999
 40
0.9801746194999999
 40
0.9899594537999998
 40
0.9938015262
 40
0.9968450293
 40
0.9989720643
 40
1.0
 40
1.0
 40
1.0
 40
1.0
 10
114.8204370753
 20
41.8075641241
 30
0.0
 10
114.8424848538
 20
41.8075641241
 30
0.0
 10
114.8858814841
 20
41.8076971339
 30
0.0
 10
114.9394749402
 20
41.8081994158
 30
0.0
 10
114.9807905047
 20
41.8088063186
 30
0.0
 10
115.0100240796
 20
41.8093466259
 30
0.0
 10
115.0377438992
 20
41.80997422519999
 30
0.0
 10
115.0637246769
 20
41.8106836892
 30
0.0
 10
115.0877520866
 20
41.8114684959
 30
0.0
 10
115.1096225855
 20
41.8123212003
 30
0.0
 10
115.1264097025
 20
41.81310450229999
 30
0.0
 10
115.1386148905
 20
41.8137669081
 30
0.0
 10
115.1467970702
 20
41.81425768159999
 30
0.0
 10
115.1542951939
 20
41.8147571502
 30
0.0
 10
115.1610819859
 20
41.81526256099999
 30
0.0
 10
115.1671256046
 20
41.8157700328
 30
0.0
 10
115.1723856151
 20
41.81627332539999
 30
0.0
 10
115.1768044305
 20
41.8167623778
 30
0.0
 10
115.1799233588
 20
41.8171678789
 30
0.0
 10
115.1819236069
 20
41.8174725549
 30
0.0
 10
115.1830021947
 20
41.8176550628
 30
0.0
 10
115.1837412422
 20
41.81779579879999
 30
0.0
 10
115.1841158528
 20
41.8178754347
 30
0.0
 10
115.1842372196
 20
41.8179043271
 30
0.0
  0
SPLINE
  5
4EB7
330
210
100
AcDbEntity
  8
DEFAULT_2
  6
HIDDEN
 62
     8
100
AcDbSpline
210
0.0
220
0.0
230
1.0
 70
     8
 71
     3
 72
    34
 73
    30
 74
     0
 42
0.0000001
 43
0.0000000001
 40
0.0
 40
0.0
 40
0.0
 40
0.0
 40
0.010402927
 40
0.0207454799
 40
0.0309559563
 40
0.0409387455
 40
0.0505562939
 40
0.0596284406
 40
0.0753193626
 40
0.0872177203
 40
0.0961176405
 40
0.109610824
 40
0.1216023018
 40
0.1341600703
 40
0.1480620898
 40
0.163640896
 40
0.181047376
 40
0.2003453429
 40
0.244653779
 40
0.2964123977
 40
0.3552333602
 40
0.4205888412
 40
0.4918505770000001
 40
0.5683113756
 40
0.6491998245000001
 40
0.7336922944
 40
0.8209238069999999
 40
0.909998445
 40
1.0
 40
1.0
 40
1.0
 40
1.0
 10
115.2266870506
 20
41.78940132
 30
0.0
 10
115.2266870671
 20
41.7908751239
 30
0.0
 10
115.2264814745
 20
41.79381831039999
 30
0.0
 10
115.2255691384
 20
41.7981216493
 30
0.0
 10
115.2240951936
 20
41.8022034339
 30
0.0
 10
115.2221340183
 20
41.80595777829999
 30
0.0
 10
115.2197945059
 20
41.80929247299999
 30
0.0
 10
115.2165214175
 20
41.81291293469999
 30
0.0
 10
115.2124310196
 20
41.8161779282
 30
0.0
 10
115.2078801966
 20
41.8186650211
 30
0.0
 10
115.2033645111
 20
41.8204758727
 30
0.0
 10
115.1986610561
 20
41.82178423879999
 30
0.0
 10
115.1933696911
 20
41.8228182455
 30
0.0
 10
115.1879821431
 20
41.82363183809999
 30
0.0
 10
115.182070212
 20
41.82435632399999
 30
0.0
 10
115.175462009
 20
41.8250347949
 30
0.0
 10
115.1680831906
 20
41.82568342519999
 30
0.0
 10
115.1566390796
 20
41.8265576418
 30
0.0
 10
115.140325909
 20
41.8275728485
 30
0.0
 10
115.1184095251
 20
41.8286661901
 30
0.0
 10
115.0935045708
 20
41.8296751407
 30
0.0
 10
115.0658314112
 20
41.83059136599999
 30
0.0
 10
115.0356550342
 20
41.83140556219999
 30
0.0
 10
115.003274771
 20
41.832109462
 30
0.0
 10
114.9690174675
 20
41.8326957249
 30
0.0
 10
114.9332322412
 20
41.83315822189999
 30
0.0
 10
114.896285788
 20
41.83349209510001
 30
0.0
 10
114.8585578926
 20
41.83369383539999
 30
0.0
 10
114.8331877793
 20
41.83373874659999
 30
0.0
 10
114.8204370753
 20
41.83373874659999
 30
0.0
  0
SPLINE
  5
4EB8
330
210
100
AcDbEntity
  8
DEFAULT_2
  6
HIDDEN
 62
     8
100
AcDbSpline
210
0.0
220
0.0
230
1.0
 70
     8
 71
     3
 72
    30
 73
    26
 74
     0
 42
0.0000001
 43
0.0000000001
 40
0.0
 40
0.0
 40
0.0
 40
0.0
 40
0.0020884459
 40
0.0028874641
 40
0.0038166002
 40
0.0060830552
 40
0.0089119351
 40
0.0123137805
 40
0.0162933766
 40
0.0208525446
 40
0.03170857
 40
0.044870305
 40
0.0603136394
 40
0.0780060853
 40
0.1199735968
 40
0.1703846878
 40
0.2287626935
 40
0.2945507734
 40
0.3671193295
 40
0.4457722076
 40
0.529754281
 40
0.6182584889000001
 40
0.7104341379000001
 40
0.8053948145999999
 40
1.0
 40
1.0
 40
1.0
 40
1.0
 10
115.0079370753
 20
41.8218816373
 30
0.0
 10
115.0079370753
 20
41.8217507832
 30
0.0
 10
115.0077776229
 20
41.8215971134
 30
0.0
 10
115.0075789908
 20
41.821475012
 30
0.0
 10
115.0073544238
 20
41.82136019869999
 30
0.0
 10
115.0070030243
 20
41.8212231714
 30
0.0
 10
115.0064936801
 20
41.8210660022
 30
0.0
 10
115.0058733866
 20
41.8209091336
 30
0.0
 10
115.0051417306
 20
41.8207521367
 30
0.0
 10
115.0039468585
 20
41.82053022289999
 30
0.0
 10
115.0021761375
 20
41.8202617893
 30
0.0
 10
114.9997223399
 20
41.8199571489
 30
0.0
 10
114.9968370421
 20
41.8196559331
 30
0.0
 10
114.9921500171
 20
41.81923596469999
 30
0.0
 10
114.9852706463
 20
41.8187417338
 30
0.0
 10
114.9758400705
 20
41.8182018762
 30
0.0
 10
114.9649133234
 20
41.81769458349999
 30
0.0
 10
114.9525955169
 20
41.8172251915
 30
0.0
 10
114.9390051229
 20
41.8167990301
 30
0.0
 10
114.9242729651
 20
41.81642051639999
 30
0.0
 10
114.9085408861
 20
41.8160935638
 30
0.0
 10
114.8919603663
 20
41.8158214815
 30
0.0
 10
114.8746910705
 20
41.8156069824
 30
0.0
 10
114.8507734734
 20
41.8153990416
 30
0.0
 10
114.8326302925
 20
41.81533798159999
 30
0.0
 10
114.8204370753
 20
41.81533798159999
 30
0.0
  0
SPLINE
  5
4EB9
330
210
100
AcDbEntity
  8
DEFAULT_2
  6
HIDDEN
 62
     8
100
AcDbSpline
210
0.0
220
0.0
230
1.0
 70
     8
 71
     3
 72
    33
 73
    29
 74
     0
 42
0.0000001
 43
0.0000000001
 40
0.0
 40
0.0
 40
0.0
 40
0.0
 40
0.0004337262
 40
0.0009166221
 40
0.0014852033
 40
0.0021622264
 40
0.0038886733
 40
0.0061549237
 40
0.0089836295
 40
0.0123852233
 40
0.0163644946
 40
0.0209233951
 40
0.0260619143
 40
0.0317790145
 40
0.0449397646
 40
0.0603819869
 40
0.0780731658
 40
0.120037595
 40
0.1704450686
 40
0.2288187797
 40
0.294602099
 40
0.3671653546
 40
0.4458125453
 40
0.5297884784
 40
0.6182862628
 40
0.7104551853
 40
0.8054089559999999
 40
1.0
 40
1.0
 40
1.0
 40
1.0
 10
111.9141870753
 20
41.75817047199999
 30
0.0
 10
111.9141870753
 20
41.7582112384
 30
0.0
 10
111.9142032712
 20
41.75829791449999
 30
0.0
 10
111.9142718767
 20
41.7584214083
 30
0.0
 10
111.9143818907
 20
41.7585423148
 30
0.0
 10
111.9146016494
 20
41.75871611899999
 30
0.0
 10
111.9149910491
 20
41.75892420949999
 30
0.0
 10
111.9155882359
 20
41.759158634
 30
0.0
 10
111.9163521344
 20
41.7593937573
 30
0.0
 10
111.9172826141
 20
41.75962928789999
 30
0.0
 10
111.918380091
 20
41.7598646833
 30
0.0
 10
111.9196440511
 20
41.76009958709999
 30
0.0
 10
111.9210739235
 20
41.7603337425
 30
0.0
 10
111.9233076213
 20
41.76066008769999
 30
0.0
 10
111.9265092339
 20
41.7610570642
 30
0.0
 10
111.9308371005
 20
41.7615090741
 30
0.0
 10
111.9378676725
 20
41.7621389465
 30
0.0
 10
111.9481867118
 20
41.7628803432
 30
0.0
 10
111.9623325815
 20
41.7636901071
 30
0.0
 10
111.978722702
 20
41.7644510556
 30
0.0
 10
111.9971994088
 20
41.7651551394
 30
0.0
 10
112.0175850032
 20
41.7657943839
 30
0.0
 10
112.0396832386
 20
41.7663621523
 30
0.0
 10
112.0632813589
 20
41.7668525831
 30
0.0
 10
112.0881521354
 20
41.76726070509999
 30
0.0
 10
112.114056079
 20
41.7675824551
 30
0.0
 10
112.1499324747
 20
41.7678943647
 30
0.0
 10
112.177147248
 20
41.7679859555
 30
0.0
 10
112.1954370753
 20
41.7679859555
 30
0.0
  0
SPLINE
  5
4EBA
330
210
100
AcDbEntity
  8
DEFAULT_2
  6
HIDDEN
 62
     8
100
AcDbSpline
210
0.0
220
0.0
230
1.0
 70
     8
 71
     3
 72
    34
 73
    30
 74
     0
 42
0.0000001
 43
0.0000000001
 40
0.0
 40
0.0
 40
0.0
 40
0.0
 40
0.0004337258
 40
0.0009166206
 40
0.0014852009
 40
0.002162225
 40
0.003888673
 40
0.0061549168
 40
0.008983631
 40
0.0123852116
 40
0.0163644944
 40
0.0209233814
 40
0.0260619044
 40
0.0317790013
 40
0.0449397527
 40
0.0603819733
 40
0.0780731431
 40
0.097973739
 40
0.1200379867
 40
0.1704454316
 40
0.2288191356
 40
0.2946024385
 40
0.3671656457
 40
0.4458127874000001
 40
0.5297886884000001
 40
0.6182864430000001
 40
0.71045532
 40
0.8054090499999999
 40
1.0
 40
1.0
 40
1.0
 40
1.0
 10
111.8516870753
 20
41.75817047199999
 30
0.0
 10
111.8516870753
 20
41.7582202976
 30
0.0
 10
111.8517068699
 20
41.75832623489999
 30
0.0
 10
111.8517907204
 20
41.75847717189999
 30
0.0
 10
111.8519251817
 20
41.75862494679999
 30
0.0
 10
111.8521937764
 20
41.75883737369999
 30
0.0
 10
111.8526697092
 20
41.7590917061
 30
0.0
 10
111.8533996043
 20
41.75937822689999
 30
0.0
 10
111.8543332579
 20
41.75966559679999
 30
0.0
 10
111.8554705114
 20
41.75995347079999
 30
0.0
 10
111.8568118717
 20
41.76024117319999
 30
0.0
 10
111.8583567122
 20
41.7605282803
 30
0.0
 10
111.8601043336
 20
41.760814469
 30
0.0
 10
111.8628344101
 20
41.7612133348
 30
0.0
 10
111.8667474926
 20
41.7616985424
 30
0.0
 10
111.8720371147
 20
41.762250923
 30
0.0
 10
111.8781053993
 20
41.7627949323
 30
0.0
 10
111.8849378341
 20
41.76332907139999
 30
0.0
 10
111.8955244047
 20
41.7640584971
 30
0.0
 10
111.9105316528
 20
41.7649163393
 30
0.0
 10
111.9305639288
 20
41.7658468552
 30
0.0
 10
111.9531466036
 20
41.7667072514
 30
0.0
 10
111.9780623188
 20
41.76748859749999
 30
0.0
 10
112.0050712736
 20
41.7681825228
 30
0.0
 10
112.0339134203
 20
41.7687819423
 30
0.0
 10
112.0643110379
 20
41.7692807564
 30
0.0
 10
112.0959714144
 20
41.76967400689999
 30
0.0
 10
112.139820342
 20
41.7700552298
 30
0.0
 10
112.1730828424
 20
41.77016717399999
 30
0.0
 10
112.1954370753
 20
41.77016717399999
 30
0.0
  0
SPLINE
  5
4EBB
330
210
100
AcDbEntity
  8
DEFAULT_2
  6
HIDDEN
 62
     8
100
AcDbSpline
210
0.0
220
0.0
230
1.0
 70
     8
 71
     3
 72
    34
 73
    30
 74
     0
 42
0.0000001
 43
0.0000000001
 40
0.0
 40
0.0
 40
0.0
 40
0.0
 40
0.0004337258
 40
0.0009166206
 40
0.0014852009
 40
0.002162225
 40
0.003888673
 40
0.0061549168
 40
0.008983631
 40
0.0123852116
 40
0.0163644944
 40
0.0209233814
 40
0.0260619044
 40
0.0317790013
 40
0.0449397527
 40
0.0603819733
 40
0.0780731431
 40
0.097973739
 40
0.1200379867
 40
0.1704454316
 40
0.2288191356
 40
0.2946024385
 40
0.3671656457
 40
0.4458127874000001
 40
0.5297886884000001
 40
0.6182864430000001
 40
0.71045532
 40
0.8054090499999999
 40
1.0
 40
1.0
 40
1.0
 40
1.0
 10
111.8516870753
 20
41.7894014354
 30
0.0
 10
111.8516870753
 20
41.78945126099999
 30
0.0
 10
111.8517068699
 20
41.7895571982
 30
0.0
 10
111.8517907204
 20
41.7897081353
 30
0.0
 10
111.8519251817
 20
41.7898559102
 30
0.0
 10
111.8521937764
 20
41.7900683371
 30
0.0
 10
111.8526697092
 20
41.7903226694
 30
0.0
 10
111.8533996043
 20
41.7906091902
 30
0.0
 10
111.8543332579
 20
41.79089656019999
 30
0.0
 10
111.8554705114
 20
41.7911844342
 30
0.0
 10
111.8568118717
 20
41.7914721366
 30
0.0
 10
111.8583567122
 20
41.79175924369999
 30
0.0
 10
111.8601043336
 20
41.7920454323
 30
0.0
 10
111.8628344101
 20
41.7924442981
 30
0.0
 10
111.8667474926
 20
41.79292950579999
 30
0.0
 10
111.8720371147
 20
41.7934818864
 30
0.0
 10
111.8781053993
 20
41.7940258957
 30
0.0
 10
111.8849378341
 20
41.7945600348
 30
0.0
 10
111.8955244047
 20
41.7952894604
 30
0.0
 10
111.9105316528
 20
41.7961473026
 30
0.0
 10
111.9305639288
 20
41.7970778186
 30
0.0
 10
111.9531466036
 20
41.79793821479999
 30
0.0
 10
111.9780623188
 20
41.7987195608
 30
0.0
 10
112.0050712736
 20
41.79941348619999
 30
0.0
 10
112.0339134203
 20
41.80001290559999
 30
0.0
 10
112.0643110379
 20
41.80051171969999
 30
0.0
 10
112.0959714144
 20
41.8009049703
 30
0.0
 10
112.139820342
 20
41.80128619309999
 30
0.0
 10
112.1730828424
 20
41.8013981374
 30
0.0
 10
112.1954370753
 20
41.8013981374
 30
0.0
  0
SPLINE
  5
4EBC
330
210
100
AcDbEntity
  8
DEFAULT_2
  6
HIDDEN
 62
     8
100
AcDbSpline
210
0.0
220
0.0
230
1.0
 70
     8
 71
     3
 72
    34
 73
    30
 74
     0
 42
0.0000001
 43
0.0000000001
 40
0.0
 40
0.0
 40
0.0
 40
0.0
 40
0.010402927
 40
0.0207454799
 40
0.0309559563
 40
0.0409387455
 40
0.0505562939
 40
0.0596284406
 40
0.0753193626
 40
0.0872177203
 40
0.0961176405
 40
0.109610824
 40
0.1216023018
 40
0.1341600703
 40
0.1480620898
 40
0.163640896
 40
0.181047376
 40
0.2003453429
 40
0.244653779
 40
0.2964123977
 40
0.3552333602
 40
0.4205888412
 40
0.4918505770000001
 40
0.5683113756
 40
0.6491998245000001
 40
0.7336922944
 40
0.8209238069999999
 40
0.909998445
 40
1.0
 40
1.0
 40
1.0
 40
1.0
 10
111.7891871001
 20
41.78940132
 30
0.0
 10
111.7891870836
 20
41.7908751239
 30
0.0
 10
111.7893926762
 20
41.79381831039999
 30
0.0
 10
111.7903050122
 20
41.7981216493
 30
0.0
 10
111.791778957
 20
41.8022034339
 30
0.0
 10
111.7937401323
 20
41.80595777829999
 30
0.0
 10
111.7960796447
 20
41.80929247299999
 30
0.0
 10
111.7993527331
 20
41.81291293469999
 30
0.0
 10
111.8034431311
 20
41.8161779282
 30
0.0
 10
111.807993954
 20
41.8186650211
 30
0.0
 10
111.8125096395
 20
41.8204758727
 30
0.0
 10
111.8172130945
 20
41.82178423879999
 30
0.0
 10
111.8225044595
 20
41.8228182455
 30
0.0
 10
111.8278920076
 20
41.82363183809999
 30
0.0
 10
111.8338039386
 20
41.82435632399999
 30
0.0
 10
111.8404121416
 20
41.8250347949
 30
0.0
 10
111.8477909601
 20
41.82568342519999
 30
0.0
 10
111.859235071
 20
41.8265576418
 30
0.0
 10
111.8755482417
 20
41.8275728485
 30
0.0
 10
111.8974646255
 20
41.8286661901
 30
0.0
 10
111.9223695798
 20
41.8296751407
 30
0.0
 10
111.9500427394
 20
41.83059136599999
 30
0.0
 10
111.9802191164
 20
41.83140556219999
 30
0.0
 10
112.0125993796
 20
41.832109462
 30
0.0
 10
112.0468566832
 20
41.8326957249
 30
0.0
 10
112.0826419094
 20
41.83315822189999
 30
0.0
 10
112.1195883626
 20
41.83349209510001
 30
0.0
 10
112.1573162581
 20
41.83369383539999
 30
0.0
 10
112.1826863713
 20
41.83373874659999
 30
0.0
 10
112.1954370753
 20
41.83373874659999
 30
0.0
  0
SPLINE
  5
4EBD
330
210
100
AcDbEntity
  8
DEFAULT_2
  6
HIDDEN
 62
     8
100
AcDbSpline
210
0.0
220
0.0
230
1.0
 70
     8
 71
     3
 72
    28
 73
    24
 74
     0
 42
0.0000001
 43
0.0000000001
 40
0.0
 40
0.0
 40
0.0
 40
0.0
 40
0.1816606719
 40
0.3575616894
 40
0.4415943449000001
 40
0.5221125637
 40
0.5984695739000001
 40
0.6700470839000001
 40
0.7362577547
 40
0.7965456716000001
 40
0.8503826890999999
 40
0.8747221545
 40
0.8972567665000001
 40
0.9179197543999999
 40
0.9366386581
 40
0.9533300695999999
 40
0.9678899881999999
 40
0.9801746194999999
 40
0.9899594537999998
 40
0.9938015262
 40
0.9968450293
 40
0.9989720643
 40
1.0
 40
1.0
 40
1.0
 40
1.0
 10
112.1954370753
 20
41.8075641241
 30
0.0
 10
112.1733892968
 20
41.8075641241
 30
0.0
 10
112.1299926666
 20
41.8076971339
 30
0.0
 10
112.0763992104
 20
41.8081994158
 30
0.0
 10
112.0350836459
 20
41.8088063186
 30
0.0
 10
112.0058500711
 20
41.8093466259
 30
0.0
 10
111.9781302514
 20
41.80997422519999
 30
0.0
 10
111.9521494737
 20
41.8106836892
 30
0.0
 10
111.928122064
 20
41.8114684959
 30
0.0
 10
111.9062515651
 20
41.8123212003
 30
0.0
 10
111.8894644482
 20
41.81310450229999
 30
0.0
 10
111.8772592601
 20
41.8137669081
 30
0.0
 10
111.8690770804
 20
41.81425768159999
 30
0.0
 10
111.8615789567
 20
41.8147571502
 30
0.0
 10
111.8547921648
 20
41.81526256099999
 30
0.0
 10
111.848748546
 20
41.8157700328
 30
0.0
 10
111.8434885355
 20
41.81627332539999
 30
0.0
 10
111.8390697201
 20
41.8167623778
 30
0.0
 10
111.8359507918
 20
41.8171678789
 30
0.0
 10
111.8339505438
 20
41.8174725549
 30
0.0
 10
111.8328719559
 20
41.8176550628
 30
0.0
 10
111.8321329085
 20
41.81779579879999
 30
0.0
 10
111.8317582978
 20
41.8178754347
 30
0.0
 10
111.8316369311
 20
41.8179043271
 30
0.0
  0
SPLINE
  5
4EBE
330
210
100
AcDbEntity
  8
DEFAULT_2
  6
HIDDEN
 62
     8
100
AcDbSpline
210
0.0
220
0.0
230
1.0
 70
     8
 71
     3
 72
    36
 73
    32
 74
     0
 42
0.0000001
 43
0.0000000001
 40
0.0
 40
0.0
 40
0.0
 40
0.0
 40
0.0004337217
 40
0.0009166046
 40
0.0014851921
 40
0.0021622353
 40
0.0029612117
 40
0.0038902602
 40
0.0061565217
 40
0.0089852174
 40
0.0123867947
 40
0.0163660777
 40
0.0209249386
 40
0.0260634784
 40
0.0317805311
 40
0.0449412556
 40
0.060383451
 40
0.0780745958
 40
0.0979751641
 40
0.1200393785
 40
0.1704467295
 40
0.2288203114
 40
0.2946034796
 40
0.3671665478
 40
0.4458135475000001
 40
0.5297892945
 40
0.6182868789000001
 40
0.7104555783
 40
0.8054091306
 40
0.9022342952999998
 40
1.0
 40
1.0
 40
1.0
 40
1.0
 10
111.5079370845
 20
41.7819060042
 30
0.0
 10
111.5079370845
 20
41.78196941809999
 30
0.0
 10
111.5079622694
 20
41.7821042439
 30
0.0
 10
111.5080689698
 20
41.7822963621
 30
0.0
 10
111.5082401504
 20
41.78248438879999
 30
0.0
 10
111.5084751378
 20
41.78267060369999
 30
0.0
 10
111.5087743833
 20
41.7828563233
 30
0.0
 10
111.5092952493
 20
41.7831215401
 30
0.0
 10
111.5101171257
 20
41.7834429503
 30
0.0
 10
111.5113047765
 20
41.7838089611
 30
0.0
 10
111.5127524146
 20
41.7841752518
 30
0.0
 10
111.5144595237
 20
41.78454144839999
 30
0.0
 10
111.5164257111
 20
41.78490685119999
 30
0.0
 10
111.5186499459
 20
41.7852710889
 30
0.0
 10
111.5221245896
 20
41.7857787414
 30
0.0
 10
111.5271048706
 20
41.78639627489999
 30
0.0
 10
111.533837119
 20
41.7870993059
 30
0.0
 10
111.5415603935
 20
41.7877916809
 30
0.0
 10
111.5502562238
 20
41.7884714943
 30
0.0
 10
111.5637300439
 20
41.7893998539
 30
0.0
 10
111.5828301778
 20
41.7904916531
 30
0.0
 10
111.6083257989
 20
41.79167594639999
 30
0.0
 10
111.6370673819
 20
41.7927709964
 30
0.0
 10
111.6687782917
 20
41.7937654367
 30
0.0
 10
111.7031533269
 20
41.79464861469999
 30
0.0
 10
111.7398615147
 20
41.79541150969999
 30
0.0
 10
111.7785493935
 20
41.79604637349999
 30
0.0
 10
111.8188444112
 20
41.79654683729999
 30
0.0
 10
111.8603585245
 20
41.7969079052
 30
0.0
 10
111.9026919671
 20
41.7971259888
 30
0.0
 10
111.9311428757
 20
41.797174534
 30
0.0
 10
111.9454370753
 20
41.797174534
 30
0.0
  0
SPLINE
  5
4EBF
330
210
100
AcDbEntity
  8
DEFAULT_2
  6
HIDDEN
 62
     8
100
AcDbSpline
210
0.0
220
0.0
230
1.0
 70
     8
 71
     3
 72
    36
 73
    32
 74
     0
 42
0.0000001
 43
0.0000000001
 40
0.0
 40
0.0
 40
0.0
 40
0.0
 40
0.0977657047
 40
0.1945908694
 40
0.2895444217
 40
0.3817131211
 40
0.4702107055
 40
0.5541864525
 40
0.6328334522
 40
0.7053965204000001
 40
0.7711796886000001
 40
0.8295532704999999
 40
0.8799606215
 40
0.9020248358999999
 40
0.9219254041999999
 40
0.9396165489999999
 40
0.9550587443999999
 40
0.9682194688999999
 40
0.9739365215999999
 40
0.9790750614
 40
0.9836339222999999
 40
0.9876132052999999
 40
0.9910147826000001
 40
0.9938434782999999
 40
0.9961097397999999
 40
0.9970387883
 40
0.9978377647
 40
0.9985148079
 40
0.9990833953999999
 40
0.9995662783
 40
1.0
 40
1.0
 40
1.0
 40
1.0
 10
115.0704370753
 20
41.797174534
 30
0.0
 10
115.084731275
 20
41.797174534
 30
0.0
 10
115.1131821836
 20
41.7971259888
 30
0.0
 10
115.1555156261
 20
41.7969079052
 30
0.0
 10
115.1970297395
 20
41.79654683729999
 30
0.0
 10
115.2373247571
 20
41.79604637349999
 30
0.0
 10
115.2760126359
 20
41.79541150969999
 30
0.0
 10
115.3127208238
 20
41.79464861469999
 30
0.0
 10
115.347095859
 20
41.7937654367
 30
0.0
 10
115.3788067687
 20
41.7927709964
 30
0.0
 10
115.4075483517
 20
41.79167594639999
 30
0.0
 10
115.4330439728
 20
41.7904916531
 30
0.0
 10
115.4521441067
 20
41.7893998539
 30
0.0
 10
115.4656179268
 20
41.7884714943
 30
0.0
 10
115.4743137571
 20
41.7877916809
 30
0.0
 10
115.4820370317
 20
41.7870993059
 30
0.0
 10
115.48876928
 20
41.78639627489999
 30
0.0
 10
115.493749561
 20
41.7857787414
 30
0.0
 10
115.4972242047
 20
41.7852710889
 30
0.0
 10
115.4994484396
 20
41.78490685119999
 30
0.0
 10
115.501414627
 20
41.78454144839999
 30
0.0
 10
115.503121736
 20
41.7841752518
 30
0.0
 10
115.5045693742
 20
41.7838089611
 30
0.0
 10
115.505757025
 20
41.7834429503
 30
0.0
 10
115.5065789013
 20
41.7831215401
 30
0.0
 10
115.5070997673
 20
41.7828563233
 30
0.0
 10
115.5073990128
 20
41.78267060369999
 30
0.0
 10
115.5076340002
 20
41.78248438879999
 30
0.0
 10
115.5078051809
 20
41.7822963621
 30
0.0
 10
115.5079118812
 20
41.7821042439
 30
0.0
 10
115.5079370662
 20
41.78196941809999
 30
0.0
 10
115.5079370662
 20
41.7819060042
 30
0.0
  0
SPLINE
  5
4EC0
330
210
100
AcDbEntity
  8
DEFAULT_2
  6
HIDDEN
 62
     8
100
AcDbSpline
210
0.0
220
0.0
230
1.0
 70
     8
 71
     3
 72
    36
 73
    32
 74
     0
 42
0.0000001
 43
0.0000000001
 40
0.0
 40
0.0
 40
0.0
 40
0.0
 40
0.0977656828
 40
0.1945908668
 40
0.2895444221
 40
0.3817131203
 40
0.4702107014
 40
0.5541864460000001
 40
0.6328334500000001
 40
0.7053965274
 40
0.7711796995999999
 40
0.8295532770999999
 40
0.8799606173
 40
0.9020248255
 40
0.9219253885999998
 40
0.9396165304
 40
0.9550587267
 40
0.9682194562999999
 40
0.9739365279999999
 40
0.9790750564999999
 40
0.9836339212
 40
0.9876132089
 40
0.9910147737999999
 40
0.9938434890999999
 40
0.9961097249999999
 40
0.9970387961
 40
0.9978377791999999
 40
0.9985148033999999
 40
0.9990833820999998
 40
0.9995662751999999
 40
1.0
 40
1.0
 40
1.0
 40
1.0
 10
115.0704370753
 20
41.7734390018
 30
0.0
 10
115.0847312718
 20
41.7734390018
 30
0.0
 10
115.1131821801
 20
41.7733904566
 30
0.0
 10
115.1555156227
 20
41.7731723732
 30
0.0
 10
115.1970297392
 20
41.77281130519999
 30
0.0
 10
115.2373247567
 20
41.77231084129999
 30
0.0
 10
115.2760126345
 20
41.7716759774
 30
0.0
 10
115.3127208223
 20
41.7709130824
 30
0.0
 10
115.3470958592
 20
41.7700299045
 30
0.0
 10
115.3788067715
 20
41.7690354644
 30
0.0
 10
115.4075483558
 20
41.76794041449999
 30
0.0
 10
115.4330439754
 20
41.7667561211
 30
0.0
 10
115.4521441062
 20
41.76566432179999
 30
0.0
 10
115.465617923
 20
41.7647359621
 30
0.0
 10
115.4743137512
 20
41.7640561487
 30
0.0
 10
115.4820370246
 20
41.7633637734
 30
0.0
 10
115.4887692736
 20
41.76266074309999
 30
0.0
 10
115.493749558
 20
41.7620432076
 30
0.0
 10
115.497224204
 20
41.7615355582
 30
0.0
 10
115.4994484403
 20
41.7611713184
 30
0.0
 10
115.5014146271
 20
41.7608059156
 30
0.0
 10
115.5031217365
 20
41.76043972179999
 30
0.0
 10
115.5045693743
 20
41.7600734246
 30
0.0
 10
115.5057570264
 20
41.759707425
 30
0.0
 10
115.5065788994
 20
41.7593860008
 30
0.0
 10
115.5070997699
 20
41.75912079249999
 30
0.0
 10
115.5073990193
 20
41.7589350756
 30
0.0
 10
115.5076339997
 20
41.75874885579999
 30
0.0
 10
115.5078051714
 20
41.7585608256
 30
0.0
 10
115.5079118811
 20
41.7583687136
 30
0.0
 10
115.5079370753
 20
41.7582338864
 30
0.0
 10
115.5079370753
 20
41.75817047199999
 30
0.0
  0
SPLINE
  5
4EC1
330
210
100
AcDbEntity
  8
DEFAULT_2
  6
HIDDEN
 62
     8
100
AcDbSpline
210
0.0
220
0.0
230
1.0
 70
     8
 71
     3
 72
    35
 73
    31
 74
     0
 42
0.0000001
 43
0.0000000001
 40
0.0
 40
0.0
 40
0.0
 40
0.0
 40
0.0977658208
 40
0.1945911776
 40
0.2895448892
 40
0.3817137358
 40
0.4702114575
 40
0.5541873339
 40
0.6328344609000001
 40
0.7053976546
 40
0.7711809387000001
 40
0.8295546195
 40
0.8799620476000001
 40
0.9020262922
 40
0.9219268864
 40
0.9396180541999999
 40
0.9550602714
 40
0.9682210170999999
 40
0.9739380954999999
 40
0.9790766292
 40
0.9836355104
 40
0.9876147896999999
 40
0.9910163800999999
 40
0.9938450754000001
 40
0.9961113428
 40
0.9978377616999999
 40
0.9985148042
 40
0.9990833929999999
 40
0.9995662774999999
 40
1.0
 40
1.0
 40
1.0
 40
1.0
 10
114.8204370753
 20
41.74399255149999
 30
0.0
 10
114.8337102551
 20
41.74399255149999
 30
0.0
 10
114.8601289554
 20
41.74403762919999
 30
0.0
 10
114.8994385809
 20
41.7442401352
 30
0.0
 10
114.9379874062
 20
41.74457541259999
 30
0.0
 10
114.9754042084
 20
41.74504012909999
 30
0.0
 10
115.0113286657
 20
41.74562964559999
 30
0.0
 10
115.0454148389
 20
41.7463380482
 30
0.0
 10
115.077334515
 20
41.74715814199999
 30
0.0
 10
115.1067803625
 20
41.7480815507
 30
0.0
 10
115.1334689785
 20
41.7490983826
 30
0.0
 10
115.1571434854
 20
41.7501980835
 30
0.0
 10
115.1748793235
 20
41.7512118971
 30
0.0
 10
115.1873907258
 20
41.7520739454
 30
0.0
 10
115.195465423
 20
41.7527052008
 30
0.0
 10
115.2026370333
 20
41.7533481206
 30
0.0
 10
115.2088884051
 20
41.75400093469999
 30
0.0
 10
115.213512955
 20
41.7545743601
 30
0.0
 10
115.2167394077
 20
41.7550457496
 30
0.0
 10
115.2188047775
 20
41.7553839706
 30
0.0
 10
115.2206304989
 20
41.7557232794
 30
0.0
 10
115.2222157427
 20
41.7560632934
 30
0.0
 10
115.2235597702
 20
41.7564035026
 30
0.0
 10
115.2246631773
 20
41.7567431318
 30
0.0
 10
115.2255257848
 20
41.7570817317
 30
0.0
 10
115.2260882429
 20
41.75738232349999
 30
0.0
 10
115.2264056786
 20
41.7576333647
 30
0.0
 10
115.2265645956
 20
41.7578080045
 30
0.0
 10
115.2266636832
 20
41.7579863903
 30
0.0
 10
115.2266870679
 20
41.7581115877
 30
0.0
 10
115.2266870679
 20
41.75817047199999
 30
0.0
  0
SPLINE
  5
4EC2
330
210
100
AcDbEntity
  8
DEFAULT_2
  6
HIDDEN
 62
     8
100
AcDbSpline
210
0.0
220
0.0
230
1.0
 70
     8
 71
     3
 72
    35
 73
    31
 74
     0
 42
0.0000001
 43
0.0000000001
 40
0.0
 40
0.0
 40
0.0
 40
0.0
 40
0.0977657772
 40
0.1945910918
 40
0.2895447637
 40
0.3817135745
 40
0.4702112654
 40
0.5541871171000001
 40
0.6328342266
 40
0.7053974107
 40
0.7711806940000001
 40
0.8295543832999999
 40
0.8799618295999998
 40
0.9020260870999999
 40
0.9219266967000001
 40
0.9396178824999999
 40
0.9550601201
 40
0.9682208886999999
 40
0.9739379793999999
 40
0.9790765259999998
 40
0.9836354205999999
 40
0.9876147139
 40
0.9910163186
 40
0.9938450287
 40
0.9961113109000001
 40
0.9978377442000001
 40
0.9985147931999998
 40
0.9990833875999999
 40
0.9995662761
 40
1.0
 40
1.0
 40
1.0
 40
1.0
 10
114.8204370753
 20
41.77522351479999
 30
0.0
 10
114.8337102489
 20
41.77522351479999
 30
0.0
 10
114.8601289368
 20
41.7752685925
 30
0.0
 10
114.8994385443
 20
41.7754710983
 30
0.0
 10
114.9379873526
 20
41.7758063754
 30
0.0
 10
114.9754041394
 20
41.7762710914
 30
0.0
 10
115.0113285835
 20
41.7768606074
 30
0.0
 10
115.0454147458
 20
41.7775690094
 30
0.0
 10
115.0773344141
 20
41.7783891026
 30
0.0
 10
115.1067802571
 20
41.77931251039999
 30
0.0
 10
115.1334688722
 20
41.78032934149999
 30
0.0
 10
115.1571433821
 20
41.7814290415
 30
0.0
 10
115.1748792251
 20
41.7824428544
 30
0.0
 10
115.1873906335
 20
41.78330490199999
 30
0.0
 10
115.1954653368
 20
41.7839361569
 30
0.0
 10
115.2026369542
 20
41.7845790764
 30
0.0
 10
115.2088883343
 20
41.78523188999999
 30
0.0
 10
115.2135128917
 20
41.78580531499999
 30
0.0
 10
115.216739351
 20
41.7862767042
 30
0.0
 10
115.2188047261
 20
41.786614925
 30
0.0
 10
115.220630453
 20
41.78695423359999
 30
0.0
 10
115.2222157026
 20
41.7872942474
 30
0.0
 10
115.2235597361
 20
41.7876344565
 30
0.0
 10
115.2246631495
 20
41.7879740855
 30
0.0
 10
115.2255257634
 20
41.7883126854
 30
0.0
 10
115.226088227
 20
41.78861327689999
 30
0.0
 10
115.2264056675
 20
41.7888643178
 30
0.0
 10
115.2265645879
 20
41.78903895739999
 30
0.0
 10
115.2266636791
 20
41.7892173428
 30
0.0
 10
115.2266870666
 20
41.7893425403
 30
0.0
 10
115.2266870679
 20
41.7894014249
 30
0.0
  0
SPLINE
  5
4EC3
330
210
100
AcDbEntity
  8
DEFAULT_2
  6
HIDDEN
 62
     8
100
AcDbSpline
210
0.0
220
0.0
230
1.0
 70
     8
 71
     3
 72
    33
 73
    29
 74
     0
 42
0.0000001
 43
0.0000000001
 40
0.0
 40
0.0
 40
0.0
 40
0.0
 40
0.194591044
 40
0.2895448147
 40
0.3817137372
 40
0.4702115216
 40
0.5541874547
 40
0.6328346454
 40
0.705397901
 40
0.7711812203
 40
0.8295549314
 40
0.879962405
 40
0.9219268341999999
 40
0.9396180131000001
 40
0.9550602354
 40
0.9682209854999999
 40
0.9739380857
 40
0.9790766048999998
 40
0.9836355054000001
 40
0.9876147766999999
 40
0.9910163705
 40
0.9938450762999998
 40
0.9961113266999999
 40
0.9978377736
 40
0.9985147966999999
 40
0.9990833779
 40
0.9995662738
 40
1.0
 40
1.0
 40
1.0
 40
1.0
 10
114.8204370753
 20
41.7483549886
 30
0.0
 10
114.8387269027
 20
41.7483549886
 30
0.0
 10
114.865941676
 20
41.7484465794
 30
0.0
 10
114.9018180717
 20
41.748758489
 30
0.0
 10
114.9277220152
 20
41.7490802389
 30
0.0
 10
114.9525927917
 20
41.74948836099999
 30
0.0
 10
114.976190912
 20
41.7499787918
 30
0.0
 10
114.9982891474
 20
41.7505465602
 30
0.0
 10
115.0186747418
 20
41.7511858047
 30
0.0
 10
115.0371514486
 20
41.7518898884
 30
0.0
 10
115.0535415691
 20
41.752650837
 30
0.0
 10
115.0676874388
 20
41.75346060089999
 30
0.0
 10
115.0780064782
 20
41.75420199749999
 30
0.0
 10
115.0850370501
 20
41.75483187
 30
0.0
 10
115.0893649167
 20
41.7552838799
 30
0.0
 10
115.0925665294
 20
41.7556808563
 30
0.0
 10
115.0948002271
 20
41.7560072016
 30
0.0
 10
115.0962300996
 20
41.75624135689999
 30
0.0
 10
115.0974940596
 20
41.75647626079999
 30
0.0
 10
115.0985915365
 20
41.75671165619999
 30
0.0
 10
115.0995220163
 20
41.75694718679999
 30
0.0
 10
115.1002859147
 20
41.7571823101
 30
0.0
 10
115.1008831015
 20
41.7574167345
 30
0.0
 10
115.1012725013
 20
41.757624825
 30
0.0
 10
115.10149226
 20
41.7577986292
 30
0.0
 10
115.1016022739
 20
41.7579195358
 30
0.0
 10
115.1016708794
 20
41.7580430296
 30
0.0
 10
115.1016870753
 20
41.7581297056
 30
0.0
 10
115.1016870753
 20
41.75817047199999
 30
0.0
  0
SPLINE
  5
4EC4
330
210
100
AcDbEntity
  8
DEFAULT_2
  6
HIDDEN
 62
     8
100
AcDbSpline
210
0.0
220
0.0
230
1.0
 70
     8
 71
     3
 72
    23
 73
    19
 74
     0
 42
0.0000001
 43
0.0000000001
 40
0.0
 40
0.0
 40
0.0
 40
0.0
 40
0.1795105872
 40
0.3535614163
 40
0.5168372967
 40
0.5928461287
 40
0.664298461
 40
0.7306218498
 40
0.7912668536
 40
0.8457003751
 40
0.8933886359999998
 40
0.9337556387999999
 40
0.9509780385999999
 40
0.9660736224999999
 40
0.9788769184999999
 40
0.9891385329
 40
0.9964405829999998
 40
1.0
 40
1.0
 40
1.0
 40
1.0
 10
112.1954370753
 20
41.8442909967
 30
0.0
 10
112.1829600972
 20
41.8442909967
 30
0.0
 10
112.1583855523
 20
41.8443645721
 30
0.0
 10
112.122463794
 20
41.8446938467
 30
0.0
 10
112.0937380249
 20
41.8451505076
 30
0.0
 10
112.0721452501
 20
41.8456255923
 30
0.0
 10
112.0572911941
 20
41.8460190058
 30
0.0
 10
112.0435066614
 20
41.84645439399999
 30
0.0
 10
112.0309070219
 20
41.84692756399999
 30
0.0
 10
112.0196050043
 20
41.8474331234
 30
0.0
 10
112.0097153631
 20
41.84796432379999
 30
0.0
 10
112.0024132457
 20
41.8484410252
 30
0.0
 10
111.9973765401
 20
41.8488347378
 30
0.0
 10
111.9942524336
 20
41.8491105147
 30
0.0
 10
111.9916134217
 20
41.84937687139999
 30
0.0
 10
111.9895167484
 20
41.8496211646
 30
0.0
 10
111.9880624973
 20
41.8498229342
 30
0.0
 10
111.9873170043
 20
41.8499434392
 30
0.0
 10
111.9870742343
 20
41.84999107409999
 30
0.0
  0
SPLINE
  5
4EC5
330
210
100
AcDbEntity
  8
DEFAULT_2
  6
HIDDEN
 62
     8
100
AcDbSpline
210
0.0
220
0.0
230
1.0
 70
     8
 71
     3
 72
    23
 73
    19
 74
     0
 42
0.0000001
 43
0.0000000001
 40
0.0
 40
0.0
 40
0.0
 40
0.0
 40
0.1795105872
 40
0.3535614163
 40
0.5168372967
 40
0.5928461287
 40
0.664298461
 40
0.7306218498
 40
0.7912668536
 40
0.8457003751
 40
0.8933886359999998
 40
0.9337556387999999
 40
0.9509780385999999
 40
0.9660736224999999
 40
0.9788769184999999
 40
0.9891385329
 40
0.9964405829999998
 40
1.0
 40
1.0
 40
1.0
 40
1.0
 10
114.8204370753
 20
41.8442909967
 30
0.0
 10
114.8329140534
 20
41.8442909967
 30
0.0
 10
114.8574885983
 20
41.8443645721
 30
0.0
 10
114.8934103566
 20
41.8446938467
 30
0.0
 10
114.9221361257
 20
41.8451505076
 30
0.0
 10
114.9437289005
 20
41.8456255923
 30
0.0
 10
114.9585829566
 20
41.8460190058
 30
0.0
 10
114.9723674893
 20
41.84645439399999
 30
0.0
 10
114.9849671287
 20
41.84692756399999
 30
0.0
 10
114.9962691463
 20
41.8474331234
 30
0.0
 10
115.0061587876
 20
41.84796432379999
 30
0.0
 10
115.0134609049
 20
41.8484410252
 30
0.0
 10
115.0184976105
 20
41.8488347378
 30
0.0
 10
115.021621717
 20
41.8491105147
 30
0.0
 10
115.0242607289
 20
41.84937687139999
 30
0.0
 10
115.0263574023
 20
41.8496211646
 30
0.0
 10
115.0278116533
 20
41.8498229342
 30
0.0
 10
115.0285571464
 20
41.8499434392
 30
0.0
 10
115.0287999164
 20
41.84999107409999
 30
0.0
  0
SPLINE
  5
4EC6
330
210
100
AcDbEntity
  8
DEFAULT_2
  6
HIDDEN
 62
     8
100
AcDbSpline
210
0.0
220
0.0
230
1.0
 70
     8
 71
     3
 72
    37
 73
    33
 74
     0
 42
0.0000001
 43
0.0000000001
 40
0.0
 40
0.0
 40
0.0
 40
0.0
 40
0.1681749354
 40
0.2497768523
 40
0.3284349997
 40
0.4032338633000001
 40
0.4733159933
 40
0.5379000118000001
 40
0.5963041837
 40
0.6479833639
 40
0.6711844236
 40
0.6926013187000001
 40
0.7122523948000001
 40
0.7302062453
 40
0.7466175363
 40
0.7618007502
 40
0.7764029067
 40
0.7918360338000001
 40
0.8007510414
 40
0.8112714539
 40
0.8241186294
 40
0.8396407024
 40
0.8574155704
 40
0.8766213214
 40
0.8966063226000001
 40
0.9067726534
 40
0.9170124337999999
 40
0.9376257290000001
 40
0.9583605334999999
 40
0.9687609119000001
 40
0.9791723479000001
 40
1.0
 40
1.0
 40
1.0
 40
1.0
 10
115.0704370753
 20
41.8647315692
 30
0.0
 10
115.0972526197
 20
41.8647315692
 30
0.0
 10
115.1370798686
 20
41.8645825955
 30
0.0
 10
115.1894465495
 20
41.86407252579999
 30
0.0
 10
115.2269232305
 20
41.8635483554
 30
0.0
 10
115.2625605843
 20
41.862885183
 30
0.0
 10
115.2959505572
 20
41.86209052899999
 30
0.0
 10
115.3267222406
 20
41.8611732969
 30
0.0
 10
115.3545541779
 20
41.86014231269999
 30
0.0
 10
115.375784348
 20
41.8591640206
 30
0.0
 10
115.3911154355
 20
41.85831252049999
 30
0.0
 10
115.4013430588
 20
41.8576693477
 30
0.0
 10
115.4107301061
 20
41.8569955975
 30
0.0
 10
115.4193138068
 20
41.85628424629999
 30
0.0
 10
115.4271775722
 20
41.85551987719999
 30
0.0
 10
115.4344947568
 20
41.8546669067
 30
0.0
 10
115.4416318878
 20
41.8536362434
 30
0.0
 10
115.4477385694
 20
41.8524852504
 30
0.0
 10
115.4531425924
 20
41.8511719602
 30
0.0
 10
115.4580817121
 20
41.8497126992
 30
0.0
 10
115.4639044036
 20
41.8475626952
 30
0.0
 10
115.4705683075
 20
41.84441588
 30
0.0
 10
115.4777270759
 20
41.84003904619999
 30
0.0
 10
115.4848594971
 20
41.8343755905
 30
0.0
 10
115.4903466642
 20
41.82869788069999
 30
0.0
 10
115.4943320007
 20
41.82363311609999
 30
0.0
 10
115.4980160446
 20
41.81822326859999
 30
0.0
 10
115.5019261204
 20
41.8109539901
 30
0.0
 10
115.5047899002
 20
41.80318474909999
 30
0.0
 10
115.5064139067
 20
41.7967570798
 30
0.0
 10
115.5075832607
 20
41.79021744469999
 30
0.0
 10
115.5079370753
 20
41.7852269796
 30
0.0
 10
115.5079370753
 20
41.7819060042
 30
0.0
  0
SPLINE
  5
4EC7
330
210
100
AcDbEntity
  8
DEFAULT_2
  6
HIDDEN
 62
     8
100
AcDbSpline
210
0.0
220
0.0
230
1.0
 70
     8
 71
     3
 72
    37
 73
    33
 74
     0
 42
0.0000001
 43
0.0000000001
 40
0.0
 40
0.0
 40
0.0
 40
0.0
 40
0.1681749354
 40
0.2497768523
 40
0.3284349997
 40
0.4032338633000001
 40
0.4733159933
 40
0.5379000118000001
 40
0.5963041837
 40
0.6479833639
 40
0.6711844236
 40
0.6926013187000001
 40
0.7122523948000001
 40
0.7302062453
 40
0.7466175363
 40
0.7618007502
 40
0.7764029067
 40
0.7918360338000001
 40
0.8007510414
 40
0.8112714539
 40
0.8241186294
 40
0.8396407024
 40
0.8574155704
 40
0.8766213214
 40
0.8966063226000001
 40
0.9067726534
 40
0.9170124337999999
 40
0.9376257290000001
 40
0.9583605334999999
 40
0.9687609119000001
 40
0.9791723479000001
 40
1.0
 40
1.0
 40
1.0
 40
1.0
 10
111.9454370753
 20
41.8647315692
 30
0.0
 10
111.918621531
 20
41.8647315692
 30
0.0
 10
111.8787942821
 20
41.8645825955
 30
0.0
 10
111.8264276011
 20
41.86407252579999
 30
0.0
 10
111.7889509202
 20
41.8635483554
 30
0.0
 10
111.7533135664
 20
41.862885183
 30
0.0
 10
111.7199235934
 20
41.86209052899999
 30
0.0
 10
111.68915191
 20
41.8611732969
 30
0.0
 10
111.6613199727
 20
41.86014231269999
 30
0.0
 10
111.6400898026
 20
41.8591640206
 30
0.0
 10
111.6247587151
 20
41.85831252049999
 30
0.0
 10
111.6145310918
 20
41.8576693477
 30
0.0
 10
111.6051440445
 20
41.8569955975
 30
0.0
 10
111.5965603438
 20
41.85628424629999
 30
0.0
 10
111.5886965785
 20
41.85551987719999
 30
0.0
 10
111.5813793938
 20
41.8546669067
 30
0.0
 10
111.5742422629
 20
41.8536362434
 30
0.0
 10
111.5681355812
 20
41.8524852504
 30
0.0
 10
111.5627315582
 20
41.8511719602
 30
0.0
 10
111.5577924385
 20
41.8497126992
 30
0.0
 10
111.5519697471
 20
41.8475626952
 30
0.0
 10
111.5453058431
 20
41.84441588
 30
0.0
 10
111.5381470748
 20
41.84003904619999
 30
0.0
 10
111.5310146535
 20
41.8343755905
 30
0.0
 10
111.5255274865
 20
41.82869788069999
 30
0.0
 10
111.5215421499
 20
41.82363311609999
 30
0.0
 10
111.517858106
 20
41.81822326859999
 30
0.0
 10
111.5139480303
 20
41.8109539901
 30
0.0
 10
111.5110842504
 20
41.80318474909999
 30
0.0
 10
111.509460244
 20
41.7967570798
 30
0.0
 10
111.5082908899
 20
41.79021744469999
 30
0.0
 10
111.5079370753
 20
41.7852269796
 30
0.0
 10
111.5079370753
 20
41.7819060042
 30
0.0
  0
SPLINE
  5
4EC8
330
210
100
AcDbEntity
  8
DEFAULT_2
  6
HIDDEN
 62
     8
100
AcDbSpline
210
0.0
220
0.0
230
1.0
 70
     8
 71
     3
 72
    30
 73
    26
 74
     0
 42
0.0000001
 43
0.0000000001
 40
0.0
 40
0.0
 40
0.0
 40
0.0
 40
0.0005323573
 40
0.0010655691
 40
0.0027592833
 40
0.0057135095
 40
0.0100448042
 40
0.0158962097
 40
0.0234192324
 40
0.0327997018
 40
0.0442406283
 40
0.0579699768
 40
0.0742383676
 40
0.0933009471
 40
0.1154150152
 40
0.1408036425
 40
0.2019684529
 40
0.2768887683
 40
0.3638551122
 40
0.4600010406
 40
0.5624842970000001
 40
0.6690722638000001
 40
0.7781882372
 40
0.8887634618999999
 40
1.0
 40
1.0
 40
1.0
 40
1.0
 10
115.1842372196
 20
41.8179043271
 30
0.0
 10
115.1842436487
 20
41.8179058576
 30
0.0
 10
115.1842679184
 20
41.81791181869999
 30
0.0
 10
115.1842124239
 20
41.8178978547
 30
0.0
 10
115.1841685596
 20
41.81788551599999
 30
0.0
 10
115.184050274
 20
41.8178526424
 30
0.0
 10
115.1838990389
 20
41.8178076784
 30
0.0
 10
115.1836870753
 20
41.8177415958
 30
0.0
 10
115.1834195694
 20
41.8176535082
 30
0.0
 10
115.1830871031
 20
41.81753723249999
 30
0.0
 10
115.1826851111
 20
41.81738789699999
 30
0.0
 10
115.1822068887
 20
41.81719808999999
 30
0.0
 10
115.1816463237
 20
41.8169598369
 30
0.0
 10
115.1809977538
 20
41.81666309269999
 30
0.0
 10
115.1802567864
 20
41.81629694629999
 30
0.0
 10
115.1790678612
 20
41.8156590448
 30
0.0
 10
115.1773581362
 20
41.8146080417
 30
0.0
 10
115.1751330971
 20
41.8129528197
 30
0.0
 10
115.1727668226
 20
41.8107843076
 30
0.0
 10
115.1704360016
 20
41.8081016705
 30
0.0
 10
115.1683117495
 20
41.8049520871
 30
0.0
 10
115.1665325871
 20
41.8014130287
 30
0.0
 10
115.1651979147
 20
41.7975760331
 30
0.0
 10
115.1643728529
 20
41.7935395837
 30
0.0
 10
115.1641870975
 20
41.7907823679
 30
0.0
 10
115.1641871
 20
41.7894014585
 30
0.0
  0
SPLINE
  5
4EC9
330
210
100
AcDbEntity
  8
DEFAULT_2
  6
HIDDEN
 62
     8
100
AcDbSpline
210
0.0
220
0.0
230
1.0
 70
     8
 71
     3
 72
    35
 73
    31
 74
     0
 42
0.0000001
 43
0.0000000001
 40
0.0
 40
0.0
 40
0.0
 40
0.0
 40
0.0004337225
 40
0.000916607
 40
0.0014851958
 40
0.0021622383
 40
0.0038886572
 40
0.0061549246
 40
0.0089836199
 40
0.0123852103
 40
0.0163644896
 40
0.0209233708
 40
0.0260619045
 40
0.0317789829
 40
0.0449397286
 40
0.0603819458
 40
0.0780731136
 40
0.0979737078
 40
0.1200379524
 40
0.1704453805
 40
0.2288190613
 40
0.2946023454
 40
0.3671655390999999
 40
0.4458126661
 40
0.5297885425
 40
0.6182862642
 40
0.7104551108
 40
0.8054088224
 40
0.9022341792
 40
1.0
 40
1.0
 40
1.0
 40
1.0
 10
115.2266870679
 20
41.75817047199999
 30
0.0
 10
115.2266870679
 20
41.7582293564
 30
0.0
 10
115.2266636832
 20
41.7583545537
 30
0.0
 10
115.2265645956
 20
41.7585329396
 30
0.0
 10
115.2264056786
 20
41.7587075794
 30
0.0
 10
115.2260882429
 20
41.7589586205
 30
0.0
 10
115.2255257848
 20
41.7592592123
 30
0.0
 10
115.2246631773
 20
41.7595978123
 30
0.0
 10
115.2235597702
 20
41.7599374415
 30
0.0
 10
115.2222157427
 20
41.7602776507
 30
0.0
 10
115.2206304989
 20
41.7606176647
 30
0.0
 10
115.2188047775
 20
41.7609569735
 30
0.0
 10
115.2167394077
 20
41.76129519449999
 30
0.0
 10
115.213512955
 20
41.761766584
 30
0.0
 10
115.2088884051
 20
41.7623400094
 30
0.0
 10
115.2026370333
 20
41.7629928234
 30
0.0
 10
115.195465423
 20
41.76363574329999
 30
0.0
 10
115.1873907258
 20
41.7642669986
 30
0.0
 10
115.1748793235
 20
41.765129047
 30
0.0
 10
115.1571434854
 20
41.7661428606
 30
0.0
 10
115.1334689785
 20
41.76724256139999
 30
0.0
 10
115.1067803625
 20
41.7682593933
 30
0.0
 10
115.077334515
 20
41.76918280199999
 30
0.0
 10
115.0454148389
 20
41.7700028959
 30
0.0
 10
115.0113286657
 20
41.77071129849999
 30
0.0
 10
114.9754042084
 20
41.77130081499999
 30
0.0
 10
114.9379874062
 20
41.7717655315
 30
0.0
 10
114.8994385809
 20
41.7721008089
 30
0.0
 10
114.8601289554
 20
41.7723033149
 30
0.0
 10
114.8337102551
 20
41.7723483926
 30
0.0
 10
114.8204370753
 20
41.7723483926
 30
0.0
  0
SPLINE
  5
4ECA
330
210
100
AcDbEntity
  8
DEFAULT_2
  6
HIDDEN
 62
     8
100
AcDbSpline
210
0.0
220
0.0
230
1.0
 70
     8
 71
     3
 72
    36
 73
    32
 74
     0
 42
0.0000001
 43
0.0000000001
 40
0.0
 40
0.0
 40
0.0
 40
0.0
 40
0.0004337248
 40
0.0009166179
 40
0.0014851966
 40
0.0021622208
 40
0.0029612039
 40
0.003890275
 40
0.0061565109
 40
0.0089852262
 40
0.0123867911
 40
0.0163660788
 40
0.0209249435
 40
0.026063472
 40
0.0317805437
 40
0.0449412733
 40
0.0603834696
 40
0.0780746114
 40
0.0979751745
 40
0.1200393827
 40
0.1704467229
 40
0.2288203004
 40
0.2946034726
 40
0.36716655
 40
0.445813554
 40
0.5297892986
 40
0.6182868797
 40
0.7104555779
 40
0.8054091331999998
 40
0.9022343171999999
 40
1.0
 40
1.0
 40
1.0
 40
1.0
 10
115.5079370753
 20
41.75817047199999
 30
0.0
 10
115.5079370753
 20
41.7581070577
 30
0.0
 10
115.5079118811
 20
41.7579722305
 30
0.0
 10
115.5078051714
 20
41.7577801185
 30
0.0
 10
115.5076339997
 20
41.75759208819999
 30
0.0
 10
115.5073990193
 20
41.75740586849999
 30
0.0
 10
115.5070997699
 20
41.75722015159999
 30
0.0
 10
115.5065788994
 20
41.7569549432
 30
0.0
 10
115.5057570264
 20
41.75663351899999
 30
0.0
 10
115.5045693743
 20
41.7562675195
 30
0.0
 10
115.5031217365
 20
41.7559012222
 30
0.0
 10
115.5014146271
 20
41.7555350284
 30
0.0
 10
115.4994484403
 20
41.75516962559999
 30
0.0
 10
115.497224204
 20
41.7548053859
 30
0.0
 10
115.493749558
 20
41.7542977364
 30
0.0
 10
115.4887692736
 20
41.753680201
 30
0.0
 10
115.4820370246
 20
41.7529771707
 30
0.0
 10
115.4743137512
 20
41.7522847954
 30
0.0
 10
115.465617923
 20
41.75160498199999
 30
0.0
 10
115.4521441062
 20
41.7506766223
 30
0.0
 10
115.4330439754
 20
41.7495848229
 30
0.0
 10
115.4075483558
 20
41.74840052959999
 30
0.0
 10
115.3788067715
 20
41.74730547969999
 30
0.0
 10
115.3470958592
 20
41.7463110396
 30
0.0
 10
115.3127208223
 20
41.74542786169999
 30
0.0
 10
115.2760126345
 20
41.7446649666
 30
0.0
 10
115.2373247567
 20
41.7440301028
 30
0.0
 10
115.1970297392
 20
41.7435296389
 30
0.0
 10
115.1555156227
 20
41.7431685709
 30
0.0
 10
115.1131821801
 20
41.74295048739999
 30
0.0
 10
115.0847312718
 20
41.7429019422
 30
0.0
 10
115.0704370753
 20
41.7429019422
 30
0.0
  0
SPLINE
  5
4ECB
330
210
100
AcDbEntity
  8
DEFAULT_2
  6
HIDDEN
 62
     8
100
AcDbSpline
210
0.0
220
0.0
230
1.0
 70
     8
 71
     3
 72
    34
 73
    30
 74
     0
 42
0.0000001
 43
0.0000000001
 40
0.0
 40
0.0
 40
0.0
 40
0.0
 40
0.19459095
 40
0.28954468
 40
0.3817135570000001
 40
0.4702113116
 40
0.5541872126000001
 40
0.6328343543
 40
0.7053975615000001
 40
0.7711808644
 40
0.8295545684
 40
0.8799620132999999
 40
0.9020262609999999
 40
0.9219268569
 40
0.9396180267
 40
0.9550602473000001
 40
0.9682209987
 40
0.9739380955999999
 40
0.9790766185999999
 40
0.9836355056
 40
0.9876147883999999
 40
0.991016369
 40
0.9938450831999999
 40
0.996111327
 40
0.9978377749999999
 40
0.9985147990999999
 40
0.9990833794
 40
0.9995662742
 40
1.0
 40
1.0
 40
1.0
 40
1.0
 10
114.8204370753
 20
41.74617376999999
 30
0.0
 10
114.8427913082
 20
41.74617376999999
 30
0.0
 10
114.8760538087
 20
41.7462857143
 30
0.0
 10
114.9199027362
 20
41.74666693719999
 30
0.0
 10
114.9515631128
 20
41.7470601877
 30
0.0
 10
114.9819607304
 20
41.7475590018
 30
0.0
 10
115.0108028771
 20
41.7481584213
 30
0.0
 10
115.0378118318
 20
41.74885234659999
 30
0.0
 10
115.062727547
 20
41.7496336926
 30
0.0
 10
115.0853102219
 20
41.75049408889999
 30
0.0
 10
115.1053424978
 20
41.7514246048
 30
0.0
 10
115.120349746
 20
41.752282447
 30
0.0
 10
115.1309363165
 20
41.7530118726
 30
0.0
 10
115.1377687514
 20
41.7535460117
 30
0.0
 10
115.143837036
 20
41.7540900211
 30
0.0
 10
115.1491266581
 20
41.7546424016
 30
0.0
 10
115.1530397406
 20
41.7551276093
 30
0.0
 10
115.155769817
 20
41.7555264751
 30
0.0
 10
115.1575174385
 20
41.7558126637
 30
0.0
 10
115.1590622789
 20
41.75609977079999
 30
0.0
 10
115.1604036392
 20
41.75638747319999
 30
0.0
 10
115.1615408927
 20
41.75667534719999
 30
0.0
 10
115.1624745464
 20
41.75696271719999
 30
0.0
 10
115.1632044414
 20
41.75724923799999
 30
0.0
 10
115.1636803742
 20
41.7575035703
 30
0.0
 10
115.163948969
 20
41.7577159972
 30
0.0
 10
115.1640834303
 20
41.7578637721
 30
0.0
 10
115.1641672807
 20
41.75801470919999
 30
0.0
 10
115.1641870753
 20
41.7581206465
 30
0.0
 10
115.1641870753
 20
41.75817047199999
 30
0.0
  0
SPLINE
  5
4ECC
330
210
100
AcDbEntity
  8
DEFAULT_2
  6
HIDDEN
 62
     8
100
AcDbSpline
210
0.0
220
0.0
230
1.0
 70
     8
 71
     3
 72
    34
 73
    30
 74
     0
 42
0.0000001
 43
0.0000000001
 40
0.0
 40
0.0
 40
0.0
 40
0.0
 40
0.19459095
 40
0.28954468
 40
0.3817135570000001
 40
0.4702113116
 40
0.5541872126000001
 40
0.6328343543
 40
0.7053975615000001
 40
0.7711808644
 40
0.8295545684
 40
0.8799620132999999
 40
0.9020262609999999
 40
0.9219268569
 40
0.9396180267
 40
0.9550602473000001
 40
0.9682209987
 40
0.9739380955999999
 40
0.9790766185999999
 40
0.9836355056
 40
0.9876147883999999
 40
0.991016369
 40
0.9938450831999999
 40
0.996111327
 40
0.9978377749999999
 40
0.9985147990999999
 40
0.9990833794
 40
0.9995662742
 40
1.0
 40
1.0
 40
1.0
 40
1.0
 10
112.1954370753
 20
41.74617376999999
 30
0.0
 10
112.1730828424
 20
41.74617376999999
 30
0.0
 10
112.139820342
 20
41.7462857143
 30
0.0
 10
112.0959714144
 20
41.74666693719999
 30
0.0
 10
112.0643110379
 20
41.7470601877
 30
0.0
 10
112.0339134203
 20
41.7475590018
 30
0.0
 10
112.0050712736
 20
41.7481584213
 30
0.0
 10
111.9780623188
 20
41.74885234659999
 30
0.0
 10
111.9531466036
 20
41.7496336926
 30
0.0
 10
111.9305639288
 20
41.75049408889999
 30
0.0
 10
111.9105316528
 20
41.7514246048
 30
0.0
 10
111.8955244047
 20
41.752282447
 30
0.0
 10
111.8849378341
 20
41.7530118726
 30
0.0
 10
111.8781053993
 20
41.7535460117
 30
0.0
 10
111.8720371147
 20
41.7540900211
 30
0.0
 10
111.8667474926
 20
41.7546424016
 30
0.0
 10
111.8628344101
 20
41.7551276093
 30
0.0
 10
111.8601043336
 20
41.7555264751
 30
0.0
 10
111.8583567122
 20
41.7558126637
 30
0.0
 10
111.8568118717
 20
41.75609977079999
 30
0.0
 10
111.8554705114
 20
41.75638747319999
 30
0.0
 10
111.8543332579
 20
41.75667534719999
 30
0.0
 10
111.8533996043
 20
41.75696271719999
 30
0.0
 10
111.8526697092
 20
41.75724923799999
 30
0.0
 10
111.8521937764
 20
41.7575035703
 30
0.0
 10
111.8519251817
 20
41.7577159972
 30
0.0
 10
111.8517907204
 20
41.7578637721
 30
0.0
 10
111.8517068699
 20
41.75801470919999
 30
0.0
 10
111.8516870753
 20
41.7581206465
 30
0.0
 10
111.8516870753
 20
41.75817047199999
 30
0.0
  0
SPLINE
  5
4ECD
330
210
100
AcDbEntity
  8
DEFAULT_2
  6
HIDDEN
 62
     8
100
AcDbSpline
210
0.0
220
0.0
230
1.0
 70
     8
 71
     3
 72
    30
 73
    26
 74
     0
 42
0.0000001
 43
0.0000000001
 40
0.0
 40
0.0
 40
0.0
 40
0.0
 40
0.0005323573
 40
0.0010655691
 40
0.0027592833
 40
0.0057135095
 40
0.0100448042
 40
0.0158962097
 40
0.0234192324
 40
0.0327997018
 40
0.0442406283
 40
0.0579699768
 40
0.0742383676
 40
0.0933009471
 40
0.1154150152
 40
0.1408036425
 40
0.2019684529
 40
0.2768887683
 40
0.3638551122
 40
0.4600010406
 40
0.5624842970000001
 40
0.6690722638000001
 40
0.7781882372
 40
0.8887634618999999
 40
1.0
 40
1.0
 40
1.0
 40
1.0
 10
111.8316369311
 20
41.8179043271
 30
0.0
 10
111.831630502
 20
41.8179058576
 30
0.0
 10
111.8316062322
 20
41.81791181869999
 30
0.0
 10
111.8316617267
 20
41.8178978547
 30
0.0
 10
111.831705591
 20
41.81788551599999
 30
0.0
 10
111.8318238767
 20
41.8178526424
 30
0.0
 10
111.8319751117
 20
41.8178076784
 30
0.0
 10
111.8321870753
 20
41.8177415958
 30
0.0
 10
111.8324545812
 20
41.8176535082
 30
0.0
 10
111.8327870475
 20
41.81753723249999
 30
0.0
 10
111.8331890395
 20
41.81738789699999
 30
0.0
 10
111.8336672619
 20
41.81719808999999
 30
0.0
 10
111.8342278269
 20
41.8169598369
 30
0.0
 10
111.8348763968
 20
41.81666309269999
 30
0.0
 10
111.8356173642
 20
41.81629694629999
 30
0.0
 10
111.8368062894
 20
41.8156590448
 30
0.0
 10
111.8385160145
 20
41.8146080417
 30
0.0
 10
111.8407410536
 20
41.8129528197
 30
0.0
 10
111.843107328
 20
41.8107843076
 30
0.0
 10
111.8454381491
 20
41.8081016705
 30
0.0
 10
111.8475624011
 20
41.8049520871
 30
0.0
 10
111.8493415636
 20
41.8014130287
 30
0.0
 10
111.8506762359
 20
41.7975760331
 30
0.0
 10
111.8515012977
 20
41.7935395837
 30
0.0
 10
111.8516870532
 20
41.7907823679
 30
0.0
 10
111.8516870506
 20
41.7894014585
 30
0.0
  0
SPLINE
  5
4ECE
330
210
100
AcDbEntity
  8
DEFAULT_2
  6
HIDDEN
 62
     8
100
AcDbSpline
210
0.0
220
0.0
230
1.0
 70
     8
 71
     3
 72
    35
 73
    31
 74
     0
 42
0.0000001
 43
0.0000000001
 40
0.0
 40
0.0
 40
0.0
 40
0.0
 40
0.0004337225
 40
0.000916607
 40
0.0014851958
 40
0.0021622383
 40
0.0038886572
 40
0.0061549246
 40
0.0089836199
 40
0.0123852103
 40
0.0163644896
 40
0.0209233708
 40
0.0260619045
 40
0.0317789829
 40
0.0449397286
 40
0.0603819458
 40
0.0780731136
 40
0.0979737078
 40
0.1200379524
 40
0.1704453805
 40
0.2288190613
 40
0.2946023454
 40
0.3671655390999999
 40
0.4458126661
 40
0.5297885425
 40
0.6182862642
 40
0.7104551108
 40
0.8054088224
 40
0.9022341792
 40
1.0
 40
1.0
 40
1.0
 40
1.0
 10
111.7891870828
 20
41.75817047199999
 30
0.0
 10
111.7891870828
 20
41.7582293564
 30
0.0
 10
111.7892104675
 20
41.7583545537
 30
0.0
 10
111.789309555
 20
41.7585329396
 30
0.0
 10
111.789468472
 20
41.7587075794
 30
0.0
 10
111.7897859077
 20
41.7589586205
 30
0.0
 10
111.7903483658
 20
41.7592592123
 30
0.0
 10
111.7912109733
 20
41.7595978123
 30
0.0
 10
111.7923143805
 20
41.7599374415
 30
0.0
 10
111.7936584079
 20
41.7602776507
 30
0.0
 10
111.7952436518
 20
41.7606176647
 30
0.0
 10
111.7970693731
 20
41.7609569735
 30
0.0
 10
111.7991347429
 20
41.76129519449999
 30
0.0
 10
111.8023611957
 20
41.761766584
 30
0.0
 10
111.8069857456
 20
41.7623400094
 30
0.0
 10
111.8132371174
 20
41.7629928234
 30
0.0
 10
111.8204087276
 20
41.76363574329999
 30
0.0
 10
111.8284834248
 20
41.7642669986
 30
0.0
 10
111.8409948271
 20
41.765129047
 30
0.0
 10
111.8587306652
 20
41.7661428606
 30
0.0
 10
111.8824051721
 20
41.76724256139999
 30
0.0
 10
111.9090937882
 20
41.7682593933
 30
0.0
 10
111.9385396356
 20
41.76918280199999
 30
0.0
 10
111.9704593117
 20
41.7700028959
 30
0.0
 10
112.0045454849
 20
41.77071129849999
 30
0.0
 10
112.0404699423
 20
41.77130081499999
 30
0.0
 10
112.0778867445
 20
41.7717655315
 30
0.0
 10
112.1164355697
 20
41.7721008089
 30
0.0
 10
112.1557451952
 20
41.7723033149
 30
0.0
 10
112.1821638955
 20
41.7723483926
 30
0.0
 10
112.1954370753
 20
41.7723483926
 30
0.0
  0
SPLINE
  5
4ECF
330
210
100
AcDbEntity
  8
DEFAULT_2
  6
HIDDEN
 62
     8
100
AcDbSpline
210
0.0
220
0.0
230
1.0
 70
     8
 71
     3
 72
    36
 73
    32
 74
     0
 42
0.0000001
 43
0.0000000001
 40
0.0
 40
0.0
 40
0.0
 40
0.0
 40
0.0004337248
 40
0.0009166179
 40
0.0014851966
 40
0.0021622208
 40
0.0029612039
 40
0.003890275
 40
0.0061565109
 40
0.0089852262
 40
0.0123867911
 40
0.0163660788
 40
0.0209249435
 40
0.026063472
 40
0.0317805437
 40
0.0449412733
 40
0.0603834696
 40
0.0780746114
 40
0.0979751745
 40
0.1200393827
 40
0.1704467229
 40
0.2288203004
 40
0.2946034726
 40
0.36716655
 40
0.445813554
 40
0.5297892986
 40
0.6182868797
 40
0.7104555779
 40
0.8054091331999998
 40
0.9022343171999999
 40
1.0
 40
1.0
 40
1.0
 40
1.0
 10
111.5079370753
 20
41.75817047199999
 30
0.0
 10
111.5079370753
 20
41.7581070577
 30
0.0
 10
111.5079622696
 20
41.7579722305
 30
0.0
 10
111.5080689792
 20
41.7577801185
 30
0.0
 10
111.508240151
 20
41.75759208819999
 30
0.0
 10
111.5084751313
 20
41.75740586849999
 30
0.0
 10
111.5087743807
 20
41.75722015159999
 30
0.0
 10
111.5092952512
 20
41.7569549432
 30
0.0
 10
111.5101171242
 20
41.75663351899999
 30
0.0
 10
111.5113047763
 20
41.7562675195
 30
0.0
 10
111.5127524142
 20
41.7559012222
 30
0.0
 10
111.5144595235
 20
41.7555350284
 30
0.0
 10
111.5164257104
 20
41.75516962559999
 30
0.0
 10
111.5186499466
 20
41.7548053859
 30
0.0
 10
111.5221245926
 20
41.7542977364
 30
0.0
 10
111.5271048771
 20
41.753680201
 30
0.0
 10
111.533837126
 20
41.7529771707
 30
0.0
 10
111.5415603994
 20
41.7522847954
 30
0.0
 10
111.5502562276
 20
41.75160498199999
 30
0.0
 10
111.5637300445
 20
41.7506766223
 30
0.0
 10
111.5828301753
 20
41.7495848229
 30
0.0
 10
111.6083257948
 20
41.74840052959999
 30
0.0
 10
111.6370673791
 20
41.74730547969999
 30
0.0
 10
111.6687782915
 20
41.7463110396
 30
0.0
 10
111.7031533283
 20
41.74542786169999
 30
0.0
 10
111.7398615161
 20
41.7446649666
 30
0.0
 10
111.7785493939
 20
41.7440301028
 30
0.0
 10
111.8188444114
 20
41.7435296389
 30
0.0
 10
111.8603585279
 20
41.7431685709
 30
0.0
 10
111.9026919706
 20
41.74295048739999
 30
0.0
 10
111.9311428788
 20
41.7429019422
 30
0.0
 10
111.9454370753
 20
41.7429019422
 30
0.0
  0
SPLINE
  5
4ED0
330
210
100
AcDbEntity
  8
DEFAULT_2
  6
HIDDEN
 62
     8
100
AcDbSpline
210
0.0
220
0.0
230
1.0
 70
     8
 71
     3
 72
    34
 73
    30
 74
     0
 42
0.0000001
 43
0.0000000001
 40
0.0
 40
0.0
 40
0.0
 40
0.0
 40
0.1945909265
 40
0.2895446456
 40
0.3817135127
 40
0.4702112589
 40
0.5541871531
 40
0.63283429
 40
0.7053974945999999
 40
0.7711807972
 40
0.8295545036
 40
0.8799619534999999
 40
0.9020262046999999
 40
0.9219268047999999
 40
0.9396179795
 40
0.9550602057999999
 40
0.9682209634999999
 40
0.9739380638
 40
0.9790765903
 40
0.9836354809000001
 40
0.9876147676
 40
0.9910163521999999
 40
0.9938450704
 40
0.9961113181999998
 40
0.9978377701999999
 40
0.9985147961
 40
0.9990833779
 40
0.9995662738
 40
1.0
 40
1.0
 40
1.0
 40
1.0
 10
112.1954370753
 20
41.7774047334
 30
0.0
 10
112.1730828453
 20
41.7774047334
 30
0.0
 10
112.139820349
 20
41.7775166776
 30
0.0
 10
112.0959714269
 20
41.7778979004
 30
0.0
 10
112.0643110539
 20
41.7782911508
 30
0.0
 10
112.0339134394
 20
41.77878996479999
 30
0.0
 10
112.0050712952
 20
41.7793893841
 30
0.0
 10
111.9780623422
 20
41.7800833093
 30
0.0
 10
111.9531466281
 20
41.7808646551
 30
0.0
 10
111.9305639534
 20
41.7817250512
 30
0.0
 10
111.9105316768
 20
41.78265556689999
 30
0.0
 10
111.8955244275
 20
41.78351340889999
 30
0.0
 10
111.8849378556
 20
41.7842428344
 30
0.0
 10
111.8781054193
 20
41.78477697339999
 30
0.0
 10
111.872037133
 20
41.7853209826
 30
0.0
 10
111.866747509
 20
41.7858733631
 30
0.0
 10
111.8628344248
 20
41.7863585707
 30
0.0
 10
111.8601043468
 20
41.7867574364
 30
0.0
 10
111.8583567241
 20
41.787043625
 30
0.0
 10
111.8568118823
 20
41.7873307321
 30
0.0
 10
111.8554705207
 20
41.7876184344
 30
0.0
 10
111.8543332658
 20
41.7879063084
 30
0.0
 10
111.8533996107
 20
41.7881936783
 30
0.0
 10
111.8526697142
 20
41.7884801991
 30
0.0
 10
111.8521937801
 20
41.78873453139999
 30
0.0
 10
111.8519251843
 20
41.7889469582
 30
0.0
 10
111.8517907222
 20
41.7890947331
 30
0.0
 10
111.8517068708
 20
41.78924567
 30
0.0
 10
111.8516870756
 20
41.7893516073
 30
0.0
 10
111.8516870753
 20
41.7894014329
 30
0.0
  0
SPLINE
  5
4ED1
330
210
100
AcDbEntity
  8
DEFAULT_2
  6
HIDDEN
 62
     8
100
AcDbSpline
210
0.0
220
0.0
230
1.0
 70
     8
 71
     3
 72
    36
 73
    32
 74
     0
 42
0.0000001
 43
0.0000000001
 40
0.0
 40
0.0
 40
0.0
 40
0.0
 40
0.0004337217
 40
0.0009166046
 40
0.0014851921
 40
0.0021622353
 40
0.0029612117
 40
0.0038902602
 40
0.0061565217
 40
0.0089852174
 40
0.0123867947
 40
0.0163660777
 40
0.0209249386
 40
0.0260634784
 40
0.0317805311
 40
0.0449412556
 40
0.060383451
 40
0.0780745958
 40
0.0979751641
 40
0.1200393785
 40
0.1704467295
 40
0.2288203114
 40
0.2946034796
 40
0.3671665478
 40
0.4458135475000001
 40
0.5297892945
 40
0.6182868789000001
 40
0.7104555783
 40
0.8054091306
 40
0.9022342952999998
 40
1.0
 40
1.0
 40
1.0
 40
1.0
 10
115.5079370662
 20
41.7819060042
 30
0.0
 10
115.5079370662
 20
41.7818425903
 30
0.0
 10
115.5079118812
 20
41.7817077644
 30
0.0
 10
115.5078051809
 20
41.7815156463
 30
0.0
 10
115.5076340002
 20
41.78132761949999
 30
0.0
 10
115.5073990128
 20
41.78114140469999
 30
0.0
 10
115.5070997673
 20
41.780955685
 30
0.0
 10
115.5065789013
 20
41.7806904683
 30
0.0
 10
115.505757025
 20
41.780369058
 30
0.0
 10
115.5045693742
 20
41.7800030473
 30
0.0
 10
115.503121736
 20
41.7796367566
 30
0.0
 10
115.501414627
 20
41.77927056
 30
0.0
 10
115.4994484396
 20
41.7789051572
 30
0.0
 10
115.4972242047
 20
41.7785409194
 30
0.0
 10
115.493749561
 20
41.7780332669
 30
0.0
 10
115.48876928
 20
41.77741573339999
 30
0.0
 10
115.4820370317
 20
41.7767127025
 30
0.0
 10
115.4743137571
 20
41.7760203275
 30
0.0
 10
115.4656179268
 20
41.775340514
 30
0.0
 10
115.4521441067
 20
41.7744121545
 30
0.0
 10
115.4330439728
 20
41.7733203552
 30
0.0
 10
115.4075483517
 20
41.7721360619
 30
0.0
 10
115.3788067687
 20
41.771041012
 30
0.0
 10
115.347095859
 20
41.7700465717
 30
0.0
 10
115.3127208238
 20
41.7691633936
 30
0.0
 10
115.2760126359
 20
41.7684004987
 30
0.0
 10
115.2373247571
 20
41.76776563489999
 30
0.0
 10
115.1970297395
 20
41.7672651711
 30
0.0
 10
115.1555156261
 20
41.76690410309999
 30
0.0
 10
115.1131821836
 20
41.7666860196
 30
0.0
 10
115.084731275
 20
41.7666374744
 30
0.0
 10
115.0704370753
 20
41.7666374744
 30
0.0
  0
SPLINE
  5
4ED2
330
210
100
AcDbEntity
  8
DEFAULT_2
  6
HIDDEN
 62
     8
100
AcDbSpline
210
0.0
220
0.0
230
1.0
 70
     8
 71
     3
 72
    36
 73
    32
 74
     0
 42
0.0000001
 43
0.0000000001
 40
0.0
 40
0.0
 40
0.0
 40
0.0
 40
0.0977657047
 40
0.1945908694
 40
0.2895444217
 40
0.3817131211
 40
0.4702107055
 40
0.5541864525
 40
0.6328334522
 40
0.7053965204000001
 40
0.7711796886000001
 40
0.8295532704999999
 40
0.8799606215
 40
0.9020248358999999
 40
0.9219254041999999
 40
0.9396165489999999
 40
0.9550587443999999
 40
0.9682194688999999
 40
0.9739365215999999
 40
0.9790750614
 40
0.9836339222999999
 40
0.9876132052999999
 40
0.9910147826000001
 40
0.9938434782999999
 40
0.9961097397999999
 40
0.9970387883
 40
0.9978377647
 40
0.9985148079
 40
0.9990833953999999
 40
0.9995662783
 40
1.0
 40
1.0
 40
1.0
 40
1.0
 10
111.9454370753
 20
41.7666374744
 30
0.0
 10
111.9311428757
 20
41.7666374744
 30
0.0
 10
111.9026919671
 20
41.7666860196
 30
0.0
 10
111.8603585245
 20
41.76690410309999
 30
0.0
 10
111.8188444112
 20
41.7672651711
 30
0.0
 10
111.7785493935
 20
41.76776563489999
 30
0.0
 10
111.7398615147
 20
41.7684004987
 30
0.0
 10
111.7031533269
 20
41.7691633936
 30
0.0
 10
111.6687782917
 20
41.7700465717
 30
0.0
 10
111.6370673819
 20
41.771041012
 30
0.0
 10
111.6083257989
 20
41.7721360619
 30
0.0
 10
111.5828301778
 20
41.7733203552
 30
0.0
 10
111.5637300439
 20
41.7744121545
 30
0.0
 10
111.5502562238
 20
41.775340514
 30
0.0
 10
111.5415603935
 20
41.7760203275
 30
0.0
 10
111.533837119
 20
41.7767127025
 30
0.0
 10
111.5271048706
 20
41.77741573339999
 30
0.0
 10
111.5221245896
 20
41.7780332669
 30
0.0
 10
111.5186499459
 20
41.7785409194
 30
0.0
 10
111.5164257111
 20
41.7789051572
 30
0.0
 10
111.5144595237
 20
41.77927056
 30
0.0
 10
111.5127524146
 20
41.7796367566
 30
0.0
 10
111.5113047765
 20
41.7800030473
 30
0.0
 10
111.5101171257
 20
41.780369058
 30
0.0
 10
111.5092952493
 20
41.7806904683
 30
0.0
 10
111.5087743833
 20
41.780955685
 30
0.0
 10
111.5084751378
 20
41.78114140469999
 30
0.0
 10
111.5082401504
 20
41.78132761949999
 30
0.0
 10
111.5080689698
 20
41.7815156463
 30
0.0
 10
111.5079622694
 20
41.7817077644
 30
0.0
 10
111.5079370845
 20
41.7818425903
 30
0.0
 10
111.5079370845
 20
41.7819060042
 30
0.0
  0
SPLINE
  5
4ED3
330
210
100
AcDbEntity
  8
DEFAULT_2
  6
HIDDEN
 62
     8
100
AcDbSpline
210
0.0
220
0.0
230
1.0
 70
     8
 71
     3
 72
    69
 73
    65
 74
     0
 42
0.0000001
 43
0.0000000001
 40
0.0
 40
0.0
 40
0.0
 40
0.0
 40
0.0488829351
 40
0.0972955269
 40
0.1447723455
 40
0.1908567419
 40
0.235105572
 40
0.2770934795
 40
0.3164170196
 40
0.3526985964
 40
0.3855902099000001
 40
0.4006650446
 40
0.4147771092000001
 40
0.4278927842000001
 40
0.4399809424
 40
0.4510130623000001
 40
0.4609633561
 40
0.4698089331000001
 40
0.4775300334000001
 40
0.4809637266
 40
0.4841105151
 40
0.4869690612000001
 40
0.4895383171
 40
0.4918177642
 40
0.4938073971
 40
0.4955081916000001
 40
0.4969225425000001
 40
0.4980556661000001
 40
0.4989188883
 40
0.4992573994
 40
0.4995416896
 40
0.4997831372000001
 40
0.5
 40
0.5002168628
 40
0.5004583104
 40
0.5007426006
 40
0.5010811117000001
 40
0.5019443339000001
 40
0.5030774575
 40
0.5044918084000001
 40
0.5061926029000001
 40
0.5081822358000001
 40
0.5104616829
 40
0.5130309388000001
 40
0.5158894849
 40
0.5190362734000001
 40
0.5224699666000001
 40
0.5301910669
 40
0.5390366439000001
 40
0.5489869377000001
 40
0.5600190576
 40
0.5721072158000001
 40
0.5852228908
 40
0.5993349554
 40
0.6144097901
 40
0.6473014036000001
 40
0.6835829804000002
 40
0.7229065205
 40
0.764894428
 40
0.8091432580999999
 40
0.8552276544999999
 40
0.9027044731
 40
0.9511170648999998
 40
1.0
 40
1.0
 40
1.0
 40
1.0
 10
111.9454370753
 20
41.83903779699999
 30
0.0
 10
111.9334299386
 20
41.83903779699999
 30
0.0
 10
111.9095311754
 20
41.839078575
 30
0.0
 10
111.8739710842
 20
41.8392617655
 30
0.0
 10
111.8390992377
 20
41.8395650621
 30
0.0
 10
111.8052514238
 20
41.83998545179999
 30
0.0
 10
111.7727536069
 20
41.84051873629999
 30
0.0
 10
111.7419187317
 20
41.8411595736
 30
0.0
 10
111.7130436976
 20
41.8419014255
 30
0.0
 10
111.6864065413
 20
41.8427368126
 30
0.0
 10
111.665727435
 20
41.8435245231
 30
0.0
 10
111.6504941388
 20
41.8442034907
 30
0.0
 10
111.640115937
 20
41.8447159385
 30
0.0
 10
111.630473212
 20
41.84524515999999
 30
0.0
 10
111.6215891661
 20
41.8457897994
 30
0.0
 10
111.6134851654
 20
41.8463484
 30
0.0
 10
111.6061806504
 20
41.8469193531
 30
0.0
 10
111.5996931499
 20
41.8475010879
 30
0.0
 10
111.594806707
 20
41.8480110132
 30
0.0
 10
111.5913187047
 20
41.8484290913
 30
0.0
 10
111.5890200146
 20
41.8487321106
 30
0.0
 10
111.5869358929
 20
41.84903670789999
 30
0.0
 10
111.5850675232
 20
41.84934264729999
 30
0.0
 10
111.5834159494
 20
41.8496495937
 30
0.0
 10
111.5819819127
 20
41.84995717569999
 30
0.0
 10
111.5807660858
 20
41.85026493659999
 30
0.0
 10
111.5797679252
 20
41.85057216219999
 30
0.0
 10
111.5789876011
 20
41.8508784826
 30
0.0
 10
111.5784787854
 20
41.8511503746
 30
0.0
 10
111.5781916341
 20
41.85137749839999
 30
0.0
 10
111.5780478825
 20
41.8515354398
 30
0.0
 10
111.5779582379
 20
41.85169693419999
 30
0.0
 10
111.5779270616
 20
41.8518633621
 30
0.0
 10
111.5779582379
 20
41.85202979
 30
0.0
 10
111.5780478825
 20
41.85219128429999
 30
0.0
 10
111.5781916341
 20
41.8523492258
 30
0.0
 10
111.5784787854
 20
41.8525763495
 30
0.0
 10
111.5789876011
 20
41.8528482416
 30
0.0
 10
111.5797679252
 20
41.85315456189999
 30
0.0
 10
111.5807660858
 20
41.8534617875
 30
0.0
 10
111.5819819127
 20
41.85376954849999
 30
0.0
 10
111.5834159494
 20
41.8540771305
 30
0.0
 10
111.5850675232
 20
41.85438407679999
 30
0.0
 10
111.5869358929
 20
41.85469001619999
 30
0.0
 10
111.5890200146
 20
41.8549946135
 30
0.0
 10
111.5913187047
 20
41.8552976328
 30
0.0
 10
111.594806707
 20
41.8557157109
 30
0.0
 10
111.5996931499
 20
41.8562256363
 30
0.0
 10
111.6061806504
 20
41.856807371
 30
0.0
 10
111.6134851654
 20
41.8573783241
 30
0.0
 10
111.6215891661
 20
41.85793692469999
 30
0.0
 10
111.630473212
 20
41.85848156419999
 30
0.0
 10
111.640115937
 20
41.85901078559999
 30
0.0
 10
111.6504941388
 20
41.8595232334
 30
0.0
 10
111.665727435
 20
41.8602022011
 30
0.0
 10
111.6864065413
 20
41.86098991149999
 30
0.0
 10
111.7130436976
 20
41.86182529869999
 30
0.0
 10
111.7419187317
 20
41.86256715049999
 30
0.0
 10
111.7727536069
 20
41.86320798789999
 30
0.0
 10
111.8052514238
 20
41.86374127229999
 30
0.0
 10
111.8390992377
 20
41.86416166199999
 30
0.0
 10
111.8739710842
 20
41.8644649586
 30
0.0
 10
111.9095311754
 20
41.86464814919999
 30
0.0
 10
111.9334299386
 20
41.86468892709999
 30
0.0
 10
111.9454370753
 20
41.86468892709999
 30
0.0
  0
SPLINE
  5
4ED4
330
210
100
AcDbEntity
  8
DEFAULT_2
  6
HIDDEN
 62
     8
100
AcDbSpline
210
0.0
220
0.0
230
1.0
 70
     8
 71
     3
 72
    69
 73
    65
 74
     0
 42
0.0000001
 43
0.0000000001
 40
0.0
 40
0.0
 40
0.0
 40
0.0
 40
0.0488829351
 40
0.0972955269
 40
0.1447723455
 40
0.1908567419
 40
0.235105572
 40
0.2770934795
 40
0.3164170196
 40
0.3526985964
 40
0.3855902099000001
 40
0.4006650446
 40
0.4147771092000001
 40
0.4278927842000001
 40
0.4399809424
 40
0.4510130623000001
 40
0.4609633561
 40
0.4698089331000001
 40
0.4775300334000001
 40
0.4809637266
 40
0.4841105151
 40
0.4869690612000001
 40
0.4895383171
 40
0.4918177642
 40
0.4938073971
 40
0.4955081916000001
 40
0.4969225425000001
 40
0.4980556661000001
 40
0.4989188883
 40
0.4992573994
 40
0.4995416896
 40
0.4997831372000001
 40
0.5
 40
0.5002168628
 40
0.5004583104
 40
0.5007426006
 40
0.5010811117000001
 40
0.5019443339000001
 40
0.5030774575
 40
0.5044918084000001
 40
0.5061926029000001
 40
0.5081822358000001
 40
0.5104616829
 40
0.5130309388000001
 40
0.5158894849
 40
0.5190362734000001
 40
0.5224699666000001
 40
0.5301910669
 40
0.5390366439000001
 40
0.5489869377000001
 40
0.5600190576
 40
0.5721072158000001
 40
0.5852228908
 40
0.5993349554
 40
0.6144097901
 40
0.6473014036000001
 40
0.6835829804000002
 40
0.7229065205
 40
0.764894428
 40
0.8091432580999999
 40
0.8552276544999999
 40
0.9027044731
 40
0.9511170648999998
 40
1.0
 40
1.0
 40
1.0
 40
1.0
 10
115.0704370753
 20
41.86468892709999
 30
0.0
 10
115.082444212
 20
41.86468892709999
 30
0.0
 10
115.1063429753
 20
41.86464814919999
 30
0.0
 10
115.1419030664
 20
41.8644649586
 30
0.0
 10
115.1767749129
 20
41.86416166199999
 30
0.0
 10
115.2106227268
 20
41.86374127229999
 30
0.0
 10
115.2431205437
 20
41.86320798789999
 30
0.0
 10
115.273955419
 20
41.86256715049999
 30
0.0
 10
115.3028304531
 20
41.86182529869999
 30
0.0
 10
115.3294676093
 20
41.86098991149999
 30
0.0
 10
115.3501467157
 20
41.8602022011
 30
0.0
 10
115.3653800119
 20
41.8595232334
 30
0.0
 10
115.3757582136
 20
41.85901078559999
 30
0.0
 10
115.3854009386
 20
41.85848156419999
 30
0.0
 10
115.3942849846
 20
41.85793692469999
 30
0.0
 10
115.4023889852
 20
41.8573783241
 30
0.0
 10
115.4096935002
 20
41.856807371
 30
0.0
 10
115.4161810007
 20
41.8562256363
 30
0.0
 10
115.4210674437
 20
41.8557157109
 30
0.0
 10
115.424555446
 20
41.8552976328
 30
0.0
 10
115.426854136
 20
41.8549946135
 30
0.0
 10
115.4289382578
 20
41.85469001619999
 30
0.0
 10
115.4308066275
 20
41.85438407679999
 30
0.0
 10
115.4324582013
 20
41.8540771305
 30
0.0
 10
115.433892238
 20
41.85376954849999
 30
0.0
 10
115.4351080648
 20
41.8534617875
 30
0.0
 10
115.4361062254
 20
41.85315456189999
 30
0.0
 10
115.4368865496
 20
41.8528482416
 30
0.0
 10
115.4373953652
 20
41.8525763495
 30
0.0
 10
115.4376825166
 20
41.8523492258
 30
0.0
 10
115.4378262681
 20
41.85219128429999
 30
0.0
 10
115.4379159127
 20
41.85202979
 30
0.0
 10
115.437947089
 20
41.8518633621
 30
0.0
 10
115.4379159127
 20
41.85169693419999
 30
0.0
 10
115.4378262681
 20
41.8515354398
 30
0.0
 10
115.4376825166
 20
41.85137749839999
 30
0.0
 10
115.4373953652
 20
41.8511503746
 30
0.0
 10
115.4368865496
 20
41.8508784826
 30
0.0
 10
115.4361062254
 20
41.85057216219999
 30
0.0
 10
115.4351080648
 20
41.85026493659999
 30
0.0
 10
115.433892238
 20
41.84995717569999
 30
0.0
 10
115.4324582013
 20
41.8496495937
 30
0.0
 10
115.4308066275
 20
41.84934264729999
 30
0.0
 10
115.4289382578
 20
41.84903670789999
 30
0.0
 10
115.4268541361
 20
41.8487321106
 30
0.0
 10
115.424555446
 20
41.8484290913
 30
0.0
 10
115.4210674437
 20
41.8480110132
 30
0.0
 10
115.4161810007
 20
41.8475010879
 30
0.0
 10
115.4096935002
 20
41.8469193531
 30
0.0
 10
115.4023889852
 20
41.8463484
 30
0.0
 10
115.3942849846
 20
41.8457897994
 30
0.0
 10
115.3854009386
 20
41.84524515999999
 30
0.0
 10
115.3757582136
 20
41.8447159385
 30
0.0
 10
115.3653800119
 20
41.8442034907
 30
0.0
 10
115.3501467157
 20
41.8435245231
 30
0.0
 10
115.3294676093
 20
41.8427368126
 30
0.0
 10
115.3028304531
 20
41.8419014255
 30
0.0
 10
115.273955419
 20
41.8411595736
 30
0.0
 10
115.2431205437
 20
41.84051873629999
 30
0.0
 10
115.2106227268
 20
41.83998545179999
 30
0.0
 10
115.1767749129
 20
41.8395650621
 30
0.0
 10
115.1419030664
 20
41.8392617655
 30
0.0
 10
115.1063429753
 20
41.839078575
 30
0.0
 10
115.082444212
 20
41.83903779699999
 30
0.0
 10
115.0704370753
 20
41.83903779699999
 30
0.0
  0
SPLINE
  5
4ED5
330
210
100
AcDbEntity
  8
DEFAULT_2
  6
HIDDEN
 62
     8
100
AcDbSpline
210
0.0
220
0.0
230
1.0
 70
     8
 71
     3
 72
    35
 73
    31
 74
     0
 42
0.0000001
 43
0.0000000001
 40
0.0
 40
0.0
 40
0.0
 40
0.0
 40
0.0004337225
 40
0.000916607
 40
0.0014851958
 40
0.0021622383
 40
0.0038886572
 40
0.0061549246
 40
0.0089836199
 40
0.0123852103
 40
0.0163644896
 40
0.0209233708
 40
0.0260619045
 40
0.0317789829
 40
0.0449397286
 40
0.0603819458
 40
0.0780731136
 40
0.0979737078
 40
0.1200379524
 40
0.1704453805
 40
0.2288190613
 40
0.2946023454
 40
0.3671655390999999
 40
0.4458126661
 40
0.5297885425
 40
0.6182862642
 40
0.7104551108
 40
0.8054088224
 40
0.9022341792
 40
1.0
 40
1.0
 40
1.0
 40
1.0
 10
111.7891870828
 20
41.7894014354
 30
0.0
 10
111.7891870828
 20
41.78946031969999
 30
0.0
 10
111.7892104675
 20
41.7895855171
 30
0.0
 10
111.789309555
 20
41.78976390289999
 30
0.0
 10
111.789468472
 20
41.78993854269999
 30
0.0
 10
111.7897859077
 20
41.7901895839
 30
0.0
 10
111.7903483658
 20
41.7904901757
 30
0.0
 10
111.7912109733
 20
41.79082877559999
 30
0.0
 10
111.7923143805
 20
41.79116840489999
 30
0.0
 10
111.7936584079
 20
41.791508614
 30
0.0
 10
111.7952436518
 20
41.791848628
 30
0.0
 10
111.7970693731
 20
41.79218793679999
 30
0.0
 10
111.7991347429
 20
41.7925261578
 30
0.0
 10
111.8023611957
 20
41.79299754729999
 30
0.0
 10
111.8069857456
 20
41.7935709728
 30
0.0
 10
111.8132371174
 20
41.79422378679999
 30
0.0
 10
111.8204087276
 20
41.7948667066
 30
0.0
 10
111.8284834248
 20
41.79549796199999
 30
0.0
 10
111.8409948271
 20
41.7963600103
 30
0.0
 10
111.8587306652
 20
41.79737382389999
 30
0.0
 10
111.8824051721
 20
41.7984735248
 30
0.0
 10
111.9090937882
 20
41.79949035669999
 30
0.0
 10
111.9385396356
 20
41.8004137654
 30
0.0
 10
111.9704593117
 20
41.8012338592
 30
0.0
 10
112.0045454849
 20
41.8019422618
 30
0.0
 10
112.0404699423
 20
41.8025317783
 30
0.0
 10
112.0778867445
 20
41.8029964948
 30
0.0
 10
112.1164355697
 20
41.80333177219999
 30
0.0
 10
112.1557451952
 20
41.8035342782
 30
0.0
 10
112.1821638955
 20
41.8035793559
 30
0.0
 10
112.1954370753
 20
41.8035793559
 30
0.0
  0
SPLINE
  5
4ED6
330
210
100
AcDbEntity
  8
DEFAULT_2
  6
HIDDEN
 62
     8
100
AcDbSpline
210
0.0
220
0.0
230
1.0
 70
     8
 71
     3
 72
    65
 73
    61
 74
     0
 42
0.0000001
 43
0.0000000001
 40
0.0
 40
0.0
 40
0.0
 40
0.0
 40
0.0972954293
 40
0.1447722681
 40
0.1908566896
 40
0.2351055485
 40
0.2770934756
 40
0.3164170441
 40
0.352698622
 40
0.385590272
 40
0.4006651151
 40
0.4147771787
 40
0.4278928582
 40
0.4399810291
 40
0.4510131573
 40
0.4609634441
 40
0.4698090197
 40
0.4775301332
 40
0.4841105186
 40
0.4869690389
 40
0.4895383238
 40
0.4918177520000001
 40
0.4938073923000001
 40
0.4955081965
 40
0.4969225326
 40
0.498055671
 40
0.498918885
 40
0.499257395
 40
0.4995416872
 40
0.4997831368
 40
0.5
 40
0.5002168632
 40
0.5004583128000001
 40
0.5007426050000001
 40
0.501081115
 40
0.501944329
 40
0.5030774674
 40
0.5044918035000001
 40
0.5061926077000001
 40
0.508182248
 40
0.5104616762
 40
0.5130309611000001
 40
0.5158894814
 40
0.5224698668
 40
0.5301909803
 40
0.5390365559000001
 40
0.5489868427
 40
0.5600189709000001
 40
0.5721071418000001
 40
0.5852228213
 40
0.5993348849000001
 40
0.614409728
 40
0.647301378
 40
0.6835829559000001
 40
0.7229065243
 40
0.7648944515000001
 40
0.8091433104
 40
0.8552277318999999
 40
0.9027045706999999
 40
1.0
 40
1.0
 40
1.0
 40
1.0
 10
114.8204370753
 20
41.8594540026
 30
0.0
 10
114.8345812075
 20
41.8594540026
 30
0.0
 10
114.8556272972
 20
41.85938317269999
 30
0.0
 10
114.8833717083
 20
41.8591419623
 30
0.0
 10
114.9034040915
 20
41.8588931417
 30
0.0
 10
114.922637493
 20
41.85857752949999
 30
0.0
 10
114.9408867066
 20
41.8581982568
 30
0.0
 10
114.9579760105
 20
41.8577592027
 30
0.0
 10
114.9737408593
 20
41.85726478849999
 30
0.0
 10
114.9859795143
 20
41.8567985935
 30
0.0
 10
114.9949951402
 20
41.8563967556
 30
0.0
 10
115.0011373396
 20
41.85609346959999
 30
0.0
 10
115.006844258
 20
41.8557802576
 30
0.0
 10
115.0121021629
 20
41.8554579178
 30
0.0
 10
115.0168984105
 20
41.8551273254
 30
0.0
 10
115.0212214794
 20
41.8547893894
 30
0.0
 10
115.0250610474
 20
41.85444517349999
 30
0.0
 10
115.0284079373
 20
41.85409566739999
 30
0.0
 10
115.0308838508
 20
41.85378866739999
 30
0.0
 10
115.0326112453
 20
41.85353628849999
 30
0.0
 10
115.0337170113
 20
41.85335521369999
 30
0.0
 10
115.0346944751
 20
41.8531735507
 30
0.0
 10
115.0355431899
 20
41.85299151239999
 30
0.0
 10
115.0362627619
 20
41.85280937169999
 30
0.0
 10
115.036853509
 20
41.852627538
 30
0.0
 10
115.0373153345
 20
41.8524462529
 30
0.0
 10
115.0376164694
 20
41.8522853338
 30
0.0
 10
115.0377864145
 20
41.85215091349999
 30
0.0
 10
115.0378714928
 20
41.8520574384
 30
0.0
 10
115.0379245496
 20
41.85196186059999
 30
0.0
 10
115.0379430022
 20
41.8518633621
 30
0.0
 10
115.0379245496
 20
41.8517648636
 30
0.0
 10
115.0378714928
 20
41.85166928570001
 30
0.0
 10
115.0377864145
 20
41.85157581059999
 30
0.0
 10
115.0376164694
 20
41.8514413904
 30
0.0
 10
115.0373153345
 20
41.8512804712
 30
0.0
 10
115.036853509
 20
41.8510991861
 30
0.0
 10
115.0362627619
 20
41.85091735239999
 30
0.0
 10
115.0355431899
 20
41.8507352118
 30
0.0
 10
115.0346944751
 20
41.8505531734
 30
0.0
 10
115.0337170113
 20
41.8503715104
 30
0.0
 10
115.0326112453
 20
41.8501904357
 30
0.0
 10
115.0308838508
 20
41.84993805669999
 30
0.0
 10
115.0284079373
 20
41.84963105669999
 30
0.0
 10
115.0250610474
 20
41.84928155059999
 30
0.0
 10
115.0212214794
 20
41.8489373347
 30
0.0
 10
115.0168984105
 20
41.84859939869999
 30
0.0
 10
115.0121021629
 20
41.8482688063
 30
0.0
 10
115.0068442581
 20
41.8479464666
 30
0.0
 10
115.0011373396
 20
41.84763325449999
 30
0.0
 10
114.9949951402
 20
41.8473299686
 30
0.0
 10
114.9859795143
 20
41.84692813059999
 30
0.0
 10
114.9737408593
 20
41.84646193569999
 30
0.0
 10
114.9579760105
 20
41.8459675214
 30
0.0
 10
114.9408867066
 20
41.84552846739999
 30
0.0
 10
114.922637493
 20
41.84514919469999
 30
0.0
 10
114.9034040916
 20
41.8448335824
 30
0.0
 10
114.8833717083
 20
41.8445847619
 30
0.0
 10
114.8556272972
 20
41.8443435515
 30
0.0
 10
114.8345812075
 20
41.84427272149999
 30
0.0
 10
114.8204370753
 20
41.84427272149999
 30
0.0
  0
SPLINE
  5
4ED7
330
210
100
AcDbEntity
  8
DEFAULT_2
  6
HIDDEN
 62
     8
100
AcDbSpline
210
0.0
220
0.0
230
1.0
 70
     8
 71
     3
 72
    65
 73
    61
 74
     0
 42
0.0000001
 43
0.0000000001
 40
0.0
 40
0.0
 40
0.0
 40
0.0
 40
0.0972954293
 40
0.1447722681
 40
0.1908566896
 40
0.2351055485
 40
0.2770934757
 40
0.3164170441
 40
0.352698622
 40
0.385590272
 40
0.4006651151
 40
0.4147771787
 40
0.4278928582
 40
0.4399810291
 40
0.4510131573
 40
0.4609634441
 40
0.4698090197
 40
0.4775301332
 40
0.4841105186
 40
0.4869690389
 40
0.4895383238
 40
0.4918177520000001
 40
0.4938073923000001
 40
0.4955081965
 40
0.4969225326
 40
0.498055671
 40
0.498918885
 40
0.499257395
 40
0.4995416872
 40
0.4997831368
 40
0.5
 40
0.5002168632
 40
0.5004583128000001
 40
0.5007426050000001
 40
0.501081115
 40
0.501944329
 40
0.5030774674
 40
0.5044918035000001
 40
0.5061926077000001
 40
0.508182248
 40
0.5104616762
 40
0.5130309611000001
 40
0.5158894814
 40
0.5224698668
 40
0.5301909803
 40
0.5390365559000001
 40
0.5489868427
 40
0.5600189709000001
 40
0.5721071418000001
 40
0.5852228213
 40
0.5993348849000001
 40
0.614409728
 40
0.647301378
 40
0.6835829559000001
 40
0.7229065244
 40
0.7648944515000001
 40
0.8091433104
 40
0.8552277318999999
 40
0.9027045706999999
 40
1.0
 40
1.0
 40
1.0
 40
1.0
 10
112.1954370753
 20
41.84427272149999
 30
0.0
 10
112.1812929431
 20
41.84427272149999
 30
0.0
 10
112.1602468535
 20
41.8443435515
 30
0.0
 10
112.1325024423
 20
41.8445847619
 30
0.0
 10
112.1124700591
 20
41.8448335824
 30
0.0
 10
112.0932366576
 20
41.84514919469999
 30
0.0
 10
112.0749874441
 20
41.84552846739999
 30
0.0
 10
112.0578981401
 20
41.8459675214
 30
0.0
 10
112.0421332913
 20
41.84646193569999
 30
0.0
 10
112.0298946364
 20
41.84692813059999
 30
0.0
 10
112.0208790105
 20
41.8473299686
 30
0.0
 10
112.0147368111
 20
41.84763325449999
 30
0.0
 10
112.0090298926
 20
41.8479464666
 30
0.0
 10
112.0037719878
 20
41.8482688063
 30
0.0
 10
111.9989757402
 20
41.84859939869999
 30
0.0
 10
111.9946526712
 20
41.8489373347
 30
0.0
 10
111.9908131033
 20
41.84928155059999
 30
0.0
 10
111.9874662133
 20
41.84963105669999
 30
0.0
 10
111.9849902998
 20
41.84993805669999
 30
0.0
 10
111.9832629054
 20
41.8501904357
 30
0.0
 10
111.9821571394
 20
41.8503715104
 30
0.0
 10
111.9811796756
 20
41.8505531734
 30
0.0
 10
111.9803309608
 20
41.8507352118
 30
0.0
 10
111.9796113887
 20
41.85091735239999
 30
0.0
 10
111.9790206417
 20
41.8510991861
 30
0.0
 10
111.9785588161
 20
41.8512804712
 30
0.0
 10
111.9782576812
 20
41.8514413904
 30
0.0
 10
111.9780877362
 20
41.85157581059999
 30
0.0
 10
111.9780026579
 20
41.85166928570001
 30
0.0
 10
111.9779496011
 20
41.8517648636
 30
0.0
 10
111.9779311484
 20
41.8518633621
 30
0.0
 10
111.9779496011
 20
41.85196186059999
 30
0.0
 10
111.9780026579
 20
41.8520574384
 30
0.0
 10
111.9780877362
 20
41.85215091349999
 30
0.0
 10
111.9782576812
 20
41.8522853338
 30
0.0
 10
111.9785588161
 20
41.8524462529
 30
0.0
 10
111.9790206417
 20
41.852627538
 30
0.0
 10
111.9796113887
 20
41.85280937169999
 30
0.0
 10
111.9803309608
 20
41.85299151239999
 30
0.0
 10
111.9811796756
 20
41.8531735507
 30
0.0
 10
111.9821571394
 20
41.85335521369999
 30
0.0
 10
111.9832629054
 20
41.85353628849999
 30
0.0
 10
111.9849902998
 20
41.85378866739999
 30
0.0
 10
111.9874662133
 20
41.85409566739999
 30
0.0
 10
111.9908131033
 20
41.85444517349999
 30
0.0
 10
111.9946526713
 20
41.8547893894
 30
0.0
 10
111.9989757402
 20
41.8551273254
 30
0.0
 10
112.0037719878
 20
41.8554579178
 30
0.0
 10
112.0090298926
 20
41.8557802576
 30
0.0
 10
112.0147368111
 20
41.85609346959999
 30
0.0
 10
112.0208790105
 20
41.8563967556
 30
0.0
 10
112.0298946364
 20
41.8567985935
 30
0.0
 10
112.0421332914
 20
41.85726478849999
 30
0.0
 10
112.0578981401
 20
41.8577592027
 30
0.0
 10
112.0749874441
 20
41.8581982568
 30
0.0
 10
112.0932366577
 20
41.85857752949999
 30
0.0
 10
112.1124700591
 20
41.8588931417
 30
0.0
 10
112.1325024423
 20
41.8591419623
 30
0.0
 10
112.1602468535
 20
41.85938317269999
 30
0.0
 10
112.1812929431
 20
41.8594540026
 30
0.0
 10
112.1954370753
 20
41.8594540026
 30
0.0
  0
SPLINE
  5
4ED8
330
210
100
AcDbEntity
  8
DEFAULT_2
  6
HIDDEN
 62
     8
100
AcDbSpline
210
0.0
220
0.0
230
1.0
 70
     8
 71
     3
 72
    30
 73
    26
 74
     0
 42
0.0000001
 43
0.0000000001
 40
0.0
 40
0.0
 40
0.0
 40
0.0
 40
0.0020884459
 40
0.0028874641
 40
0.0038166002
 40
0.0060830552
 40
0.0089119351
 40
0.0123137805
 40
0.0162933766
 40
0.0208525446
 40
0.03170857
 40
0.044870305
 40
0.0603136394
 40
0.0780060853
 40
0.1199735968
 40
0.1703846878
 40
0.2287626935
 40
0.2945507734
 40
0.3671193295
 40
0.4457722076
 40
0.5297542811
 40
0.6182584889000001
 40
0.7104341379000001
 40
0.8053948145999999
 40
1.0
 40
1.0
 40
1.0
 40
1.0
 10
112.0079370753
 20
41.8218816373
 30
0.0
 10
112.0079370753
 20
41.8220124913
 30
0.0
 10
112.0080965277
 20
41.82216616109999
 30
0.0
 10
112.0082951598
 20
41.8222882625
 30
0.0
 10
112.0085197268
 20
41.82240307579999
 30
0.0
 10
112.0088711263
 20
41.82254010309999
 30
0.0
 10
112.0093804705
 20
41.82269727229999
 30
0.0
 10
112.010000764
 20
41.82285414089999
 30
0.0
 10
112.01073242
 20
41.8230111378
 30
0.0
 10
112.0119272921
 20
41.82323305159999
 30
0.0
 10
112.0136980131
 20
41.8235014852
 30
0.0
 10
112.0161518107
 20
41.8238061256
 30
0.0
 10
112.0190371085
 20
41.8241073414
 30
0.0
 10
112.0237241335
 20
41.82452730979999
 30
0.0
 10
112.0306035043
 20
41.82502154069999
 30
0.0
 10
112.0400340801
 20
41.82556139829999
 30
0.0
 10
112.0509608272
 20
41.82606869099999
 30
0.0
 10
112.0632786338
 20
41.826538083
 30
0.0
 10
112.0768690277
 20
41.8269642444
 30
0.0
 10
112.0916011855
 20
41.8273427581
 30
0.0
 10
112.1073332645
 20
41.8276697107
 30
0.0
 10
112.1239137843
 20
41.827941793
 30
0.0
 10
112.1411830801
 20
41.8281562921
 30
0.0
 10
112.1651006772
 20
41.8283642329
 30
0.0
 10
112.1832438582
 20
41.8284252929
 30
0.0
 10
112.1954370753
 20
41.8284252929
 30
0.0
  0
SPLINE
  5
4ED9
330
210
100
AcDbEntity
  8
DEFAULT_2
  6
HIDDEN
 62
     8
100
AcDbSpline
210
0.0
220
0.0
230
1.0
 70
     8
 71
     3
 72
    35
 73
    31
 74
     0
 42
0.0000001
 43
0.0000000001
 40
0.0
 40
0.0
 40
0.0
 40
0.0
 40
0.0004337225
 40
0.000916607
 40
0.0014851958
 40
0.0021622383
 40
0.0038886572
 40
0.0061549246
 40
0.0089836199
 40
0.0123852103
 40
0.0163644896
 40
0.0209233708
 40
0.0260619045
 40
0.0317789829
 40
0.0449397286
 40
0.0603819458
 40
0.0780731136
 40
0.0979737078
 40
0.1200379524
 40
0.1704453805
 40
0.2288190613
 40
0.2946023454
 40
0.3671655390999999
 40
0.4458126661
 40
0.5297885425
 40
0.6182862642
 40
0.7104551108
 40
0.8054088224
 40
0.9022341792
 40
1.0
 40
1.0
 40
1.0
 40
1.0
 10
115.2266870679
 20
41.7894014354
 30
0.0
 10
115.2266870679
 20
41.78946031969999
 30
0.0
 10
115.2266636832
 20
41.7895855171
 30
0.0
 10
115.2265645956
 20
41.78976390289999
 30
0.0
 10
115.2264056786
 20
41.78993854269999
 30
0.0
 10
115.2260882429
 20
41.7901895839
 30
0.0
 10
115.2255257848
 20
41.7904901757
 30
0.0
 10
115.2246631773
 20
41.79082877559999
 30
0.0
 10
115.2235597702
 20
41.79116840489999
 30
0.0
 10
115.2222157427
 20
41.791508614
 30
0.0
 10
115.2206304989
 20
41.791848628
 30
0.0
 10
115.2188047775
 20
41.79218793679999
 30
0.0
 10
115.2167394077
 20
41.7925261578
 30
0.0
 10
115.213512955
 20
41.79299754729999
 30
0.0
 10
115.2088884051
 20
41.7935709728
 30
0.0
 10
115.2026370333
 20
41.79422378679999
 30
0.0
 10
115.195465423
 20
41.7948667066
 30
0.0
 10
115.1873907258
 20
41.79549796199999
 30
0.0
 10
115.1748793235
 20
41.7963600103
 30
0.0
 10
115.1571434854
 20
41.79737382389999
 30
0.0
 10
115.1334689785
 20
41.7984735248
 30
0.0
 10
115.1067803625
 20
41.79949035669999
 30
0.0
 10
115.077334515
 20
41.8004137654
 30
0.0
 10
115.0454148389
 20
41.8012338592
 30
0.0
 10
115.0113286657
 20
41.8019422618
 30
0.0
 10
114.9754042084
 20
41.8025317783
 30
0.0
 10
114.9379874062
 20
41.8029964948
 30
0.0
 10
114.8994385809
 20
41.80333177219999
 30
0.0
 10
114.8601289554
 20
41.8035342782
 30
0.0
 10
114.8337102551
 20
41.8035793559
 30
0.0
 10
114.8204370753
 20
41.8035793559
 30
0.0
  0
SPLINE
  5
4EDA
330
210
100
AcDbEntity
  8
DEFAULT_2
  6
HIDDEN
 62
     8
100
AcDbSpline
210
0.0
220
0.0
230
1.0
 70
     8
 71
     3
 72
    30
 73
    26
 74
     0
 42
0.0000001
 43
0.0000000001
 40
0.0
 40
0.0
 40
0.0
 40
0.0
 40
0.1946051854
 40
0.2895658621
 40
0.3817415111
 40
0.4702457189000001
 40
0.5542277924
 40
0.6328806705
 40
0.7054492266
 40
0.7712373065000002
 40
0.8296153121999999
 40
0.8800264031999999
 40
0.9219939146999999
 40
0.9396863606
 40
0.9551296949999999
 40
0.96829143
 40
0.9791474554
 40
0.9837066233999999
 40
0.9876862195000001
 40
0.9910880648999999
 40
0.9939169448000001
 40
0.9961833997999999
 40
0.9971125359
 40
0.9979115541
 40
1.0
 40
1.0
 40
1.0
 40
1.0
 10
114.8204370753
 20
41.8284252929
 30
0.0
 10
114.8326302925
 20
41.8284252929
 30
0.0
 10
114.8507734734
 20
41.8283642329
 30
0.0
 10
114.8746910705
 20
41.8281562921
 30
0.0
 10
114.8919603663
 20
41.827941793
 30
0.0
 10
114.9085408861
 20
41.8276697107
 30
0.0
 10
114.9242729651
 20
41.8273427581
 30
0.0
 10
114.9390051229
 20
41.8269642444
 30
0.0
 10
114.9525955169
 20
41.826538083
 30
0.0
 10
114.9649133234
 20
41.82606869099999
 30
0.0
 10
114.9758400705
 20
41.82556139829999
 30
0.0
 10
114.9852706463
 20
41.82502154069999
 30
0.0
 10
114.9921500171
 20
41.82452730979999
 30
0.0
 10
114.9968370421
 20
41.8241073414
 30
0.0
 10
114.9997223399
 20
41.8238061256
 30
0.0
 10
115.0021761375
 20
41.8235014852
 30
0.0
 10
115.0039468585
 20
41.82323305159999
 30
0.0
 10
115.0051417306
 20
41.8230111378
 30
0.0
 10
115.0058733866
 20
41.82285414089999
 30
0.0
 10
115.0064936801
 20
41.82269727229999
 30
0.0
 10
115.0070030243
 20
41.82254010309999
 30
0.0
 10
115.0073544238
 20
41.82240307579999
 30
0.0
 10
115.0075789908
 20
41.8222882625
 30
0.0
 10
115.0077776229
 20
41.82216616109999
 30
0.0
 10
115.0079370753
 20
41.8220124913
 30
0.0
 10
115.0079370753
 20
41.8218816373
 30
0.0
  0
SPLINE
  5
4EDB
330
210
100
AcDbEntity
  8
DEFAULT_2
  6
HIDDEN
 62
     8
100
AcDbSpline
210
0.0
220
0.0
230
1.0
 70
     8
 71
     3
 72
    34
 73
    30
 74
     0
 42
0.0000001
 43
0.0000000001
 40
0.0
 40
0.0
 40
0.0
 40
0.0
 40
0.1945909265
 40
0.2895446456
 40
0.3817135127
 40
0.4702112589
 40
0.5541871531
 40
0.63283429
 40
0.7053974945999999
 40
0.7711807972
 40
0.8295545036
 40
0.8799619534999999
 40
0.9020262046999999
 40
0.9219268047999999
 40
0.9396179795
 40
0.9550602057999999
 40
0.9682209634999999
 40
0.9739380638
 40
0.9790765903
 40
0.9836354809000001
 40
0.9876147676
 40
0.9910163521999999
 40
0.9938450704
 40
0.9961113181999998
 40
0.9978377701999999
 40
0.9985147961
 40
0.9990833779
 40
0.9995662738
 40
1.0
 40
1.0
 40
1.0
 40
1.0
 10
114.8204370753
 20
41.7774047334
 30
0.0
 10
114.8427913054
 20
41.7774047334
 30
0.0
 10
114.8760538016
 20
41.7775166776
 30
0.0
 10
114.9199027238
 20
41.7778979004
 30
0.0
 10
114.9515630968
 20
41.7782911508
 30
0.0
 10
114.9819607113
 20
41.77878996479999
 30
0.0
 10
115.0108028555
 20
41.7793893841
 30
0.0
 10
115.0378118084
 20
41.7800833093
 30
0.0
 10
115.0627275225
 20
41.7808646551
 30
0.0
 10
115.0853101972
 20
41.7817250512
 30
0.0
 10
115.1053424738
 20
41.78265556689999
 30
0.0
 10
115.1203497231
 20
41.78351340889999
 30
0.0
 10
115.1309362951
 20
41.7842428344
 30
0.0
 10
115.1377687314
 20
41.78477697339999
 30
0.0
 10
115.1438370176
 20
41.7853209826
 30
0.0
 10
115.1491266416
 20
41.7858733631
 30
0.0
 10
115.1530397259
 20
41.7863585707
 30
0.0
 10
115.1557698038
 20
41.7867574364
 30
0.0
 10
115.1575174265
 20
41.787043625
 30
0.0
 10
115.1590622683
 20
41.7873307321
 30
0.0
 10
115.1604036299
 20
41.7876184344
 30
0.0
 10
115.1615408848
 20
41.7879063084
 30
0.0
 10
115.1624745399
 20
41.7881936783
 30
0.0
 10
115.1632044364
 20
41.7884801991
 30
0.0
 10
115.1636803705
 20
41.78873453139999
 30
0.0
 10
115.1639489664
 20
41.7889469582
 30
0.0
 10
115.1640834285
 20
41.7890947331
 30
0.0
 10
115.1641672798
 20
41.78924567
 30
0.0
 10
115.164187075
 20
41.7893516073
 30
0.0
 10
115.1641870753
 20
41.7894014329
 30
0.0
  0
LINE
  5
4EDC
330
210
100
AcDbEntity
  8
DEFAULT_2
  6
HIDDEN
 62
     8
100
AcDbLine
 10
126.3040152712
 20
32.4043997512
 30
0.0
 11
126.2982141184
 21
32.375786736
 31
0.0
  0
SPLINE
  5
4EDD
330
210
100
AcDbEntity
  8
DEFAULT_2
  6
HIDDEN
 62
     8
100
AcDbSpline
210
0.0
220
0.0
230
1.0
 70
     8
 71
     3
 72
    11
 73
     7
 74
     0
 42
0.0000001
 43
0.0000000001
 40
0.0
 40
0.0
 40
0.0
 40
0.0
 40
0.2499998696
 40
0.4999999786
 40
0.7499999906000001
 40
1.0
 40
1.0
 40
1.0
 40
1.0
 10
129.7375783945
 20
44.37057133989999
 30
0.0
 10
129.6262443987
 20
43.4754937067
 30
0.0
 10
129.3886838499
 20
41.6871539312
 30
0.0
 10
128.9879235684
 20
39.0109501126
 30
0.0
 10
128.542979955
 20
36.3417283886
 30
0.0
 10
128.2162630647
 20
34.5675146372
 30
0.0
 10
128.0461199009
 20
33.6817316829
 30
0.0
  0
SPLINE
  5
4EDE
330
210
100
AcDbEntity
  8
DEFAULT_2
  6
HIDDEN
 62
     8
100
AcDbSpline
210
0.0
220
0.0
230
1.0
 70
     8
 71
     3
 72
    22
 73
    18
 74
     0
 42
0.0000001
 43
0.0000000001
 40
0.0
 40
0.0
 40
0.0
 40
0.0
 40
0.0523680454
 40
0.105657036
 40
0.1607119341
 40
0.2180088711
 40
0.2779512841
 40
0.340516721
 40
0.4054915341
 40
0.4723238784000001
 40
0.5403361753000001
 40
0.6087690110000001
 40
0.6768765492000001
 40
0.7441026573000001
 40
0.874425777
 40
0.937600042
 40
1.0
 40
1.0
 40
1.0
 40
1.0
 10
122.6448250667
 20
23.9845612551
 30
0.0
 10
122.703805617
 20
23.9882130825
 30
0.0
 10
122.8227935056
 20
23.9958878901
 30
0.0
 10
123.0031191041
 20
24.0165540178
 30
0.0
 10
123.1864777978
 20
24.0543134907
 30
0.0
 10
123.3723568887
 20
24.1125403624
 30
0.0
 10
123.5585624201
 20
24.1941203276
 30
0.0
 10
123.7427570594
 20
24.2989515359
 30
0.0
 10
123.921595252
 20
24.4265566819
 30
0.0
 10
124.0920603267
 20
24.5746583998
 30
0.0
 10
124.2506711333
 20
24.7408076566
 30
0.0
 10
124.3947760333
 20
24.9215084107
 30
0.0
 10
124.5217798813
 20
25.1135452964
 30
0.0
 10
124.6654807277
 20
25.3769931874
 30
0.0
 10
124.7735602256
 20
25.6520458891
 30
0.0
 10
124.8527045688
 20
25.9297891117
 30
0.0
 10
124.8866884629
 20
26.0673754385
 30
0.0
 10
124.9034055329
 20
26.135776015
 30
0.0
  0
LINE
  5
4EDF
330
210
100
AcDbEntity
  8
DEFAULT_2
  6
HIDDEN
 62
     8
100
AcDbLine
 10
100.7118590541
 20
32.4043988894
 30
0.0
 11
100.7176603411
 21
32.3757852134
 31
0.0
  0
SPLINE
  5
4EE0
330
210
100
AcDbEntity
  8
DEFAULT_2
  6
HIDDEN
 62
     8
100
AcDbSpline
210
0.0
220
0.0
230
1.0
 70
     8
 71
     3
 72
    11
 73
     7
 74
     0
 42
0.0000001
 43
0.0000000001
 40
0.0
 40
0.0
 40
0.0
 40
0.0
 40
0.2500000094
 40
0.5000000214
 40
0.7500001304000001
 40
1.0
 40
1.0
 40
1.0
 40
1.0
 10
98.96975424969999
 20
33.6817316829
 30
0.0
 10
98.79961108599999
 20
34.5675146372
 30
0.0
 10
98.47289419559999
 20
36.3417283886
 30
0.0
 10
98.02795058219999
 20
39.0109501126
 30
0.0
 10
97.62719030079999
 20
41.6871539312
 30
0.0
 10
97.38962975200001
 20
43.4754937067
 30
0.0
 10
97.27829575610002
 20
44.37057133989999
 30
0.0
  0
SPLINE
  5
4EE1
330
210
100
AcDbEntity
  8
DEFAULT_2
  6
HIDDEN
 62
     8
100
AcDbSpline
210
0.0
220
0.0
230
1.0
 70
     8
 71
     3
 72
    22
 73
    18
 74
     0
 42
0.0000001
 43
0.0000000001
 40
0.0
 40
0.0
 40
0.0
 40
0.0
 40
0.0523680454
 40
0.105657036
 40
0.1607119341
 40
0.2180088711
 40
0.2779512841
 40
0.340516721
 40
0.4054915341
 40
0.4723238784000001
 40
0.5403361753000001
 40
0.6087690110000001
 40
0.6768765492000001
 40
0.7441026573000001
 40
0.874425777
 40
0.937600042
 40
1.0
 40
1.0
 40
1.0
 40
1.0
 10
104.3710490839
 20
23.9845612551
 30
0.0
 10
104.3120685336
 20
23.9882130825
 30
0.0
 10
104.193080645
 20
23.9958878901
 30
0.0
 10
104.0127550466
 20
24.0165540178
 30
0.0
 10
103.8293963529
 20
24.0543134907
 30
0.0
 10
103.6435172619
 20
24.1125403624
 30
0.0
 10
103.4573117306
 20
24.1941203276
 30
0.0
 10
103.2731170913
 20
24.2989515359
 30
0.0
 10
103.0942788986
 20
24.4265566819
 30
0.0
 10
102.923813824
 20
24.5746583998
 30
0.0
 10
102.7652030173
 20
24.7408076566
 30
0.0
 10
102.6210981173
 20
24.9215084107
 30
0.0
 10
102.4940942694
 20
25.1135452964
 30
0.0
 10
102.3503934229
 20
25.3769931874
 30
0.0
 10
102.242313925
 20
25.6520458891
 30
0.0
 10
102.1631695819
 20
25.9297891117
 30
0.0
 10
102.1291856877
 20
26.0673754385
 30
0.0
 10
102.1124686178
 20
26.135776015
 30
0.0
  0
SPLINE
  5
4EE2
330
210
100
AcDbEntity
  8
0
  6
Continuous
 62
     7
100
AcDbSpline
210
0.0
220
0.0
230
1.0
 70
     8
 71
     3
 72
    11
 73
     7
 74
     0
 42
0.0000001
 43
0.0000000001
 40
0.0
 40
0.0
 40
0.0
 40
0.0
 40
0.2500018529
 40
0.5000000087
 40
0.7499981549000001
 40
1.0
 40
1.0
 40
1.0
 40
1.0
 10
123.525011732
 20
19.9537287223
 30
0.0
 10
123.5720833475
 20
20.4122566279
 30
0.0
 10
123.7228885504
 20
21.3244620483
 30
0.0
 10
124.1140971911
 20
22.6542637402
 30
0.0
 10
124.6655900341
 20
23.9259839734
 30
0.0
 10
125.1341626168
 20
24.7230414512
 30
0.0
 10
125.391756887
 20
25.1052832018
 30
0.0
  0
SPLINE
  5
4EE3
330
210
100
AcDbEntity
  8
0
  6
Continuous
 62
     7
100
AcDbSpline
210
0.0
220
0.0
230
1.0
 70
     8
 71
     3
 72
    11
 73
     7
 74
     0
 42
0.0000001
 43
0.0000000001
 40
0.0
 40
0.0
 40
0.0
 40
0.0
 40
0.2500018529
 40
0.5000000087
 40
0.7499981549000001
 40
1.0
 40
1.0
 40
1.0
 40
1.0
 10
103.4908624186
 20
19.9537287223
 30
0.0
 10
103.4437908032
 20
20.4122566279
 30
0.0
 10
103.2929856003
 20
21.3244620483
 30
0.0
 10
102.9017769596
 20
22.6542637402
 30
0.0
 10
102.3502841165
 20
23.9259839734
 30
0.0
 10
101.8817115338
 20
24.7230414512
 30
0.0
 10
101.6241172637
 20
25.1052832018
 30
0.0
  0
LINE
  5
4EE4
330
210
100
AcDbEntity
  8
0
  6
Continuous
 62
     7
100
AcDbLine
 10
101.6241172637
 20
25.1052832018
 30
0.0
 11
103.0065951065
 21
25.113914975
 31
0.0
  0
LINE
  5
4EE5
330
210
100
AcDbEntity
  8
0
  6
Continuous
 62
     7
100
AcDbLine
 10
103.0065843759
 20
25.1139297924
 30
0.0
 11
103.0148883675
 21
25.1139366266
 31
0.0
  0
SPLINE
  5
4EE6
330
210
100
AcDbEntity
  8
0
  6
Continuous
 62
     7
100
AcDbSpline
210
0.0
220
0.0
230
1.0
 70
     8
 71
     3
 72
    17
 73
    13
 74
     0
 42
0.0000001
 43
0.0000000001
 40
0.0
 40
0.0
 40
0.0
 40
0.0
 40
0.0262531694
 40
0.0568021101
 40
0.0931327796
 40
0.1355744091
 40
0.2376003373
 40
0.3596130083
 40
0.4989895221000001
 40
0.6540328097
 40
0.8226472329999999
 40
1.0
 40
1.0
 40
1.0
 40
1.0
 10
103.0148814934
 20
25.1139461238
 30
0.0
 10
103.0387077264
 20
25.1140037764
 30
0.0
 10
103.090259012
 20
25.1137832573
 30
0.0
 10
103.174782108
 20
25.1135695091
 30
0.0
 10
103.2739977479
 20
25.1135957533
 30
0.0
 10
103.4380826429
 20
25.1138036688
 30
0.0
 10
103.6799289139
 20
25.1142032672
 30
0.0
 10
104.0097497261
 20
25.1143116998
 30
0.0
 10
104.3876866173
 20
25.1138171411
 30
0.0
 10
104.8079161949
 20
25.1126718565
 30
0.0
 10
105.2626089919
 20
25.1108899292
 30
0.0
 10
105.5765949382
 20
25.1101428604
 30
0.0
 10
105.7375529784
 20
25.1103002754
 30
0.0
  0
SPLINE
  5
4EE7
330
210
100
AcDbEntity
  8
0
  6
Continuous
 62
     7
100
AcDbSpline
210
0.0
220
0.0
230
1.0
 70
     8
 71
     3
 72
    17
 73
    13
 74
     0
 42
0.0000001
 43
0.0000000001
 40
0.0
 40
0.0
 40
0.0
 40
0.0
 40
0.0153090769
 40
0.0306319768
 40
0.0613153432
 40
0.0920400867
 40
0.1228123826
 40
0.1844926227
 40
0.2463486577
 40
0.370576581
 40
0.495467933
 40
1.0
 40
1.0
 40
1.0
 40
1.0
 10
105.7375529784
 20
25.1103002754
 30
0.0
 10
105.7772053873
 20
25.1103406815
 30
0.0
 10
105.8565457709
 20
25.1105793552
 30
0.0
 10
106.0153602559
 20
25.110666054
 30
0.0
 10
106.214103242
 20
25.1104712735
 30
0.0
 10
106.452861731
 20
25.110979742
 30
0.0
 10
106.7719063525
 20
25.1110838811
 30
0.0
 10
107.1715848638
 20
25.1112357874
 30
0.0
 10
107.8133252202
 20
25.1113172809
 30
0.0
 10
108.6187902555
 20
25.1115057897
 30
0.0
 10
110.5708417434
 20
25.1118176146
 30
0.0
 10
112.2011273496
 20
25.1119692897
 30
0.0
 10
113.5079286887
 20
25.1119682011
 30
0.0
  0
LINE
  5
4EE8
330
210
100
AcDbEntity
  8
0
  6
Continuous
 62
     7
100
AcDbLine
 10
99.48112227440001
 20
44.0405959171
 30
0.0
 11
97.18314386590002
 21
44.51599366249999
 31
0.0
  0
LINE
  5
4EE9
330
210
100
AcDbEntity
  8
0
  6
Continuous
 62
     7
100
AcDbLine
 10
97.18314386590002
 20
44.51599366249999
 30
0.0
 11
97.11012335580001
 21
44.5311950529
 31
0.0
  0
LINE
  5
4EEA
330
210
100
AcDbEntity
  8
0
  6
Continuous
 62
     7
100
AcDbLine
 10
97.11012335580001
 20
44.5311950529
 30
0.0
 11
97.1049550831
 21
44.53227179379999
 31
0.0
  0
LINE
  5
4EEB
330
210
100
AcDbEntity
  8
0
  6
Continuous
 62
     7
100
AcDbLine
 10
97.1049550831
 20
44.53227179379999
 30
0.0
 11
97.09252693160001
 21
44.5348643872
 31
0.0
  0
LINE
  5
4EEC
330
210
100
AcDbEntity
  8
0
  6
Continuous
 62
     7
100
AcDbLine
 10
97.09252693160001
 20
44.5348643872
 30
0.0
 11
97.0922295985
 21
44.5349275499
 31
0.0
  0
SPLINE
  5
4EED
330
210
100
AcDbEntity
  8
0
  6
Continuous
 62
     7
100
AcDbSpline
210
0.0
220
0.0
230
1.0
 70
     8
 71
     3
 72
    16
 73
    12
 74
     0
 42
0.0000001
 43
0.0000000001
 40
0.0
 40
0.0
 40
0.0
 40
0.0
 40
0.1802082922
 40
0.3540183722
 40
0.5159402468
 40
0.6604684556000001
 40
0.782781408
 40
0.8796802032999998
 40
0.9183383961
 40
0.9508011618999999
 40
1.0
 40
1.0
 40
1.0
 40
1.0
 10
102.6388545569
 20
43.89192173609999
 30
0.0
 10
102.4539504604
 20
43.89459820969999
 30
0.0
 10
102.0907091177
 20
43.9000138722
 30
0.0
 10
101.5613649985
 20
43.91023773199999
 30
0.0
 10
101.068703346
 20
43.9231622596
 30
0.0
 10
100.6289906775
 20
43.9388232705
 30
0.0
 10
100.2561604662
 20
43.95689137429999
 30
0.0
 10
99.99209878510001
 20
43.9744554487
 30
0.0
 10
99.8203662743
 20
43.98991795029999
 30
0.0
 10
99.69762849700002
 20
44.003332908
 30
0.0
 10
99.61462555969999
 20
44.0152473835
 30
0.0
 10
99.56493592200001
 20
44.0241798781
 30
0.0
  0
SPLINE
  5
4EEE
330
210
100
AcDbEntity
  8
0
  6
Continuous
 62
     7
100
AcDbSpline
210
0.0
220
0.0
230
1.0
 70
     8
 71
     3
 72
     9
 73
     5
 74
     0
 42
0.0000001
 43
0.0000000001
 40
0.0
 40
0.0
 40
0.0
 40
0.0
 40
0.2630228115
 40
1.0
 40
1.0
 40
1.0
 40
1.0
 10
99.56493592200001
 20
44.0241798781
 30
0.0
 10
99.5593340085
 20
44.0251869102
 30
0.0
 10
99.5380498291
 20
44.02909401899999
 30
0.0
 10
99.5168219928
 20
44.03330195149999
 30
0.0
 10
99.5011945721
 20
44.0364829882
 30
0.0
  0
LINE
  5
4EEF
330
210
100
AcDbEntity
  8
0
  6
Continuous
 62
     7
100
AcDbLine
 10
99.5011945721
 20
44.0364829882
 30
0.0
 11
99.49114858719999
 21
44.038536279
 31
0.0
  0
LINE
  5
4EF0
330
210
100
AcDbEntity
  8
0
  6
Continuous
 62
     7
100
AcDbLine
 10
99.49114858719999
 20
44.038536279
 30
0.0
 11
99.48112227440001
 21
44.0405959171
 31
0.0
  0
LINE
  5
4EF1
330
210
100
AcDbEntity
  8
0
  6
Continuous
 62
     7
100
AcDbLine
 10
127.5347518763
 20
44.0405959171
 30
0.0
 11
127.4840792825
 21
44.0303825605
 31
0.0
  0
SPLINE
  5
4EF2
330
210
100
AcDbEntity
  8
0
  6
Continuous
 62
     7
100
AcDbSpline
210
0.0
220
0.0
230
1.0
 70
     8
 71
     3
 72
    16
 73
    12
 74
     0
 42
0.0000001
 43
0.0000000001
 40
0.0
 40
0.0
 40
0.0
 40
0.0
 40
0.0491988381
 40
0.0816616039
 40
0.1203197967
 40
0.217218592
 40
0.3395315444
 40
0.4840597532000001
 40
0.6459816278
 40
0.8197917077999999
 40
1.0
 40
1.0
 40
1.0
 40
1.0
 10
127.4509382287
 20
44.0241798781
 30
0.0
 10
127.401248591
 20
44.0152473835
 30
0.0
 10
127.3182456536
 20
44.003332908
 30
0.0
 10
127.1955078764
 20
43.98991795029999
 30
0.0
 10
127.0237753655
 20
43.9744554487
 30
0.0
 10
126.7597136845
 20
43.95689137429999
 30
0.0
 10
126.3868834731
 20
43.9388232705
 30
0.0
 10
125.9471708046
 20
43.9231622596
 30
0.0
 10
125.4545091522
 20
43.91023773199999
 30
0.0
 10
124.925165033
 20
43.9000138722
 30
0.0
 10
124.5619236902
 20
43.89459820969999
 30
0.0
 10
124.3770195937
 20
43.89192173609999
 30
0.0
  0
LINE
  5
4EF3
330
210
100
AcDbEntity
  8
0
  6
Continuous
 62
     7
100
AcDbLine
 10
124.8560153855
 20
43.88256963679999
 30
0.0
 11
124.3748163909
 21
43.87542634829999
 31
0.0
  0
LINE
  5
4EF4
330
210
100
AcDbEntity
  8
0
  6
Continuous
 62
     7
100
AcDbLine
 10
124.3748163909
 20
43.87542634829999
 30
0.0
 11
124.320848956
 21
43.8746440983
 31
0.0
  0
LINE
  5
4EF5
330
210
100
AcDbEntity
  8
0
  6
Continuous
 62
     7
100
AcDbLine
 10
102.6410921912
 20
43.875425851
 30
0.0
 11
102.1598587651
 21
43.88256963679999
 31
0.0
  0
LINE
  5
4EF6
330
210
100
AcDbEntity
  8
0
  6
Continuous
 62
     7
100
AcDbLine
 10
129.9236445521
 20
44.5349275499
 30
0.0
 11
129.873123266
 21
44.52440082499999
 31
0.0
  0
LINE
  5
4EF7
330
210
100
AcDbEntity
  8
0
  6
Continuous
 62
     7
100
AcDbLine
 10
129.873123266
 20
44.52440082499999
 30
0.0
 11
129.8327302848
 21
44.51599366249999
 31
0.0
  0
LINE
  5
4EF8
330
210
100
AcDbEntity
  8
0
  6
Continuous
 62
     7
100
AcDbLine
 10
129.8327302848
 20
44.51599366249999
 30
0.0
 11
127.5347518763
 21
44.0405959171
 31
0.0
  0
SPLINE
  5
4EF9
330
210
100
AcDbEntity
  8
0
  6
Continuous
 62
     7
100
AcDbSpline
210
0.0
220
0.0
230
1.0
 70
     8
 71
     3
 72
    18
 73
    14
 74
     0
 42
0.0000001
 43
0.0000000001
 40
0.0
 40
0.0
 40
0.0
 40
0.0
 40
0.2530175564
 40
0.5045309847999999
 40
0.6294225503000001
 40
0.7536507409000001
 40
0.8155069226999998
 40
0.877187314
 40
0.9079596855
 40
0.9386845045000001
 40
0.9693679473000001
 40
0.9846908806999998
 40
1.0
 40
1.0
 40
1.0
 40
1.0
 10
113.5079286887
 20
25.1119682011
 30
0.0
 10
114.1632773117
 20
25.1119685174
 30
0.0
 10
115.4700786703
 20
25.1119141492
 30
0.0
 10
117.100365534
 20
25.1117120089
 30
0.0
 10
118.397071064
 20
25.1115062118
 30
0.0
 10
119.2025394636
 20
25.1113170429
 30
0.0
 10
119.84428267
 20
25.111235743
 30
0.0
 10
120.2439630118
 20
25.1110838622
 30
0.0
 10
120.5630091051
 20
25.1109798074
 30
0.0
 10
120.8017686986
 20
25.1104711609
 30
0.0
 10
121.0005125945
 20
25.1106665747
 30
0.0
 10
121.159327816
 20
25.1105789355
 30
0.0
 10
121.2386685681
 20
25.1103407346
 30
0.0
 10
121.2783211723
 20
25.1103002754
 30
0.0
  0
SPLINE
  5
4EFA
330
210
100
AcDbEntity
  8
0
  6
Continuous
 62
     7
100
AcDbSpline
210
0.0
220
0.0
230
1.0
 70
     8
 71
     3
 72
    17
 73
    13
 74
     0
 42
0.0000001
 43
0.0000000001
 40
0.0
 40
0.0
 40
0.0
 40
0.0
 40
0.1773612784
 40
0.345999623
 40
0.5010534085
 40
0.6404287291
 40
0.762434446
 40
0.8644473957999998
 40
0.9068811309999999
 40
0.9432053691
 40
0.9737476667999999
 40
1.0
 40
1.0
 40
1.0
 40
1.0
 10
121.2783211723
 20
25.1103002754
 30
0.0
 10
121.4392869578
 20
25.1101637924
 30
0.0
 10
121.7533023825
 20
25.1108459574
 30
0.0
 10
122.2080340244
 20
25.1126833416
 30
0.0
 10
122.6282937908
 20
25.1138148226
 30
0.0
 10
123.0062328128
 20
25.1143134925
 30
0.0
 10
123.3360344572
 20
25.1142001636
 30
0.0
 10
123.577855474
 20
25.1138066618
 30
0.0
 10
123.7419155888
 20
25.1135857236
 30
0.0
 10
123.8411121967
 20
25.11358318820001
 30
0.0
 10
123.925622671
 20
25.113777682
 30
0.0
 10
123.9771672086
 20
25.1140135673
 30
0.0
 10
124.0009926572
 20
25.1139461238
 30
0.0
  0
LINE
  5
4EFB
330
210
100
AcDbEntity
  8
0
  6
Continuous
 62
     7
100
AcDbLine
 10
124.0009857832
 20
25.1139366266
 30
0.0
 11
124.0092897747
 21
25.1139297924
 31
0.0
  0
LINE
  5
4EFC
330
210
100
AcDbEntity
  8
0
  6
Continuous
 62
     7
100
AcDbLine
 10
124.0092790441
 20
25.113914975
 30
0.0
 11
125.391756887
 21
25.1052832018
 31
0.0
  0
ENDSEC
  0
SECTION
  2
OBJECTS
  0
DICTIONARY
  5
C
330
0
100
AcDbDictionary
281
     1
  3
ACAD_CIP_PREVIOUS_PRODUCT_INFO
350
4FA5
  3
ACAD_COLOR
350
4F3A
  3
ACAD_DETAILVIEWSTYLE
350
4F53
  3
ACAD_GROUP
350
D
  3
ACAD_IMAGE_DICT
350
4EFE
  3
ACAD_IMAGE_VARS
350
4EFF
  3
ACAD_LAYOUT
350
1A
  3
ACAD_MATERIAL
350
4F08
  3
ACAD_MLEADERSTYLE
350
4F4F
  3
ACAD_MLINESTYLE
350
17
  3
ACAD_PLOTSETTINGS
350
19
  3
ACAD_PLOTSTYLENAME
350
E
  3
ACAD_SCALELIST
350
4F3D
  3
ACAD_SECTIONVIEWSTYLE
350
4F51
  3
ACAD_TABLESTYLE
350
4F3B
  3
ACAD_VISUALSTYLE
350
4F21
  3
ACDB_RECOMPOSE_DATA
350
4FE0
  3
AcDbVariableDictionary
350
4F97
  0
DICTIONARY
  5
4F58
330
8
100
AcDbDictionary
280
     1
281
     1
  0
DICTIONARY
  5
4FCE
330
2
100
AcDbDictionary
280
     1
281
     1
  3
ACAD_LAYERSTATES
360
4FCF
  0
DICTIONARY
  5
4FA8
330
10
100
AcDbDictionary
280
     1
281
     1
  3
ADSK_XREC_LAYER_RECONCILED
360
4FA9
  0
DICTIONARY
  5
4FAA
330
1FA
100
AcDbDictionary
280
     1
281
     1
  3
ADSK_XREC_LAYER_RECONCILED
360
4FAB
  0
DICTIONARY
  5
4FAC
330
1FB
100
AcDbDictionary
280
     1
281
     1
  3
ADSK_XREC_LAYER_RECONCILED
360
4FAD
  0
DICTIONARY
  5
4FAE
330
1FC
100
AcDbDictionary
280
     1
281
     1
  3
ADSK_XREC_LAYER_RECONCILED
360
4FAF
  0
DICTIONARY
  5
4FB0
330
1FD
100
AcDbDictionary
280
     1
281
     1
  3
ADSK_XREC_LAYER_RECONCILED
360
4FB1
  0
DICTIONARY
  5
4FB2
330
1FE
100
AcDbDictionary
280
     1
281
     1
  3
ADSK_XREC_LAYER_RECONCILED
360
4FB3
  0
DICTIONARY
  5
4FB4
330
1FF
100
AcDbDictionary
280
     1
281
     1
  3
ADSK_XREC_LAYER_RECONCILED
360
4FB5
  0
DICTIONARY
  5
4FB6
330
200
100
AcDbDictionary
280
     1
281
     1
  3
ADSK_XREC_LAYER_RECONCILED
360
4FB7
  0
DICTIONARY
  5
4FB8
330
201
100
AcDbDictionary
280
     1
281
     1
  3
ADSK_XREC_LAYER_RECONCILED
360
4FB9
  0
DICTIONARY
  5
4FBA
330
202
100
AcDbDictionary
280
     1
281
     1
  3
ADSK_XREC_LAYER_RECONCILED
360
4FBB
  0
DICTIONARY
  5
4FBC
330
203
100
AcDbDictionary
280
     1
281
     1
  3
ADSK_XREC_LAYER_RECONCILED
360
4FBD
  0
DICTIONARY
  5
4FBE
330
204
100
AcDbDictionary
280
     1
281
     1
  3
ADSK_XREC_LAYER_RECONCILED
360
4FBF
  0
DICTIONARY
  5
4FC0
330
205
100
AcDbDictionary
280
     1
281
     1
  3
ADSK_XREC_LAYER_RECONCILED
360
4FC1
  0
DICTIONARY
  5
4FC2
330
206
100
AcDbDictionary
280
     1
281
     1
  3
ADSK_XREC_LAYER_RECONCILED
360
4FC3
  0
DICTIONARY
  5
4FC4
330
207
100
AcDbDictionary
280
     1
281
     1
  3
ADSK_XREC_LAYER_RECONCILED
360
4FC5
  0
XRECORD
  5
4FA5
102
{ACAD_REACTORS
330
C
102
}
330
C
100
AcDbXrecord
280
     1
300
ACDLT
300
2019
300
ACDLT_F_S
  0
DICTIONARY
  5
4F3A
102
{ACAD_REACTORS
330
C
102
}
330
C
100
AcDbDictionary
281
     1
  0
DICTIONARY
  5
4F53
102
{ACAD_REACTORS
330
C
102
}
330
C
100
AcDbDictionary
281
     1
  3
Imperial24
350
4F54
  0
DICTIONARY
  5
D
102
{ACAD_REACTORS
330
C
102
}
330
C
100
AcDbDictionary
281
     1
  0
DICTIONARY
  5
4EFE
330
C
100
AcDbDictionary
281
     1
  3
a0001682_img_1
350
4F02
  0
RASTERVARIABLES
  5
4EFF
330
C
100
AcDbRasterVariables
 90
        0
 70
     0
 71
     1
 72
     5
  0
DICTIONARY
  5
1A
102
{ACAD_REACTORS
330
C
102
}
330
C
100
AcDbDictionary
281
     1
  3
Layout1
350
4F01
  3
Model
350
4F00
  0
DICTIONARY
  5
4F08
102
{ACAD_REACTORS
330
C
102
}
330
C
100
AcDbDictionary
281
     1
  3
ByBlock
350
4F11
  3
ByLayer
350
4F09
  3
Global
350
4F19
  0
DICTIONARY
  5
4F4F
102
{ACAD_REACTORS
330
C
102
}
330
C
100
AcDbDictionary
281
     1
  3
Standard
350
4F50
  0
DICTIONARY
  5
17
102
{ACAD_REACTORS
330
C
102
}
330
C
100
AcDbDictionary
281
     1
  3
Standard
350
18
  0
DICTIONARY
  5
19
102
{ACAD_REACTORS
330
C
102
}
330
C
100
AcDbDictionary
281
     1
  0
ACDBDICTIONARYWDFLT
  5
E
102
{ACAD_REACTORS
330
C
102
}
330
C
100
AcDbDictionary
281
     1
  3
Normal
350
F
100
AcDbDictionaryWithDefault
340
F
  0
DICTIONARY
  5
4F3D
102
{ACAD_REACTORS
330
C
102
}
330
C
100
AcDbDictionary
281
     1
  3
A0
350
4F3E
  3
A1
350
4F3F
  3
A2
350
4F40
  3
A3
350
4F41
  3
A4
350
4F42
  3
A5
350
4F43
  3
A6
350
4F44
  3
A7
350
4F45
  3
A8
350
4F46
  3
A9
350
4F47
  3
B0
350
4F48
  3
B1
350
4F49
  3
B2
350
4F4A
  3
B3
350
4F4B
  3
B4
350
4F4C
  3
B5
350
4F4D
  3
B6
350
4F4E
  0
DICTIONARY
  5
4F51
102
{ACAD_REACTORS
330
C
102
}
330
C
100
AcDbDictionary
281
     1
  3
Imperial24
350
4F52
  0
DICTIONARY
  5
4F3B
102
{ACAD_REACTORS
330
C
102
}
330
C
100
AcDbDictionary
281
     1
  3
Standard
350
4F3C
  0
DICTIONARY
  5
4F21
102
{ACAD_REACTORS
330
C
102
}
330
C
100
AcDbDictionary
281
     1
  3
2dWireframe
350
4F27
  3
Basic
350
4F26
  3
Brighten
350
4F2D
  3
ColorChange
350
4F31
  3
Conceptual
350
4F2A
  3
Dim
350
4F2C
  3
EdgeColorOff
350
4F39
  3
Facepattern
350
4F30
  3
Flat
350
4F22
  3
FlatWithEdges
350
4F23
  3
Gouraud
350
4F24
  3
GouraudWithEdges
350
4F25
  3
Hidden
350
4F29
  3
JitterOff
350
4F37
  3
Linepattern
350
4F2F
  3
OverhangOff
350
4F38
  3
Realistic
350
4F2B
  3
Shaded
350
4F36
  3
Shaded with edges
350
4F35
  3
Shades of Gray
350
4F32
  3
Sketchy
350
4F33
  3
Thicken
350
4F2E
  3
Wireframe
350
4F28
  3
X-Ray
350
4F34
  0
XRECORD
  5
4FE0
102
{ACAD_REACTORS
330
C
102
}
330
C
100
AcDbXrecord
280
     1
 90
        1
330
4F3C
  0
DICTIONARY
  5
4F97
102
{ACAD_REACTORS
330
C
102
}
330
C
100
AcDbDictionary
281
     1
  3
CANNOSCALE
350
4F9C
  3
CMLEADERSTYLE
350
4F99
  3
CTABLESTYLE
350
4F98
  3
CVIEWDETAILSTYLE
350
4F9A
  3
CVIEWSECTIONSTYLE
350
4F9B
  3
DIMASSOC
350
4F9F
  3
INDEXCTL
350
4F9E
  3
LAYEREVAL
350
4FD6
  3
LAYERNOTIFY
350
4FD7
  3
LIGHTINGUNITS
350
4FD5
  3
MSLTSCALE
350
4FD4
  3
SORTENTS
350
4F9D
  0
DICTIONARY
  5
4FCF
102
{ACAD_REACTORS
330
4FCE
102
}
330
4FCE
100
AcDbDictionary
281
     1
  0
XRECORD
  5
4FA9
102
{ACAD_REACTORS
330
4FA8
102
}
330
4FA8
100
AcDbXrecord
280
     1
290
     1
  0
XRECORD
  5
4FAB
102
{ACAD_REACTORS
330
4FAA
102
}
330
4FAA
100
AcDbXrecord
280
     1
290
     1
  0
XRECORD
  5
4FAD
102
{ACAD_REACTORS
330
4FAC
102
}
330
4FAC
100
AcDbXrecord
280
     1
290
     1
  0
XRECORD
  5
4FAF
102
{ACAD_REACTORS
330
4FAE
102
}
330
4FAE
100
AcDbXrecord
280
     1
290
     1
  0
XRECORD
  5
4FB1
102
{ACAD_REACTORS
330
4FB0
102
}
330
4FB0
100
AcDbXrecord
280
     1
290
     1
  0
XRECORD
  5
4FB3
102
{ACAD_REACTORS
330
4FB2
102
}
330
4FB2
100
AcDbXrecord
280
     1
290
     1
  0
XRECORD
  5
4FB5
102
{ACAD_REACTORS
330
4FB4
102
}
330
4FB4
100
AcDbXrecord
280
     1
290
     1
  0
XRECORD
  5
4FB7
102
{ACAD_REACTORS
330
4FB6
102
}
330
4FB6
100
AcDbXrecord
280
     1
290
     1
  0
XRECORD
  5
4FB9
102
{ACAD_REACTORS
330
4FB8
102
}
330
4FB8
100
AcDbXrecord
280
     1
290
     1
  0
XRECORD
  5
4FBB
102
{ACAD_REACTORS
330
4FBA
102
}
330
4FBA
100
AcDbXrecord
280
     1
290
     1
  0
XRECORD
  5
4FBD
102
{ACAD_REACTORS
330
4FBC
102
}
330
4FBC
100
AcDbXrecord
280
     1
290
     1
  0
XRECORD
  5
4FBF
102
{ACAD_REACTORS
330
4FBE
102
}
330
4FBE
100
AcDbXrecord
280
     1
290
     1
  0
XRECORD
  5
4FC1
102
{ACAD_REACTORS
330
4FC0
102
}
330
4FC0
100
AcDbXrecord
280
     1
290
     1
  0
XRECORD
  5
4FC3
102
{ACAD_REACTORS
330
4FC2
102
}
330
4FC2
100
AcDbXrecord
280
     1
290
     1
  0
XRECORD
  5
4FC5
102
{ACAD_REACTORS
330
4FC4
102
}
330
4FC4
100
AcDbXrecord
280
     1
290
     1
  0
ACDBDETAILVIEWSTYLE
  5
4F54
102
{ACAD_REACTORS
330
4F53
102
}
330
4F53
100
AcDbModelDocViewStyle
 70
     0
  3
Imperial24
290
     0
300
Imperial24
 90
        0
100
AcDbDetailViewStyle
 70
     0
 71
     0
 90
        3
 71
     1
340
11
 62
   256
 40
0.24
340
0
 62
   256
 40
0.24
300

 40
0.36
280
     3
 71
     2
340
16
 90
       25
 62
   256
 71
     3
340
11
 62
   256
 40
0.24
 90
        1
 40
0.75
 90
        1
300
%<\AcVar ViewType \f "%tc1">% %<\AcVar ViewDetailId>%\PSCALE %<\AcVar ViewScale \f "%sn">%
 71
     4
340
16
 90
       25
 62
   256
340
16
 90
       25
 62
   256
280
     0
  0
IMAGEDEF
  5
4F02
102
{ACAD_REACTORS
330
4EFE
102
}
330
4EFE
100
AcDbRasterImageDef
 90
        0
  1
a0001682_img_1.png
 10
7114.0
 20
6146.0
 11
0.0066666667
 21
0.0066666667
280
     1
281
     0
  0
LAYOUT
  5
4F01
102
{ACAD_REACTORS
330
1A
102
}
330
1A
100
AcDbPlotSettings
  1

  2
none_device
  4
ANSI_B_(17.00_x_11.00_Inches)
  6

 40
0.0
 41
0.0
 42
0.0
 43
0.0
 44
431.8
 45
279.4
 46
0.0
 47
0.0
 48
0.0
 49
0.0
140
0.0
141
0.0
142
1.0
143
1.0
 70
     0
 72
     0
 73
     0
 74
     0
  7

 75
     0
147
1.0
 76
     0
 77
     2
 78
   300
148
0.0
149
0.0
100
AcDbLayout
  1
Layout1
 70
     1
 71
     1
 10
0.0
 20
0.0
 11
12.0
 21
9.0
 12
0.0
 22
0.0
 32
0.0
 14
1.000000000000000E+20
 24
1.000000000000000E+20
 34
1.000000000000000E+20
 15
-1.000000000000000E+20
 25
-1.000000000000000E+20
 35
-1.000000000000000E+20
146
0.0
 13
0.0
 23
0.0
 33
0.0
 16
1.0
 26
0.0
 36
0.0
 17
0.0
 27
1.0
 37
0.0
 76
     0
330
211
  0
LAYOUT
  5
4F00
102
{ACAD_REACTORS
330
1A
102
}
330
1A
100
AcDbPlotSettings
  1

  2
none_device
  4
ANSI_B_(17.00_x_11.00_Inches)
  6

 40
0.0
 41
0.0
 42
0.0
 43
0.0
 44
431.8
 45
279.4
 46
0.0
 47
0.0
 48
0.0
 49
0.0
140
0.0
141
0.0
142
1.0
143
1.0
 70
  1024
 72
     0
 73
     0
 74
     0
  7

 75
     0
147
1.0
 76
     0
 77
     2
 78
   300
148
0.0
149
0.0
100
AcDbLayout
  1
Model
 70
     0
 71
     0
 10
0.0
 20
0.0
 11
17.0
 21
11.0
 12
0.0
 22
0.0
 32
0.0
 14
0.0
 24
0.0
 34
0.0
 15
0.0
 25
0.0
 35
0.0
146
0.0
 13
0.0
 23
0.0
 33
0.0
 16
1.0
 26
0.0
 36
0.0
 17
0.0
 27
1.0
 37
0.0
 76
     0
330
210
331
1F4
  0
MATERIAL
  5
4F11
102
{ACAD_XDICTIONARY
360
4F12
102
}
102
{ACAD_REACTORS
330
4F08
102
}
330
4F08
100
AcDbMaterial
  1
ByBlock
 72
     0
 43
0.0208333333333333
 43
0.0
 43
0.0
 43
0.0
 43
0.0
 43
0.0208333333333333
 43
0.0
 43
0.0
 43
0.0
 43
0.0
 43
1.0
 43
0.0
 43
0.0
 43
0.0
 43
0.0
 43
1.0
 77
     0
 47
0.0208333333333333
 47
0.0
 47
0.0
 47
0.0
 47
0.0
 47
0.0208333333333333
 47
0.0
 47
0.0
 47
0.0
 47
0.0
 47
1.0
 47
0.0
 47
0.0
 47
0.0
 47
0.0
 47
1.0
171
     0
 49
0.0208333333333333
 49
0.0
 49
0.0
 49
0.0
 49
0.0
 49
0.0208333333333333
 49
0.0
 49
0.0
 49
0.0
 49
0.0
 49
1.0
 49
0.0
 49
0.0
 49
0.0
 49
0.0
 49
1.0
175
     0
142
0.0208333333333333
142
0.0
142
0.0
142
0.0
142
0.0
142
0.0208333333333333
142
0.0
142
0.0
142
0.0
142
0.0
142
1.0
142
0.0
142
0.0
142
0.0
142
0.0
142
1.0
179
     0
144
0.0208333333333333
144
0.0
144
0.0
144
0.0
144
0.0
144
0.0208333333333333
144
0.0
144
0.0
144
0.0
144
0.0
144
1.0
144
0.0
144
0.0
144
0.0
144
0.0
144
1.0
147
0.0208333333333333
147
0.0
147
0.0
147
0.0
147
0.0
147
0.0208333333333333
147
0.0
147
0.0
147
0.0
147
0.0
147
1.0
147
0.0
147
0.0
147
0.0
147
0.0
147
1.0
  0
MATERIAL
  5
4F09
102
{ACAD_XDICTIONARY
360
4F0A
102
}
102
{ACAD_REACTORS
330
4F08
102
}
330
4F08
100
AcDbMaterial
  1
ByLayer
 72
     0
 43
0.0208333333333333
 43
0.0
 43
0.0
 43
0.0
 43
0.0
 43
0.0208333333333333
 43
0.0
 43
0.0
 43
0.0
 43
0.0
 43
1.0
 43
0.0
 43
0.0
 43
0.0
 43
0.0
 43
1.0
 77
     0
 47
0.0208333333333333
 47
0.0
 47
0.0
 47
0.0
 47
0.0
 47
0.0208333333333333
 47
0.0
 47
0.0
 47
0.0
 47
0.0
 47
1.0
 47
0.0
 47
0.0
 47
0.0
 47
0.0
 47
1.0
171
     0
 49
0.0208333333333333
 49
0.0
 49
0.0
 49
0.0
 49
0.0
 49
0.0208333333333333
 49
0.0
 49
0.0
 49
0.0
 49
0.0
 49
1.0
 49
0.0
 49
0.0
 49
0.0
 49
0.0
 49
1.0
175
     0
142
0.0208333333333333
142
0.0
142
0.0
142
0.0
142
0.0
142
0.0208333333333333
142
0.0
142
0.0
142
0.0
142
0.0
142
1.0
142
0.0
142
0.0
142
0.0
142
0.0
142
1.0
179
     0
144
0.0208333333333333
144
0.0
144
0.0
144
0.0
144
0.0
144
0.0208333333333333
144
0.0
144
0.0
144
0.0
144
0.0
144
1.0
144
0.0
144
0.0
144
0.0
144
0.0
144
1.0
147
0.0208333333333333
147
0.0
147
0.0
147
0.0
147
0.0
147
0.0208333333333333
147
0.0
147
0.0
147
0.0
147
0.0
147
1.0
147
0.0
147
0.0
147
0.0
147
0.0
147
1.0
  0
MATERIAL
  5
4F19
102
{ACAD_XDICTIONARY
360
4F1A
102
}
102
{ACAD_REACTORS
330
4F08
102
}
330
4F08
100
AcDbMaterial
  1
Global
 72
     0
 43
0.0208333333333333
 43
0.0
 43
0.0
 43
0.0
 43
0.0
 43
0.0208333333333333
 43
0.0
 43
0.0
 43
0.0
 43
0.0
 43
1.0
 43
0.0
 43
0.0
 43
0.0
 43
0.0
 43
1.0
 77
     0
 47
0.0208333333333333
 47
0.0
 47
0.0
 47
0.0
 47
0.0
 47
0.0208333333333333
 47
0.0
 47
0.0
 47
0.0
 47
0.0
 47
1.0
 47
0.0
 47
0.0
 47
0.0
 47
0.0
 47
1.0
171
     0
 49
0.0208333333333333
 49
0.0
 49
0.0
 49
0.0
 49
0.0
 49
0.0208333333333333
 49
0.0
 49
0.0
 49
0.0
 49
0.0
 49
1.0
 49
0.0
 49
0.0
 49
0.0
 49
0.0
 49
1.0
175
     0
142
0.0208333333333333
142
0.0
142
0.0
142
0.0
142
0.0
142
0.0208333333333333
142
0.0
142
0.0
142
0.0
142
0.0
142
1.0
142
0.0
142
0.0
142
0.0
142
0.0
142
1.0
179
     0
144
0.0208333333333333
144
0.0
144
0.0
144
0.0
144
0.0
144
0.0208333333333333
144
0.0
144
0.0
144
0.0
144
0.0
144
1.0
144
0.0
144
0.0
144
0.0
144
0.0
144
1.0
147
0.0208333333333333
147
0.0
147
0.0
147
0.0
147
0.0
147
0.0208333333333333
147
0.0
147
0.0
147
0.0
147
0.0
147
1.0
147
0.0
147
0.0
147
0.0
147
0.0
147
1.0
  0
MLEADERSTYLE
  5
4F50
102
{ACAD_REACTORS
330
4F4F
102
}
330
4F4F
100
AcDbMLeaderStyle
179
     2
170
     2
171
     1
172
     0
 90
        2
 40
0.0
 41
0.0
173
     1
 91
-1056964608
340
14
 92
       -2
290
     1
 42
0.09
291
     1
 43
0.36
  3
Standard
 44
0.18
300

342
11
174
     1
178
     6
175
     1
176
     0
 93
-1056964608
 45
0.18
292
     0
297
     0
 46
0.18
 94
-1056964608
 47
1.0
 49
1.0
140
1.0
293
     1
141
0.0
294
     1
177
     0
142
1.0
295
     0
296
     0
143
0.125
271
     0
272
     9
273
     9
298
     0
  0
MLINESTYLE
  5
18
102
{ACAD_REACTORS
330
17
102
}
330
17
100
AcDbMlineStyle
  2
STANDARD
 70
     0
  3

 62
   256
 51
90.0
 52
90.0
 71
     2
 49
0.5
 62
   256
  6
BYLAYER
 49
-0.5
 62
   256
  6
BYLAYER
  0
ACDBPLACEHOLDER
  5
F
102
{ACAD_REACTORS
330
E
102
}
330
E
  0
SCALE
  5
4F3E
102
{ACAD_REACTORS
330
4F3D
102
}
330
4F3D
100
AcDbScale
 70
     0
300
1:1
140
1.0
141
1.0
290
     1
  0
SCALE
  5
4F3F
102
{ACAD_REACTORS
330
4F3D
102
}
330
4F3D
100
AcDbScale
 70
     0
300
1/128" = 1'-0"
140
0.0078125
141
12.0
290
     0
  0
SCALE
  5
4F40
102
{ACAD_REACTORS
330
4F3D
102
}
330
4F3D
100
AcDbScale
 70
     0
300
1/64" = 1'-0"
140
0.015625
141
12.0
290
     0
  0
SCALE
  5
4F41
102
{ACAD_REACTORS
330
4F3D
102
}
330
4F3D
100
AcDbScale
 70
     0
300
1/32" = 1'-0"
140
0.03125
141
12.0
290
     0
  0
SCALE
  5
4F42
102
{ACAD_REACTORS
330
4F3D
102
}
330
4F3D
100
AcDbScale
 70
     0
300
1/16" = 1'-0"
140
0.0625
141
12.0
290
     0
  0
SCALE
  5
4F43
102
{ACAD_REACTORS
330
4F3D
102
}
330
4F3D
100
AcDbScale
 70
     0
300
3/32" = 1'-0"
140
0.09375
141
12.0
290
     0
  0
SCALE
  5
4F44
102
{ACAD_REACTORS
330
4F3D
102
}
330
4F3D
100
AcDbScale
 70
     0
300
1/8" = 1'-0"
140
0.125
141
12.0
290
     0
  0
SCALE
  5
4F45
102
{ACAD_REACTORS
330
4F3D
102
}
330
4F3D
100
AcDbScale
 70
     0
300
3/16" = 1'-0"
140
0.1875
141
12.0
290
     0
  0
SCALE
  5
4F46
102
{ACAD_REACTORS
330
4F3D
102
}
330
4F3D
100
AcDbScale
 70
     0
300
1/4" = 1'-0"
140
0.25
141
12.0
290
     0
  0
SCALE
  5
4F47
102
{ACAD_REACTORS
330
4F3D
102
}
330
4F3D
100
AcDbScale
 70
     0
300
3/8" = 1'-0"
140
0.375
141
12.0
290
     0
  0
SCALE
  5
4F48
102
{ACAD_REACTORS
330
4F3D
102
}
330
4F3D
100
AcDbScale
 70
     0
300
1/2" = 1'-0"
140
0.5
141
12.0
290
     0
  0
SCALE
  5
4F49
102
{ACAD_REACTORS
330
4F3D
102
}
330
4F3D
100
AcDbScale
 70
     0
300
3/4" = 1'-0"
140
0.75
141
12.0
290
     0
  0
SCALE
  5
4F4A
102
{ACAD_REACTORS
330
4F3D
102
}
330
4F3D
100
AcDbScale
 70
     0
300
1" = 1'-0"
140
1.0
141
12.0
290
     0
  0
SCALE
  5
4F4B
102
{ACAD_REACTORS
330
4F3D
102
}
330
4F3D
100
AcDbScale
 70
     0
300
1-1/2" = 1'-0"
140
1.5
141
12.0
290
     0
  0
SCALE
  5
4F4C
102
{ACAD_REACTORS
330
4F3D
102
}
330
4F3D
100
AcDbScale
 70
     0
300
3" = 1'-0"
140
3.0
141
12.0
290
     0
  0
SCALE
  5
4F4D
102
{ACAD_REACTORS
330
4F3D
102
}
330
4F3D
100
AcDbScale
 70
     0
300
6" = 1'-0"
140
6.0
141
12.0
290
     0
  0
SCALE
  5
4F4E
102
{ACAD_REACTORS
330
4F3D
102
}
330
4F3D
100
AcDbScale
 70
     0
300
1'-0" = 1'-0"
140
12.0
141
12.0
290
     0
  0
ACDBSECTIONVIEWSTYLE
  5
4F52
102
{ACAD_REACTORS
330
4F51
102
}
330
4F51
100
AcDbModelDocViewStyle
 70
     0
  3
Imperial24
290
     0
300
Imperial24
 90
        0
100
AcDbSectionViewStyle
 70
     0
 71
     0
 90
       78
 71
     1
340
11
 62
   256
 40
0.24
340
0
340
0
 62
   256
 40
0.24
300
I, O, Q, S, X, Z
 40
0.48
 90
        3
 40
0.18
 90
        1
 71
     2
340
16
 90
       25
 62
   256
340
16
 90
       50
 62
   256
 40
0.24
 40
0.0
 40
0.24
 71
     3
340
11
 62
   256
 40
0.24
 90
        1
 40
0.75
 90
        1
300
%<\AcVar ViewType \f "%tc1">% %<\AcVar ViewSectionStartId>%-%<\AcVar ViewSectionEndId>%\PSCALE %<\AcVar ViewScale \f "%sn">%
 71
     4
 62
   256
 62
   257
300
ANSI31
 40
1.0
 90
        0
290
     0
290
     0
 90
        6
 40
0.0
 40
1.570796326794896
 40
0.2617993877991494
 40
1.308996938995747
 40
-0.2617993877991494
 40
1.832595714594046
  0
TABLESTYLE
  5
4F3C
102
{ACAD_XDICTIONARY
360
4F55
102
}
102
{ACAD_REACTORS
330
4F3B
102
}
330
4F3B
100
AcDbTableStyle
280
     0
  3
Standard
 70
     0
 71
     0
 40
0.06
 41
0.06
280
     0
281
     0
  7
STANDARD
140
0.18
170
     2
 62
     0
 63
     7
283
     0
 90
      512
 91
        0
  1

274
    -2
284
     1
 64
     0
275
    -2
285
     1
 65
     0
276
    -2
286
     1
 66
     0
277
    -2
287
     1
 67
     0
278
    -2
288
     1
 68
     0
279
    -2
289
     1
 69
     0
  7
STANDARD
140
0.25
170
     5
 62
     0
 63
     7
283
     0
 90
      512
 91
        0
  1

274
    -2
284
     1
 64
     0
275
    -2
285
     1
 65
     0
276
    -2
286
     1
 66
     0
277
    -2
287
     1
 67
     0
278
    -2
288
     1
 68
     0
279
    -2
289
     1
 69
     0
  7
STANDARD
140
0.18
170
     5
 62
     0
 63
     7
283
     0
 90
      512
 91
        0
  1

274
    -2
284
     1
 64
     0
275
    -2
285
     1
 65
     0
276
    -2
286
     1
 66
     0
277
    -2
287
     1
 67
     0
278
    -2
288
     1
 68
     0
279
    -2
289
     1
 69
     0
  0
VISUALSTYLE
  5
4F27
102
{ACAD_REACTORS
330
4F21
102
}
330
4F21
100
AcDbVisualStyle
  2
2dWireframe
 70
     4
177
     3
291
     0
 70
    58
 90
        0
176
     1
 90
        2
176
     1
 90
        0
176
     1
 90
        0
176
     1
 40
0.6
176
     1
 40
30.0
176
     1
 62
     7
176
     1
 90
        1
176
     1
 90
        4
176
     1
 62
     7
176
     1
 62
   257
176
     1
 90
        1
176
     1
 90
        1
176
     1
 40
1.0
176
     1
 90
        0
176
     1
 62
   257
176
     1
 40
1.0
176
     1
 90
        1
176
     1
 90
        6
176
     1
 90
        2
176
     1
 62
     7
176
     1
 90
        5
176
     1
 90
        0
176
     1
 90
        0
176
     1
290
     0
176
     1
 90
        1
176
     1
 40
0.0
176
     1
 90
        0
176
     1
290
     1
176
     1
290
     1
176
     1
290
     0
176
     1
290
     0
176
     1
290
     0
176
     1
290
     0
176
     1
290
     0
176
     1
290
     0
176
     1
290
     0
176
     1
 90
       50
176
     1
 40
0.0
176
     1
 40
1.0
176
     1
 90
        0
176
     1
 62
    18
420
        0
176
     1
 90
       50
176
     1
 90
        3
176
     1
 62
     5
420
      255
176
     1
290
     0
176
     1
 90
       50
176
     1
 90
       50
176
     1
 90
       50
176
     1
290
     0
176
     1
 90
       50
176
     1
 62
   256
176
     0
 40
1.0
176
     0
 90
        2
176
     1
  1
strokes_ogs.tif
176
     1
290
     0
176
     1
 40
1.0
176
     1
 40
1.0
176
     1
  0
VISUALSTYLE
  5
4F26
102
{ACAD_REACTORS
330
4F21
102
}
330
4F21
100
AcDbVisualStyle
  2
Basic
 70
     7
177
     3
291
     1
 70
    58
 90
        1
176
     1
 90
        0
176
     1
 90
        1
176
     1
 90
        0
176
     1
 40
0.6
176
     1
 40
30.0
176
     1
 62
     7
176
     1
 90
        0
176
     1
 90
        4
176
     1
 62
     7
176
     1
 62
   257
176
     1
 90
        1
176
     1
 90
        1
176
     1
 40
1.0
176
     1
 90
        8
176
     1
 62
     7
176
     1
 40
1.0
176
     1
 90
        1
176
     1
 90
        6
176
     1
 90
        2
176
     1
 62
     7
176
     1
 90
        5
176
     1
 90
        0
176
     1
 90
        0
176
     1
290
     0
176
     1
 90
        1
176
     1
 40
0.0
176
     1
 90
        0
176
     1
290
     0
176
     1
290
     1
176
     1
290
     1
176
     1
290
     0
176
     1
290
     0
176
     1
290
     0
176
     1
290
     0
176
     1
290
     0
176
     1
290
     0
176
     1
 90
       50
176
     1
 40
0.0
176
     1
 40
1.0
176
     1
 90
        0
176
     1
 62
    18
420
        0
176
     1
 90
       50
176
     1
 90
        3
176
     1
 62
     5
420
      255
176
     1
290
     0
176
     1
 90
       50
176
     1
 90
       50
176
     1
 90
       50
176
     1
290
     0
176
     1
 90
       50
176
     1
 62
   256
176
     0
 40
1.0
176
     0
 90
        2
176
     1
  1
strokes_ogs.tif
176
     1
290
     0
176
     1
 40
1.0
176
     1
 40
1.0
176
     1
  0
VISUALSTYLE
  5
4F2D
102
{ACAD_REACTORS
330
4F21
102
}
330
4F21
100
AcDbVisualStyle
  2
Brighten
 70
    12
177
     3
291
     1
 70
    58
 90
        2
176
     1
 90
        2
176
     1
 90
        0
176
     1
 90
        0
176
     1
 40
0.6
176
     1
 40
30.0
176
     1
 62
     7
176
     1
 90
        1
176
     1
 90
        4
176
     1
 62
     7
176
     1
 62
   257
176
     1
 90
        1
176
     1
 90
        1
176
     1
 40
1.0
176
     1
 90
        8
176
     1
 62
     7
176
     1
 40
1.0
176
     1
 90
        1
176
     1
 90
        6
176
     1
 90
        2
176
     1
 62
     7
176
     1
 90
        5
176
     1
 90
        0
176
     1
 90
        0
176
     1
290
     0
176
     1
 90
        1
176
     1
 40
50.0
176
     1
 90
        0
176
     1
290
     0
176
     1
290
     1
176
     1
290
     1
176
     1
290
     0
176
     1
290
     0
176
     1
290
     0
176
     1
290
     0
176
     1
290
     0
176
     1
290
     0
176
     1
 90
       50
176
     1
 40
0.0
176
     1
 40
1.0
176
     1
 90
        0
176
     1
 62
    18
420
        0
176
     1
 90
       50
176
     1
 90
        3
176
     1
 62
     5
420
      255
176
     1
290
     0
176
     1
 90
       50
176
     1
 90
       50
176
     1
 90
       50
176
     1
290
     0
176
     1
 90
       50
176
     1
 62
   256
176
     0
 40
1.0
176
     0
 90
        2
176
     1
  1
strokes_ogs.tif
176
     1
290
     0
176
     1
 40
1.0
176
     1
 40
1.0
176
     1
  0
VISUALSTYLE
  5
4F31
102
{ACAD_REACTORS
330
4F21
102
}
330
4F21
100
AcDbVisualStyle
  2
ColorChange
 70
    16
177
     3
291
     1
 70
    58
 90
        2
176
     1
 90
        2
176
     1
 90
        3
176
     1
 90
        0
176
     1
 40
0.6
176
     1
 40
30.0
176
     1
 62
     8
176
     1
 90
        1
176
     1
 90
        4
176
     1
 62
     7
176
     1
 62
   257
176
     1
 90
        1
176
     1
 90
        1
176
     1
 40
1.0
176
     1
 90
        8
176
     1
 62
     8
176
     1
 40
1.0
176
     1
 90
        1
176
     1
 90
        6
176
     1
 90
        2
176
     1
 62
     7
176
     1
 90
        5
176
     1
 90
        0
176
     1
 90
        0
176
     1
290
     0
176
     1
 90
        1
176
     1
 40
0.0
176
     1
 90
        0
176
     1
290
     0
176
     1
290
     1
176
     1
290
     1
176
     1
290
     0
176
     1
290
     0
176
     1
290
     0
176
     1
290
     0
176
     1
290
     0
176
     1
290
     0
176
     1
 90
       50
176
     1
 40
0.0
176
     1
 40
1.0
176
     1
 90
        0
176
     1
 62
    18
420
        0
176
     1
 90
       50
176
     1
 90
        3
176
     1
 62
     5
420
      255
176
     1
290
     0
176
     1
 90
       50
176
     1
 90
       50
176
     1
 90
       50
176
     1
290
     0
176
     1
 90
       50
176
     1
 62
   256
176
     0
 40
1.0
176
     0
 90
        2
176
     1
  1
strokes_ogs.tif
176
     1
290
     0
176
     1
 40
1.0
176
     1
 40
1.0
176
     1
  0
VISUALSTYLE
  5
4F2A
102
{ACAD_REACTORS
330
4F21
102
}
330
4F21
100
AcDbVisualStyle
  2
Conceptual
 70
     9
177
     3
291
     0
 70
    58
 90
        3
176
     1
 90
        2
176
     1
 90
        0
176
     1
 90
        0
176
     1
 40
0.6
176
     1
 40
30.0
176
     1
 62
     7
176
     1
 90
        2
176
     1
 90
        2
176
     1
 62
     7
176
     1
 62
   257
176
     1
 90
        1
176
     1
 90
        1
176
     1
 40
179.0
176
     1
 90
        8
176
     1
 62
     7
176
     1
 40
1.0
176
     1
 90
        1
176
     1
 90
        6
176
     1
 90
        2
176
     1
 62
     7
176
     1
 90
        3
176
     1
 90
        0
176
     1
 90
        0
176
     1
290
     0
176
     1
 90
        1
176
     1
 40
0.0
176
     1
 90
        0
176
     1
290
     0
176
     1
290
     1
176
     1
290
     1
176
     1
290
     0
176
     1
290
     0
176
     1
290
     0
176
     1
290
     0
176
     1
290
     0
176
     1
290
     0
176
     1
 90
       50
176
     1
 40
0.0
176
     1
 40
1.0
176
     1
 90
        0
176
     1
 62
    18
420
        0
176
     1
 90
       50
176
     1
 90
        3
176
     1
 62
     5
420
      255
176
     1
290
     0
176
     1
 90
       50
176
     1
 90
       50
176
     1
 90
       50
176
     1
290
     0
176
     1
 90
       50
176
     1
 62
   256
176
     0
 40
1.0
176
     0
 90
        2
176
     1
  1
strokes_ogs.tif
176
     1
290
     0
176
     1
 40
1.0
176
     1
 40
1.0
176
     1
  0
VISUALSTYLE
  5
4F2C
102
{ACAD_REACTORS
330
4F21
102
}
330
4F21
100
AcDbVisualStyle
  2
Dim
 70
    11
177
     3
291
     1
 70
    58
 90
        2
176
     1
 90
        2
176
     1
 90
        0
176
     1
 90
        0
176
     1
 40
0.6
176
     1
 40
30.0
176
     1
 62
     7
176
     1
 90
        1
176
     1
 90
        4
176
     1
 62
     7
176
     1
 62
   257
176
     1
 90
        1
176
     1
 90
        1
176
     1
 40
1.0
176
     1
 90
        8
176
     1
 62
     7
176
     1
 40
1.0
176
     1
 90
        1
176
     1
 90
        6
176
     1
 90
        2
176
     1
 62
     7
176
     1
 90
        5
176
     1
 90
        0
176
     1
 90
        0
176
     1
290
     0
176
     1
 90
        1
176
     1
 40
-50.0
176
     1
 90
        0
176
     1
290
     0
176
     1
290
     1
176
     1
290
     1
176
     1
290
     0
176
     1
290
     0
176
     1
290
     0
176
     1
290
     0
176
     1
290
     0
176
     1
290
     0
176
     1
 90
       50
176
     1
 40
0.0
176
     1
 40
1.0
176
     1
 90
        0
176
     1
 62
    18
420
        0
176
     1
 90
       50
176
     1
 90
        3
176
     1
 62
     5
420
      255
176
     1
290
     0
176
     1
 90
       50
176
     1
 90
       50
176
     1
 90
       50
176
     1
290
     0
176
     1
 90
       50
176
     1
 62
   256
176
     0
 40
1.0
176
     0
 90
        2
176
     1
  1
strokes_ogs.tif
176
     1
290
     0
176
     1
 40
1.0
176
     1
 40
1.0
176
     1
  0
VISUALSTYLE
  5
4F39
102
{ACAD_REACTORS
330
4F21
102
}
330
4F21
100
AcDbVisualStyle
  2
EdgeColorOff
 70
    22
177
     3
291
     1
 70
    58
 90
        2
176
     0
 90
        2
176
     0
 90
        0
176
     0
 90
        0
176
     0
 40
0.6
176
     0
 40
30.0
176
     0
 62
     7
176
     0
 90
        1
176
     0
 90
        4
176
     0
 62
     7
176
     0
 62
   257
176
     0
 90
        1
176
     0
 90
        1
176
     0
 40
1.0
176
     0
 90
        8
176
     2
 62
     7
176
     0
 40
1.0
176
     0
 90
        1
176
     0
 90
        6
176
     0
 90
        2
176
     0
 62
     7
176
     0
 90
        5
176
     0
 90
        0
176
     0
 90
        0
176
     0
290
     0
176
     0
 90
        1
176
     0
 40
0.0
176
     0
 90
        0
176
     0
290
     0
176
     1
290
     1
176
     1
290
     1
176
     1
290
     0
176
     1
290
     0
176
     1
290
     0
176
     1
290
     0
176
     1
290
     0
176
     1
290
     0
176
     1
 90
       50
176
     0
 40
0.0
176
     0
 40
1.0
176
     0
 90
        0
176
     0
 62
    18
420
        0
176
     0
 90
       50
176
     0
 90
        3
176
     0
 62
     5
420
      255
176
     0
290
     0
176
     1
 90
       50
176
     0
 90
       50
176
     0
 90
       50
176
     0
290
     0
176
     1
 90
       50
176
     0
 62
   256
176
     0
 40
1.0
176
     0
 90
        2
176
     0
  1
strokes_ogs.tif
176
     0
290
     0
176
     1
 40
1.0
176
     0
 40
1.0
176
     0
  0
VISUALSTYLE
  5
4F30
102
{ACAD_REACTORS
330
4F21
102
}
330
4F21
100
AcDbVisualStyle
  2
Facepattern
 70
    15
177
     3
291
     1
 70
    58
 90
        2
176
     1
 90
        2
176
     1
 90
        0
176
     1
 90
        0
176
     1
 40
0.6
176
     1
 40
30.0
176
     1
 62
     7
176
     1
 90
        1
176
     1
 90
        4
176
     1
 62
     7
176
     1
 62
   257
176
     1
 90
        1
176
     1
 90
        1
176
     1
 40
1.0
176
     1
 90
        8
176
     1
 62
     7
176
     1
 40
1.0
176
     1
 90
        1
176
     1
 90
        6
176
     1
 90
        2
176
     1
 62
     7
176
     1
 90
        5
176
     1
 90
        0
176
     1
 90
        0
176
     1
290
     0
176
     1
 90
        1
176
     1
 40
0.0
176
     1
 90
        0
176
     1
290
     0
176
     1
290
     1
176
     1
290
     1
176
     1
290
     0
176
     1
290
     0
176
     1
290
     0
176
     1
290
     0
176
     1
290
     0
176
     1
290
     0
176
     1
 90
       50
176
     1
 40
0.0
176
     1
 40
1.0
176
     1
 90
        0
176
     1
 62
    18
420
        0
176
     1
 90
       50
176
     1
 90
        3
176
     1
 62
     5
420
      255
176
     1
290
     0
176
     1
 90
       50
176
     1
 90
       50
176
     1
 90
       50
176
     1
290
     0
176
     1
 90
       50
176
     1
 62
   256
176
     0
 40
1.0
176
     0
 90
        2
176
     1
  1
strokes_ogs.tif
176
     1
290
     0
176
     1
 40
1.0
176
     1
 40
1.0
176
     1
  0
VISUALSTYLE
  5
4F22
102
{ACAD_REACTORS
330
4F21
102
}
330
4F21
100
AcDbVisualStyle
  2
Flat
 70
     0
177
     3
291
     1
 70
    58
 90
        2
176
     1
 90
        1
176
     1
 90
        1
176
     1
 90
        2
176
     1
 40
0.6
176
     1
 40
30.0
176
     1
 62
     7
176
     1
 90
        0
176
     1
 90
        0
176
     1
 62
     7
176
     1
 62
   257
176
     1
 90
        1
176
     1
 90
        1
176
     1
 40
1.0
176
     1
 90
        8
176
     1
 62
     7
176
     1
 40
1.0
176
     1
 90
        1
176
     1
 90
        6
176
     1
 90
        2
176
     1
 62
     7
176
     1
 90
        5
176
     1
 90
        0
176
     1
 90
        0
176
     1
290
     0
176
     1
 90
       13
176
     1
 40
0.0
176
     1
 90
        0
176
     1
290
     0
176
     1
290
     1
176
     1
290
     1
176
     1
290
     0
176
     1
290
     0
176
     1
290
     0
176
     1
290
     0
176
     1
290
     0
176
     1
290
     0
176
     1
 90
       50
176
     1
 40
0.0
176
     1
 40
1.0
176
     1
 90
        0
176
     1
 62
    18
420
        0
176
     1
 90
       50
176
     1
 90
        3
176
     1
 62
     5
420
      255
176
     1
290
     0
176
     1
 90
       50
176
     1
 90
       50
176
     1
 90
       50
176
     1
290
     0
176
     1
 90
       50
176
     1
 62
   256
176
     0
 40
1.0
176
     0
 90
        2
176
     1
  1
strokes_ogs.tif
176
     1
290
     0
176
     1
 40
1.0
176
     1
 40
1.0
176
     1
  0
VISUALSTYLE
  5
4F23
102
{ACAD_REACTORS
330
4F21
102
}
330
4F21
100
AcDbVisualStyle
  2
FlatWithEdges
 70
     1
177
     3
291
     1
 70
    58
 90
        2
176
     1
 90
        1
176
     1
 90
        1
176
     1
 90
        2
176
     1
 40
0.6
176
     1
 40
30.0
176
     1
 62
     7
176
     1
 90
        1
176
     1
 90
        0
176
     1
 62
     7
176
     1
 62
   257
176
     1
 90
        1
176
     1
 90
        1
176
     1
 40
1.0
176
     1
 90
        0
176
     1
 62
   257
176
     1
 40
1.0
176
     1
 90
        1
176
     1
 90
        6
176
     1
 90
        2
176
     1
 62
     7
176
     1
 90
        5
176
     1
 90
        0
176
     1
 90
        0
176
     1
290
     0
176
     1
 90
       13
176
     1
 40
0.0
176
     1
 90
        0
176
     1
290
     0
176
     1
290
     1
176
     1
290
     1
176
     1
290
     0
176
     1
290
     0
176
     1
290
     0
176
     1
290
     0
176
     1
290
     0
176
     1
290
     0
176
     1
 90
       50
176
     1
 40
0.0
176
     1
 40
1.0
176
     1
 90
        0
176
     1
 62
    18
420
        0
176
     1
 90
       50
176
     1
 90
        3
176
     1
 62
     5
420
      255
176
     1
290
     0
176
     1
 90
       50
176
     1
 90
       50
176
     1
 90
       50
176
     1
290
     0
176
     1
 90
       50
176
     1
 62
   256
176
     0
 40
1.0
176
     0
 90
        2
176
     1
  1
strokes_ogs.tif
176
     1
290
     0
176
     1
 40
1.0
176
     1
 40
1.0
176
     1
  0
VISUALSTYLE
  5
4F24
102
{ACAD_REACTORS
330
4F21
102
}
330
4F21
100
AcDbVisualStyle
  2
Gouraud
 70
     2
177
     3
291
     1
 70
    58
 90
        2
176
     1
 90
        2
176
     1
 90
        1
176
     1
 90
        2
176
     1
 40
0.6
176
     1
 40
30.0
176
     1
 62
     7
176
     1
 90
        0
176
     1
 90
        0
176
     1
 62
     7
176
     1
 62
   257
176
     1
 90
        1
176
     1
 90
        1
176
     1
 40
1.0
176
     1
 90
        0
176
     1
 62
     7
176
     1
 40
1.0
176
     1
 90
        1
176
     1
 90
        6
176
     1
 90
        2
176
     1
 62
     7
176
     1
 90
        5
176
     1
 90
        0
176
     1
 90
        0
176
     1
290
     0
176
     1
 90
       13
176
     1
 40
0.0
176
     1
 90
        0
176
     1
290
     0
176
     1
290
     1
176
     1
290
     1
176
     1
290
     0
176
     1
290
     0
176
     1
290
     0
176
     1
290
     0
176
     1
290
     0
176
     1
290
     0
176
     1
 90
       50
176
     1
 40
0.0
176
     1
 40
1.0
176
     1
 90
        0
176
     1
 62
    18
420
        0
176
     1
 90
       50
176
     1
 90
        3
176
     1
 62
     5
420
      255
176
     1
290
     0
176
     1
 90
       50
176
     1
 90
       50
176
     1
 90
       50
176
     1
290
     0
176
     1
 90
       50
176
     1
 62
   256
176
     0
 40
1.0
176
     0
 90
        2
176
     1
  1
strokes_ogs.tif
176
     1
290
     0
176
     1
 40
1.0
176
     1
 40
1.0
176
     1
  0
VISUALSTYLE
  5
4F25
102
{ACAD_REACTORS
330
4F21
102
}
330
4F21
100
AcDbVisualStyle
  2
GouraudWithEdges
 70
     3
177
     3
291
     1
 70
    58
 90
        2
176
     1
 90
        2
176
     1
 90
        1
176
     1
 90
        2
176
     1
 40
0.6
176
     1
 40
30.0
176
     1
 62
     7
176
     1
 90
        1
176
     1
 90
        0
176
     1
 62
     7
176
     1
 62
   257
176
     1
 90
        1
176
     1
 90
        1
176
     1
 40
1.0
176
     1
 90
        0
176
     1
 62
   257
176
     1
 40
1.0
176
     1
 90
        1
176
     1
 90
        6
176
     1
 90
        2
176
     1
 62
     7
176
     1
 90
        5
176
     1
 90
        0
176
     1
 90
        0
176
     1
290
     0
176
     1
 90
       13
176
     1
 40
0.0
176
     1
 90
        0
176
     1
290
     0
176
     1
290
     1
176
     1
290
     1
176
     1
290
     0
176
     1
290
     0
176
     1
290
     0
176
     1
290
     0
176
     1
290
     0
176
     1
290
     0
176
     1
 90
       50
176
     1
 40
0.0
176
     1
 40
1.0
176
     1
 90
        0
176
     1
 62
    18
420
        0
176
     1
 90
       50
176
     1
 90
        3
176
     1
 62
     5
420
      255
176
     1
290
     0
176
     1
 90
       50
176
     1
 90
       50
176
     1
 90
       50
176
     1
290
     0
176
     1
 90
       50
176
     1
 62
   256
176
     0
 40
1.0
176
     0
 90
        2
176
     1
  1
strokes_ogs.tif
176
     1
290
     0
176
     1
 40
1.0
176
     1
 40
1.0
176
     1
  0
VISUALSTYLE
  5
4F29
102
{ACAD_REACTORS
330
4F21
102
}
330
4F21
100
AcDbVisualStyle
  2
Hidden
 70
     6
177
     3
291
     0
 70
    58
 90
        1
176
     1
 90
        2
176
     1
 90
        2
176
     1
 90
        0
176
     1
 40
0.6
176
     1
 40
30.0
176
     1
 62
     7
176
     1
 90
        2
176
     1
 90
        2
176
     1
 62
     7
176
     1
 62
   257
176
     1
 90
        2
176
     1
 90
        1
176
     1
 40
40.0
176
     1
 90
        0
176
     1
 62
   257
176
     1
 40
1.0
176
     1
 90
        1
176
     1
 90
        6
176
     1
 90
        2
176
     1
 62
     7
176
     1
 90
        3
176
     1
 90
        0
176
     1
 90
        0
176
     1
290
     0
176
     1
 90
        1
176
     1
 40
0.0
176
     1
 90
        0
176
     1
290
     0
176
     1
290
     1
176
     1
290
     1
176
     1
290
     0
176
     1
290
     0
176
     1
290
     0
176
     1
290
     0
176
     1
290
     0
176
     1
290
     0
176
     1
 90
       50
176
     1
 40
0.0
176
     1
 40
1.0
176
     1
 90
        0
176
     1
 62
    18
420
        0
176
     1
 90
       50
176
     1
 90
        3
176
     1
 62
     5
420
      255
176
     1
290
     0
176
     1
 90
       50
176
     1
 90
       50
176
     1
 90
       50
176
     1
290
     0
176
     1
 90
       50
176
     1
 62
   256
176
     0
 40
1.0
176
     0
 90
        2
176
     1
  1
strokes_ogs.tif
176
     1
290
     0
176
     1
 40
1.0
176
     1
 40
1.0
176
     1
  0
VISUALSTYLE
  5
4F37
102
{ACAD_REACTORS
330
4F21
102
}
330
4F21
100
AcDbVisualStyle
  2
JitterOff
 70
    20
177
     3
291
     1
 70
    58
 90
        2
176
     0
 90
        2
176
     0
 90
        0
176
     0
 90
        0
176
     0
 40
0.6
176
     0
 40
30.0
176
     0
 62
     7
176
     0
 90
        1
176
     0
 90
        4
176
     0
 62
     7
176
     0
 62
   257
176
     0
 90
        1
176
     0
 90
        1
176
     0
 40
1.0
176
     0
 90
       10
176
     2
 62
     7
176
     0
 40
1.0
176
     0
 90
        1
176
     0
 90
        6
176
     0
 90
        2
176
     0
 62
     7
176
     0
 90
        5
176
     0
 90
        0
176
     0
 90
        0
176
     0
290
     0
176
     0
 90
        1
176
     0
 40
0.0
176
     0
 90
        0
176
     0
290
     0
176
     1
290
     1
176
     1
290
     1
176
     1
290
     0
176
     1
290
     0
176
     1
290
     0
176
     1
290
     0
176
     1
290
     0
176
     1
290
     0
176
     1
 90
       50
176
     0
 40
0.0
176
     0
 40
1.0
176
     0
 90
        0
176
     0
 62
    18
420
        0
176
     0
 90
       50
176
     0
 90
        3
176
     0
 62
     5
420
      255
176
     0
290
     0
176
     1
 90
       50
176
     0
 90
       50
176
     0
 90
       50
176
     0
290
     0
176
     1
 90
       50
176
     0
 62
   256
176
     0
 40
1.0
176
     0
 90
        2
176
     0
  1
strokes_ogs.tif
176
     0
290
     0
176
     1
 40
1.0
176
     0
 40
1.0
176
     0
  0
VISUALSTYLE
  5
4F2F
102
{ACAD_REACTORS
330
4F21
102
}
330
4F21
100
AcDbVisualStyle
  2
Linepattern
 70
    14
177
     3
291
     1
 70
    58
 90
        2
176
     1
 90
        2
176
     1
 90
        0
176
     1
 90
        0
176
     1
 40
0.6
176
     1
 40
30.0
176
     1
 62
     7
176
     1
 90
        1
176
     1
 90
        4
176
     1
 62
     7
176
     1
 62
   257
176
     1
 90
        7
176
     1
 90
        7
176
     1
 40
1.0
176
     1
 90
        8
176
     1
 62
     7
176
     1
 40
1.0
176
     1
 90
        1
176
     1
 90
        6
176
     1
 90
        2
176
     1
 62
     7
176
     1
 90
        5
176
     1
 90
        0
176
     1
 90
        0
176
     1
290
     0
176
     1
 90
        1
176
     1
 40
0.0
176
     1
 90
        0
176
     1
290
     0
176
     1
290
     1
176
     1
290
     1
176
     1
290
     0
176
     1
290
     0
176
     1
290
     0
176
     1
290
     0
176
     1
290
     0
176
     1
290
     0
176
     1
 90
       50
176
     1
 40
0.0
176
     1
 40
1.0
176
     1
 90
        0
176
     1
 62
    18
420
        0
176
     1
 90
       50
176
     1
 90
        3
176
     1
 62
     5
420
      255
176
     1
290
     0
176
     1
 90
       50
176
     1
 90
       50
176
     1
 90
       50
176
     1
290
     0
176
     1
 90
       50
176
     1
 62
   256
176
     0
 40
1.0
176
     0
 90
        2
176
     1
  1
strokes_ogs.tif
176
     1
290
     0
176
     1
 40
1.0
176
     1
 40
1.0
176
     1
  0
VISUALSTYLE
  5
4F38
102
{ACAD_REACTORS
330
4F21
102
}
330
4F21
100
AcDbVisualStyle
  2
OverhangOff
 70
    21
177
     3
291
     1
 70
    58
 90
        2
176
     0
 90
        2
176
     0
 90
        0
176
     0
 90
        0
176
     0
 40
0.6
176
     0
 40
30.0
176
     0
 62
     7
176
     0
 90
        1
176
     0
 90
        4
176
     0
 62
     7
176
     0
 62
   257
176
     0
 90
        1
176
     0
 90
        1
176
     0
 40
1.0
176
     0
 90
        9
176
     2
 62
     7
176
     0
 40
1.0
176
     0
 90
        1
176
     0
 90
        6
176
     0
 90
        2
176
     0
 62
     7
176
     0
 90
        5
176
     0
 90
        0
176
     0
 90
        0
176
     0
290
     0
176
     0
 90
        1
176
     0
 40
0.0
176
     0
 90
        0
176
     0
290
     0
176
     1
290
     1
176
     1
290
     1
176
     1
290
     0
176
     1
290
     0
176
     1
290
     0
176
     1
290
     0
176
     1
290
     0
176
     1
290
     0
176
     1
 90
       50
176
     0
 40
0.0
176
     0
 40
1.0
176
     0
 90
        0
176
     0
 62
    18
420
        0
176
     0
 90
       50
176
     0
 90
        3
176
     0
 62
     5
420
      255
176
     0
290
     0
176
     1
 90
       50
176
     0
 90
       50
176
     0
 90
       50
176
     0
290
     0
176
     1
 90
       50
176
     0
 62
   256
176
     0
 40
1.0
176
     0
 90
        2
176
     0
  1
strokes_ogs.tif
176
     0
290
     0
176
     1
 40
1.0
176
     0
 40
1.0
176
     0
  0
VISUALSTYLE
  5
4F2B
102
{ACAD_REACTORS
330
4F21
102
}
330
4F21
100
AcDbVisualStyle
  2
Realistic
 70
     8
177
     3
291
     0
 70
    58
 90
        2
176
     1
 90
        2
176
     1
 90
        0
176
     1
 90
        2
176
     1
 40
0.6
176
     1
 40
30.0
176
     1
 62
     7
176
     1
 90
        0
176
     1
 90
        0
176
     1
 62
     7
176
     1
 62
   257
176
     1
 90
        1
176
     1
 90
        1
176
     1
 40
1.0
176
     1
 90
        8
176
     1
 62
   257
176
     1
 40
1.0
176
     1
 90
        1
176
     1
 90
        6
176
     1
 90
        2
176
     1
 62
     7
176
     1
 90
        3
176
     1
 90
        0
176
     1
 90
        0
176
     1
290
     0
176
     1
 90
       13
176
     1
 40
0.0
176
     1
 90
        0
176
     1
290
     0
176
     1
290
     1
176
     1
290
     1
176
     1
290
     0
176
     1
290
     0
176
     1
290
     0
176
     1
290
     0
176
     1
290
     0
176
     1
290
     0
176
     1
 90
       50
176
     1
 40
0.0
176
     1
 40
1.0
176
     1
 90
        0
176
     1
 62
    18
420
        0
176
     1
 90
       50
176
     1
 90
        3
176
     1
 62
     5
420
      255
176
     1
290
     0
176
     1
 90
       50
176
     1
 90
       50
176
     1
 90
       50
176
     1
290
     0
176
     1
 90
       50
176
     1
 62
   256
176
     0
 40
1.0
176
     0
 90
        2
176
     1
  1
strokes_ogs.tif
176
     1
290
     0
176
     1
 40
1.0
176
     1
 40
1.0
176
     1
  0
VISUALSTYLE
  5
4F36
102
{ACAD_REACTORS
330
4F21
102
}
330
4F21
100
AcDbVisualStyle
  2
Shaded
 70
    27
177
     3
291
     0
 70
    58
 90
        2
176
     1
 90
        2
176
     1
 90
        1
176
     1
 90
        2
176
     1
 40
0.6
176
     1
 40
30.0
176
     1
 62
     7
176
     1
 90
        0
176
     1
 90
        4
176
     1
 62
     7
176
     1
 62
   257
176
     1
 90
        1
176
     1
 90
        1
176
     1
 40
1.0
176
     1
 90
        8
176
     1
 62
   257
176
     1
 40
1.0
176
     1
 90
        1
176
     1
 90
        6
176
     1
 90
        2
176
     1
 62
     8
176
     1
 90
        3
176
     1
 90
        0
176
     1
 90
        0
176
     1
290
     0
176
     1
 90
        5
176
     1
 40
0.0
176
     1
 90
        0
176
     1
290
     0
176
     1
290
     1
176
     1
290
     1
176
     1
290
     0
176
     1
290
     0
176
     1
290
     0
176
     1
290
     0
176
     1
290
     0
176
     1
290
     0
176
     1
 90
       50
176
     1
 40
0.0
176
     1
 40
1.0
176
     1
 90
        0
176
     1
 62
    18
420
        0
176
     1
 90
       50
176
     1
 90
        3
176
     1
 62
     5
420
      255
176
     1
290
     0
176
     1
 90
       50
176
     1
 90
       50
176
     1
 90
       50
176
     1
290
     0
176
     1
 90
       50
176
     1
 62
   256
176
     0
 40
1.0
176
     0
 90
        2
176
     1
  1
strokes_ogs.tif
176
     1
290
     0
176
     1
 40
1.0
176
     1
 40
1.0
176
     1
  0
VISUALSTYLE
  5
4F35
102
{ACAD_REACTORS
330
4F21
102
}
330
4F21
100
AcDbVisualStyle
  2
Shaded with edges
 70
    26
177
     3
291
     0
 70
    58
 90
        2
176
     1
 90
        2
176
     1
 90
        1
176
     1
 90
        2
176
     1
 40
0.6
176
     1
 40
30.0
176
     1
 62
     7
176
     1
 90
        1
176
     1
 90
        2
176
     1
 62
     7
176
     1
 62
   257
176
     1
 90
        2
176
     1
 90
        1
176
     1
 40
1.0
176
     1
 90
        8
176
     1
 62
   257
176
     1
 40
1.0
176
     1
 90
        1
176
     1
 90
        6
176
     1
 90
        2
176
     1
 62
     7
176
     1
 90
        3
176
     1
 90
        0
176
     1
 90
        0
176
     1
290
     0
176
     1
 90
        5
176
     1
 40
0.0
176
     1
 90
        0
176
     1
290
     0
176
     1
290
     1
176
     1
290
     1
176
     1
290
     0
176
     1
290
     0
176
     1
290
     0
176
     1
290
     0
176
     1
290
     0
176
     1
290
     0
176
     1
 90
       50
176
     1
 40
0.0
176
     1
 40
1.0
176
     1
 90
        0
176
     1
 62
    18
420
        0
176
     1
 90
       50
176
     1
 90
        3
176
     1
 62
     5
420
      255
176
     1
290
     0
176
     1
 90
       50
176
     1
 90
       50
176
     1
 90
       50
176
     1
290
     0
176
     1
 90
       50
176
     1
 62
   256
176
     0
 40
1.0
176
     0
 90
        2
176
     1
  1
strokes_ogs.tif
176
     1
290
     0
176
     1
 40
1.0
176
     1
 40
1.0
176
     1
  0
VISUALSTYLE
  5
4F32
102
{ACAD_REACTORS
330
4F21
102
}
330
4F21
100
AcDbVisualStyle
  2
Shades of Gray
 70
    23
177
     3
291
     0
 70
    58
 90
        2
176
     1
 90
        2
176
     1
 90
        3
176
     1
 90
        0
176
     1
 40
0.6
176
     1
 40
30.0
176
     1
 62
     7
176
     1
 90
        2
176
     1
 90
        2
176
     1
 62
     7
176
     1
 62
     7
176
     1
 90
        1
176
     1
 90
        1
176
     1
 40
40.0
176
     1
 90
        8
176
     1
 62
     7
176
     1
 40
1.0
176
     1
 90
        1
176
     1
 90
        6
176
     1
 90
        2
176
     1
 62
     7
176
     1
 90
        3
176
     1
 90
        0
176
     1
 90
        0
176
     1
290
     0
176
     1
 90
        1
176
     1
 40
0.0
176
     1
 90
        0
176
     1
290
     0
176
     1
290
     1
176
     1
290
     1
176
     1
290
     0
176
     1
290
     0
176
     1
290
     0
176
     1
290
     0
176
     1
290
     0
176
     1
290
     0
176
     1
 90
       50
176
     1
 40
0.0
176
     1
 40
1.0
176
     1
 90
        0
176
     1
 62
    18
420
        0
176
     1
 90
       50
176
     1
 90
        3
176
     1
 62
     5
420
      255
176
     1
290
     0
176
     1
 90
       50
176
     1
 90
       50
176
     1
 90
       50
176
     1
290
     0
176
     1
 90
       50
176
     1
 62
   256
176
     0
 40
1.0
176
     0
 90
        2
176
     1
  1
strokes_ogs.tif
176
     1
290
     0
176
     1
 40
1.0
176
     1
 40
1.0
176
     1
  0
VISUALSTYLE
  5
4F33
102
{ACAD_REACTORS
330
4F21
102
}
330
4F21
100
AcDbVisualStyle
  2
Sketchy
 70
    24
177
     3
291
     0
 70
    58
 90
        1
176
     1
 90
        2
176
     1
 90
        2
176
     1
 90
        0
176
     1
 40
0.6
176
     1
 40
30.0
176
     1
 62
     7
176
     1
 90
        2
176
     1
 90
        2
176
     1
 62
     7
176
     1
 62
     7
176
     1
 90
        1
176
     1
 90
        1
176
     1
 40
40.0
176
     1
 90
       11
176
     1
 62
     7
176
     1
 40
1.0
176
     1
 90
        1
176
     1
 90
        6
176
     1
 90
        2
176
     1
 62
     7
176
     1
 90
        6
176
     1
 90
        0
176
     1
 90
        0
176
     1
290
     0
176
     1
 90
        1
176
     1
 40
0.0
176
     1
 90
        0
176
     1
290
     0
176
     1
290
     1
176
     1
290
     1
176
     1
290
     0
176
     1
290
     0
176
     1
290
     0
176
     1
290
     0
176
     1
290
     0
176
     1
290
     0
176
     1
 90
       50
176
     1
 40
0.0
176
     1
 40
1.0
176
     1
 90
        0
176
     1
 62
    18
420
        0
176
     1
 90
       50
176
     1
 90
        3
176
     1
 62
     5
420
      255
176
     1
290
     0
176
     1
 90
       50
176
     1
 90
       50
176
     1
 90
       50
176
     1
290
     0
176
     1
 90
       50
176
     1
 62
   256
176
     0
 40
1.0
176
     0
 90
        2
176
     1
  1
strokes_ogs.tif
176
     1
290
     0
176
     1
 40
1.0
176
     1
 40
1.0
176
     1
  0
VISUALSTYLE
  5
4F2E
102
{ACAD_REACTORS
330
4F21
102
}
330
4F21
100
AcDbVisualStyle
  2
Thicken
 70
    13
177
     3
291
     1
 70
    58
 90
        2
176
     1
 90
        2
176
     1
 90
        0
176
     1
 90
        0
176
     1
 40
0.6
176
     1
 40
30.0
176
     1
 62
     7
176
     1
 90
        1
176
     1
 90
        4
176
     1
 62
     7
176
     1
 62
   257
176
     1
 90
        1
176
     1
 90
        1
176
     1
 40
1.0
176
     1
 90
       12
176
     1
 62
     7
176
     1
 40
1.0
176
     1
 90
        1
176
     1
 90
        6
176
     1
 90
        2
176
     1
 62
     7
176
     1
 90
        5
176
     1
 90
        0
176
     1
 90
        0
176
     1
290
     0
176
     1
 90
        1
176
     1
 40
0.0
176
     1
 90
        0
176
     1
290
     0
176
     1
290
     1
176
     1
290
     1
176
     1
290
     0
176
     1
290
     0
176
     1
290
     0
176
     1
290
     0
176
     1
290
     0
176
     1
290
     0
176
     1
 90
       50
176
     1
 40
0.0
176
     1
 40
1.0
176
     1
 90
        0
176
     1
 62
    18
420
        0
176
     1
 90
       50
176
     1
 90
        3
176
     1
 62
     5
420
      255
176
     1
290
     0
176
     1
 90
       50
176
     1
 90
       50
176
     1
 90
       50
176
     1
290
     0
176
     1
 90
       50
176
     1
 62
   256
176
     0
 40
1.0
176
     0
 90
        2
176
     1
  1
strokes_ogs.tif
176
     1
290
     0
176
     1
 40
1.0
176
     1
 40
1.0
176
     1
  0
VISUALSTYLE
  5
4F28
102
{ACAD_REACTORS
330
4F21
102
}
330
4F21
100
AcDbVisualStyle
  2
Wireframe
 70
     5
177
     3
291
     0
 70
    58
 90
        0
176
     1
 90
        2
176
     1
 90
        0
176
     1
 90
        0
176
     1
 40
0.6
176
     1
 40
30.0
176
     1
 62
     7
176
     1
 90
        1
176
     1
 90
        4
176
     1
 62
     7
176
     1
 62
   257
176
     1
 90
        1
176
     1
 90
        1
176
     1
 40
1.0
176
     1
 90
        0
176
     1
 62
   257
176
     1
 40
1.0
176
     1
 90
        1
176
     1
 90
        6
176
     1
 90
        2
176
     1
 62
     7
176
     1
 90
        3
176
     1
 90
        0
176
     1
 90
        0
176
     1
290
     0
176
     1
 90
        1
176
     1
 40
0.0
176
     1
 90
        0
176
     1
290
     0
176
     1
290
     1
176
     1
290
     1
176
     1
290
     0
176
     1
290
     0
176
     1
290
     0
176
     1
290
     0
176
     1
290
     0
176
     1
290
     0
176
     1
 90
       50
176
     1
 40
0.0
176
     1
 40
1.0
176
     1
 90
        0
176
     1
 62
    18
420
        0
176
     1
 90
       50
176
     1
 90
        3
176
     1
 62
     5
420
      255
176
     1
290
     0
176
     1
 90
       50
176
     1
 90
       50
176
     1
 90
       50
176
     1
290
     0
176
     1
 90
       50
176
     1
 62
   256
176
     0
 40
1.0
176
     0
 90
        2
176
     1
  1
strokes_ogs.tif
176
     1
290
     0
176
     1
 40
1.0
176
     1
 40
1.0
176
     1
  0
VISUALSTYLE
  5
4F34
102
{ACAD_REACTORS
330
4F21
102
}
330
4F21
100
AcDbVisualStyle
  2
X-Ray
 70
    25
177
     3
291
     0
 70
    58
 90
        2
176
     1
 90
        2
176
     1
 90
        1
176
     1
 90
        1
176
     1
 40
0.5
176
     1
 40
30.0
176
     1
 62
     7
176
     1
 90
        1
176
     1
 90
        0
176
     1
 62
     7
176
     1
 62
   257
176
     1
 90
        1
176
     1
 90
        1
176
     1
 40
1.0
176
     1
 90
        8
176
     1
 62
     7
176
     1
 40
1.0
176
     1
 90
        1
176
     1
 90
        6
176
     1
 90
        2
176
     1
 62
     7
176
     1
 90
        3
176
     1
 90
        0
176
     1
 90
        0
176
     1
290
     0
176
     1
 90
       13
176
     1
 40
0.0
176
     1
 90
        0
176
     1
290
     0
176
     1
290
     1
176
     1
290
     1
176
     1
290
     0
176
     1
290
     0
176
     1
290
     0
176
     1
290
     0
176
     1
290
     0
176
     1
290
     0
176
     1
 90
       50
176
     1
 40
0.0
176
     1
 40
1.0
176
     1
 90
        0
176
     1
 62
    18
420
        0
176
     1
 90
       50
176
     1
 90
        3
176
     1
 62
     5
420
      255
176
     1
290
     0
176
     1
 90
       50
176
     1
 90
       50
176
     1
 90
       50
176
     1
290
     0
176
     1
 90
       50
176
     1
 62
   256
176
     0
 40
1.0
176
     0
 90
        2
176
     1
  1
strokes_ogs.tif
176
     1
290
     0
176
     1
 40
1.0
176
     1
 40
1.0
176
     1
  0
DICTIONARYVAR
  5
4F9C
102
{ACAD_REACTORS
330
4F97
102
}
330
4F97
100
DictionaryVariables
280
     0
  1
1:1
  0
DICTIONARYVAR
  5
4F99
102
{ACAD_REACTORS
330
4F97
102
}
330
4F97
100
DictionaryVariables
280
     0
  1
STANDARD
  0
DICTIONARYVAR
  5
4F98
102
{ACAD_REACTORS
330
4F97
102
}
330
4F97
100
DictionaryVariables
280
     0
  1
STANDARD
  0
DICTIONARYVAR
  5
4F9A
102
{ACAD_REACTORS
330
4F97
102
}
330
4F97
100
DictionaryVariables
280
     0
  1
Imperial24
  0
DICTIONARYVAR
  5
4F9B
102
{ACAD_REACTORS
330
4F97
102
}
330
4F97
100
DictionaryVariables
280
     0
  1
Imperial24
  0
DICTIONARYVAR
  5
4F9F
102
{ACAD_REACTORS
330
4F97
102
}
330
4F97
100
DictionaryVariables
280
     0
  1
1
  0
DICTIONARYVAR
  5
4F9E
102
{ACAD_REACTORS
330
4F97
102
}
330
4F97
100
DictionaryVariables
280
     0
  1
0
  0
DICTIONARYVAR
  5
4FD6
102
{ACAD_REACTORS
330
4F97
102
}
330
4F97
100
DictionaryVariables
280
     0
  1
1
  0
DICTIONARYVAR
  5
4FD7
102
{ACAD_REACTORS
330
4F97
102
}
330
4F97
100
DictionaryVariables
280
     0
  1
15
  0
DICTIONARYVAR
  5
4FD5
102
{ACAD_REACTORS
330
4F97
102
}
330
4F97
100
DictionaryVariables
280
     0
  1
0
  0
DICTIONARYVAR
  5
4FD4
102
{ACAD_REACTORS
330
4F97
102
}
330
4F97
100
DictionaryVariables
280
     0
  1
0
  0
DICTIONARYVAR
  5
4F9D
102
{ACAD_REACTORS
330
4F97
102
}
330
4F97
100
DictionaryVariables
280
     0
  1
127
  0
DICTIONARY
  5
4F12
330
4F11
100
AcDbDictionary
280
     1
281
     1
  3
BUMPTILE
360
4F14
  3
DIFFUSETILE
360
4F13
  3
OPACITYTILE
360
4F17
  3
REFLECTIONTILE
360
4F16
  3
REFRACTIONTILE
360
4F18
  3
SPECULARTILE
360
4F15
  0
DICTIONARY
  5
4F0A
330
4F09
100
AcDbDictionary
280
     1
281
     1
  3
BUMPTILE
360
4F0C
  3
DIFFUSETILE
360
4F0B
  3
OPACITYTILE
360
4F0F
  3
REFLECTIONTILE
360
4F0E
  3
REFRACTIONTILE
360
4F10
  3
SPECULARTILE
360
4F0D
  0
DICTIONARY
  5
4F1A
330
4F19
100
AcDbDictionary
280
     1
281
     1
  3
BUMPTILE
360
4F1C
  3
DIFFUSETILE
360
4F1B
  3
OPACITYTILE
360
4F1F
  3
REFLECTIONTILE
360
4F1E
  3
REFRACTIONTILE
360
4F20
  3
SPECULARTILE
360
4F1D
  0
DICTIONARY
  5
4F55
330
4F3C
100
AcDbDictionary
280
     1
281
     1
  3
ACAD_ROUNDTRIP_2008_TABLESTYLE_CELLSTYLEMAP
360
4FDF
  0
XRECORD
  5
4F14
102
{ACAD_REACTORS
330
4F12
102
}
330
4F12
100
AcDbXrecord
280
     1
270
     1
271
     1
  0
XRECORD
  5
4F13
102
{ACAD_REACTORS
330
4F12
102
}
330
4F12
100
AcDbXrecord
280
     1
270
     1
271
     1
  0
XRECORD
  5
4F17
102
{ACAD_REACTORS
330
4F12
102
}
330
4F12
100
AcDbXrecord
280
     1
270
     1
271
     1
  0
XRECORD
  5
4F16
102
{ACAD_REACTORS
330
4F12
102
}
330
4F12
100
AcDbXrecord
280
     1
270
     1
271
     1
  0
XRECORD
  5
4F18
102
{ACAD_REACTORS
330
4F12
102
}
330
4F12
100
AcDbXrecord
280
     1
270
     1
271
     1
  0
XRECORD
  5
4F15
102
{ACAD_REACTORS
330
4F12
102
}
330
4F12
100
AcDbXrecord
280
     1
270
     1
271
     1
  0
XRECORD
  5
4F0C
102
{ACAD_REACTORS
330
4F0A
102
}
330
4F0A
100
AcDbXrecord
280
     1
270
     1
271
     1
  0
XRECORD
  5
4F0B
102
{ACAD_REACTORS
330
4F0A
102
}
330
4F0A
100
AcDbXrecord
280
     1
270
     1
271
     1
  0
XRECORD
  5
4F0F
102
{ACAD_REACTORS
330
4F0A
102
}
330
4F0A
100
AcDbXrecord
280
     1
270
     1
271
     1
  0
XRECORD
  5
4F0E
102
{ACAD_REACTORS
330
4F0A
102
}
330
4F0A
100
AcDbXrecord
280
     1
270
     1
271
     1
  0
XRECORD
  5
4F10
102
{ACAD_REACTORS
330
4F0A
102
}
330
4F0A
100
AcDbXrecord
280
     1
270
     1
271
     1
  0
XRECORD
  5
4F0D
102
{ACAD_REACTORS
330
4F0A
102
}
330
4F0A
100
AcDbXrecord
280
     1
270
     1
271
     1
  0
XRECORD
  5
4F1C
102
{ACAD_REACTORS
330
4F1A
102
}
330
4F1A
100
AcDbXrecord
280
     1
270
     1
271
     1
  0
XRECORD
  5
4F1B
102
{ACAD_REACTORS
330
4F1A
102
}
330
4F1A
100
AcDbXrecord
280
     1
270
     1
271
     1
  0
XRECORD
  5
4F1F
102
{ACAD_REACTORS
330
4F1A
102
}
330
4F1A
100
AcDbXrecord
280
     1
270
     1
271
     1
  0
XRECORD
  5
4F1E
102
{ACAD_REACTORS
330
4F1A
102
}
330
4F1A
100
AcDbXrecord
280
     1
270
     1
271
     1
  0
XRECORD
  5
4F20
102
{ACAD_REACTORS
330
4F1A
102
}
330
4F1A
100
AcDbXrecord
280
     1
270
     1
271
     1
  0
XRECORD
  5
4F1D
102
{ACAD_REACTORS
330
4F1A
102
}
330
4F1A
100
AcDbXrecord
280
     1
270
     1
271
     1
  0
CELLSTYLEMAP
  5
4FDF
102
{ACAD_REACTORS
330
4F55
102
}
330
4F55
100
AcDbCellStyleMap
 90
        3
300
CELLSTYLE
  1
TABLEFORMAT_BEGIN
 90
        5
170
     1
 91
        0
 92
    32768
 62
   257
 93
        1
300
CONTENTFORMAT
  1
CONTENTFORMAT_BEGIN
 90
        0
 91
        0
 92
      512
 93
        0
300

 40
0.0
140
1.0
 94
        5
 62
     0
340
11
144
0.25
309
CONTENTFORMAT_END
171
     0
 94
        0
309
TABLEFORMAT_END
  1
CELLSTYLE_BEGIN
 90
        1
 91
        1
300
_TITLE
309
CELLSTYLE_END
300
CELLSTYLE
  1
TABLEFORMAT_BEGIN
 90
        5
170
     1
 91
        0
 92
        0
 62
   257
 93
        1
300
CONTENTFORMAT
  1
CONTENTFORMAT_BEGIN
 90
        0
 91
        0
 92
      512
 93
        0
300

 40
0.0
140
1.0
 94
        5
 62
     0
340
11
144
0.18
309
CONTENTFORMAT_END
171
     0
 94
        0
309
TABLEFORMAT_END
  1
CELLSTYLE_BEGIN
 90
        2
 91
        1
300
_HEADER
309
CELLSTYLE_END
300
CELLSTYLE
  1
TABLEFORMAT_BEGIN
 90
        5
170
     1
 91
        0
 92
        0
 62
   257
 93
        1
300
CONTENTFORMAT
  1
CONTENTFORMAT_BEGIN
 90
        0
 91
        0
 92
      512
 93
        0
300

 40
0.0
140
1.0
 94
        2
 62
     0
340
11
144
0.18
309
CONTENTFORMAT_END
171
     0
 94
        0
309
TABLEFORMAT_END
  1
CELLSTYLE_BEGIN
 90
        3
 91
        2
300
_DATA
309
CELLSTYLE_END
  0
ENDSEC
  0
SECTION
  2
ACDSDATA
 70
     2
 71
     8
  0
ACDSSCHEMA
 90
        0
  1
AcDb_Thumbnail_Schema
  2
AcDbDs::ID
280
    10
 91
        8
  2
Thumbnail_Data
280
    15
 91
        0
101
ACDSRECORD
 95
        0
 90
        1
  2
AcDbDs::TreatedAsObjectData
280
     1
291
     1
101
ACDSRECORD
 95
        0
 90
        2
  2
AcDbDs::Legacy
280
     1
291
     1
101
ACDSRECORD
  1
AcDbDs::ID
 90
        3
  2
AcDs:Indexable
280
     1
291
     1
101
ACDSRECORD
  1
AcDbDs::ID
 90
        4
  2
AcDbDs::HandleAttribute
280
     7
282
     1
  0
ACDSSCHEMA
 90
        1
  1
AcDbDs::TreatedAsObjectDataSchema
  2
AcDbDs::TreatedAsObjectData
280
     1
 91
        0
  0
ACDSSCHEMA
 90
        2
  1
AcDbDs::LegacySchema
  2
AcDbDs::Legacy
280
     1
 91
        0
  0
ACDSSCHEMA
 90
        3
  1
AcDbDs::IndexedPropertySchema
  2
AcDs:Indexable
280
     1
 91
        0
  0
ACDSSCHEMA
 90
        4
  1
AcDbDs::HandleAttributeSchema
  2
AcDbDs::HandleAttribute
280
     7
 91
        1
284
     1
  0
ACDSRECORD
 90
        0
  2
AcDbDs::ID
280
    10
320
4F00
  2
Thumbnail_Data
280
    15
 94
     1253
310
89504E470D0A1A0A0000000D4948445200000100000000680803000000297CDED700000300504C5445212830FFFFFF2128300000000000000000000000000000000000000000000000000000330000660000990000CC0000FF0033000033330033660033990033CC0033FF0066000066330066660066990066CC0066FF0099
310
000099330099660099990099CC0099FF00CC0000CC3300CC6600CC9900CCCC00CCFF00FF0000FF3300FF6600FF9900FFCC00FFFF3300003300333300663300993300CC3300FF3333003333333333663333993333CC3333FF3366003366333366663366993366CC3366FF3399003399333399663399993399CC3399FF33CC00
310
33CC3333CC6633CC9933CCCC33CCFF33FF0033FF3333FF6633FF9933FFCC33FFFF6600006600336600666600996600CC6600FF6633006633336633666633996633CC6633FF6666006666336666666666996666CC6666FF6699006699336699666699996699CC6699FF66CC0066CC3366CC6666CC9966CCCC66CCFF66FF0066
310
FF3366FF6666FF9966FFCC66FFFF9900009900339900669900999900CC9900FF9933009933339933669933999933CC9933FF9966009966339966669966999966CC9966FF9999009999339999669999999999CC9999FF99CC0099CC3399CC6699CC9999CCCC99CCFF99FF0099FF3399FF6699FF9999FFCC99FFFFCC0000CC00
310
33CC0066CC0099CC00CCCC00FFCC3300CC3333CC3366CC3399CC33CCCC33FFCC6600CC6633CC6666CC6699CC66CCCC66FFCC9900CC9933CC9966CC9999CC99CCCC99FFCCCC00CCCC33CCCC66CCCC99CCCCCCCCCCFFCCFF00CCFF33CCFF66CCFF99CCFFCCCCFFFFFF0000FF0033FF0066FF0099FF00CCFF00FFFF3300FF3333
310
FF3366FF3399FF33CCFF33FFFF6600FF6633FF6666FF6699FF66CCFF66FFFF9900FF9933FF9966FF9999FF99CCFF99FFFFCC00FFCC33FFCC66FFCC99FFCCCCFFCCFFFFFF00FFFF33FFFF66FFFF99FFFFCCFFFFFF0000000D0D0D1A1A1A2828283535354343435050505D5D5D6B6B6B787878868686939393A1A1A1AEAEAEBB
310
BBBBC9C9C9D6D6D6E4E4E4F1F1F1FFFFFF0000000000000000000000000000000000000000000000000000000000002E4550F1000001A04944415478DAED9ADB6E84300C05FDFFDF7A5EFD5E12D8562B485A25A9B47666B417B10B913CD8265CCC00000000000000006008D7CAD1E4E1E2AF1CDFF323D5C1021A902E0B777E
310
D1F6B07EBCF88F1DA76BFFFD25C48E9EB22C8B28E093870B672060FC4B0F030A29C0DE0C1C3DF178ABBCEB475DFAE1FBA7D70AE904EC9801BBF7807519A090021676C19015800004F8470E15B20B0A017B0B087A145C58B941E35F960242C0DE026408082B60F326B868321CB6052CAA014516705EE79A29FFE31559805F17
310
FCC6F77ED93AB2009FAA0395ADBBB79202182859302E4025FAB8F1CF764259F4E0E70E8649E2470002469B401601C329A024F1F70578CE49F00A01692A0001DD383C7F0BE8A7800F8ACB2F4008C823A067C0376801661A10604A24A0F3A8AFB727D0892A60943C0656FF1550C0631B50EB5C31F6B5D0C6CEBC2BD029404F62
310
2C9F807A91F3ED41D95706DC1FA14D27E0399A9AE8ADFB06B9E26F8473DEF9B1DD056C91018FF1F44A205BFC9D19DF161580006BCD6B7D93F8AD758FD35B670FF90C6C7A1E34719E8400000000000000000000000000F84FBE009942089708EFCCF30000000049454E44AE426082
  0
ENDSEC
  0
EOF
