  0
SECTION
  2
HEADER
  9
$ACADVER
  1
AC1015
  9
$ACADMAINTVER
 70
    20
  9
$DWGCODEPAGE
  3
ANSI_1252
  9
$INSBASE
 10
0.0
 20
0.0
 30
0.0
  9
$EXTMIN
 10
89.20019583852592
 20
19.75309274409466
 30
-0.0015258207003583
  9
$EXTMAX
 10
147.2226566324625
 20
40.76302101737013
 30
0.0000000349246037
  9
$LIMMIN
 10
0.0
 20
0.0
  9
$LIMMAX
 10
181.3333333333
 20
117.3333333333
  9
$ORTHOMODE
 70
     1
  9
$REGENMODE
 70
     1
  9
$FILLMODE
 70
     1
  9
$QTEXTMODE
 70
     0
  9
$MIRRTEXT
 70
     0
  9
$LTSCALE
 40
9.973333333300001
  9
$ATTMODE
 70
     1
  9
$TEXTSIZE
 40
0.2
  9
$TRACEWID
 40
0.05
  9
$TEXTSTYLE
  7
STANDARD
  9
$CLAYER
  8
0
  9
$CELTYPE
  6
BYLAYER
  9
$CECOLOR
 62
   256
  9
$CELTSCALE
 40
1.0
  9
$DISPSILH
 70
     0
  9
$DIMSCALE
 40
1.0
  9
$DIMASZ
 40
2.0
  9
$DIMEXO
 40
0.0625
  9
$DIMDLI
 40
6.890666666699999
  9
$DIMRND
 40
0.0
  9
$DIMDLE
 40
0.0
  9
$DIMEXE
 40
0.125
  9
$DIMTP
 40
0.001
  9
$DIMTM
 40
0.001
  9
$DIMTXT
 40
1.333333333299999
  9
$DIMCEN
 40
1.631999999999999
  9
$DIMTSZ
 40
0.0
  9
$DIMTOL
 70
     1
  9
$DIMLIM
 70
     0
  9
$DIMTIH
 70
     1
  9
$DIMTOH
 70
     1
  9
$DIMSE1
 70
     0
  9
$DIMSE2
 70
     0
  9
$DIMTAD
 70
     0
  9
$DIMZIN
 70
     0
  9
$DIMBLK
  1
_FILLED
  9
$DIMASO
 70
     1
  9
$DIMSHO
 70
     1
  9
$DIMPOST
  1

  9
$DIMAPOST
  1

  9
$DIMALT
 70
     1
  9
$DIMALTD
 70
     2
  9
$DIMALTF
 40
25.4
  9
$DIMLFAC
 40
1.0
  9
$DIMTOFL
 70
     0
  9
$DIMTVP
 40
0.0
  9
$DIMTIX
 70
     0
  9
$DIMSOXD
 70
     0
  9
$DIMSAH
 70
     0
  9
$DIMBLK1
  1

  9
$DIMBLK2
  1

  9
$DIMSTYLE
  2
STANDARD
  9
$DIMCLRD
 70
     0
  9
$DIMCLRE
 70
     0
  9
$DIMCLRT
 70
     0
  9
$DIMTFAC
 40
1.0
  9
$DIMGAP
 40
0.09
  9
$DIMJUST
 70
     0
  9
$DIMSD1
 70
     0
  9
$DIMSD2
 70
     0
  9
$DIMTOLJ
 70
     1
  9
$DIMTZIN
 70
     0
  9
$DIMALTZ
 70
     0
  9
$DIMALTTZ
 70
     0
  9
$DIMUPT
 70
     0
  9
$DIMDEC
 70
     4
  9
$DIMTDEC
 70
     4
  9
$DIMALTU
 70
     2
  9
$DIMALTTD
 70
     2
  9
$DIMTXSTY
  7
STANDARD
  9
$DIMAUNIT
 70
     0
  9
$DIMADEC
 70
     0
  9
$DIMALTRND
 40
0.0
  9
$DIMAZIN
 70
     0
  9
$DIMDSEP
 70
    46
  9
$DIMATFIT
 70
     3
  9
$DIMFRAC
 70
     0
  9
$DIMLDRBLK
  1

  9
$DIMLUNIT
 70
     2
  9
$DIMLWD
 70
    -2
  9
$DIMLWE
 70
    -2
  9
$DIMTMOVE
 70
     0
  9
$LUNITS
 70
     2
  9
$LUPREC
 70
     4
  9
$SKETCHINC
 40
0.1
  9
$FILLETRAD
 40
0.0
  9
$AUNITS
 70
     0
  9
$AUPREC
 70
     0
  9
$MENU
  1
.
  9
$ELEVATION
 40
0.0
  9
$PELEVATION
 40
0.0
  9
$THICKNESS
 40
0.0
  9
$LIMCHECK
 70
     0
  9
$CHAMFERA
 40
0.0
  9
$CHAMFERB
 40
0.0
  9
$CHAMFERC
 40
0.0
  9
$CHAMFERD
 40
0.0
  9
$SKPOLY
 70
     0
  9
$TDCREATE
 40
2458389.568379629
  9
$TDUCREATE
 40
2458389.735046297
  9
$TDUPDATE
 40
2458389.632569445
  9
$TDUUPDATE
 40
2458389.799236111
  9
$TDINDWG
 40
0.0011458333
  9
$TDUSRTIMER
 40
0.0011458333
  9
$USRTIMER
 70
     1
  9
$ANGBASE
 50
0.0
  9
$ANGDIR
 70
     0
  9
$PDMODE
 70
     3
  9
$PDSIZE
 40
0.03125
  9
$PLINEWID
 40
0.0
  9
$SPLFRAME
 70
     0
  9
$SPLINETYPE
 70
     6
  9
$SPLINESEGS
 70
     8
  9
$HANDSEED
  5
2731
  9
$SURFTAB1
 70
     6
  9
$SURFTAB2
 70
     6
  9
$SURFTYPE
 70
     6
  9
$SURFU
 70
     6
  9
$SURFV
 70
     6
  9
$UCSBASE
  2

  9
$UCSNAME
  2

  9
$UCSORG
 10
0.0
 20
0.0
 30
0.0
  9
$UCSXDIR
 10
1.0
 20
0.0
 30
0.0
  9
$UCSYDIR
 10
0.0
 20
1.0
 30
0.0
  9
$UCSORTHOREF
  2

  9
$UCSORTHOVIEW
 70
     0
  9
$UCSORGTOP
 10
0.0
 20
0.0
 30
0.0
  9
$UCSORGBOTTOM
 10
0.0
 20
0.0
 30
0.0
  9
$UCSORGLEFT
 10
0.0
 20
0.0
 30
0.0
  9
$UCSORGRIGHT
 10
0.0
 20
0.0
 30
0.0
  9
$UCSORGFRONT
 10
0.0
 20
0.0
 30
0.0
  9
$UCSORGBACK
 10
0.0
 20
0.0
 30
0.0
  9
$PUCSBASE
  2

  9
$PUCSNAME
  2

  9
$PUCSORG
 10
0.0
 20
0.0
 30
0.0
  9
$PUCSXDIR
 10
1.0
 20
0.0
 30
0.0
  9
$PUCSYDIR
 10
0.0
 20
1.0
 30
0.0
  9
$PUCSORTHOREF
  2

  9
$PUCSORTHOVIEW
 70
     0
  9
$PUCSORGTOP
 10
0.0
 20
0.0
 30
0.0
  9
$PUCSORGBOTTOM
 10
0.0
 20
0.0
 30
0.0
  9
$PUCSORGLEFT
 10
0.0
 20
0.0
 30
0.0
  9
$PUCSORGRIGHT
 10
0.0
 20
0.0
 30
0.0
  9
$PUCSORGFRONT
 10
0.0
 20
0.0
 30
0.0
  9
$PUCSORGBACK
 10
0.0
 20
0.0
 30
0.0
  9
$USERI1
 70
     0
  9
$USERI2
 70
     0
  9
$USERI3
 70
     0
  9
$USERI4
 70
     0
  9
$USERI5
 70
     0
  9
$USERR1
 40
0.0
  9
$USERR2
 40
0.0
  9
$USERR3
 40
0.0
  9
$USERR4
 40
0.0
  9
$USERR5
 40
0.0
  9
$WORLDVIEW
 70
     1
  9
$SHADEDGE
 70
     3
  9
$SHADEDIF
 70
    70
  9
$TILEMODE
 70
     1
  9
$MAXACTVP
 70
    64
  9
$PINSBASE
 10
0.0
 20
0.0
 30
0.0
  9
$PLIMCHECK
 70
     0
  9
$PEXTMIN
 10
1.000000000000000E+20
 20
1.000000000000000E+20
 30
1.000000000000000E+20
  9
$PEXTMAX
 10
-1.000000000000000E+20
 20
-1.000000000000000E+20
 30
-1.000000000000000E+20
  9
$PLIMMIN
 10
0.0
 20
0.0
  9
$PLIMMAX
 10
12.0
 20
9.0
  9
$UNITMODE
 70
     0
  9
$VISRETAIN
 70
     1
  9
$PLINEGEN
 70
     0
  9
$PSLTSCALE
 70
     1
  9
$TREEDEPTH
 70
  3020
  9
$CMLSTYLE
  2
Standard
  9
$CMLJUST
 70
     0
  9
$CMLSCALE
 40
1.0
  9
$PROXYGRAPHICS
 70
     1
  9
$MEASUREMENT
 70
     0
  9
$CELWEIGHT
370
    -1
  9
$ENDCAPS
280
     0
  9
$JOINSTYLE
280
     0
  9
$LWDISPLAY
290
     0
  9
$INSUNITS
 70
     1
  9
$HYPERLINKBASE
  1

  9
$STYLESHEET
  1

  9
$XEDIT
290
     1
  9
$CEPSNTYPE
380
     0
  9
$PSTYLEMODE
290
     1
  9
$FINGERPRINTGUID
  2
{B6178286-FE9E-4042-A7CD-2748ED8250BA}
  9
$VERSIONGUID
  2
{5150C7BC-C59D-5A43-A7F0-2EAC26679F31}
  9
$EXTNAMES
290
     1
  9
$PSVPSCALE
 40
0.0
  9
$OLESTARTUP
290
     0
  0
ENDSEC
  0
SECTION
  2
CLASSES
  0
CLASS
  1
ACDBDICTIONARYWDFLT
  2
AcDbDictionaryWithDefault
  3
ObjectDBX Classes
 90
        0
280
     0
281
     0
  0
CLASS
  1
ACDBPLACEHOLDER
  2
AcDbPlaceHolder
  3
ObjectDBX Classes
 90
        0
280
     0
281
     0
  0
CLASS
  1
LAYOUT
  2
AcDbLayout
  3
ObjectDBX Classes
 90
        0
280
     0
281
     0
  0
CLASS
  1
MATERIAL
  2
AcDbMaterial
  3
ObjectDBX Classes
 90
     1153
280
     0
281
     0
  0
CLASS
  1
VISUALSTYLE
  2
AcDbVisualStyle
  3
ObjectDBX Classes
 90
     4095
280
     0
281
     0
  0
CLASS
  1
TABLESTYLE
  2
AcDbTableStyle
  3
ObjectDBX Classes
 90
     4095
280
     0
281
     0
  0
CLASS
  1
SCALE
  2
AcDbScale
  3
ObjectDBX Classes
 90
     1153
280
     0
281
     0
  0
CLASS
  1
MLEADERSTYLE
  2
AcDbMLeaderStyle
  3
ACDB_MLEADERSTYLE_CLASS
 90
     4095
280
     0
281
     0
  0
CLASS
  1
ACDBSECTIONVIEWSTYLE
  2
AcDbSectionViewStyle
  3
ObjectDBX Classes
 90
     1025
280
     0
281
     0
  0
CLASS
  1
ACDBDETAILVIEWSTYLE
  2
AcDbDetailViewStyle
  3
ObjectDBX Classes
 90
     1025
280
     0
281
     0
  0
CLASS
  1
CELLSTYLEMAP
  2
AcDbCellStyleMap
  3
ObjectDBX Classes
 90
     1152
280
     0
281
     0
  0
CLASS
  1
DICTIONARYVAR
  2
AcDbDictionaryVar
  3
ObjectDBX Classes
 90
        0
280
     0
281
     0
  0
ENDSEC
  0
SECTION
  2
TABLES
  0
TABLE
  2
VPORT
  5
8
102
{ACAD_XDICTIONARY
360
2591
102
}
330
0
100
AcDbSymbolTable
 70
     1
  0
VPORT
  5
1F4
330
8
100
AcDbSymbolTableRecord
100
AcDbViewportTableRecord
  2
*ACTIVE
 70
     0
 10
0.0
 20
0.0
 11
1.0
 21
1.0
 12
118.2114262354942
 22
30.2580568807324
 13
0.0
 23
0.0
 14
1.0
 24
1.0
 15
0.0
 25
0.0
 16
0.0
 26
0.0
 36
1.0
 17
0.0
 27
0.0
 37
0.0
 40
29.02601750921236
 41
2.005224660397074
 42
50.0
 43
0.0
 44
0.0
 50
0.0
 51
0.0
 71
     0
 72
   100
 73
     1
 74
     1
 75
     0
 76
     0
 77
     0
 78
     0
281
     0
 65
     1
110
0.0
120
0.0
130
0.0
111
1.0
121
0.0
131
0.0
112
0.0
122
1.0
132
0.0
 79
     0
146
0.0
1001
ACAD_NAV_VCDISPLAY
1070
     3
  0
ENDTAB
  0
TABLE
  2
LTYPE
  5
5
330
0
100
AcDbSymbolTable
 70
     6
  0
LTYPE
  5
14
330
5
100
AcDbSymbolTableRecord
100
AcDbLinetypeTableRecord
  2
BYBLOCK
 70
     0
  3

 72
    65
 73
     0
 40
0.0
  0
LTYPE
  5
15
330
5
100
AcDbSymbolTableRecord
100
AcDbLinetypeTableRecord
  2
BYLAYER
 70
     0
  3

 72
    65
 73
     0
 40
0.0
  0
LTYPE
  5
16
330
5
100
AcDbSymbolTableRecord
100
AcDbLinetypeTableRecord
  2
CONTINUOUS
 70
     0
  3
Solid line
 72
    65
 73
     0
 40
0.0
  0
LTYPE
  5
1F5
330
5
100
AcDbSymbolTableRecord
100
AcDbLinetypeTableRecord
  2
CENTER
 70
     0
  3
____ _ ____ _ ____ _ ____ _ ____ _ ____ _ ____
 72
    65
 73
     4
 40
0.6
 49
0.375
 74
     0
 49
-0.075
 74
     0
 49
0.075
 74
     0
 49
-0.075
 74
     0
  0
LTYPE
  5
1F6
330
5
100
AcDbSymbolTableRecord
100
AcDbLinetypeTableRecord
  2
HIDDEN
 70
     0
  3
- - - - - - - - - - - - - - - - - - - -
 72
    65
 73
     2
 40
0.2
 49
0.1
 74
     0
 49
-0.1
 74
     0
  0
LTYPE
  5
1F7
330
5
100
AcDbSymbolTableRecord
100
AcDbLinetypeTableRecord
  2
PHANTOM
 70
     0
  3
_____ _ _ _____ _ _ _____ _ _ _____
 72
    65
 73
     6
 40
0.8
 49
0.45
 74
     0
 49
-0.05
 74
     0
 49
0.1
 74
     0
 49
-0.05
 74
     0
 49
0.1
 74
     0
 49
-0.05
 74
     0
  0
LTYPE
  5
1F8
330
5
100
AcDbSymbolTableRecord
100
AcDbLinetypeTableRecord
  2
DOT
 70
     0
  3
. . . . . . . . . . . . . . . . . . . .
 72
    65
 73
     2
 40
0.2
 49
0.1
 74
     0
 49
-0.1
 74
     0
  0
LTYPE
  5
1F9
330
5
100
AcDbSymbolTableRecord
100
AcDbLinetypeTableRecord
  2
DASHED
 70
     0
  3
- - - - - - - - - - - - - - - - - - - -
 72
    65
 73
     2
 40
0.2
 49
0.1
 74
     0
 49
-0.1
 74
     0
  0
ENDTAB
  0
TABLE
  2
LAYER
  5
2
330
0
100
AcDbSymbolTable
 70
    39
  0
LAYER
  5
10
102
{ACAD_XDICTIONARY
360
25DE
102
}
330
2
100
AcDbSymbolTableRecord
100
AcDbLayerTableRecord
  2
0
 70
     0
 62
     7
  6
CONTINUOUS
370
    -3
390
F
  0
LAYER
  5
1FA
102
{ACAD_XDICTIONARY
360
25E0
102
}
330
2
100
AcDbSymbolTableRecord
100
AcDbLayerTableRecord
  2
DEFAULT_1
 70
     0
 62
     7
  6
CENTER
370
    -3
390
F
  0
LAYER
  5
1FB
102
{ACAD_XDICTIONARY
360
25E2
102
}
330
2
100
AcDbSymbolTableRecord
100
AcDbLayerTableRecord
  2
DEFAULT_2
 70
     0
 62
     8
  6
HIDDEN
370
    -3
390
F
  0
LAYER
  5
1FC
102
{ACAD_XDICTIONARY
360
25E4
102
}
330
2
100
AcDbSymbolTableRecord
100
AcDbLayerTableRecord
  2
DEFAULT_3
 70
     0
 62
     7
  6
PHANTOM
370
    -3
390
F
  0
LAYER
  5
1FD
102
{ACAD_XDICTIONARY
360
25E6
102
}
330
2
100
AcDbSymbolTableRecord
100
AcDbLayerTableRecord
  2
0_DEFAULT
 70
     0
 62
     7
  6
CONTINUOUS
370
    -3
390
F
  0
LAYER
  5
1FE
102
{ACAD_XDICTIONARY
360
25E8
102
}
330
2
100
AcDbSymbolTableRecord
100
AcDbLayerTableRecord
  2
1_CURVES
 70
     0
 62
     7
  6
CONTINUOUS
370
    -3
390
F
  0
LAYER
  5
1FF
102
{ACAD_XDICTIONARY
360
25EA
102
}
330
2
100
AcDbSymbolTableRecord
100
AcDbLayerTableRecord
  2
1_CURVES_CHROMO_INV
 70
     0
 62
     7
  6
CONTINUOUS
370
    -3
390
F
  0
LAYER
  5
200
102
{ACAD_XDICTIONARY
360
25EC
102
}
330
2
100
AcDbSymbolTableRecord
100
AcDbLayerTableRecord
  2
1_CURVES_DOT
 70
     0
 62
     7
  6
CONTINUOUS
370
    -3
390
F
  0
LAYER
  5
201
102
{ACAD_XDICTIONARY
360
25EE
102
}
330
2
100
AcDbSymbolTableRecord
100
AcDbLayerTableRecord
  2
1_CURVES_JETS
 70
     0
 62
     7
  6
CONTINUOUS
370
    -3
390
F
  0
LAYER
  5
202
102
{ACAD_XDICTIONARY
360
25F0
102
}
330
2
100
AcDbSymbolTableRecord
100
AcDbLayerTableRecord
  2
1_CURVES_PATINS
 70
     0
 62
     7
  6
CONTINUOUS
370
    -3
390
F
  0
LAYER
  5
203
102
{ACAD_XDICTIONARY
360
25F2
102
}
330
2
100
AcDbSymbolTableRecord
100
AcDbLayerTableRecord
  2
1_CURVES_SPEC_FRONT
 70
     0
 62
     7
  6
CONTINUOUS
370
    -3
390
F
  0
LAYER
  5
204
102
{ACAD_XDICTIONARY
360
25F4
102
}
330
2
100
AcDbSymbolTableRecord
100
AcDbLayerTableRecord
  2
1_CURVES_SPEC_RIGHT
 70
     0
 62
     7
  6
CONTINUOUS
370
    -3
390
F
  0
LAYER
  5
205
102
{ACAD_XDICTIONARY
360
25F6
102
}
330
2
100
AcDbSymbolTableRecord
100
AcDbLayerTableRecord
  2
2_PLANES
 70
     0
 62
     7
  6
CONTINUOUS
370
    -3
390
F
  0
LAYER
  5
206
102
{ACAD_XDICTIONARY
360
25F8
102
}
330
2
100
AcDbSymbolTableRecord
100
AcDbLayerTableRecord
  2
2_PLANES_CHROMO_INV
 70
     0
 62
     7
  6
CONTINUOUS
370
    -3
390
F
  0
LAYER
  5
207
102
{ACAD_XDICTIONARY
360
25FA
102
}
330
2
100
AcDbSymbolTableRecord
100
AcDbLayerTableRecord
  2
2_PLANES_JETS
 70
     0
 62
     7
  6
CONTINUOUS
370
    -3
390
F
  0
LAYER
  5
208
102
{ACAD_XDICTIONARY
360
25FC
102
}
330
2
100
AcDbSymbolTableRecord
100
AcDbLayerTableRecord
  2
3_POINTS
 70
     0
 62
     7
  6
CONTINUOUS
370
    -3
390
F
  0
LAYER
  5
209
102
{ACAD_XDICTIONARY
360
25FE
102
}
330
2
100
AcDbSymbolTableRecord
100
AcDbLayerTableRecord
  2
3_POINTS_JETS
 70
     0
 62
     7
  6
CONTINUOUS
370
    -3
390
F
  0
LAYER
  5
20A
102
{ACAD_XDICTIONARY
360
2600
102
}
330
2
100
AcDbSymbolTableRecord
100
AcDbLayerTableRecord
  2
3_POINTS_SPEC
 70
     0
 62
     7
  6
CONTINUOUS
370
    -3
390
F
  0
LAYER
  5
20B
102
{ACAD_XDICTIONARY
360
2602
102
}
330
2
100
AcDbSymbolTableRecord
100
AcDbLayerTableRecord
  2
4_CSYS
 70
     0
 62
     7
  6
CONTINUOUS
370
    -3
390
F
  0
LAYER
  5
20C
102
{ACAD_XDICTIONARY
360
2604
102
}
330
2
100
AcDbSymbolTableRecord
100
AcDbLayerTableRecord
  2
5_AXIS
 70
     0
 62
     7
  6
CONTINUOUS
370
    -3
390
F
  0
LAYER
  5
20D
102
{ACAD_XDICTIONARY
360
2606
102
}
330
2
100
AcDbSymbolTableRecord
100
AcDbLayerTableRecord
  2
5_AXIS_CHROMO_INV
 70
     0
 62
     7
  6
CONTINUOUS
370
    -3
390
F
  0
LAYER
  5
20E
102
{ACAD_XDICTIONARY
360
2608
102
}
330
2
100
AcDbSymbolTableRecord
100
AcDbLayerTableRecord
  2
5_AXIS_JETS
 70
     0
 62
     7
  6
CONTINUOUS
370
    -3
390
F
  0
LAYER
  5
20F
102
{ACAD_XDICTIONARY
360
260A
102
}
330
2
100
AcDbSymbolTableRecord
100
AcDbLayerTableRecord
  2
6_SURFACES
 70
     0
 62
     7
  6
CONTINUOUS
370
    -3
390
F
  0
LAYER
  5
210
102
{ACAD_XDICTIONARY
360
260C
102
}
330
2
100
AcDbSymbolTableRecord
100
AcDbLayerTableRecord
  2
6_SURFACES_AIRE
 70
     0
 62
     7
  6
CONTINUOUS
370
    -3
390
F
  0
LAYER
  5
211
102
{ACAD_XDICTIONARY
360
260E
102
}
330
2
100
AcDbSymbolTableRecord
100
AcDbLayerTableRecord
  2
6_SURFACES_CHROMO_INV
 70
     0
 62
     7
  6
CONTINUOUS
370
    -3
390
F
  0
LAYER
  5
212
102
{ACAD_XDICTIONARY
360
2610
102
}
330
2
100
AcDbSymbolTableRecord
100
AcDbLayerTableRecord
  2
6_SURFACES_JUPE
 70
     0
 62
     7
  6
CONTINUOUS
370
    -3
390
F
  0
LAYER
  5
213
102
{ACAD_XDICTIONARY
360
2612
102
}
330
2
100
AcDbSymbolTableRecord
100
AcDbLayerTableRecord
  2
6_SURFACES_JUPE_MURAL
 70
     0
 62
     7
  6
CONTINUOUS
370
    -3
390
F
  0
LAYER
  5
214
102
{ACAD_XDICTIONARY
360
2614
102
}
330
2
100
AcDbSymbolTableRecord
100
AcDbLayerTableRecord
  2
6_SURFACES_OFFSET_FIBRE_ACRYLIQ
 70
     0
 62
     7
  6
CONTINUOUS
370
    -3
390
F
  0
LAYER
  5
215
102
{ACAD_XDICTIONARY
360
2616
102
}
330
2
100
AcDbSymbolTableRecord
100
AcDbLayerTableRecord
  2
6_SURFACES_POUR_CONDUIT
 70
     0
 62
     7
  6
CONTINUOUS
370
    -3
390
F
  0
LAYER
  5
216
102
{ACAD_XDICTIONARY
360
2618
102
}
330
2
100
AcDbSymbolTableRecord
100
AcDbLayerTableRecord
  2
6_SURFACES_POUR_HFL
 70
     0
 62
     7
  6
CONTINUOUS
370
    -3
390
F
  0
LAYER
  5
217
102
{ACAD_XDICTIONARY
360
261A
102
}
330
2
100
AcDbSymbolTableRecord
100
AcDbLayerTableRecord
  2
6_SURFACES_TOOLING
 70
     0
 62
     7
  6
CONTINUOUS
370
    -3
390
F
  0
LAYER
  5
218
102
{ACAD_XDICTIONARY
360
261C
102
}
330
2
100
AcDbSymbolTableRecord
100
AcDbLayerTableRecord
  2
6_SURFACES_TOOLING_BRIDE
 70
     0
 62
     7
  6
CONTINUOUS
370
    -3
390
F
  0
LAYER
  5
219
102
{ACAD_XDICTIONARY
360
261E
102
}
330
2
100
AcDbSymbolTableRecord
100
AcDbLayerTableRecord
  2
6_SURFACES_TOOLING_DROP-IN
 70
     0
 62
     7
  6
CONTINUOUS
370
    -3
390
F
  0
LAYER
  5
21A
102
{ACAD_XDICTIONARY
360
2620
102
}
330
2
100
AcDbSymbolTableRecord
100
AcDbLayerTableRecord
  2
6_SURFACES_TOOLING_FS
 70
     0
 62
     7
  6
CONTINUOUS
370
    -3
390
F
  0
LAYER
  5
21B
102
{ACAD_XDICTIONARY
360
2622
102
}
330
2
100
AcDbSymbolTableRecord
100
AcDbLayerTableRecord
  2
6_SURFACES_TOOLING_FS_MURAL
 70
     0
 62
     7
  6
CONTINUOUS
370
    -3
390
F
  0
LAYER
  5
21C
102
{ACAD_XDICTIONARY
360
2624
102
}
330
2
100
AcDbSymbolTableRecord
100
AcDbLayerTableRecord
  2
7_NOTES
 70
     0
 62
     7
  6
CONTINUOUS
370
    -3
390
F
  0
LAYER
  5
21D
102
{ACAD_XDICTIONARY
360
2626
102
}
330
2
100
AcDbSymbolTableRecord
100
AcDbLayerTableRecord
  2
DEGAGEMENT_SERIGRAPHIE
 70
     0
 62
     7
  6
CONTINUOUS
370
    -3
390
F
  0
LAYER
  5
21E
102
{ACAD_XDICTIONARY
360
2628
102
}
330
2
100
AcDbSymbolTableRecord
100
AcDbLayerTableRecord
  2
NONE
 70
     0
 62
     7
  6
CONTINUOUS
370
    -3
390
F
  0
LAYER
  5
21F
102
{ACAD_XDICTIONARY
360
262A
102
}
330
2
100
AcDbSymbolTableRecord
100
AcDbLayerTableRecord
  2
XSEC_DATUMS
 70
     0
 62
     7
  6
CONTINUOUS
370
    -3
390
F
  0
ENDTAB
  0
TABLE
  2
STYLE
  5
3
330
0
100
AcDbSymbolTable
 70
     2
  0
STYLE
  5
11
330
3
100
AcDbSymbolTableRecord
100
AcDbTextStyleTableRecord
  2
STANDARD
 70
     0
 40
0.0
 41
1.0
 50
0.0
 71
     0
 42
0.2
  3
trium.ttf
  4

  0
STYLE
  5
220
330
3
100
AcDbSymbolTableRecord
100
AcDbTextStyleTableRecord
  2
TEXTSTYLE_1
 70
     0
 40
0.0
 41
0.8
 50
0.0
 71
     0
 42
0.2
  3
gdt
  4

  0
ENDTAB
  0
TABLE
  2
VIEW
  5
6
330
0
100
AcDbSymbolTable
 70
     0
  0
ENDTAB
  0
TABLE
  2
UCS
  5
7
330
0
100
AcDbSymbolTable
 70
     0
  0
ENDTAB
  0
TABLE
  2
APPID
  5
9
330
0
100
AcDbSymbolTable
 70
     3
  0
APPID
  5
221
330
9
100
AcDbSymbolTableRecord
100
AcDbRegAppTableRecord
  2
ACAD
 70
     0
  0
APPID
  5
25CB
330
9
100
AcDbSymbolTableRecord
100
AcDbRegAppTableRecord
  2
ACAD_MLEADERVER
 70
     0
  0
APPID
  5
262C
330
9
100
AcDbSymbolTableRecord
100
AcDbRegAppTableRecord
  2
ACAD_NAV_VCDISPLAY
 70
     0
  0
ENDTAB
  0
TABLE
  2
DIMSTYLE
  5
A
330
0
100
AcDbSymbolTable
 70
     1
100
AcDbDimStyleTable
 71
     0
  0
DIMSTYLE
105
225
330
A
100
AcDbSymbolTableRecord
100
AcDbDimStyleTableRecord
  2
STANDARD
 70
     0
 41
2.0
 44
0.125
 47
0.001
 48
0.001
 71
     1
 78
     4
 79
     1
140
1.333333333299999
170
     1
179
     3
271
     3
272
     3
284
     4
340
11
341
224
342
224
343
224
344
224
  0
ENDTAB
  0
TABLE
  2
BLOCK_RECORD
  5
1
330
0
100
AcDbSymbolTable
 70
     1
  0
BLOCK_RECORD
  5
222
330
1
100
AcDbSymbolTableRecord
100
AcDbBlockTableRecord
  2
*Model_Space
340
253D
  0
BLOCK_RECORD
  5
223
330
1
100
AcDbSymbolTableRecord
100
AcDbBlockTableRecord
  2
*Paper_Space
340
253E
  0
BLOCK_RECORD
  5
224
330
1
100
AcDbSymbolTableRecord
100
AcDbBlockTableRecord
  2
_FILLED
340
0
  0
ENDTAB
  0
ENDSEC
  0
SECTION
  2
BLOCKS
  0
BLOCK
  5
20
330
222
100
AcDbEntity
  8
0
100
AcDbBlockBegin
  2
*Model_Space
 70
     0
 10
0.0
 20
0.0
 30
0.0
  3
*Model_Space
  1

  0
ENDBLK
  5
21
330
222
100
AcDbEntity
  8
0
100
AcDbBlockEnd
  0
BLOCK
  5
1C
330
223
100
AcDbEntity
 67
     1
  8
0
100
AcDbBlockBegin
  2
*Paper_Space
 70
     0
 10
0.0
 20
0.0
 30
0.0
  3
*Paper_Space
  1

  0
ENDBLK
  5
1D
330
223
100
AcDbEntity
 67
     1
  8
0
100
AcDbBlockEnd
  0
BLOCK
  5
226
330
224
100
AcDbEntity
  8
0
100
AcDbBlockBegin
  2
_FILLED
 70
     0
 10
0.0
 20
0.0
 30
0.0
  3
_FILLED
  1

  0
SOLID
  5
227
330
224
100
AcDbEntity
  8
0
  6
ByBlock
 62
     0
100
AcDbTrace
 10
0.0
 20
0.0
 30
0.0
 11
-1.0
 21
0.1666666667
 31
0.0
 12
-1.0
 22
-0.1666666667
 32
0.0
 13
-1.0
 23
-0.1666666667
 33
0.0
  0
ENDBLK
  5
228
330
224
100
AcDbEntity
  8
0
  6
ByBlock
 62
     0
100
AcDbBlockEnd
  0
ENDSEC
  0
SECTION
  2
ENTITIES
  0
LWPOLYLINE
  5
22D
330
222
100
AcDbEntity
  8
0
  6
Continuous
 62
     7
100
AcDbPolyline
 90
       11
 70
     0
 43
0.0
 10
147.2170961558505
 20
40.6339333023
 10
147.0401291157505
 20
38.1838159315
 10
146.8295330514505
 20
35.94153760800001
 10
146.5827834799505
 20
33.8532791747
 10
146.3009553499505
 20
31.8549183752
 10
145.9781114407505
 20
29.8830242909
 10
145.6074534723505
 20
27.8956073065
 10
145.1890094071505
 20
25.9006610977
 10
144.7251805179505
 20
23.9132518036
 10
144.2197504121505
 20
21.9481541671
 10
143.6802692514505
 20
20.0285073223
  0
LWPOLYLINE
  5
22E
330
222
100
AcDbEntity
  8
0
  6
Continuous
 62
     7
100
AcDbPolyline
 90
       10
 70
     0
 43
0.0
 10
143.6702844390505
 20
19.9990202964
 10
143.6534668775505
 20
19.9616332601
 10
143.6326687873505
 20
19.9263054789
 10
143.6081386945505
 20
19.8934590668
 10
143.5801696918505
 20
19.8634865053
 10
143.5490959425505
 20
19.8367459608
 10
143.5152887537505
 20
19.8135570469
 10
143.4791524555505
 20
19.7941971112
 10
143.4411194160505
 20
19.7788976446
 10
143.4016447356505
 20
19.7678414006
  0
LINE
  5
22F
330
222
100
AcDbEntity
  8
0
  6
Continuous
 62
     7
100
AcDbLine
 10
143.6802692514505
 20
20.0285073223
 30
0.0
 11
143.6702844390505
 21
19.9990202964
 31
0.0
  0
LINE
  5
230
330
222
100
AcDbEntity
  8
0
  6
Continuous
 62
     7
100
AcDbLine
 10
143.6802692416505
 20
20.0285072887
 30
0.0
 11
143.6801384110505
 21
20.028753201
 31
0.0
  0
LWPOLYLINE
  5
231
330
222
100
AcDbEntity
  8
0
  6
Continuous
 62
     7
100
AcDbPolyline
 90
        5
 70
     0
 43
0.0
 10
93.09044575225055
 20
19.7611644882
 10
93.05007569675055
 20
19.7678336964
 10
93.01067258185055
 20
19.7788615211
 10
92.97270551355055
 20
19.7941166687
 10
92.93662650225055
 20
19.8134175206
  0
LWPOLYLINE
  5
232
330
222
100
AcDbEntity
  8
0
  6
Continuous
 62
     7
100
AcDbPolyline
 90
        3
 70
     0
 43
0.0
 10
143.4016447356505
 20
19.7678414006
 10
143.3612006719505
 20
19.7611601853
 10
143.3203937691505
 20
19.7589333023
  0
LINE
  5
233
330
222
100
AcDbEntity
  8
0
  6
Continuous
 62
     7
100
AcDbLine
 10
93.13129194275054
 20
19.7589333023
 30
0.0
 11
93.09044575225055
 21
19.7611644882
 31
0.0
  0
LINE
  5
234
330
222
100
AcDbEntity
  8
0
  6
Continuous
 62
     7
100
AcDbLine
 10
143.3203937691505
 20
19.7589333023
 30
0.0
 11
93.13129190925055
 21
19.7589333023
 31
0.0
  0
LINE
  5
235
330
222
100
AcDbEntity
  8
5_AXIS
  6
HIDDEN
 62
     8
100
AcDbLine
 10
99.11503856625055
 20
23.1339333023
 30
0.0
 11
101.1150355255505
 21
23.1339333023
 31
0.0
  0
LINE
  5
236
330
222
100
AcDbEntity
  8
DEFAULT_2
  6
HIDDEN
 62
     8
100
AcDbLine
 10
98.84359043655054
 20
23.1339333023
 30
0.0
 11
101.3864836553505
 21
23.1339333023
 31
0.0
  0
LINE
  5
237
330
222
100
AcDbEntity
  8
0
  6
Continuous
 62
     9
100
AcDbLine
 10
118.2258428559505
 20
20.038476734
 30
0.0
 11
118.2258428559505
 21
19.7589333023
 31
0.0
  0
LINE
  5
238
330
222
100
AcDbEntity
  8
DEFAULT_2
  6
HIDDEN
 62
     8
100
AcDbLine
 10
101.6516486982505
 20
23.2437682593
 30
0.0
 11
102.0537910443505
 21
23.6459106054
 31
0.0
  0
LINE
  5
239
330
222
100
AcDbEntity
  8
0
  6
Continuous
 62
     7
100
AcDbLine
 10
89.23461505985056
 20
40.6339333023
 30
0.0
 11
147.2170961550505
 21
40.6339333023
 31
0.0
  0
LINE
  5
23A
330
222
100
AcDbEntity
  8
6_SURFACES_TOOLING_FS_MURAL
  6
Continuous
 62
     7
100
AcDbLine
 10
146.2197432500505
 20
40.7589333023
 30
0.0
 11
90.19470327615055
 21
40.7589333023
 31
0.0
  0
LINE
  5
23B
330
222
100
AcDbEntity
  8
0
  6
Continuous
 62
     7
100
AcDbLine
 10
147.1250149425505
 20
40.7589333023
 30
0.0
 11
89.32667073955055
 21
40.7589333023
 31
0.0
  0
LINE
  5
23C
330
222
100
AcDbEntity
  8
0
  6
Continuous
 62
     7
100
AcDbLine
 10
89.23290140255055
 20
40.65835285699999
 30
0.0
 11
89.23287962285055
 21
40.6583721653
 31
0.0
  0
LINE
  5
23D
330
222
100
AcDbEntity
  8
DEFAULT_2
  6
HIDDEN
 62
     8
100
AcDbLine
 10
91.65483225555055
 20
37.8504980189
 30
0.0
 11
91.67700447085055
 21
37.859010091
 31
0.0
  0
LINE
  5
23E
330
222
100
AcDbEntity
  8
DEFAULT_2
  6
HIDDEN
 62
     8
100
AcDbLine
 10
91.64363091365055
 20
37.8796715075
 30
0.0
 11
91.67280488105054
 21
37.8908716025
 31
0.0
  0
LINE
  5
23F
330
222
100
AcDbEntity
  8
DEFAULT_2
  6
HIDDEN
 62
     8
100
AcDbLine
 10
91.62123186235055
 20
37.9380198794
 30
0.0
 11
91.65040582975054
 21
37.9492199744
 31
0.0
  0
LINE
  5
240
330
222
100
AcDbEntity
  8
DEFAULT_2
  6
HIDDEN
 62
     8
100
AcDbLine
 10
91.49328469115054
 20
37.9223738085
 30
0.0
 11
91.61648298195055
 21
37.96967051420001
 31
0.0
  0
LINE
  5
241
330
222
100
AcDbEntity
  8
DEFAULT_2
  6
HIDDEN
 62
     8
100
AcDbLine
 10
91.30709199855054
 20
37.884366865
 30
0.0
 11
91.59883167255054
 21
37.9963678142
 31
0.0
  0
LINE
  5
242
330
222
100
AcDbEntity
  8
DEFAULT_2
  6
HIDDEN
 62
     8
100
AcDbLine
 10
91.27349057525055
 20
37.9718883301
 30
0.0
 11
91.62474514275054
 21
38.106737473
 31
0.0
  0
LINE
  5
243
330
222
100
AcDbEntity
  8
DEFAULT_1
  6
CENTER
 62
     7
100
AcDbLine
 10
92.58135690495056
 20
38.6748301604
 30
0.0
 11
90.21048582115055
 21
37.7646357796
 31
0.0
  0
LINE
  5
244
330
222
100
AcDbEntity
  8
DEFAULT_2
  6
HIDDEN
 62
     8
100
AcDbLine
 10
91.13908943615056
 20
38.3219759389
 30
0.0
 11
91.49034400365055
 21
38.4568250817
 31
0.0
  0
LINE
  5
245
330
222
100
AcDbEntity
  8
DEFAULT_2
  6
HIDDEN
 62
     8
100
AcDbLine
 10
91.10549028995055
 20
38.4094982781
 30
0.0
 11
91.39722996395056
 21
38.5214992274
 31
0.0
  0
LINE
  5
246
330
222
100
AcDbEntity
  8
DEFAULT_2
  6
HIDDEN
 62
     8
100
AcDbLine
 10
91.39321138555054
 20
38.5534302304
 30
0.0
 11
91.26932732425055
 21
38.5058702524
 31
0.0
  0
LINE
  5
247
330
222
100
AcDbEntity
  8
DEFAULT_2
  6
HIDDEN
 62
     8
100
AcDbLine
 10
91.37482977405054
 20
38.5798471622
 30
0.0
 11
91.40400374145055
 21
38.5910472571
 31
0.0
  0
LINE
  5
248
330
222
100
AcDbEntity
  8
DEFAULT_2
  6
HIDDEN
 62
     8
100
AcDbLine
 10
91.35242844565054
 20
38.6381946599
 30
0.0
 11
91.38160241305055
 21
38.6493947548
 31
0.0
  0
LINE
  5
249
330
222
100
AcDbEntity
  8
DEFAULT_2
  6
HIDDEN
 62
     8
100
AcDbLine
 10
91.34122824235054
 20
38.6673685856
 30
0.0
 11
91.36340045755055
 21
38.6758806578
 31
0.0
  0
LINE
  5
24A
330
222
100
AcDbEntity
  8
DEFAULT_1
  6
CENTER
 62
     7
100
AcDbLine
 10
100.1150370459505
 20
21.7621279202
 30
0.0
 11
100.1150370459505
 21
24.4983968386
 31
0.0
  0
LINE
  5
24B
330
222
100
AcDbEntity
  8
0
  6
Continuous
 62
     7
100
AcDbLine
 10
92.77141647035055
 20
20.0285072887
 30
0.0
 11
92.77154730095055
 21
20.028753201
 31
0.0
  0
LINE
  5
24C
330
222
100
AcDbEntity
  8
DEFAULT_2
  6
HIDDEN
 62
     8
100
AcDbLine
 10
98.57842539355054
 20
23.2437682593
 30
0.0
 11
98.20616907395056
 21
23.6160245789
 31
0.0
  0
LINE
  5
24D
330
222
100
AcDbEntity
  8
DEFAULT_2
  6
HIDDEN
 62
     8
100
AcDbLine
 10
93.92612499955054
 20
30.8303681054
 30
0.0
 11
93.92605888335054
 21
30.8306191235
 31
0.0
  0
LINE
  5
24E
330
222
100
AcDbEntity
  8
DEFAULT_2
  6
HIDDEN
 62
     8
100
AcDbLine
 10
93.38069601665054
 20
32.734677519
 30
0.0
 11
93.38059447775055
 21
32.73500470760001
 31
0.0
  0
LINE
  5
24F
330
222
100
AcDbEntity
  8
DEFAULT_2
  6
HIDDEN
 62
     8
100
AcDbLine
 10
93.38059447775055
 20
32.73500470760001
 30
0.0
 11
93.01110904635056
 21
33.8712633921
 31
0.0
  0
LINE
  5
250
330
222
100
AcDbEntity
  8
DEFAULT_2
  6
HIDDEN
 62
     8
100
AcDbLine
 10
93.01110904635056
 20
33.8712633921
 30
0.0
 11
93.01097709405054
 21
33.8716515665
 31
0.0
  0
LINE
  5
251
330
222
100
AcDbEntity
  8
DEFAULT_2
  6
HIDDEN
 62
     8
100
AcDbLine
 10
91.45383971255055
 20
38.63561970380001
 30
0.0
 11
91.71726594515055
 21
37.9494479906
 31
0.0
  0
LINE
  5
252
330
222
100
AcDbEntity
  8
DEFAULT_2
  6
HIDDEN
 62
     8
100
AcDbLine
 10
91.49034514215056
 20
38.4568255188
 30
0.0
 11
91.62474628125055
 21
38.1067379101
 31
0.0
  0
LINE
  5
253
330
222
100
AcDbEntity
  8
DEFAULT_2
  6
HIDDEN
 62
     8
100
AcDbLine
 10
91.42197761395054
 20
38.6314213194
 30
0.0
 11
91.69077989215056
 21
37.9312461019
 31
0.0
  0
LINE
  5
254
330
222
100
AcDbEntity
  8
DEFAULT_2
  6
HIDDEN
 62
     8
100
AcDbLine
 10
91.38160355165055
 20
38.6493951919
 30
0.0
 11
91.67280601965055
 21
37.8908720396
 31
0.0
  0
LINE
  5
255
330
222
100
AcDbEntity
  8
DEFAULT_2
  6
HIDDEN
 62
     8
100
AcDbLine
 10
91.36340181295055
 20
38.6758811781
 30
0.0
 11
91.67700447085055
 21
37.859010091
 31
0.0
  0
LINE
  5
256
330
222
100
AcDbEntity
  8
DEFAULT_2
  6
HIDDEN
 62
     8
100
AcDbLine
 10
91.65483225555055
 20
37.8504980189
 30
0.0
 11
91.34122959775053
 21
38.667369106
 31
0.0
  0
LINE
  5
257
330
222
100
AcDbEntity
  8
DEFAULT_2
  6
HIDDEN
 62
     8
100
AcDbLine
 10
91.96188900555055
 20
36.7017823747
 30
0.0
 11
91.49328469095056
 21
37.9223738085
 31
0.0
  0
LINE
  5
258
330
222
100
AcDbEntity
  8
DEFAULT_2
  6
HIDDEN
 62
     8
100
AcDbLine
 10
91.28053352505055
 20
38.4766986291
 30
0.0
 11
91.31413380985055
 21
38.3891767269
 31
0.0
  0
LINE
  5
259
330
222
100
AcDbEntity
  8
DEFAULT_2
  6
HIDDEN
 62
     8
100
AcDbLine
 10
91.16383765545055
 20
38.4318982494
 30
0.0
 11
91.19743794025055
 21
38.3443763472
 31
0.0
  0
LINE
  5
25A
330
222
100
AcDbEntity
  8
DEFAULT_2
  6
HIDDEN
 62
     8
100
AcDbLine
 10
91.10549028995055
 20
38.4094982781
 30
0.0
 11
91.30709199855054
 21
37.884366865
 31
0.0
  0
LINE
  5
25B
330
222
100
AcDbEntity
  8
0
  6
Continuous
 62
     6
100
AcDbLine
 10
89.27555466985054
 20
38.56115135559999
 30
0.0
 11
89.26245034445054
 21
38.5877540759
 31
0.0
  0
LINE
  5
25C
330
222
100
AcDbEntity
  8
0
  6
Continuous
 62
     6
100
AcDbLine
 10
89.30203032155054
 20
38.56141303
 30
0.0
 11
89.28894456075054
 21
38.5879413698
 31
0.0
  0
LINE
  5
25D
330
222
100
AcDbEntity
  8
0
  6
Continuous
 62
     7
100
AcDbLine
 10
92.90286508115055
 20
19.836534296
 30
0.0
 11
92.87182319675055
 21
19.8631917838
 31
0.0
  0
LINE
  5
25E
330
222
100
AcDbEntity
  8
0
  6
Continuous
 62
     7
100
AcDbLine
 10
92.93662650225055
 20
19.8134175206
 30
0.0
 11
92.90286508115055
 21
19.836534296
 31
0.0
  0
LINE
  5
25F
330
222
100
AcDbEntity
  8
0
  6
Continuous
 62
    40
100
AcDbLine
 10
89.27764570405054
 20
38.725122985
 30
0.0
 11
89.27470608135056
 21
38.7719500078
 31
0.0
  0
LINE
  5
260
330
222
100
AcDbEntity
  8
0
  6
Continuous
 62
    40
100
AcDbLine
 10
89.27387542425055
 20
38.7747728623
 30
0.0
 11
89.27681504685054
 21
38.7279458395
 31
0.0
  0
LINE
  5
261
330
222
100
AcDbEntity
  8
0
  6
Continuous
 62
    40
100
AcDbLine
 10
89.27631345785055
 20
38.725122985
 30
0.0
 11
89.27337383525054
 21
38.7719500078
 31
0.0
  0
LINE
  5
262
330
222
100
AcDbEntity
  8
0
  6
Continuous
 62
    40
100
AcDbLine
 10
89.27254317805054
 20
38.7747728623
 30
0.0
 11
89.27548280075056
 21
38.7279458395
 31
0.0
  0
LINE
  5
263
330
222
100
AcDbEntity
  8
0
  6
Continuous
 62
    40
100
AcDbLine
 10
89.27498121175055
 20
38.725122985
 30
0.0
 11
89.27204158905054
 21
38.7719500078
 31
0.0
  0
LINE
  5
264
330
222
100
AcDbEntity
  8
0
  6
Continuous
 62
    40
100
AcDbLine
 10
89.27121093195054
 20
38.7747728623
 30
0.0
 11
89.27415055455055
 21
38.7279458395
 31
0.0
  0
LINE
  5
265
330
222
100
AcDbEntity
  8
0
  6
Continuous
 62
     9
100
AcDbLine
 10
89.25896363965057
 20
38.6011624969
 30
0.0
 11
89.25901928775054
 21
38.6003491566
 31
0.0
  0
LINE
  5
266
330
222
100
AcDbEntity
  8
0
  6
Continuous
 62
     9
100
AcDbLine
 10
89.23674256025055
 20
38.8990640679
 30
0.0
 11
89.23668691215054
 21
38.8998774082
 31
0.0
  0
LINE
  5
267
330
222
100
AcDbEntity
  8
0
  6
Continuous
 62
     7
100
AcDbLine
 10
89.42191375165055
 20
38.0110104016
 30
0.0
 11
89.42147378815056
 21
38.0173190448
 31
0.0
  0
LINE
  5
268
330
222
100
AcDbEntity
  8
6_SURFACES
  6
Continuous
 62
     7
100
AcDbLine
 10
89.31596694725055
 20
39.5072593222
 30
0.0
 11
89.23458955615055
 21
40.6339333023
 31
0.0
  0
LINE
  5
269
330
222
100
AcDbEntity
  8
0
  6
Continuous
 62
     7
100
AcDbLine
 10
89.31255746895054
 20
38.0655292954
 30
0.0
 11
89.31066596535055
 21
38.0917015211
 31
0.0
  0
LINE
  5
26A
330
222
100
AcDbEntity
  8
0
  6
Continuous
 62
     9
100
AcDbLine
 10
89.26130528675056
 20
38.6034040256
 30
0.0
 11
89.26245038885054
 21
38.5877540286
 31
0.0
  0
LINE
  5
26B
330
222
100
AcDbEntity
  8
0
  6
Continuous
 62
    40
100
AcDbLine
 10
89.26534201275055
 20
38.6082618453
 30
0.0
 11
89.26563969375056
 21
38.6042433793
 31
0.0
  0
LINE
  5
26C
330
222
100
AcDbEntity
  8
0
  6
Continuous
 62
    40
100
AcDbLine
 10
89.26563969375056
 20
38.6042433792
 30
0.0
 11
89.26716099985055
 21
38.58364116110001
 31
0.0
  0
LINE
  5
26D
330
222
100
AcDbEntity
  8
0
  6
Continuous
 62
     9
100
AcDbLine
 10
89.25038321235055
 20
38.750298057
 30
0.0
 11
89.26130528675056
 21
38.6034040256
 31
0.0
  0
LINE
  5
26E
330
222
100
AcDbEntity
  8
0
  6
Continuous
 62
     9
100
AcDbLine
 10
89.24780531375054
 20
38.7501132824
 30
0.0
 11
89.23674256025055
 21
38.8990640679
 31
0.0
  0
LINE
  5
26F
330
222
100
AcDbEntity
  8
0
  6
Continuous
 62
     6
100
AcDbLine
 10
89.25445434435054
 20
38.6620940359
 30
0.0
 11
89.25618363805055
 21
38.6388105518
 31
0.0
  0
LINE
  5
270
330
222
100
AcDbEntity
  8
0
  6
Continuous
 62
     7
100
AcDbLine
 10
89.31066596535055
 20
38.0917015211
 30
0.0
 11
89.27563963565054
 21
38.56350379550001
 31
0.0
  0
LINE
  5
271
330
222
100
AcDbEntity
  8
0
  6
Continuous
 62
     7
100
AcDbLine
 10
89.24710290925055
 20
38.9407058455
 30
0.0
 11
89.21199632085054
 21
39.4142843677
 31
0.0
  0
LINE
  5
272
330
222
100
AcDbEntity
  8
0
  6
Continuous
 62
    40
100
AcDbLine
 10
89.25097186265054
 20
38.7078702949
 30
0.0
 11
89.24634672615054
 21
38.7703172037
 31
0.0
  0
LINE
  5
273
330
222
100
AcDbEntity
  8
0
  6
Continuous
 62
    40
100
AcDbLine
 10
89.24815233535055
 20
38.7457827324
 30
0.0
 11
89.25079035535054
 21
38.7103652754
 31
0.0
  0
LINE
  5
274
330
222
100
AcDbEntity
  8
0
  6
Continuous
 62
     9
100
AcDbLine
 10
89.25021901215055
 20
38.7190079166
 30
0.0
 11
89.25243601475054
 21
38.6892314651
 31
0.0
  0
LINE
  5
275
330
222
100
AcDbEntity
  8
0
  6
Continuous
 62
    40
100
AcDbLine
 10
89.25051042355056
 20
38.7142131879
 30
0.0
 11
89.24825046035055
 21
38.7445694248
 31
0.0
  0
LINE
  5
276
330
222
100
AcDbEntity
  8
0
  6
Continuous
 62
    40
100
AcDbLine
 10
89.25021901215055
 20
38.7190079166
 30
0.0
 11
89.25036778545054
 21
38.716173876
 31
0.0
  0
LINE
  5
277
330
222
100
AcDbEntity
  8
0
  6
Continuous
 62
    40
100
AcDbLine
 10
89.24817106515055
 20
38.7454655771
 30
0.0
 11
89.24765062115055
 21
38.7524604569
 31
0.0
  0
LINE
  5
278
330
222
100
AcDbEntity
  8
0
  6
Continuous
 62
     9
100
AcDbLine
 10
89.25243601475054
 20
38.6892314651
 30
0.0
 11
89.25384587795056
 21
38.6702751755
 31
0.0
  0
LINE
  5
279
330
222
100
AcDbEntity
  8
0
  6
Continuous
 62
     9
100
AcDbLine
 10
89.25384587795056
 20
38.6702751755
 30
0.0
 11
89.25896363965057
 21
38.6011624969
 31
0.0
  0
LINE
  5
27A
330
222
100
AcDbEntity
  8
0
  6
Continuous
 62
    40
100
AcDbLine
 10
89.24397452205054
 20
38.8021338923
 30
0.0
 11
89.24780531375054
 21
38.7501132824
 31
0.0
  0
LINE
  5
27B
330
222
100
AcDbEntity
  8
0
  6
Continuous
 62
     7
100
AcDbLine
 10
89.24766193095056
 20
38.9387488645
 30
0.0
 11
89.27563963565054
 21
38.56350379550001
 31
0.0
  0
LINE
  5
27C
330
222
100
AcDbEntity
  8
0
  6
Continuous
 62
    40
100
AcDbLine
 10
89.25021901215055
 20
38.7190079166
 30
0.0
 11
89.25054908985055
 21
38.7142131879
 31
0.0
  0
LINE
  5
27D
330
222
100
AcDbEntity
  8
0
  6
Continuous
 62
     6
100
AcDbLine
 10
89.23690894455054
 20
38.89700785570001
 30
0.0
 11
89.24756307245054
 21
38.7544674307
 31
0.0
  0
LINE
  5
27E
330
222
100
AcDbEntity
  8
0
  6
Continuous
 62
     6
100
AcDbLine
 10
89.25437656565055
 20
38.6621001061
 30
0.0
 11
89.25234820465055
 21
38.68923806780001
 31
0.0
  0
LINE
  5
27F
330
222
100
AcDbEntity
  8
0
  6
Continuous
 62
    40
100
AcDbLine
 10
89.25084294715055
 20
38.7103652754
 30
0.0
 11
89.24755070575056
 21
38.7544641795
 31
0.0
  0
LINE
  5
280
330
222
100
AcDbEntity
  8
0
  6
Continuous
 62
     7
100
AcDbLine
 10
89.27537467775055
 20
38.5615167525
 30
0.0
 11
89.31088445105054
 21
38.0879682922
 31
0.0
  0
LINE
  5
281
330
222
100
AcDbEntity
  8
0
  6
Continuous
 62
    40
100
AcDbLine
 10
89.24790088625055
 20
38.7501132824
 30
0.0
 11
89.24253023225054
 21
38.8215051249
 31
0.0
  0
LINE
  5
282
330
222
100
AcDbEntity
  8
0
  6
Continuous
 62
    40
100
AcDbLine
 10
89.24241980215056
 20
38.91550701110001
 30
0.0
 11
89.24411347475055
 21
38.8929851382
 31
0.0
  0
LINE
  5
283
330
222
100
AcDbEntity
  8
0
  6
Continuous
 62
    40
100
AcDbLine
 10
89.29493309185055
 20
38.7511075288
 30
0.0
 11
89.29496009355053
 21
38.7507518375
 31
0.0
  0
LINE
  5
284
330
222
100
AcDbEntity
  8
0
  6
Continuous
 62
     7
100
AcDbLine
 10
89.21205081065055
 20
39.4142885043
 30
0.0
 11
89.24766193095056
 21
38.9387488645
 31
0.0
  0
LINE
  5
285
330
222
100
AcDbEntity
  8
0
  6
Continuous
 62
    40
100
AcDbLine
 10
89.28624490515053
 20
38.7516070936
 30
0.0
 11
89.28627172925056
 21
38.7512545177
 31
0.0
  0
LINE
  5
286
330
222
100
AcDbEntity
  8
0
  6
Continuous
 62
    40
100
AcDbLine
 10
89.28627172925056
 20
38.7512545177
 30
0.0
 11
89.28632920175054
 21
38.7504982533
 31
0.0
  0
LINE
  5
287
330
222
100
AcDbEntity
  8
0
  6
Continuous
 62
     9
100
AcDbLine
 10
89.25895350405054
 20
38.6011643872
 30
0.0
 11
89.24780531375054
 21
38.7501132824
 31
0.0
  0
LINE
  5
288
330
222
100
AcDbEntity
  8
0
  6
Continuous
 62
    40
100
AcDbLine
 10
89.25021901215055
 20
38.7190079166
 30
0.0
 11
89.25039935615055
 21
38.716173876
 31
0.0
  0
LINE
  5
289
330
222
100
AcDbEntity
  8
0
  6
Continuous
 62
     7
100
AcDbLine
 10
89.21032330305054
 20
39.4367233646
 30
0.0
 11
89.21205081065055
 21
39.4142885043
 31
0.0
  0
LINE
  5
28A
330
222
100
AcDbEntity
  8
0
  6
Continuous
 62
     9
100
AcDbLine
 10
89.23668691215054
 20
38.8998774082
 30
0.0
 11
89.25021901215055
 21
38.7190079166
 31
0.0
  0
LINE
  5
28B
330
222
100
AcDbEntity
  8
0
  6
Continuous
 62
     9
100
AcDbLine
 10
89.24751009815054
 20
38.93745229909999
 30
0.0
 11
89.24722676905053
 21
38.9410939573
 31
0.0
  0
LINE
  5
28C
330
222
100
AcDbEntity
  8
0
  6
Continuous
 62
     9
100
AcDbLine
 10
89.23821231265055
 20
38.91284208550001
 30
0.0
 11
89.25038321235055
 21
38.750298057
 31
0.0
  0
LINE
  5
28D
330
222
100
AcDbEntity
  8
0
  6
Continuous
 62
     7
100
AcDbLine
 10
89.31038574035055
 20
39.5068562029
 30
0.0
 11
89.31114276985054
 21
39.4972005109
 31
0.0
  0
LINE
  5
28E
330
222
100
AcDbEntity
  8
0
  6
Continuous
 62
     9
100
AcDbLine
 10
89.25901928775054
 20
38.6003491566
 30
0.0
 11
89.25895350405054
 21
38.6011643872
 31
0.0
  0
LINE
  5
28F
330
222
100
AcDbEntity
  8
6_SURFACES
  6
Continuous
 62
     7
100
AcDbLine
 10
89.62215266045054
 20
35.94153760800001
 30
0.0
 11
89.42731647565054
 21
38.016015854
 31
0.0
  0
LWPOLYLINE
  5
290
330
222
100
AcDbEntity
  8
6_SURFACES
  6
Continuous
 62
     7
100
AcDbPolyline
 90
        9
 70
     0
 43
0.0
 10
92.77141646055055
 20
20.0285073223
 10
92.23193529985055
 20
21.9481541671
 10
91.72650519405054
 20
23.9132518036
 10
91.26267630485054
 20
25.9006610977
 10
90.84423223965055
 20
27.8956073065
 10
90.47357427125055
 20
29.8830242909
 10
90.15073036195055
 20
31.8549183752
 10
89.86890223205055
 20
33.8532791747
 10
89.62215266045054
 20
35.94153760800001
  0
LWPOLYLINE
  5
291
330
222
100
AcDbEntity
  8
0
  6
Continuous
 62
     7
100
AcDbPolyline
 90
        3
 70
     0
 43
0.0
 10
92.79852267995055
 20
19.9610471614
 10
92.78166760425056
 20
19.998331599
 10
92.77141646055055
 20
20.0285073223
  0
LINE
  5
292
330
222
100
AcDbEntity
  8
0
  6
Continuous
 62
     7
100
AcDbLine
 10
92.81933956715056
 20
19.925821036
 30
0.0
 11
92.79852267995055
 21
19.9610471614
 31
0.0
  0
LINE
  5
293
330
222
100
AcDbEntity
  8
0
  6
Continuous
 62
     7
100
AcDbLine
 10
92.84387042565056
 20
19.8930726133
 30
0.0
 11
92.81933956715056
 21
19.925821036
 31
0.0
  0
LINE
  5
294
330
222
100
AcDbEntity
  8
0
  6
Continuous
 62
     7
100
AcDbLine
 10
92.87182319675055
 20
19.8631917838
 30
0.0
 11
92.84387042565056
 21
19.8930726133
 31
0.0
  0
LINE
  5
295
330
222
100
AcDbEntity
  8
0
  6
Continuous
 62
     6
100
AcDbLine
 10
89.24722672605055
 20
38.941093895
 30
0.0
 11
89.23821227575055
 21
38.9128420321
 31
0.0
  0
LINE
  5
296
330
222
100
AcDbEntity
  8
0
  6
Continuous
 62
     6
100
AcDbLine
 10
89.27322386325055
 20
38.9404888012
 30
0.0
 11
89.26429706365054
 21
38.9122876984
 31
0.0
  0
ARC
  5
2365
330
222
100
AcDbEntity
  8
0
  6
Continuous
 62
     7
100
AcDbCircle
 10
143.3201444772505
 20
20.1347866599
 30
0.0
 40
0.3758533623
100
AcDbArc
 50
270.0015991633006
 51
276.3376818359994
  0
ARC
  5
2366
330
222
100
AcDbEntity
  8
DEFAULT_2
  6
HIDDEN
 62
     8
100
AcDbCircle
 10
101.3864836553505
 20
23.5089333023
 30
0.0
 40
0.375
100
AcDbArc
 50
270.0
 51
315.0000000000002
  0
ARC
  5
2367
330
222
100
AcDbEntity
  8
DEFAULT_2
  6
HIDDEN
 62
     8
100
AcDbCircle
 10
98.84359043655054
 20
23.5089333023
 30
0.0
 40
0.375
100
AcDbArc
 50
224.9999999999998
 51
270.0
  0
ARC
  5
2368
330
222
100
AcDbEntity
  8
0
  6
Continuous
 62
     7
100
AcDbCircle
 10
143.3201909915505
 20
20.1339333023
 30
0.0
 40
0.375
100
AcDbArc
 50
270.0
 51
343.7111291084002
  0
ARC
  5
2369
330
222
100
AcDbEntity
  8
DEFAULT_2
  6
HIDDEN
 62
     8
100
AcDbCircle
 10
102.1421793920505
 20
23.5575222578
 30
0.0
 40
0.125
100
AcDbArc
 50
91.37160562030066
 51
135.0000000000002
  0
ARC
  5
236A
330
222
100
AcDbEntity
  8
DEFAULT_2
  6
HIDDEN
 62
     8
100
AcDbCircle
 10
99.41835375775056
 20
53.9066889106
 30
0.0
 40
30.2818893325
100
AcDbArc
 50
264.7573201217998
 51
267.5485980537999
  0
ARC
  5
236B
330
222
100
AcDbEntity
  8
0
  6
Continuous
 62
     7
100
AcDbCircle
 10
113.7338256960505
 20
40.6082695575
 30
0.0
 40
24.5339372947
100
AcDbArc
 50
184.3440320397
 51
184.7250639548
  0
ARC
  5
236C
330
222
100
AcDbEntity
  8
0
  6
Continuous
 62
     7
100
AcDbCircle
 10
113.7248204371505
 20
40.6083780531
 30
0.0
 40
24.52496612
100
AcDbArc
 50
183.9661163374
 51
184.3434543048001
  0
ARC
  5
236D
330
222
100
AcDbEntity
  8
0
  6
Continuous
 62
     7
100
AcDbCircle
 10
147.1250149032505
 20
40.6649333023
 30
0.0
 40
0.094
100
AcDbArc
 50
355.985740299
 51
90.0
  0
ARC
  5
236E
330
222
100
AcDbEntity
  8
DEFAULT_2
  6
HIDDEN
 62
     8
100
AcDbCircle
 10
49.48554106455055
 20
19.1320395353
 30
0.0
 40
45.9545034614
100
AcDbArc
 50
14.74803189390014
 51
17.21764843360006
  0
ARC
  5
236F
330
222
100
AcDbEntity
  8
0
  6
Continuous
 62
     7
100
AcDbCircle
 10
93.13154122515054
 20
20.134786264
 30
0.0
 40
0.3758529665
100
AcDbArc
 50
263.6592777933997
 51
269.9984022952006
  0
ARC
  5
2370
330
222
100
AcDbEntity
  8
0
  6
Continuous
 62
     7
100
AcDbCircle
 10
93.13149472045054
 20
20.1339333023
 30
0.0
 40
0.375
100
AcDbArc
 50
196.2888708915998
 51
270.0
  0
ARC
  5
2371
330
222
100
AcDbEntity
  8
0
  6
Continuous
 62
     7
100
AcDbCircle
 10
93.13129194275054
 20
20.1339333023
 30
0.0
 40
0.375
100
AcDbArc
 50
196.3280132501001
 51
233.2459782561997
  0
ARC
  5
2372
330
222
100
AcDbEntity
  8
DEFAULT_2
  6
HIDDEN
 62
     8
100
AcDbCircle
 10
98.11778072625056
 20
23.5276362313
 30
0.0
 40
0.125
100
AcDbArc
 50
45.0000000011997
 51
87.54958135439926
  0
ARC
  5
2373
330
222
100
AcDbEntity
  8
DEFAULT_2
  6
HIDDEN
 62
     8
100
AcDbCircle
 10
91.38848867015054
 20
38.6105309708
 30
0.0
 40
0.07
100
AcDbArc
 50
21.00215343999975
 51
111.0021534400005
  0
ARC
  5
2374
330
222
100
AcDbEntity
  8
DEFAULT_2
  6
HIDDEN
 62
     8
100
AcDbCircle
 10
91.65191625815054
 20
37.924359778
 30
0.0
 40
0.07
100
AcDbArc
 50
291.0021534400005
 51
21.00215343999975
  0
ARC
  5
2375
330
222
100
AcDbEntity
  8
DEFAULT_2
  6
HIDDEN
 62
     8
100
AcDbCircle
 10
91.39280364655055
 20
38.6202212245
 30
0.0
 40
0.03125
100
AcDbArc
 50
291.0021534400005
 51
111.0021534400005
  0
ARC
  5
2376
330
222
100
AcDbEntity
  8
DEFAULT_2
  6
HIDDEN
 62
     8
100
AcDbCircle
 10
91.66160592475055
 20
37.920046007
 30
0.0
 40
0.03125
100
AcDbArc
 50
291.0021534400005
 51
111.0021534400005
  0
ARC
  5
2377
330
222
100
AcDbEntity
  8
DEFAULT_2
  6
HIDDEN
 62
     8
100
AcDbCircle
 10
91.63549723385056
 20
38.0787304643
 30
0.0
 40
0.03
100
AcDbArc
 50
21.00215343999975
 51
111.0021534400005
  0
ARC
  5
2378
330
222
100
AcDbEntity
  8
DEFAULT_2
  6
HIDDEN
 62
     8
100
AcDbCircle
 10
91.47959191255054
 20
38.4848320904
 30
0.0
 40
0.03
100
AcDbArc
 50
291.0021534400005
 51
21.00215343999975
  0
ARC
  5
2379
330
222
100
AcDbEntity
  8
0
  6
Continuous
 62
     9
100
AcDbCircle
 10
88.88640504375056
 20
38.8812479306
 30
0.0
 40
0.3954412394
100
AcDbArc
 50
7.778029026600019
 51
8.607743458000097
  0
ARC
  5
237A
330
222
100
AcDbEntity
  8
0
  6
Continuous
 62
     9
100
AcDbCircle
 10
88.95170152365055
 20
38.5618559592
 30
0.0
 40
0.3544408529
100
AcDbArc
 50
0.03977423140001
 51
0.912577100900012
  0
ARC
  5
237B
330
222
100
AcDbEntity
  8
0
  6
Continuous
 62
     9
100
AcDbCircle
 10
89.05932069675055
 20
38.9072519463
 30
0.0
 40
0.2205813508
100
AcDbArc
 50
8.651640297500007
 51
9.627441018699872
  0
ARC
  5
237C
330
222
100
AcDbEntity
  8
0
  6
Continuous
 62
     7
100
AcDbCircle
 10
89.47367803245056
 20
38.1976964133
 30
0.0
 40
0.188178917
100
AcDbArc
 50
224.5202790421999
 51
262.5840159003003
  0
ARC
  5
237D
330
222
100
AcDbEntity
  8
0
  6
Continuous
 62
     7
100
AcDbCircle
 10
89.44632806605055
 20
38.1969129903
 30
0.0
 40
0.1875
100
AcDbArc
 50
224.4842409285003
 51
262.5183172250995
  0
ARC
  5
237E
330
222
100
AcDbEntity
  8
0
  6
Continuous
 62
     9
100
AcDbCircle
 10
89.42784794245055
 20
38.9411958434
 30
0.0
 40
0.1539791721
100
AcDbArc
 50
178.8900818343
 51
179.0551696479
  0
ARC
  5
237F
330
222
100
AcDbEntity
  8
0
  6
Continuous
 62
     9
100
AcDbCircle
 10
89.45271240515054
 20
38.5836917845
 30
0.0
 40
0.1516730952
100
AcDbArc
 50
189.6165693058999
 51
189.8770205121
  0
ARC
  5
2380
330
222
100
AcDbEntity
  8
0
  6
Continuous
 62
     9
100
AcDbCircle
 10
89.13129257145055
 20
38.9192618766
 30
0.0
 40
0.1476147018
100
AcDbArc
 50
9.703463770999951
 51
9.896672888400008
  0
ARC
  5
2381
330
222
100
AcDbEntity
  8
0
  6
Continuous
 62
     9
100
AcDbCircle
 10
89.16782551725054
 20
38.5607593334
 30
0.0
 40
0.1383084864
100
AcDbArc
 50
358.6390339386
 51
358.8857942902001
  0
ARC
  5
2382
330
222
100
AcDbEntity
  8
0
  6
Continuous
 62
     9
100
AcDbCircle
 10
89.14877833305054
 20
38.9223158564
 30
0.0
 40
0.1298642472
100
AcDbArc
 50
9.895250720699863
 51
10.28053345150012
  0
ARC
  5
2383
330
222
100
AcDbEntity
  8
0
  6
Continuous
 62
     9
100
AcDbCircle
 10
89.42680357405055
 20
38.5791566204
 30
0.0
 40
0.1253703139
100
AcDbArc
 50
189.9672878416001
 51
190.285915519
  0
ARC
  5
2384
330
222
100
AcDbEntity
  8
0
  6
Continuous
 62
     9
100
AcDbCircle
 10
89.39768291335054
 20
38.9418336156
 30
0.0
 40
0.123807415
100
AcDbArc
 50
178.3074642052
 51
178.8590008631
  0
ARC
  5
2385
330
222
100
AcDbEntity
  8
0
  6
Continuous
 62
     9
100
AcDbCircle
 10
89.18614099705054
 20
38.5603201134
 30
0.0
 40
0.1199877415
100
AcDbArc
 50
358.305727829
 51
358.6409837327
  0
ARC
  5
2386
330
222
100
AcDbEntity
  8
0
  6
Continuous
 62
     6
100
AcDbCircle
 10
89.27084159075056
 20
38.9024309084
 30
0.0
 40
0.03425
100
AcDbArc
 50
162.3034325921
 51
184.2639976126
  0
ARC
  5
2387
330
222
100
AcDbEntity
  8
0
  6
Continuous
 62
     6
100
AcDbCircle
 10
89.29317500125055
 20
38.6028887764
 30
0.0
 40
0.03425
100
AcDbArc
 50
184.2639976126
 51
206.2245626330003
  0
ARC
  5
2388
330
222
100
AcDbEntity
  8
DEFAULT_2
  6
HIDDEN
 62
     8
100
AcDbCircle
 10
90.19470327615055
 20
40.2589333023
 30
0.0
 40
0.375
100
AcDbArc
 50
21.00032284969985
 51
90.0
  0
ARC
  5
2389
330
222
100
AcDbEntity
  8
0
  6
Continuous
 62
     7
100
AcDbCircle
 10
89.38793930735055
 20
39.3259665693
 30
0.0
 40
0.1881788746
100
AcDbArc
 50
106.1072388099994
 51
144.1709849277999
  0
ARC
  5
238A
330
222
100
AcDbEntity
  8
0
  6
Continuous
 62
     7
100
AcDbCircle
 10
89.36209810315054
 20
39.3266295047
 30
0.0
 40
0.1875
100
AcDbArc
 50
106.0096779999995
 51
144.0437542966998
  0
ARC
  5
238B
330
222
100
AcDbEntity
  8
0
  6
Continuous
 62
     7
100
AcDbCircle
 10
89.32667078845055
 20
40.6649333023
 30
0.0
 40
0.094
100
AcDbArc
 50
90.0
 51
184.0142592987001
  0
SPLINE
  5
23C3
330
222
100
AcDbEntity
  8
DEFAULT_2
  6
HIDDEN
 62
     8
100
AcDbSpline
210
0.0
220
0.0
230
1.0
 70
     8
 71
     3
 72
    15
 73
    11
 74
     0
 42
0.0000001
 43
0.0000000001
 40
0.0
 40
0.0
 40
0.0
 40
0.0
 40
0.1250287725
 40
0.2500485564
 40
0.3750650807
 40
0.5000731487
 40
0.6250702655
 40
0.7500565195000001
 40
0.8750343764
 40
1.0
 40
1.0
 40
1.0
 40
1.0
 10
145.3080954405505
 20
40.4326635416
 30
0.0
 10
144.9903459153505
 20
39.8059561568
 30
0.0
 10
144.3550473419505
 20
38.5524963678
 30
0.0
 10
143.4027028175505
 20
36.6720498693
 30
0.0
 10
142.4508660729505
 20
34.7914767316
 30
0.0
 10
141.4991549051505
 20
32.9109828216
 30
0.0
 10
140.5473877507505
 20
31.0307079085
 30
0.0
 10
139.5954172692505
 20
29.1507262371
 30
0.0
 10
138.6434117623505
 20
27.270960719
 30
0.0
 10
138.0089776842505
 20
26.0177249666
 30
0.0
 10
137.6919714082505
 20
25.3910389879
 30
0.0
  0
SPLINE
  5
23C4
330
222
100
AcDbEntity
  8
DEFAULT_2
  6
HIDDEN
 62
     8
100
AcDbSpline
210
0.0
220
0.0
230
1.0
 70
     8
 71
     3
 72
    17
 73
    13
 74
     0
 42
0.0000001
 43
0.0000000001
 40
0.0
 40
0.0
 40
0.0
 40
0.0
 40
0.0591498732
 40
0.1200675385
 40
0.2453449115
 40
0.3730556470000001
 40
0.5014863346000001
 40
0.6296738888000001
 40
0.7567066434000001
 40
0.8810124538
 40
0.9413921026999998
 40
1.0
 40
1.0
 40
1.0
 40
1.0
 10
137.6919737350505
 20
25.3910388928
 30
0.0
 10
137.6760240535505
 20
25.3603240389
 30
0.0
 10
137.6435800449505
 20
25.2980048602
 30
0.0
 10
137.5737700014505
 20
25.1725573526
 30
0.0
 10
137.4718480556505
 20
25.0190951194
 30
0.0
 10
137.3202752142505
 20
24.8538109435
 30
0.0
 10
137.1402422585505
 20
24.716946727
 30
0.0
 10
136.9384146576505
 20
24.6157836372
 30
0.0
 10
136.7242113114505
 20
24.5531407986
 30
0.0
 10
136.5427078578505
 20
24.5300989971
 30
0.0
 10
136.4004970048505
 20
24.5235027073
 30
0.0
 10
136.3308813620505
 20
24.5222467504
 30
0.0
 10
136.2965942600505
 20
24.5216640107
 30
0.0
  0
SPLINE
  5
23C5
330
222
100
AcDbEntity
  8
DEFAULT_2
  6
HIDDEN
 62
     8
100
AcDbSpline
210
0.0
220
0.0
230
1.0
 70
     8
 71
     3
 72
    50
 73
    46
 74
     0
 42
0.0000001
 43
0.0000000001
 40
0.0
 40
0.0
 40
0.0
 40
0.0
 40
0.000209015
 40
0.0006834414
 40
0.0014495855
 40
0.0025119412
 40
0.0055290559
 40
0.009733124
 40
0.0151156372
 40
0.0216649934
 40
0.0293651113
 40
0.0381985493
 40
0.0481435379
 40
0.0591765634
 40
0.0843980469
 40
0.1136209436
 40
0.1465640464
 40
0.1829104649
 40
0.2223103469
 40
0.2643844032
 40
0.3087276867
 40
0.4024961391
 40
0.5000120862
 40
0.5975275343000001
 40
0.6912946905
 40
0.7356372636000001
 40
0.7777107184000001
 40
0.8171101621
 40
0.8534563460999999
 40
0.8863994229000001
 40
0.915622444
 40
0.9408441779
 40
0.9518773256000001
 40
0.9618223540999998
 40
0.9706557633
 40
0.9783557318999999
 40
0.9849047435999999
 40
0.9902866353
 40
0.9944896262999998
 40
0.9961462320999999
 40
0.9975049928
 40
0.9985658486
 40
0.9993297593000001
 40
0.9998003427
 40
1.0
 40
1.0
 40
1.0
 40
1.0
 10
91.27650399805053
 20
38.5086254289
 30
0.0
 10
91.27654466405054
 20
38.5086410408
 30
0.0
 10
91.27668107085055
 20
38.5085229381
 30
0.0
 10
91.27683953265053
 20
38.5082990044
 30
0.0
 10
91.27710017635056
 20
38.5078780491
 30
0.0
 10
91.27757662315055
 20
38.506997377
 30
0.0
 10
91.27834185765054
 20
38.5054422236
 30
0.0
 10
91.27944313715055
 20
38.5030609207
 30
0.0
 10
91.28081230345056
 20
38.4999880386
 30
0.0
 10
91.28244184395056
 20
38.496235587
 30
0.0
 10
91.28432847355055
 20
38.4918101917
 30
0.0
 10
91.28646674585054
 20
38.4867230889
 30
0.0
 10
91.28885144585055
 20
38.4809860952
 30
0.0
 10
91.29251827185054
 20
38.472083468
 30
0.0
 10
91.29766299715056
 20
38.459444577
 30
0.0
 10
91.30446424335055
 20
38.44255019190001
 30
0.0
 10
91.31207284895054
 20
38.4234816202
 30
0.0
 10
91.32041408365054
 20
38.40242192570001
 30
0.0
 10
91.32940622265055
 20
38.3795733421
 30
0.0
 10
91.33896158015053
 20
38.3551554646
 30
0.0
 10
91.35258473065055
 20
38.3201621293
 30
0.0
 10
91.37028737005055
 20
38.27435798
 30
0.0
 10
91.39182422035053
 20
38.2181558103
 30
0.0
 10
91.41320842045056
 20
38.1618956747
 30
0.0
 10
91.43053158155055
 20
38.1159472367
 30
0.0
 10
91.44370132045056
 20
38.0807813351
 30
0.0
 10
91.45285940155055
 20
38.0562120893
 30
0.0
 10
91.46139687585055
 20
38.0331900432
 30
0.0
 10
91.46923283575054
 20
38.0119373296
 30
0.0
 10
91.47629318235054
 20
37.9926590692
 30
0.0
 10
91.48251109895054
 20
37.9755413258
 30
0.0
 10
91.48712734225055
 20
37.9626998934
 30
0.0
 10
91.49035176895054
 20
37.9536275609
 30
0.0
 10
91.49241578585055
 20
37.9477675464
 30
0.0
 10
91.49423082165055
 20
37.942556324
 30
0.0
 10
91.49579261635055
 20
37.9380064614
 30
0.0
 10
91.49709785125056
 20
37.9341288955
 30
0.0
 10
91.49814342635055
 20
37.9309335892
 30
0.0
 10
91.49884437205056
 20
37.9286970325
 30
0.0
 10
91.49926832825055
 20
37.9272550568
 30
0.0
 10
91.49949434635056
 20
37.926433089
 30
0.0
 10
91.49965436805054
 20
37.92579695100001
 30
0.0
 10
91.49975137875054
 20
37.9253103503
 30
0.0
 10
91.49978576275055
 20
37.9250458742
 30
0.0
 10
91.49977529475055
 20
37.9248655977
 30
0.0
 10
91.49973644945054
 20
37.9248506847
 30
0.0
  0
SPLINE
  5
23C6
330
222
100
AcDbEntity
  8
DEFAULT_2
  6
HIDDEN
 62
     8
100
AcDbSpline
210
0.0
220
0.0
230
1.0
 70
     8
 71
     3
 72
    14
 73
    10
 74
     0
 42
0.0000001
 43
0.0000000001
 40
0.0
 40
0.0
 40
0.0
 40
0.0
 40
0.2503626108
 40
0.3754452034
 40
0.5004618787
 40
0.6254159998
 40
0.7503177588
 40
0.8751762006999999
 40
1.0
 40
1.0
 40
1.0
 40
1.0
 10
95.20983086465056
 20
25.0350397966
 30
0.0
 10
95.10780861185054
 20
25.5198550818
 30
0.0
 10
94.95893761525055
 20
26.2477477218
 30
0.0
 10
94.75926507105056
 20
27.2177554861
 30
0.0
 10
94.60669534775055
 20
27.9440878078
 30
0.0
 10
94.44919898655054
 20
28.6690065412
 30
0.0
 10
94.28455393565055
 20
29.3920215157
 30
0.0
 10
94.11118921635056
 20
30.1127336511
 30
0.0
 10
93.98903897105055
 20
30.5915053089
 30
0.0
 10
93.92612499955054
 20
30.8303681054
 30
0.0
  0
LINE
  5
23C7
330
222
100
AcDbEntity
  8
DEFAULT_2
  6
HIDDEN
 62
     8
100
AcDbLine
 10
91.26932732425055
 20
38.5058702525
 30
0.0
 11
90.54479517885054
 21
40.393323256
 31
0.0
  0
LINE
  5
23C8
330
222
100
AcDbEntity
  8
DEFAULT_2
  6
HIDDEN
 62
     8
100
AcDbLine
 10
102.1391966890505
 20
23.6825024156
 30
0.0
 11
136.8198485641505
 21
24.5149186752
 31
0.0
  0
SPLINE
  5
23C9
330
222
100
AcDbEntity
  8
DEFAULT_2
  6
HIDDEN
 62
     8
100
AcDbSpline
210
0.0
220
0.0
230
1.0
 70
     8
 71
     3
 72
    19
 73
    15
 74
     0
 42
0.0000001
 43
0.0000000001
 40
0.0
 40
0.0
 40
0.0
 40
0.0
 40
0.0589432407
 40
0.1196875216
 40
0.181753816
 40
0.2447118384
 40
0.37204429
 40
0.5001055751
 40
0.6280796909000001
 40
0.7552236662000001
 40
0.8181051732
 40
0.8801388881000001
 40
0.9409231315999999
 40
1.0
 40
1.0
 40
1.0
 40
1.0
 10
95.20983086435055
 20
25.035039798
 30
0.0
 10
95.21838086395055
 20
24.9944097485
 30
0.0
 10
95.23590122645055
 20
24.9119380284
 30
0.0
 10
95.26689990455055
 20
24.7876655827
 30
0.0
 10
95.30672497495055
 20
24.6628845965
 30
0.0
 10
95.37400680425056
 20
24.4981698081
 30
0.0
 10
95.48807185895055
 20
24.3032135594
 30
0.0
 10
95.67127064905056
 20
24.1020532037
 30
0.0
 10
95.89267982155055
 20
23.9442090082
 30
0.0
 10
96.09928644695054
 20
23.8536904248
 30
0.0
 10
96.27037186085054
 20
23.8056163791
 30
0.0
 10
96.39879711395055
 20
23.7801206043
 30
0.0
 10
96.52587039965055
 20
23.7633044654
 30
0.0
 10
96.60992489285055
 20
23.7552869835
 30
0.0
 10
96.65136448305055
 20
23.7514805395
 30
0.0
  0
SPLINE
  5
23CA
330
222
100
AcDbEntity
  8
DEFAULT_2
  6
HIDDEN
 62
     8
100
AcDbSpline
210
0.0
220
0.0
230
1.0
 70
     8
 71
     3
 72
    15
 73
    11
 74
     0
 42
0.0000001
 43
0.0000000001
 40
0.0
 40
0.0
 40
0.0
 40
0.0
 40
0.2497246018
 40
0.3745832231
 40
0.4994606960000001
 40
0.6244297797999999
 40
0.7495776289000001
 40
0.8121880784
 40
0.8747958495
 40
1.0
 40
1.0
 40
1.0
 40
1.0
 10
93.01097709405054
 20
33.8716515665
 30
0.0
 10
92.93010725515054
 20
34.1095491959
 30
0.0
 10
92.80585004195055
 20
34.4653985008
 30
0.0
 10
92.63430129635056
 20
34.9377620694
 30
0.0
 10
92.50268092015053
 20
35.2910657737
 30
0.0
 10
92.36835123825056
 20
35.6436566819
 30
0.0
 10
92.25538730115054
 20
35.9373393693
 30
0.0
 10
92.16494153595055
 20
36.1724554073
 30
0.0
 10
92.07464721785056
 20
36.4076903304
 30
0.0
 10
92.00701625735055
 20
36.5841457146
 30
0.0
 10
91.96189540905056
 20
36.7017656822
 30
0.0
  0
SPLINE
  5
23CB
330
222
100
AcDbEntity
  8
DEFAULT_2
  6
HIDDEN
 62
     8
100
AcDbSpline
210
0.0
220
0.0
230
1.0
 70
     8
 71
     3
 72
    50
 73
    46
 74
     0
 42
0.0000001
 43
0.0000000001
 40
0.0
 40
0.0
 40
0.0
 40
0.0
 40
0.0001997323
 40
0.00067035
 40
0.0014342829
 40
0.0024951553
 40
0.0038539294
 40
0.0055105462
 40
0.0097135542
 40
0.0150954585
 40
0.0216444788
 40
0.0293444531
 40
0.0381778655
 40
0.0481228947
 40
0.0591560413
 40
0.0843777677
 40
0.113600776
 40
0.146543836
 40
0.1828899997
 40
0.2222894203
 40
0.2643628497
 40
0.3087053948
 40
0.4024724821000001
 40
0.4999878378
 40
0.5975036744
 40
0.6912720106
 40
0.7356152392000001
 40
0.7776892463
 40
0.8170890870999999
 40
0.8534354747
 40
0.8863785593000001
 40
0.9156014521999999
 40
0.9408229480999999
 40
0.9518559867
 40
0.961800992
 40
0.9706344515000001
 40
0.9783345955999999
 40
0.9848839826999999
 40
0.9902665329000001
 40
0.9944706447999999
 40
0.9974878134999999
 40
0.9985502029
 40
0.9993163884999999
 40
0.9997908734000001
 40
1.0
 40
1.0
 40
1.0
 40
1.0
 10
91.61648298205056
 20
37.9696705143
 30
0.0
 10
91.61652184195054
 20
37.9696854329
 30
0.0
 10
91.61653241045055
 20
37.969865701
 30
0.0
 10
91.61649805365055
 20
37.9701302452
 30
0.0
 10
91.61640113615055
 20
37.97061685900001
 30
0.0
 10
91.61624118575055
 20
37.9712530374
 30
0.0
 10
91.61601525695054
 20
37.9720750356
 30
0.0
 10
91.61559143175056
 20
37.9735170627
 30
0.0
 10
91.61489065835054
 20
37.975753684
 30
0.0
 10
91.61384529125056
 20
37.9789490714
 30
0.0
 10
91.61254027705055
 20
37.9828267224
 30
0.0
 10
91.61097871015055
 20
37.987376673
 30
0.0
 10
91.60916390485054
 20
37.9925879846
 30
0.0
 10
91.60710011525054
 20
37.9984480874
 30
0.0
 10
91.60387599415056
 20
38.0075205385
 30
0.0
 10
91.59926008255055
 20
38.0203621024
 30
0.0
 10
91.59304243735055
 20
38.0374799586
 30
0.0
 10
91.58598219865055
 20
38.0567582728
 30
0.0
 10
91.57814613315055
 20
38.078010962
 30
0.0
 10
91.56960829515055
 20
38.1010328882
 30
0.0
 10
91.56044955715055
 20
38.1256019045
 30
0.0
 10
91.54727849535055
 20
38.1607673297
 30
0.0
 10
91.52995285765054
 20
38.2067148533
 30
0.0
 10
91.50856454025054
 20
38.2629734383
 30
0.0
 10
91.48702266845054
 20
38.3191736872
 30
0.0
 10
91.46931536675054
 20
38.36497603260001
 30
0.0
 10
91.45568841805054
 20
38.3999678861
 30
0.0
 10
91.44613032005056
 20
38.424384691
 30
0.0
 10
91.43713554615054
 20
38.4472322407
 30
0.0
 10
91.42879182635054
 20
38.4682909586
 30
0.0
 10
91.42118092215055
 20
38.48735862650001
 30
0.0
 10
91.41437759315055
 20
38.5042521935
 30
0.0
 10
91.40923126805054
 20
38.51689045510001
 30
0.0
 10
91.40556328195055
 20
38.525792626
 30
0.0
 10
91.40317781635054
 20
38.5315293206
 30
0.0
 10
91.40103884535056
 20
38.5366161513
 30
0.0
 10
91.39915158535055
 20
38.5410413014
 30
0.0
 10
91.39752148385055
 20
38.5447935367
 30
0.0
 10
91.39615182775054
 20
38.54786622800001
 30
0.0
 10
91.39505012925054
 20
38.55024737820001
 30
0.0
 10
91.39428458505056
 20
38.5518023989
 30
0.0
 10
91.39380791665054
 20
38.5526830023
 30
0.0
 10
91.39354714605055
 20
38.5531038822
 30
0.0
 10
91.39338856905053
 20
38.5533278444
 30
0.0
 10
91.39325207325056
 20
38.5534458507
 30
0.0
 10
91.39321138555054
 20
38.5534302304
 30
0.0
  0
SPLINE
  5
23CC
330
222
100
AcDbEntity
  8
DEFAULT_2
  6
HIDDEN
 62
     8
100
AcDbSpline
210
0.0
220
0.0
230
1.0
 70
     8
 71
     3
 72
    15
 73
    11
 74
     0
 42
0.0000001
 43
0.0000000001
 40
0.0
 40
0.0
 40
0.0
 40
0.0
 40
0.1249656983
 40
0.2499436228
 40
0.3749298163000001
 40
0.4999268224000001
 40
0.6249348411
 40
0.7499514437000001
 40
0.8749712526999999
 40
1.0
 40
1.0
 40
1.0
 40
1.0
 10
137.6919700728505
 20
25.39103889030001
 30
0.0
 10
138.0089767132505
 20
26.0177251955
 30
0.0
 10
138.6434122538505
 20
27.2709611855
 30
0.0
 10
139.5954194724505
 20
29.1507264745
 30
0.0
 10
140.5473891740505
 20
31.0307080117
 30
0.0
 10
141.4991527842505
 20
32.9109834525
 30
0.0
 10
142.4508632608505
 20
34.7914773197
 30
0.0
 10
143.4027041170505
 20
36.6720488391
 30
0.0
 10
144.3550475919505
 20
38.5524964838
 30
0.0
 10
144.9903455806505
 20
39.8059566509
 30
0.0
 10
145.3080955520505
 20
40.4326636914
 30
0.0
  0
SPLINE
  5
23CD
330
222
100
AcDbEntity
  8
DEFAULT_2
  6
HIDDEN
 62
     8
100
AcDbSpline
210
0.0
220
0.0
230
1.0
 70
     8
 71
     3
 72
    15
 73
    11
 74
     0
 42
0.0000001
 43
0.0000000001
 40
0.0
 40
0.0
 40
0.0
 40
0.0
 40
0.1253968636
 40
0.2506686341
 40
0.3758139089
 40
0.5008328853
 40
0.6257374803
 40
0.7505480722
 40
0.8752896508999999
 40
1.0
 40
1.0
 40
1.0
 40
1.0
 10
145.3080890808505
 20
40.4326637703
 30
0.0
 10
145.3159038927505
 20
40.44772654259999
 30
0.0
 10
145.3335908997505
 20
40.4768164914
 30
0.0
 10
145.3657486586505
 20
40.5164085709
 30
0.0
 10
145.4029478253505
 20
40.55124630259999
 30
0.0
 10
145.4444960486505
 20
40.5806733024
 30
0.0
 10
145.4896246826505
 20
40.6041476251
 30
0.0
 10
145.5375015870505
 20
40.621232544
 30
0.0
 10
145.5872282076505
 20
40.63161235099999
 30
0.0
 10
145.6210310450505
 20
40.63393335119999
 30
0.0
 10
145.6379074793505
 20
40.63393335119999
 30
0.0
  0
LINE
  5
23CE
330
222
100
AcDbEntity
  8
0
  6
Continuous
 62
    40
100
AcDbLine
 10
89.25008900435054
 20
38.7202377756
 30
0.0
 11
89.24867403485055
 21
38.7391039351
 31
0.0
  0
LINE
  5
23CF
330
222
100
AcDbEntity
  8
0
  6
Continuous
 62
    40
100
AcDbLine
 10
89.24177001905055
 20
38.9239922268
 30
0.0
 11
89.24241980205055
 21
38.9155070118
 31
0.0
  0
LINE
  5
23D0
330
222
100
AcDbEntity
  8
0
  6
Continuous
 62
    40
100
AcDbLine
 10
89.24411347475055
 20
38.8929851382
 30
0.0
 11
89.25475149005055
 21
38.7506234891
 31
0.0
  0
LINE
  5
23D1
330
222
100
AcDbEntity
  8
0
  6
Continuous
 62
    40
100
AcDbLine
 10
89.25475148985055
 20
38.75062349170001
 30
0.0
 11
89.26534201285056
 21
38.6082618438
 31
0.0
  0
LINE
  5
23D2
330
222
100
AcDbEntity
  8
0
  6
Continuous
 62
    40
100
AcDbLine
 10
89.26716099985055
 20
38.583641161
 30
0.0
 11
89.26762224335055
 21
38.5772547502
 31
0.0
  0
SPLINE
  5
23D3
330
222
100
AcDbEntity
  8
0
  6
Continuous
 62
     7
100
AcDbSpline
210
0.0
220
0.0
230
1.0
 70
     8
 71
     3
 72
    29
 73
    25
 74
     0
 42
0.0000001
 43
0.0000000001
 40
0.0
 40
0.0
 40
0.0
 40
0.0
 40
0.1912247249
 40
0.2846039456
 40
0.375340701
 40
0.462599101
 40
0.5455748855
 40
0.6235036262
 40
0.6956676017
 40
0.7614025990000001
 40
0.8201041984999999
 40
0.8712336825999999
 40
0.8938101407999999
 40
0.9143238796999998
 40
0.9327292545999998
 40
0.9489845167
 40
0.9630549313999999
 40
0.9749105380999999
 40
0.9845300952
 40
0.9919011171999999
 40
0.9947453334999998
 40
0.9970332575
 40
0.9987756213999999
 40
1.0
 40
1.0
 40
1.0
 40
1.0
 10
89.26969096715055
 20
38.750979964
 30
0.0
 10
89.26637752945055
 20
38.7946138019
 30
0.0
 10
89.26160898695055
 20
38.8595675508
 30
0.0
 10
89.25566008875055
 20
38.94525354280001
 30
0.0
 10
89.25153061485055
 20
39.007216925
 30
0.0
 10
89.24773566995055
 20
39.0668163613
 30
0.0
 10
89.24431005505054
 20
39.1235021391
 30
0.0
 10
89.24128493815054
 20
39.176751317
 30
0.0
 10
89.23868769015054
 20
39.2260726992
 30
0.0
 10
89.23654118475054
 20
39.2710113531
 30
0.0
 10
89.23486435525054
 20
39.3111527753
 30
0.0
 10
89.23382890965056
 20
39.34143541440001
 30
0.0
 10
89.23326641275055
 20
39.3629892211
 30
0.0
 10
89.23298798365054
 20
39.3770590995
 30
0.0
 10
89.23283500295054
 20
39.3896843022
 30
0.0
 10
89.23280733265055
 20
39.4008360302
 30
0.0
 10
89.23290431605055
 20
39.4104884514
 30
0.0
 10
89.23312315215055
 20
39.4186204814
 30
0.0
 10
89.23346309165054
 20
39.4252130627
 30
0.0
 10
89.23386281155055
 20
39.4297374671
 30
0.0
 10
89.23427524025056
 20
39.4325690816
 30
0.0
 10
89.23458512385055
 20
39.434113695
 30
0.0
 10
89.23492019835055
 20
39.43526783780001
 30
0.0
 10
89.23520478735055
 20
39.4358941168
 30
0.0
 10
89.23536886925054
 20
39.4361212298
 30
0.0
  0
LINE
  5
23D4
330
222
100
AcDbEntity
  8
0
  6
Continuous
 62
     7
100
AcDbLine
 10
89.26969096715055
 20
38.750979964
 30
0.0
 11
89.26977304765054
 21
38.7498993672
 31
0.0
  0
SPLINE
  5
23D5
330
222
100
AcDbEntity
  8
0
  6
Continuous
 62
     7
100
AcDbSpline
210
0.0
220
0.0
230
1.0
 70
     8
 71
     3
 72
    29
 73
    25
 74
     0
 42
0.0000001
 43
0.0000000001
 40
0.0
 40
0.0
 40
0.0
 40
0.0
 40
0.1911022697
 40
0.2844485392
 40
0.3751680547
 40
0.4624224692000001
 40
0.5454049676000001
 40
0.6233486116
 40
0.6955332385
 40
0.7612923116000001
 40
0.8200192437999998
 40
0.8711733452
 40
0.8937612934
 40
0.9142856981999999
 40
0.9327007449999999
 40
0.9489645387999999
 40
0.9630421627
 40
0.9749035925000001
 40
0.9845273901
 40
0.9919010806999999
 40
0.9947459804999999
 40
0.997034099
 40
0.9987762564
 40
1.0
 40
1.0
 40
1.0
 40
1.0
 10
89.26977304765054
 20
38.7498993672
 30
0.0
 10
89.27309435965055
 20
38.7061861155
 30
0.0
 10
89.27820155485056
 20
38.6411328297
 30
0.0
 10
89.28527813985054
 20
38.5553598751
 30
0.0
 10
89.29056778775054
 20
38.4933435638
 30
0.0
 10
89.29583176055054
 20
38.433711425
 30
0.0
 10
89.30102115275055
 20
38.3770151918
 30
0.0
 10
89.30608750755055
 20
38.3237795137
 30
0.0
 10
89.31098341175056
 20
38.2744969527
 30
0.0
 10
89.31566248925056
 20
38.2296233754
 30
0.0
 10
89.32008058535055
 20
38.1895738793
 30
0.0
 10
89.32364107995054
 20
38.15939405530001
 30
0.0
 10
89.32634815825055
 20
38.1379391376
 30
0.0
 10
89.32820321995055
 20
38.123946947
 30
0.0
 10
89.32996373885055
 20
38.1114060396
 30
0.0
 10
89.33162519905055
 20
38.1003450442
 30
0.0
 10
89.33318303595056
 20
38.0907895484
 30
0.0
 10
89.33463125155055
 20
38.0827601162
 30
0.0
 10
89.33596623105055
 20
38.07627557510001
 30
0.0
 10
89.33704716995055
 20
38.0718507288
 30
0.0
 10
89.33788433725053
 20
38.0691062144
 30
0.0
 10
89.33842504285054
 20
38.0676222175
 30
0.0
 10
89.33893152095055
 20
38.0665292663
 30
0.0
 10
89.33930812765053
 20
38.0659517916
 30
0.0
 10
89.33950502355054
 20
38.0657516894
 30
0.0
  0
SPLINE
  5
23D6
330
222
100
AcDbEntity
  8
0
  6
Continuous
 62
     7
100
AcDbSpline
210
0.0
220
0.0
230
1.0
 70
     8
 71
     3
 72
    33
 73
    29
 74
     0
 42
0.0000001
 43
0.0000000001
 40
0.0
 40
0.0
 40
0.0
 40
0.0
 40
0.0003269532
 40
0.0006903809
 40
0.0011409298
 40
0.0017063018
 40
0.0032297376
 40
0.0053144821
 40
0.0079778013
 40
0.0112270153
 40
0.0150649485
 40
0.0194918301
 40
0.0245068379
 40
0.0301084869
 40
0.0430604073
 40
0.0583211728
 40
0.0758566645
 40
0.1175837361
 40
0.1678477949
 40
0.2261677997
 40
0.2919828585
 40
0.3646585662
 40
0.4434935697000001
 40
0.5277265564000001
 40
0.6165438257
 40
0.7090869279000001
 40
0.8044621132999999
 40
1.0
 40
1.0
 40
1.0
 40
1.0
 10
89.44938947435053
 20
38.0110926724
 30
0.0
 10
89.44947050815054
 20
38.0110821453
 30
0.0
 10
89.44964959515054
 20
38.0111009215
 30
0.0
 10
89.44989602355056
 20
38.0112575092
 30
0.0
 10
89.45012192725055
 20
38.01152165739999
 30
0.0
 10
89.45043973925056
 20
38.0120735763
 30
0.0
 10
89.45078628015053
 20
38.0130639577
 30
0.0
 10
89.45114592925056
 20
38.014589782
 30
0.0
 10
89.45147387795055
 20
38.0165629429
 30
0.0
 10
89.45177003505056
 20
38.0189820774
 30
0.0
 10
89.45203225615054
 20
38.0218481801
 30
0.0
 10
89.45226001395054
 20
38.025159536
 30
0.0
 10
89.45245270135055
 20
38.0289145495
 30
0.0
 10
89.45267285155054
 20
38.0348010168
 30
0.0
 10
89.45284200035054
 20
38.0432510414
 30
0.0
 10
89.45289641045055
 20
38.05468491820001
 30
0.0
 10
89.45276962825055
 20
38.0733102582
 30
0.0
 10
89.45220583155053
 20
38.1006792902
 30
0.0
 10
89.45100841855055
 20
38.1382275546
 30
0.0
 10
89.44925579515055
 20
38.18177988889999
 30
0.0
 10
89.44696340535054
 20
38.2309151489
 30
0.0
 10
89.44415086335055
 20
38.2851582077
 30
0.0
 10
89.44084436575055
 20
38.3439843822
 30
0.0
 10
89.43707506615055
 20
38.4068246628
 30
0.0
 10
89.43287890835055
 20
38.473071136
 30
0.0
 10
89.42829620035054
 20
38.54208312300001
 30
0.0
 10
89.42167390205055
 20
38.6376904383
 30
0.0
 10
89.41635465045056
 20
38.7102032748
 30
0.0
 10
89.41265422155055
 20
38.7589333023
 30
0.0
  0
SPLINE
  5
23D7
330
222
100
AcDbEntity
  8
0
  6
Continuous
 62
     7
100
AcDbSpline
210
0.0
220
0.0
230
1.0
 70
     8
 71
     3
 72
    32
 73
    28
 74
     0
 42
0.0000001
 43
0.0000000001
 40
0.0
 40
0.0
 40
0.0
 40
0.0
 40
0.0007174255
 40
0.0012144992
 40
0.0018328871
 40
0.0034696071
 40
0.0056689479
 40
0.0084449071
 40
0.011803546
 40
0.0157471801
 40
0.0202756745
 40
0.0310820398
 40
0.0442060338
 40
0.059619956
 40
0.0772900987
 40
0.0971752807
 40
0.1192294503
 40
0.1696301415
 40
0.228013343
 40
0.2938214518
 40
0.3664245585
 40
0.4451269107
 40
0.5291737927
 40
0.6177589688000001
 40
0.7100322882
 40
0.8051085468
 40
1.0
 40
1.0
 40
1.0
 40
1.0
 10
89.33839829765053
 20
38.0878919116
 30
0.0
 10
89.33855679835055
 20
38.0879039608
 30
0.0
 10
89.33880323635056
 20
38.0880762615
 30
0.0
 10
89.33903246005055
 20
38.0884069978
 30
0.0
 10
89.33930912635055
 20
38.0889544613
 30
0.0
 10
89.33960797905056
 20
38.0898982796
 30
0.0
 10
89.33992109725053
 20
38.09133029130001
 30
0.0
 10
89.34020481095055
 20
38.0931557997
 30
0.0
 10
89.34046057615054
 20
38.0953744321
 30
0.0
 10
89.34068620225055
 20
38.0979863051
 30
0.0
 10
89.34096277445055
 20
38.1022490537
 30
0.0
 10
89.34120973415055
 20
38.1085506586
 30
0.0
 10
89.34137107435054
 20
38.1172668924
 30
0.0
 10
89.34140749625056
 20
38.1275053357
 30
0.0
 10
89.34131827525055
 20
38.1392414202
 30
0.0
 10
89.34110276395054
 20
38.1524473128
 30
0.0
 10
89.34062480435054
 20
38.1729013914
 30
0.0
 10
89.33968889145054
 20
38.2018762535
 30
0.0
 10
89.33812501295056
 20
38.2405287808
 30
0.0
 10
89.33608537875056
 20
38.2840845013
 30
0.0
 10
89.33358861865055
 20
38.3321250954
 30
0.0
 10
89.33065745335055
 20
38.3841891662
 30
0.0
 10
89.32731944155055
 20
38.4397766276
 30
0.0
 10
89.32360616225054
 20
38.4983535095
 30
0.0
 10
89.31955305195055
 20
38.5593572173
 30
0.0
 10
89.31369879185053
 20
38.6438468193
 30
0.0
 10
89.30899790535056
 20
38.7079223629
 30
0.0
 10
89.30572822555054
 20
38.750979964
 30
0.0
  0
SPLINE
  5
23D8
330
222
100
AcDbEntity
  8
0
  6
Continuous
 62
     7
100
AcDbSpline
210
0.0
220
0.0
230
1.0
 70
     8
 71
     3
 72
    33
 73
    29
 74
     0
 42
0.0000001
 43
0.0000000001
 40
0.0
 40
0.0
 40
0.0
 40
0.0
 40
0.0003264782
 40
0.000689632
 40
0.0011401865
 40
0.0017058197
 40
0.0032304911
 40
0.0053173322
 40
0.0079834806
 40
0.0112361679
 40
0.0150782723
 40
0.0195099909
 40
0.0245304254
 40
0.0301380573
 40
0.0431037171
 40
0.0583802029
 40
0.0759332902
 40
0.1176998139
 40
0.1680069715
 40
0.2263707993
 40
0.2922270744
 40
0.3649377145
 40
0.4437974124000001
 40
0.5280406986
 40
0.6168495882000001
 40
0.7093613034999999
 40
0.8046778107999999
 40
1.0
 40
1.0
 40
1.0
 40
1.0
 10
89.33573198815054
 20
39.50675725030001
 30
0.0
 10
89.33581070425054
 20
39.5067799563
 30
0.0
 10
89.33599114545055
 20
39.5067883468
 30
0.0
 10
89.33625912405053
 20
39.5066699351
 30
0.0
 10
89.33652303575055
 20
39.5064416225
 30
0.0
 10
89.33692175745056
 20
39.5059412221
 30
0.0
 10
89.33741539865055
 20
39.505009537
 30
0.0
 10
89.33800326665055
 20
39.50354780940001
 30
0.0
 10
89.33862757655054
 20
39.5016367922
 30
0.0
 10
89.33928804155055
 20
39.49927784150001
 30
0.0
 10
89.33998265505055
 20
39.4964696449
 30
0.0
 10
89.34071064445054
 20
39.4932138333
 30
0.0
 10
89.34147116425055
 20
39.4895119297
 30
0.0
 10
89.34258218295054
 20
39.4836964202
 30
0.0
 10
89.34403143085054
 20
39.475326212
 30
0.0
 10
89.34581949535056
 20
39.4639741732
 30
0.0
 10
89.34851850995055
 20
39.4454505115
 30
0.0
 10
89.35211021035055
 20
39.41817544780001
 30
0.0
 10
89.35661718365054
 20
39.3806946527
 30
0.0
 10
89.36148371195056
 20
39.337170084
 30
0.0
 10
89.36666099995056
 20
39.2880245491
 30
0.0
 10
89.37209619865056
 20
39.23373533
 30
0.0
 10
89.37773546415055
 20
39.1748301007
 30
0.0
 10
89.38352314785054
 20
39.1118814357
 30
0.0
 10
89.38940245715055
 20
39.0455013438
 30
0.0
 10
89.39531597035054
 20
38.9763350491
 30
0.0
 10
89.40323333595056
 20
38.8805148389
 30
0.0
 10
89.40894294495056
 20
38.807806181
 30
0.0
 10
89.41265422155055
 20
38.7589333023
 30
0.0
  0
SPLINE
  5
23D9
330
222
100
AcDbEntity
  8
0
  6
Continuous
 62
     7
100
AcDbSpline
210
0.0
220
0.0
230
1.0
 70
     8
 71
     3
 72
    32
 73
    28
 74
     0
 42
0.0000001
 43
0.0000000001
 40
0.0
 40
0.0
 40
0.0
 40
0.0
 40
0.0007168423
 40
0.0012138878
 40
0.0018324145
 40
0.0034699443
 40
0.0056707549
 40
0.0084487464
 40
0.0118099012
 40
0.0157565942
 40
0.0202886886
 40
0.0311036051
 40
0.0442379765
 40
0.0596638414
 40
0.077347412
 40
0.0972471867
 40
0.1193169997
 40
0.1697508585
 40
0.2281678814
 40
0.2940078794
 40
0.3666380921
 40
0.4453597022000001
 40
0.5294147696
 40
0.6179937397
 40
0.7102430895000001
 40
0.8052743403
 40
1.0
 40
1.0
 40
1.0
 40
1.0
 10
89.23762040575054
 20
39.4140680163
 30
0.0
 10
89.23777927625055
 20
39.4140800937
 30
0.0
 10
89.23804956895054
 20
39.4139463314
 30
0.0
 10
89.23832662415055
 20
39.4136529342
 30
0.0
 10
89.23868367055055
 20
39.4131515207
 30
0.0
 10
89.23912269225054
 20
39.4122601251
 30
0.0
 10
89.23964985395056
 20
39.4108863809
 30
0.0
 10
89.24020752425056
 20
39.4091176383
 30
0.0
 10
89.24079710755055
 20
39.4069544993
 30
0.0
 10
89.24141642485054
 20
39.40439651070001
 30
0.0
 10
89.24233639125054
 20
39.4002078063
 30
0.0
 10
89.24353601385055
 20
39.3939911914
 30
0.0
 10
89.24501672105055
 20
39.38536532150001
 30
0.0
 10
89.24660435695054
 20
39.37520998530001
 30
0.0
 10
89.24829443955054
 20
39.3635495727
 30
0.0
 10
89.25008211565055
 20
39.3504116999
 30
0.0
 10
89.25270802655054
 20
39.330042088
 30
0.0
 10
89.25617123015054
 20
39.30114929070001
 30
0.0
 10
89.26047840535055
 20
39.2625610016
 30
0.0
 10
89.26505668425056
 20
39.21903978280001
 30
0.0
 10
89.26986096675056
 20
39.1710051559
 30
0.0
 10
89.27484367915054
 20
39.1189201238
 30
0.0
 10
89.27995617875055
 20
39.0632868926
 30
0.0
 10
89.28514867685054
 20
39.00464194739999
 30
0.0
 10
89.29037087895054
 20
38.9435507552
 30
0.0
 10
89.29736242245054
 20
38.8589324482
 30
0.0
 10
89.30240515675055
 20
38.7947269898
 30
0.0
 10
89.30568336385055
 20
38.7515706434
 30
0.0
  0
LINE
  5
23DA
330
222
100
AcDbEntity
  8
0
  6
Continuous
 62
     7
100
AcDbLine
 10
89.30568336385055
 20
38.7515706434
 30
0.0
 11
89.30572822555054
 21
38.750979964
 31
0.0
  0
SPLINE
  5
23DB
330
222
100
AcDbEntity
  8
0
  6
Continuous
 62
     7
100
AcDbSpline
210
0.0
220
0.0
230
1.0
 70
     8
 71
     3
 72
    29
 73
    25
 74
     0
 42
0.0000001
 43
0.0000000001
 40
0.0
 40
0.0
 40
0.0
 40
0.0
 40
0.2065974474
 40
0.3048098884
 40
0.3987288094
 40
0.4877129070000001
 40
0.5711547327000001
 40
0.6484850111
 40
0.7191765656
 40
0.7827480613
 40
0.8387675698
 40
0.8868560409
 40
0.9266909954
 40
0.9434292668999999
 40
0.9580121204000001
 40
0.9704173404
 40
0.9806300825
 40
0.9849119906
 40
0.9886439854999998
 40
0.9918279509999999
 40
0.9944681263999999
 40
0.9965729136
 40
0.9981604027999999
 40
1.0
 40
1.0
 40
1.0
 40
1.0
 10
89.25858845945056
 20
38.9120714767
 30
0.0
 10
89.25619480895054
 20
38.946639235
 30
0.0
 10
89.25277800515054
 20
38.997647932
 30
0.0
 10
89.24857222775054
 20
39.064390427
 30
0.0
 10
89.24574008005055
 20
39.1114540593
 30
0.0
 10
89.24319550905055
 20
39.1560529777
 30
0.0
 10
89.24095569265054
 20
39.19788227290001
 30
0.0
 10
89.23903556365054
 20
39.2366559736
 30
0.0
 10
89.23744764305054
 20
39.2721090349
 30
0.0
 10
89.23620207465054
 20
39.3039991184
 30
0.0
 10
89.23530551765054
 20
39.3321083792
 30
0.0
 10
89.23476313605055
 20
39.3562447569
 30
0.0
 10
89.23459368785055
 20
39.373798742
 30
0.0
 10
89.23466622705054
 20
39.38573306889999
 30
0.0
 10
89.23480686125055
 20
39.3930657923
 30
0.0
 10
89.23503578365055
 20
39.3993012982
 30
0.0
 10
89.23531049355053
 20
39.4038052853
 30
0.0
 10
89.23558836445055
 20
39.40685011
 30
0.0
 10
89.23580553125054
 20
39.408715237
 30
0.0
 10
89.23604521815056
 20
39.41030229760001
 30
0.0
 10
89.23630079385056
 20
39.4116024299
 30
0.0
 10
89.23658743295055
 20
39.4126419743
 30
0.0
 10
89.23690387165056
 20
39.4134705206
 30
0.0
 10
89.23731275615054
 20
39.4140446288
 30
0.0
 10
89.23762040575054
 20
39.4140680163
 30
0.0
  0
LINE
  5
23DC
330
222
100
AcDbEntity
  8
0
  6
Continuous
 62
     7
100
AcDbLine
 10
89.27029047795056
 20
38.750979964
 30
0.0
 11
89.27036906445055
 21
38.7499453623
 31
0.0
  0
SPLINE
  5
23DD
330
222
100
AcDbEntity
  8
0
  6
Continuous
 62
     7
100
AcDbSpline
210
0.0
220
0.0
230
1.0
 70
     8
 71
     3
 72
    29
 73
    25
 74
     0
 42
0.0000001
 43
0.0000000001
 40
0.0
 40
0.0
 40
0.0
 40
0.0
 40
0.2065973886
 40
0.3048099033
 40
0.3987289401
 40
0.4877131951
 40
0.5711551749
 40
0.6484855856000001
 40
0.7191772412999999
 40
0.7827488031000001
 40
0.8387683423
 40
0.8868568118
 40
0.9266917378
 40
0.9434299638
 40
0.9580127884999999
 40
0.9704178752
 40
0.9806305871999999
 40
0.9849124139
 40
0.9886443098
 40
0.9918282356
 40
0.9944683854
 40
0.9965731168999999
 40
0.9981604912999999
 40
1.0
 40
1.0
 40
1.0
 40
1.0
 10
89.28326827335055
 20
38.5872992712
 30
0.0
 10
89.28612566855054
 20
38.5527662896
 30
0.0
 10
89.29045607045054
 20
38.5018263168
 30
0.0
 10
89.29638410885056
 20
38.4352137624
 30
0.0
 10
89.30069631845055
 20
38.3882618989
 30
0.0
 10
89.30492035975055
 20
38.343789923
 30
0.0
 10
89.30902713885055
 20
38.3021018533
 30
0.0
 10
89.31298820215054
 20
38.26348265
 30
0.0
 10
89.31677587485054
 20
38.2281962151
 30
0.0
 10
89.32036356415055
 20
38.1964836429
 30
0.0
 10
89.32372493285056
 20
38.1685612859
 30
0.0
 10
89.32683606485054
 20
38.14461978110001
 30
0.0
 10
89.32932117045055
 20
38.12724153860001
 30
0.0
 10
89.33119629745055
 20
38.1154550722
 30
0.0
 10
89.33244336975056
 20
38.1082277367
 30
0.0
 10
89.33361193245055
 20
38.1020983764
 30
0.0
 10
89.33456408285055
 20
38.0976875987
 30
0.0
 10
89.33529887505056
 20
38.0947197224
 30
0.0
 10
89.33579539545055
 20
38.0929088428
 30
0.0
 10
89.33627215125055
 20
38.09137623170001
 30
0.0
 10
89.33672125645054
 20
38.0901296518
 30
0.0
 10
89.33716168425055
 20
38.0891453764
 30
0.0
 10
89.33759970465056
 20
38.0883741996
 30
0.0
 10
89.33809065865053
 20
38.0878685249
 30
0.0
 10
89.33839829765053
 20
38.0878919116
 30
0.0
  0
LINE
  5
23DE
330
222
100
AcDbEntity
  8
0
  6
Continuous
 62
     7
100
AcDbLine
 10
89.26371846255056
 20
38.9103411873
 30
0.0
 11
89.26365063755055
 21
38.9113196691
 31
0.0
  0
LINE
  5
23DF
330
222
100
AcDbEntity
  8
0
  6
Continuous
 62
     7
100
AcDbLine
 10
89.26365063755055
 20
38.9113196691
 30
0.0
 11
89.26357456845055
 21
38.9124178101
 31
0.0
  0
SPLINE
  5
23E0
330
222
100
AcDbEntity
  8
0
  6
Continuous
 62
     7
100
AcDbSpline
210
0.0
220
0.0
230
1.0
 70
     8
 71
     3
 72
    19
 73
    15
 74
     0
 42
0.0000001
 43
0.0000000001
 40
0.0
 40
0.0
 40
0.0
 40
0.0
 40
0.1877333581
 40
0.3642435355
 40
0.5256943032
 40
0.6685778735
 40
0.7897930458
 40
0.841435107
 40
0.8867169374999999
 40
0.9253959003
 40
0.9572681577999999
 40
0.9821721286
 40
0.9919745970999999
 40
1.0
 40
1.0
 40
1.0
 40
1.0
 10
89.26357456845055
 20
38.9124178101
 30
0.0
 10
89.26143105655055
 20
38.9433725665
 30
0.0
 10
89.25739372635055
 20
39.003440041
 30
0.0
 10
89.25196089205055
 20
39.0901579724
 30
0.0
 10
89.24740745985054
 20
39.1695026856
 30
0.0
 10
89.24383017205055
 20
39.239747688
 30
0.0
 10
89.24161004085055
 20
39.2918876947
 30
0.0
 10
89.24042666125055
 20
39.327922972
 30
0.0
 10
89.23987108135056
 20
39.350329001
 30
0.0
 10
89.23959724155055
 20
39.3694727569
 30
0.0
 10
89.23960648645055
 20
39.3852501265
 30
0.0
 10
89.23985051745054
 20
39.39625388159999
 30
0.0
 10
89.24023023225053
 20
39.4033069374
 30
0.0
 10
89.24047353625054
 20
39.4062443447
 30
0.0
 10
89.24061602195054
 20
39.4075631217
 30
0.0
  0
LINE
  5
23E1
330
222
100
AcDbEntity
  8
0
  6
Continuous
 62
     7
100
AcDbLine
 10
89.28807785125055
 20
38.5897855378
 30
0.0
 11
89.28815883515055
 21
38.5888059627
 31
0.0
  0
LINE
  5
23E2
330
222
100
AcDbEntity
  8
0
  6
Continuous
 62
     7
100
AcDbLine
 10
89.28815883515055
 20
38.5888059627
 30
0.0
 11
89.28824951055053
 21
38.5877097668
 31
0.0
  0
SPLINE
  5
23E3
330
222
100
AcDbEntity
  8
0
  6
Continuous
 62
     7
100
AcDbSpline
210
0.0
220
0.0
230
1.0
 70
     8
 71
     3
 72
    19
 73
    15
 74
     0
 42
0.0000001
 43
0.0000000001
 40
0.0
 40
0.0
 40
0.0
 40
0.0
 40
0.1877976704
 40
0.36436145
 40
0.5258501603
 40
0.6687520721000001
 40
0.7899624864
 40
0.8415927910999998
 40
0.8868563901999999
 40
0.9255104114999999
 40
0.9573509887
 40
0.9822166704
 40
0.9919976725999999
 40
1.0
 40
1.0
 40
1.0
 40
1.0
 10
89.28824951055053
 20
38.5877097668
 30
0.0
 10
89.29080935335056
 20
38.55677232260001
 30
0.0
 10
89.29589746575054
 20
38.4967580426
 30
0.0
 10
89.30363441505056
 20
38.41017911210001
 30
0.0
 10
89.31112612545055
 20
38.3310300937
 30
0.0
 10
89.31820709545055
 20
38.26103451690001
 30
0.0
 10
89.32389302825056
 20
38.2091514497
 30
0.0
 10
89.32816954305055
 20
38.1733527755
 30
0.0
 10
89.33100635345054
 20
38.151126605
 30
0.0
 10
89.33362839655055
 20
38.1321714989
 30
0.0
 10
89.33602126275054
 20
38.1165906328
 30
0.0
 10
89.33792481395055
 20
38.1057640423
 30
0.0
 10
89.33936562685055
 20
38.0988624217
 30
0.0
 10
89.34004981405054
 20
38.0960026669
 30
0.0
 10
89.34038990585056
 20
38.0947243395
 30
0.0
  0
SPLINE
  5
23E4
330
222
100
AcDbEntity
  8
0
  6
Continuous
 62
     7
100
AcDbSpline
210
0.0
220
0.0
230
1.0
 70
     8
 71
     3
 72
    35
 73
    31
 74
     0
 42
0.0000001
 43
0.0000000001
 40
0.0
 40
0.0
 40
0.0
 40
0.0
 40
0.0008151864
 40
0.0011471572
 40
0.0015130938
 40
0.0019673636
 40
0.0025396208
 40
0.0040890801
 40
0.0062183415
 40
0.0089455589
 40
0.0122776363
 40
0.0162172141
 40
0.0207649887
 40
0.0259200277
 40
0.0380422854
 40
0.052561077
 40
0.0694431426
 40
0.0886492992
 40
0.1101324362
 40
0.1338405657
 40
0.159714752
 40
0.1876913105
 40
0.2177005812
 40
0.2835140311
 40
0.3564999554999999
 40
0.4359307439000001
 40
0.5210139444
 40
0.6109004221000001
 40
0.8014544087
 40
1.0
 40
1.0
 40
1.0
 40
1.0
 10
89.33950502355054
 20
38.0657516894
 30
0.0
 10
89.33963612165056
 20
38.0656184564
 30
0.0
 10
89.33986619905054
 20
38.065437627
 30
0.0
 10
89.34022679555054
 20
38.065461027
 30
0.0
 10
89.34045828355055
 20
38.0656029188
 30
0.0
 10
89.34066901845055
 20
38.0658462116
 30
0.0
 10
89.34096577755054
 20
38.0663595014
 30
0.0
 10
89.34128823205055
 20
38.0672855566
 30
0.0
 10
89.34162242275055
 20
38.0687160512
 30
0.0
 10
89.34192648015054
 20
38.0705702762
 30
0.0
 10
89.34220055505056
 20
38.07284676270001
 30
0.0
 10
89.34244249815055
 20
38.0755464277
 30
0.0
 10
89.34265181925054
 20
38.0786676919
 30
0.0
 10
89.34289986265055
 20
38.08366607489999
 30
0.0
 10
89.34310687435054
 20
38.0909544631
 30
0.0
 10
89.34321253355054
 20
38.1009337419
 30
0.0
 10
89.34318323795055
 20
38.1125378017
 30
0.0
 10
89.34301841775054
 20
38.1257376327
 30
0.0
 10
89.34271770285056
 20
38.1405005628
 30
0.0
 10
89.34228139365055
 20
38.1567896102
 30
0.0
 10
89.34171032685055
 20
38.1745642037
 30
0.0
 10
89.34100574285055
 20
38.1937798479
 30
0.0
 10
89.33985427385055
 20
38.2221428306
 30
0.0
 10
89.33808082795055
 20
38.26080906820001
 30
0.0
 10
89.33551896655055
 20
38.3107822387
 30
0.0
 10
89.33248608025055
 20
38.365154906
 30
0.0
 10
89.32901204305053
 20
38.42338369610001
 30
0.0
 10
89.32373303895055
 20
38.5070293712
 30
0.0
 10
89.31629765825055
 20
38.6166061266
 30
0.0
 10
89.30977486535054
 20
38.7055855781
 30
0.0
 10
89.30632773625054
 20
38.750979964
 30
0.0
  0
SPLINE
  5
23E5
330
222
100
AcDbEntity
  8
0
  6
Continuous
 62
     7
100
AcDbSpline
210
0.0
220
0.0
230
1.0
 70
     8
 71
     3
 72
    35
 73
    31
 74
     0
 42
0.0000001
 43
0.0000000001
 40
0.0
 40
0.0
 40
0.0
 40
0.0
 40
0.0008138888
 40
0.0011454694
 40
0.0015114239
 40
0.0019661027
 40
0.0025390663
 40
0.0040905826
 40
0.0062225173
 40
0.0089529855
 40
0.0122888821
 40
0.0162327601
 40
0.0207852499
 40
0.0259454907
 40
0.0380794373
 40
0.0526114022
 40
0.069508016
 40
0.088729852
 40
0.1102295618
 40
0.1339549477
 40
0.1598467242
 40
0.1878409999
 40
0.2178676956
 40
0.2837139625
 40
0.356727481
 40
0.4361775192000001
 40
0.5212683393999999
 40
0.6111474181000001
 40
0.8016279062999998
 40
1.0
 40
1.0
 40
1.0
 40
1.0
 10
89.23536886925054
 20
39.4361212298
 30
0.0
 10
89.23547849745053
 20
39.4362729711
 30
0.0
 10
89.23567911655053
 20
39.4364869088
 30
0.0
 10
89.23603996875055
 20
39.4365174603
 30
0.0
 10
89.23629071755055
 20
39.4364111309
 30
0.0
 10
89.23653628515054
 20
39.4362011333
 30
0.0
 10
89.23690803175055
 20
39.43573595650001
 30
0.0
 10
89.23736776925055
 20
39.434864985
 30
0.0
 10
89.23791563425055
 20
39.43349505309999
 30
0.0
 10
89.23849785495056
 20
39.4317000423
 30
0.0
 10
89.23911436715055
 20
39.4294814311
 30
0.0
 10
89.23976318105054
 20
39.4268380186
 30
0.0
 10
89.24044357675056
 20
39.4237713077
 30
0.0
 10
89.24144677705056
 20
39.418847384
 30
0.0
 10
89.24275636595055
 20
39.4116445316
 30
0.0
 10
89.24437333195054
 20
39.4017558935
 30
0.0
 10
89.24610278035055
 20
39.39023477550001
 30
0.0
 10
89.24793974165055
 20
39.3771099882
 30
0.0
 10
89.24987888045055
 20
39.3624140282
 30
0.0
 10
89.25191486555055
 20
39.3461837917
 30
0.0
 10
89.25404236915055
 20
39.3284598109
 30
0.0
 10
89.25625584435055
 20
39.3092866159
 30
0.0
 10
89.25941233415056
 20
39.2809716736
 30
0.0
 10
89.26351331235055
 20
39.2423434793
 30
0.0
 10
89.26854569385055
 20
39.1923834137
 30
0.0
 10
89.27377713185055
 20
39.137995203
 30
0.0
 10
89.27915471225054
 20
39.0797244277
 30
0.0
 10
89.28659151295056
 20
38.9959979281
 30
0.0
 10
89.29581545615056
 20
38.8862728531
 30
0.0
 10
89.30282370855055
 20
38.79710872869999
 30
0.0
 10
89.30627966385056
 20
38.751612915
 30
0.0
  0
LINE
  5
23E6
330
222
100
AcDbEntity
  8
0
  6
Continuous
 62
     7
100
AcDbLine
 10
89.30627966385056
 20
38.751612915
 30
0.0
 11
89.30632773625054
 21
38.750979964
 31
0.0
  0
SPLINE
  5
23E7
330
222
100
AcDbEntity
  8
0
  6
Continuous
 62
    40
100
AcDbSpline
210
0.0
220
0.0
230
1.0
 70
     8
 71
     3
 72
    12
 73
     8
 74
     0
 42
0.0000001
 43
0.0000000001
 40
0.0
 40
0.0
 40
0.0
 40
0.0
 40
0.1138249509
 40
0.2719586158
 40
0.4736488813000001
 40
0.7766479667000001
 40
1.0
 40
1.0
 40
1.0
 40
1.0
 10
89.26490195455055
 20
38.8565208723
 30
0.0
 10
89.26515907275055
 20
38.8535631157
 30
0.0
 10
89.26577609595055
 20
38.8465376129
 30
0.0
 10
89.26685095335056
 20
38.8341442049
 30
0.0
 10
89.26835816705056
 20
38.8155470791
 30
0.0
 10
89.26984976515054
 20
38.79495065349999
 30
0.0
 10
89.27085318115054
 20
38.7804719289
 30
0.0
 10
89.27121093195054
 20
38.7747728623
 30
0.0
  0
SPLINE
  5
23E8
330
222
100
AcDbEntity
  8
0
  6
Continuous
 62
    40
100
AcDbSpline
210
0.0
220
0.0
230
1.0
 70
     8
 71
     3
 72
    12
 73
     8
 74
     0
 42
0.0000001
 43
0.0000000001
 40
0.0
 40
0.0
 40
0.0
 40
0.0
 40
0.183280726
 40
0.3698978289
 40
0.5702935269000001
 40
0.8291169523
 40
1.0
 40
1.0
 40
1.0
 40
1.0
 10
89.27204158905054
 20
38.7719500078
 30
0.0
 10
89.27171078275055
 20
38.7772198413
 30
0.0
 10
89.27093474585054
 20
38.7886221474
 30
0.0
 10
89.26950266345055
 20
38.8069374732
 30
0.0
 10
89.26785121615054
 20
38.82624789320001
 30
0.0
 10
89.26626115625055
 20
38.8435231579
 30
0.0
 10
89.26527178465056
 20
38.853152739
 30
0.0
 10
89.26490195455055
 20
38.8565208723
 30
0.0
  0
SPLINE
  5
23E9
330
222
100
AcDbEntity
  8
0
  6
Continuous
 62
    40
100
AcDbSpline
210
0.0
220
0.0
230
1.0
 70
     8
 71
     3
 72
    12
 73
     8
 74
     0
 42
0.0000001
 43
0.0000000001
 40
0.0
 40
0.0
 40
0.0
 40
0.0
 40
0.1138249509
 40
0.2719586158
 40
0.4736488813000001
 40
0.7766479667000001
 40
1.0
 40
1.0
 40
1.0
 40
1.0
 10
89.28129018915056
 20
38.643374975
 30
0.0
 10
89.28103307085056
 20
38.6463327316
 30
0.0
 10
89.28041604775055
 20
38.6533582344
 30
0.0
 10
89.27934119025055
 20
38.6657516424
 30
0.0
 10
89.27783397655055
 20
38.6843487682
 30
0.0
 10
89.27634237845055
 20
38.7049451937
 30
0.0
 10
89.27533896255054
 20
38.71942391840001
 30
0.0
 10
89.27498121175055
 20
38.725122985
 30
0.0
  0
SPLINE
  5
23EA
330
222
100
AcDbEntity
  8
0
  6
Continuous
 62
    40
100
AcDbSpline
210
0.0
220
0.0
230
1.0
 70
     8
 71
     3
 72
    12
 73
     8
 74
     0
 42
0.0000001
 43
0.0000000001
 40
0.0
 40
0.0
 40
0.0
 40
0.0
 40
0.183280726
 40
0.3698978289
 40
0.5702935269000001
 40
0.8291169523
 40
1.0
 40
1.0
 40
1.0
 40
1.0
 10
89.27415055455055
 20
38.7279458395
 30
0.0
 10
89.27448136085056
 20
38.722676006
 30
0.0
 10
89.27525739785055
 20
38.7112736999
 30
0.0
 10
89.27668948015055
 20
38.6929583741
 30
0.0
 10
89.27834092755055
 20
38.6736479541
 30
0.0
 10
89.27993098735056
 20
38.6563726894
 30
0.0
 10
89.28092035895055
 20
38.6467431083
 30
0.0
 10
89.28129018915056
 20
38.643374975
 30
0.0
  0
SPLINE
  5
23EB
330
222
100
AcDbEntity
  8
0
  6
Continuous
 62
    40
100
AcDbSpline
210
0.0
220
0.0
230
1.0
 70
     8
 71
     3
 72
    46
 73
    42
 74
     0
 42
0.0000001
 43
0.0000000001
 40
0.0
 40
0.0
 40
0.0
 40
0.0
 40
0.0625
 40
0.125
 40
0.140625
 40
0.15625
 40
0.1640625
 40
0.171875
 40
0.1875
 40
0.21875
 40
0.25
 40
0.28125
 40
0.3125
 40
0.328125
 40
0.3359375
 40
0.34375
 40
0.359375
 40
0.375
 40
0.4375
 40
0.46875
 40
0.484375
 40
0.5
 40
0.515625
 40
0.53125
 40
0.5625
 40
0.625
 40
0.640625
 40
0.65625
 40
0.6640625
 40
0.671875
 40
0.6875
 40
0.71875
 40
0.75
 40
0.78125
 40
0.8125
 40
0.828125
 40
0.84375
 40
0.859375
 40
0.875
 40
0.9375
 40
1.0
 40
1.0
 40
1.0
 40
1.0
 10
89.26814491195054
 20
38.92444363
 30
0.0
 10
89.26817767165054
 20
38.9244936783
 30
0.0
 10
89.26824315145054
 20
38.9245942959
 30
0.0
 10
89.26831699465054
 20
38.9247051456
 30
0.0
 10
89.26836596325054
 20
38.9247824654
 30
0.0
 10
89.26838675095055
 20
38.9248096334
 30
0.0
 10
89.26840248525055
 20
38.9248431425
 30
0.0
 10
89.26842149545056
 20
38.9248335917
 30
0.0
 10
89.26845628605056
 20
38.9247968589
 30
0.0
 10
89.26850518565055
 20
38.9247549196
 30
0.0
 10
89.26856423095056
 20
38.9246997764
 30
0.0
 10
89.26862309515055
 20
38.9246470396
 30
0.0
 10
89.26867244735054
 20
38.9245990843
 30
0.0
 10
89.26870644595055
 20
38.9245728795
 30
0.0
 10
89.26872672335056
 20
38.9245464839
 30
0.0
 10
89.26875019875055
 20
38.92447710280001
 30
0.0
 10
89.26877845145055
 20
38.9244050473
 30
0.0
 10
89.26884714245055
 20
38.9242202294
 30
0.0
 10
89.26892714945054
 20
38.924006336
 30
0.0
 10
89.26900678015055
 20
38.9237976593
 30
0.0
 10
89.26905301935056
 20
38.923668288
 30
0.0
 10
89.26908559835055
 20
38.9236001513
 30
0.0
 10
89.26912621095056
 20
38.9234215115
 30
0.0
 10
89.26917756165055
 20
38.9232218415
 30
0.0
 10
89.26926870255055
 20
38.9228547575
 30
0.0
 10
89.26935952825054
 20
38.9224925368
 30
0.0
 10
89.26943714185055
 20
38.9221842559
 30
0.0
 10
89.26947002595055
 20
38.922049833
 30
0.0
 10
89.26949504875056
 20
38.9219564093
 30
0.0
 10
89.26952477305055
 20
38.9218113052
 30
0.0
 10
89.26957897675055
 20
38.9215333305
 30
0.0
 10
89.26965525765053
 20
38.9211489719
 30
0.0
 10
89.26974733175056
 20
38.9206815054
 30
0.0
 10
89.26983910235055
 20
38.9202185868
 30
0.0
 10
89.26991614205055
 20
38.91982285840001
 30
0.0
 10
89.26997657145054
 20
38.91952791260001
 30
0.0
 10
89.27002516215054
 20
38.9192477702
 30
0.0
 10
89.27007466825054
 20
38.918951122
 30
0.0
 10
89.27017320935055
 20
38.9183663183
 30
0.0
 10
89.27032122045055
 20
38.9174855171
 30
0.0
 10
89.27045270495055
 20
38.91670404380001
 30
0.0
 10
89.27051845725054
 20
38.9163131245
 30
0.0
  0
LINE
  5
23EC
330
222
100
AcDbEntity
  8
0
  6
Continuous
 62
    40
100
AcDbLine
 10
89.27051845735055
 20
38.916313124
 30
0.0
 11
89.27167449475055
 21
38.9082531056
 31
0.0
  0
SPLINE
  5
23ED
330
222
100
AcDbEntity
  8
0
  6
Continuous
 62
    40
100
AcDbSpline
210
0.0
220
0.0
230
1.0
 70
     8
 71
     3
 72
    82
 73
    78
 74
     0
 42
0.0000001
 43
0.0000000001
 40
0.0
 40
0.0
 40
0.0
 40
0.0
 40
0.0625
 40
0.09375
 40
0.109375
 40
0.125
 40
0.140625
 40
0.1484375
 40
0.15625
 40
0.16015625
 40
0.1640625
 40
0.166015625
 40
0.1669921875
 40
0.16796875
 40
0.169921875
 40
0.171875
 40
0.1796875
 40
0.1875
 40
0.1953125
 40
0.203125
 40
0.21875
 40
0.25
 40
0.28125
 40
0.296875
 40
0.3125
 40
0.3203125
 40
0.328125
 40
0.33203125
 40
0.333984375
 40
0.3359375
 40
0.33984375
 40
0.34375
 40
0.3515625
 40
0.359375
 40
0.375
 40
0.40625
 40
0.4375
 40
0.453125
 40
0.46875
 40
0.4765625
 40
0.484375
 40
0.4921875
 40
0.49609375
 40
0.5
 40
0.50390625
 40
0.5078125
 40
0.515625
 40
0.5234375
 40
0.53125
 40
0.546875
 40
0.5625
 40
0.59375
 40
0.609375
 40
0.625
 40
0.640625
 40
0.65625
 40
0.66015625
 40
0.6640625
 40
0.666015625
 40
0.66796875
 40
0.671875
 40
0.6796875
 40
0.6875
 40
0.703125
 40
0.71875
 40
0.75
 40
0.78125
 40
0.8125
 40
0.8203125
 40
0.828125
 40
0.8359375
 40
0.84375
 40
0.859375
 40
0.875
 40
0.90625
 40
0.9375
 40
1.0
 40
1.0
 40
1.0
 40
1.0
 10
89.27167449465056
 20
38.9082531061
 30
0.0
 10
89.27192236635056
 20
38.9062096762
 30
0.0
 10
89.27229417405055
 20
38.9031445284
 30
0.0
 10
89.27272794905055
 20
38.899568533
 30
0.0
 10
89.27297582135055
 20
38.8975250924
 30
0.0
 10
89.27316172305054
 20
38.8959925529
 30
0.0
 10
89.27331664915055
 20
38.894715306
 30
0.0
 10
89.27344057225054
 20
38.89369380170001
 30
0.0
 10
89.27351806445054
 20
38.8930546938
 30
0.0
 10
89.27357996595056
 20
38.8925449367
 30
0.0
 10
89.27361886515054
 20
38.8922228494
 30
0.0
 10
89.27364567215056
 20
38.8920043809
 30
0.0
 10
89.27366165135055
 20
38.8918686011
 30
0.0
 10
89.27368011965056
 20
38.8916916138
 30
0.0
 10
89.27370235425057
 20
38.8914844645
 30
0.0
 10
89.27375641755055
 20
38.8909757137
 30
0.0
 10
89.27383721845055
 20
38.8902174566
 30
0.0
 10
89.27394512095055
 20
38.88920366420001
 30
0.0
 10
89.27405297855054
 20
38.88819061599999
 30
0.0
 10
89.27419680435056
 20
38.8868396262
 30
0.0
 10
89.27444849255055
 20
38.88447550809999
 30
0.0
 10
89.27480804815054
 20
38.88109819050001
 30
0.0
 10
89.27516761275056
 20
38.8777206795
 30
0.0
 10
89.27545524205056
 20
38.8750191396
 30
0.0
 10
89.27563506165055
 20
38.8733296018
 30
0.0
 10
89.27577879985054
 20
38.8719804351
 30
0.0
 10
89.27586890425056
 20
38.8711315847
 30
0.0
 10
89.27593144025054
 20
38.8705486552
 30
0.0
 10
89.27596801545055
 20
38.87019792610001
 30
0.0
 10
89.27600775675056
 20
38.8697807955
 30
0.0
 10
89.27605634925056
 20
38.869282118
 30
0.0
 10
89.27613470315055
 20
38.86847152820001
 30
0.0
 10
89.27623243815054
 20
38.8674626409
 30
0.0
 10
89.27638892985056
 20
38.86584599360001
 30
0.0
 10
89.27666273635056
 20
38.8630179906
 30
0.0
 10
89.27705391655054
 20
38.8589774063
 30
0.0
 10
89.27744508755054
 20
38.8549369902
 30
0.0
 10
89.27775802405054
 20
38.8517047175
 30
0.0
 10
89.27795361465056
 20
38.84968431260001
 30
0.0
 10
89.27811007435055
 20
38.8480685363
 30
0.0
 10
89.27822745435054
 20
38.8468552021
 30
0.0
 10
89.27832515915055
 20
38.8458488686
 30
0.0
 10
89.27840357385056
 20
38.8450330847
 30
0.0
 10
89.27846169915055
 20
38.844450531
 30
0.0
 10
89.27852244215054
 20
38.8437561993
 30
0.0
 10
89.27860251845055
 20
38.84286946920001
 30
0.0
 10
89.27870292755056
 20
38.8417476603
 30
0.0
 10
89.27882328415055
 20
38.8404072236
 30
0.0
 10
89.27898380645054
 20
38.838617972
 30
0.0
 10
89.27918444335054
 20
38.83638209260001
 30
0.0
 10
89.27950547135054
 20
38.8328043067
 30
0.0
 10
89.27982649735055
 20
38.8292266017
 30
0.0
 10
89.28014752235055
 20
38.8256489379
 30
0.0
 10
89.28038829625055
 20
38.8229654856
 30
0.0
 10
89.28062905025056
 20
38.8202828307
 30
0.0
 10
89.28080967145055
 20
38.81826860050001
 30
0.0
 10
89.28092999885056
 20
38.8169292629
 30
0.0
 10
89.28098026435055
 20
38.8163660232
 30
0.0
 10
89.28102017575055
 20
38.815927521
 30
0.0
 10
89.28106118775055
 20
38.8154448064
 30
0.0
 10
89.28113347025055
 20
38.8145795139
 30
0.0
 10
89.28123646405055
 20
38.8133540996
 30
0.0
 10
89.28140140325055
 20
38.8113874466
 30
0.0
 10
89.28160752635056
 20
38.8089311842
 30
0.0
 10
89.28193735105054
 20
38.8050000001
 30
0.0
 10
89.28234962795055
 20
38.8000865374
 30
0.0
 10
89.28284433725055
 20
38.79418964460001
 30
0.0
 10
89.28321544285054
 20
38.7897685667
 30
0.0
 10
89.28346273115055
 20
38.7868187591
 30
0.0
 10
89.28358658155055
 20
38.7853481694
 30
0.0
 10
89.28370962995055
 20
38.7838608079
 30
0.0
 10
89.28386987785055
 20
38.781797857
 30
0.0
 10
89.28407149445055
 20
38.7792464926
 30
0.0
 10
89.28439335085055
 20
38.7751490392
 30
0.0
 10
89.28479592145055
 20
38.7700324533
 30
0.0
 10
89.28543989405055
 20
38.7618429792
 30
0.0
 10
89.28592290505056
 20
38.7557015344
 30
0.0
 10
89.28624490535055
 20
38.751607091
 30
0.0
  0
SPLINE
  5
23EE
330
222
100
AcDbEntity
  8
0
  6
Continuous
 62
    40
100
AcDbSpline
210
0.0
220
0.0
230
1.0
 70
     8
 71
     3
 72
    78
 73
    74
 74
     0
 42
0.0000001
 43
0.0000000001
 40
0.0
 40
0.0
 40
0.0
 40
0.0
 40
0.0625
 40
0.125
 40
0.15625
 40
0.171875
 40
0.1875
 40
0.25
 40
0.28125
 40
0.296875
 40
0.3125
 40
0.3203125
 40
0.328125
 40
0.33203125
 40
0.3359375
 40
0.34375
 40
0.359375
 40
0.375
 40
0.390625
 40
0.40625
 40
0.4375
 40
0.453125
 40
0.46875
 40
0.4765625
 40
0.484375
 40
0.4921875
 40
0.49609375
 40
0.498046875
 40
0.5
 40
0.501953125
 40
0.50390625
 40
0.5078125
 40
0.515625
 40
0.5234375
 40
0.53125
 40
0.546875
 40
0.5625
 40
0.578125
 40
0.59375
 40
0.609375
 40
0.625
 40
0.640625
 40
0.6484375
 40
0.65625
 40
0.66015625
 40
0.6640625
 40
0.666015625
 40
0.66796875
 40
0.671875
 40
0.6796875
 40
0.6875
 40
0.703125
 40
0.71875
 40
0.75
 40
0.78125
 40
0.796875
 40
0.8046875
 40
0.8125
 40
0.8203125
 40
0.828125
 40
0.830078125
 40
0.83203125
 40
0.833984375
 40
0.8359375
 40
0.83984375
 40
0.84375
 40
0.8515625
 40
0.859375
 40
0.875
 40
0.890625
 40
0.90625
 40
0.9375
 40
1.0
 40
1.0
 40
1.0
 40
1.0
 10
89.28632920175054
 20
38.7504982532
 30
0.0
 10
89.28662369265055
 20
38.74648930780001
 30
0.0
 10
89.28721315485054
 20
38.7384701642
 30
0.0
 10
89.28794758085055
 20
38.72845249840001
 30
0.0
 10
89.28846609215055
 20
38.72142862270001
 30
0.0
 10
89.28875553955055
 20
38.7174328312
 30
0.0
 10
89.28915240985054
 20
38.7115364461
 30
0.0
 10
89.28962812125055
 20
38.7046241153
 30
0.0
 10
89.29009838295055
 20
38.6977262897
 30
0.0
 10
89.29036774035054
 20
38.6937825849
 30
0.0
 10
89.29053579515054
 20
38.6913195411
 30
0.0
 10
89.29067078455055
 20
38.6893453765
 30
0.0
 10
89.29075393585055
 20
38.6881199616
 30
0.0
 10
89.29082324135055
 20
38.687120311
 30
0.0
 10
89.29088238265055
 20
38.6861911849
 30
0.0
 10
89.29098115755055
 20
38.6845979809
 30
0.0
 10
89.29112473375054
 20
38.6823048419
 30
0.0
 10
89.29129596665054
 20
38.6795604198
 30
0.0
 10
89.29146748275055
 20
38.676814032
 30
0.0
 10
89.29169607165055
 20
38.673152872
 30
0.0
 10
89.29192469035056
 20
38.6694915015
 30
0.0
 10
89.29215329385055
 20
38.6658302448
 30
0.0
 10
89.29229618415055
 20
38.6635418503
 30
0.0
 10
89.29241046875054
 20
38.6617113679
 30
0.0
 10
89.29249625735055
 20
38.6603378718
 30
0.0
 10
89.29256750895055
 20
38.659195309
 30
0.0
 10
89.29261785375055
 20
38.65839155630001
 30
0.0
 10
89.29264589055055
 20
38.6579384503
 30
0.0
 10
89.29266897925055
 20
38.6575812081
 30
0.0
 10
89.29268418915055
 20
38.657290526
 30
0.0
 10
89.29270721735056
 20
38.6568797331
 30
0.0
 10
89.29274623615055
 20
38.6561716625
 30
0.0
 10
89.29280264665056
 20
38.6551544779
 30
0.0
 10
89.29287005285054
 20
38.653936277
 30
0.0
 10
89.29296002775055
 20
38.6523111635
 30
0.0
 10
89.29307246215055
 20
38.6502800619
 30
0.0
 10
89.29320739815054
 20
38.64784261510001
 30
0.0
 10
89.29334232995055
 20
38.6454052035
 30
0.0
 10
89.29347726355054
 20
38.6429677761
 30
0.0
 10
89.29361219425056
 20
38.6405303766
 30
0.0
 10
89.29374713495056
 20
38.63809288130001
 30
0.0
 10
89.29385955455055
 20
38.6360619312
 30
0.0
 10
89.29394955955055
 20
38.63443650860001
 30
0.0
 10
89.29400565485055
 20
38.6334221279
 30
0.0
 10
89.29405089245056
 20
38.6326071687
 30
0.0
 10
89.29407834155055
 20
38.6321057016
 30
0.0
 10
89.29410218915055
 20
38.6316864739
 30
0.0
 10
89.29411914295055
 20
38.631333156
 30
0.0
 10
89.29414560985055
 20
38.6307454676
 30
0.0
 10
89.29418509055054
 20
38.6298899379
 30
0.0
 10
89.29424732585054
 20
38.6285300178
 30
0.0
 10
89.29432543975055
 20
38.6268270608
 30
0.0
 10
89.29445024315056
 20
38.6241040388
 30
0.0
 10
89.29460630935054
 20
38.6206996696
 30
0.0
 10
89.29476235155055
 20
38.6172955309
 30
0.0
 10
89.29487158815055
 20
38.614912564
 30
0.0
 10
89.29493400405055
 20
38.6135509191
 30
0.0
 10
89.29498082905054
 20
38.612529554
 30
0.0
 10
89.29502760425055
 20
38.6115086893
 30
0.0
 10
89.29506282545055
 20
38.61074163820001
 30
0.0
 10
89.29508608875055
 20
38.610232452
 30
0.0
 10
89.29509810865054
 20
38.609973964
 30
0.0
 10
89.29510861905056
 20
38.6097306193
 30
0.0
 10
89.29511545035055
 20
38.6094782139
 30
0.0
 10
89.29512644865054
 20
38.6091380359
 30
0.0
 10
89.29514267165055
 20
38.60860753860001
 30
0.0
 10
89.29516342095055
 20
38.607939696
 30
0.0
 10
89.29519635685053
 20
38.60687378650001
 30
0.0
 10
89.29523761695055
 20
38.6055404943
 30
0.0
 10
89.29528709045056
 20
38.6039409311
 30
0.0
 10
89.29535306865055
 20
38.601808045
 30
0.0
 10
89.29546852405055
 20
38.5980755577
 30
0.0
 10
89.29556748805055
 20
38.5948762611
 30
0.0
 10
89.29563346355054
 20
38.5927434016
 30
0.0
  0
LINE
  5
23EF
330
222
100
AcDbEntity
  8
0
  6
Continuous
 62
    40
100
AcDbLine
 10
89.29563346355054
 20
38.5927434004
 30
0.0
 11
89.29570153895054
 21
38.58468338210001
 31
0.0
  0
SPLINE
  5
23F0
330
222
100
AcDbEntity
  8
0
  6
Continuous
 62
    40
100
AcDbSpline
210
0.0
220
0.0
230
1.0
 70
     8
 71
     3
 72
    47
 73
    43
 74
     0
 42
0.0000001
 43
0.0000000001
 40
0.0
 40
0.0
 40
0.0
 40
0.0
 40
0.0625
 40
0.125
 40
0.140625
 40
0.15625
 40
0.1640625
 40
0.171875
 40
0.1875
 40
0.21875
 40
0.25
 40
0.28125
 40
0.3125
 40
0.328125
 40
0.3359375
 40
0.34375
 40
0.359375
 40
0.375
 40
0.4375
 40
0.46875
 40
0.484375
 40
0.5
 40
0.515625
 40
0.53125
 40
0.5625
 40
0.625
 40
0.640625
 40
0.65625
 40
0.6640625
 40
0.671875
 40
0.6875
 40
0.71875
 40
0.75
 40
0.78125
 40
0.8125
 40
0.828125
 40
0.8359375
 40
0.84375
 40
0.859375
 40
0.875
 40
0.9375
 40
1.0
 40
1.0
 40
1.0
 40
1.0
 10
89.29570153895054
 20
38.58468338250001
 30
0.0
 10
89.29569541245056
 20
38.5843014154
 30
0.0
 10
89.29568320125055
 20
38.5835369764
 30
0.0
 10
89.29566927565055
 20
38.5826792541
 30
0.0
 10
89.29566026615054
 20
38.5821041266
 30
0.0
 10
89.29565610725054
 20
38.5818693802
 30
0.0
 10
89.29565372445054
 20
38.5816701782
 30
0.0
 10
89.29564788845056
 20
38.5815126837
 30
0.0
 10
89.29563606975055
 20
38.5812564588
 30
0.0
 10
89.29562003095055
 20
38.5808802169
 30
0.0
 10
89.29560039835056
 20
38.5804333964
 30
0.0
 10
89.29558095805054
 20
38.5799842267
 30
0.0
 10
89.29556443815055
 20
38.579613858
 30
0.0
 10
89.29555346145056
 20
38.57934735510001
 30
0.0
 10
89.29554627835056
 20
38.5792063055
 30
0.0
 10
89.29553566795055
 20
38.5791075503
 30
0.0
 10
89.29552357465055
 20
38.5789696716
 30
0.0
 10
89.29549360315055
 20
38.57865045309999
 30
0.0
 10
89.29545877515055
 20
38.5782763685
 30
0.0
 10
89.29542435995054
 20
38.5778970437
 30
0.0
 10
89.29540389145055
 20
38.5776904103
 30
0.0
 10
89.29539083005055
 20
38.5775065613
 30
0.0
 10
89.29536900985054
 20
38.5774331464
 30
0.0
 10
89.29534296975054
 20
38.5772967617
 30
0.0
 10
89.29529599415054
 20
38.5770758002
 30
0.0
 10
89.29524943505056
 20
38.5768496258
 30
0.0
 10
89.29520963865055
 20
38.5766542812
 30
0.0
 10
89.29519267275054
 20
38.5765778381
 30
0.0
 10
89.29518001075056
 20
38.5765049504
 30
0.0
 10
89.29516401325056
 20
38.576475035
 30
0.0
 10
89.29513446665055
 20
38.5764426644
 30
0.0
 10
89.29509307415056
 20
38.5763859029
 30
0.0
 10
89.29504302745055
 20
38.576322603
 30
0.0
 10
89.29499317615055
 20
38.57625687570001
 30
0.0
 10
89.29495129515053
 20
38.5762061829
 30
0.0
 10
89.29492260335056
 20
38.576163192
 30
0.0
 10
89.29490523815054
 20
38.576150269
 30
0.0
 10
89.29488422195055
 20
38.5761811736
 30
0.0
 10
89.29485919955054
 20
38.5762048235
 30
0.0
 10
89.29479811845055
 20
38.576273916
 30
0.0
 10
89.29470693185054
 20
38.5763723332
 30
0.0
 10
89.29462570035054
 20
38.5764619369
 30
0.0
 10
89.29458510665055
 20
38.5765064736
 30
0.0
  0
SPLINE
  5
23F1
330
222
100
AcDbEntity
  8
0
  6
Continuous
 62
    40
100
AcDbSpline
210
0.0
220
0.0
230
1.0
 70
     8
 71
     3
 72
    90
 73
    86
 74
     0
 42
0.0000001
 43
0.0000000001
 40
0.0
 40
0.0
 40
0.0
 40
0.0
 40
0.0625
 40
0.09375
 40
0.125
 40
0.140625
 40
0.15625
 40
0.1640625
 40
0.171875
 40
0.1875
 40
0.21875
 40
0.25
 40
0.28125
 40
0.296875
 40
0.3125
 40
0.3203125
 40
0.328125
 40
0.33203125
 40
0.333984375
 40
0.3359375
 40
0.33984375
 40
0.34375
 40
0.359375
 40
0.375
 40
0.390625
 40
0.40625
 40
0.421875
 40
0.4375
 40
0.453125
 40
0.46875
 40
0.4765625
 40
0.484375
 40
0.4921875
 40
0.49609375
 40
0.498046875
 40
0.5
 40
0.501953125
 40
0.50390625
 40
0.5078125
 40
0.515625
 40
0.5234375
 40
0.53125
 40
0.546875
 40
0.5625
 40
0.578125
 40
0.59375
 40
0.609375
 40
0.625
 40
0.640625
 40
0.6484375
 40
0.65625
 40
0.66015625
 40
0.6640625
 40
0.666015625
 40
0.6669921875
 40
0.66796875
 40
0.669921875
 40
0.671875
 40
0.6796875
 40
0.6875
 40
0.6953125
 40
0.703125
 40
0.71875
 40
0.75
 40
0.78125
 40
0.796875
 40
0.8046875
 40
0.8125
 40
0.8203125
 40
0.828125
 40
0.830078125
 40
0.83203125
 40
0.8330078125
 40
0.833984375
 40
0.8359375
 40
0.83984375
 40
0.84375
 40
0.8515625
 40
0.859375
 40
0.875
 40
0.890625
 40
0.90625
 40
0.9375
 40
0.96875
 40
1.0
 40
1.0
 40
1.0
 40
1.0
 10
89.29496009355053
 20
38.7507518375
 30
0.0
 10
89.29531512565054
 20
38.7459030794
 30
0.0
 10
89.29584762555055
 20
38.7386301002
 30
0.0
 10
89.29655781845054
 20
38.7289321632
 30
0.0
 10
89.29700128695055
 20
38.7228722681
 30
0.0
 10
89.29735697855056
 20
38.71802135260001
 30
0.0
 10
89.29757719475054
 20
38.7149963712
 30
0.0
 10
89.29775815705054
 20
38.7125607179
 30
0.0
 10
89.29792163495056
 20
38.710182265
 30
0.0
 10
89.29819959805055
 20
38.70604654760001
 30
0.0
 10
89.29860093485055
 20
38.7001244925
 30
0.0
 10
89.29908072205055
 20
38.6930239429
 30
0.0
 10
89.29948093935054
 20
38.6871056127
 30
0.0
 10
89.29980107445054
 20
38.6823708836
 30
0.0
 10
89.30000105835054
 20
38.67941244300001
 30
0.0
 10
89.30016129655054
 20
38.6770438706
 30
0.0
 10
89.30026086805055
 20
38.6755676801
 30
0.0
 10
89.30033172555054
 20
38.6745259936
 30
0.0
 10
89.30037040455054
 20
38.6739438137
 30
0.0
 10
89.30040226195055
 20
38.67341086
 30
0.0
 10
89.30044441545055
 20
38.6727278421
 30
0.0
 10
89.30054366475054
 20
38.6711024476
 30
0.0
 10
89.30069334465056
 20
38.6686585393
 30
0.0
 10
89.30089245715056
 20
38.6654033197
 30
0.0
 10
89.30109169305055
 20
38.6621472094
 30
0.0
 10
89.30129089595055
 20
38.658891337
 30
0.0
 10
89.30149010745054
 20
38.6556354039
 30
0.0
 10
89.30168931785054
 20
38.65237947550001
 30
0.0
 10
89.30188852365054
 20
38.6491235888
 30
0.0
 10
89.30205454485054
 20
38.6464102072
 30
0.0
 10
89.30218732495054
 20
38.6442398236
 30
0.0
 10
89.30228701075055
 20
38.6426111563
 30
0.0
 10
89.30236976185055
 20
38.6412567315
 30
0.0
 10
89.30242831645054
 20
38.6403031433
 30
0.0
 10
89.30246079425055
 20
38.6397668093
 30
0.0
 10
89.30248791865055
 20
38.639340407
 30
0.0
 10
89.30250447025056
 20
38.6390063248
 30
0.0
 10
89.30253022695055
 20
38.6385286796
 30
0.0
 10
89.30257358285055
 20
38.6377078042
 30
0.0
 10
89.30263641825055
 20
38.63652728090001
 30
0.0
 10
89.30271143615055
 20
38.63511401050001
 30
0.0
 10
89.30281159435054
 20
38.6332284771
 30
0.0
 10
89.30293674605055
 20
38.6308719629
 30
0.0
 10
89.30308694785054
 20
38.6280439731
 30
0.0
 10
89.30323714435054
 20
38.6252160303
 30
0.0
 10
89.30338734255055
 20
38.6223880719
 30
0.0
 10
89.30353753905055
 20
38.6195601292
 30
0.0
 10
89.30368774045055
 20
38.6167321393
 30
0.0
 10
89.30381289355054
 20
38.6143756253
 30
0.0
 10
89.30391304885056
 20
38.6124900914
 30
0.0
 10
89.30397557125054
 20
38.6113123675
 30
0.0
 10
89.30402576005056
 20
38.6103685054
 30
0.0
 10
89.30405673835055
 20
38.6097824316
 30
0.0
 10
89.30407920405055
 20
38.6093644842
 30
0.0
 10
89.30409081985054
 20
38.6091376977
 30
0.0
 10
89.30409783395054
 20
38.6089562621
 30
0.0
 10
89.30410817435054
 20
38.6087139665
 30
0.0
 10
89.30413169695055
 20
38.6081452151
 30
0.0
 10
89.30416752445054
 20
38.6072867294
 30
0.0
 10
89.30421498375055
 20
38.6061451445
 30
0.0
 10
89.30426252625055
 20
38.60500274039999
 30
0.0
 10
89.30432588715055
 20
38.6034798207
 30
0.0
 10
89.30443678225055
 20
38.6008145772
 30
0.0
 10
89.30459519615054
 20
38.59700716400001
 30
0.0
 10
89.30475361535055
 20
38.593199696
 30
0.0
 10
89.30486450295054
 20
38.5905345293
 30
0.0
 10
89.30492787565055
 20
38.58901148880001
 30
0.0
 10
89.30497538195053
 20
38.5878694554
 30
0.0
 10
89.30502297705055
 20
38.5867264783
 30
0.0
 10
89.30505842415055
 20
38.5858718913
 30
0.0
 10
89.30508244325055
 20
38.5852980518
 30
0.0
 10
89.30509187425055
 20
38.5850650751
 30
0.0
 10
89.30510076495055
 20
38.5848644098
 30
0.0
 10
89.30510473375056
 20
38.58471598179999
 30
0.0
 10
89.30510939235054
 20
38.5844805036
 30
0.0
 10
89.30511724055055
 20
38.5841314428
 30
0.0
 10
89.30512913095055
 20
38.5835800224
 30
0.0
 10
89.30514422225055
 20
38.5828883238
 30
0.0
 10
89.30516824075054
 20
38.58178296030001
 30
0.0
 10
89.30519830765055
 20
38.5804007913
 30
0.0
 10
89.30523436925055
 20
38.5787423874
 30
0.0
 10
89.30528245785055
 20
38.5765311127
 30
0.0
 10
89.30534256635054
 20
38.5737670431
 30
0.0
 10
89.30541469755054
 20
38.5704501494
 30
0.0
 10
89.30546278475054
 20
38.5682388889
 30
0.0
 10
89.30548682845055
 20
38.5671332584
 30
0.0
  0
LINE
  5
23F2
330
222
100
AcDbEntity
  8
0
  6
Continuous
 62
    40
100
AcDbLine
 10
89.30548682845055
 20
38.5671332554
 30
0.0
 11
89.30545480655053
 21
38.5620532897
 31
0.0
  0
LINE
  5
23F3
330
222
100
AcDbEntity
  8
0
  6
Continuous
 62
    40
100
AcDbLine
 10
89.30545480655053
 20
38.5620532897
 30
0.0
 11
89.30531219205056
 21
38.55829940360001
 31
0.0
  0
LINE
  5
23F4
330
222
100
AcDbEntity
  8
0
  6
Continuous
 62
    40
100
AcDbLine
 10
89.30531219205056
 20
38.55829940360001
 30
0.0
 11
89.30505998525054
 21
38.5558979279
 31
0.0
  0
SPLINE
  5
23F5
330
222
100
AcDbEntity
  8
0
  6
Continuous
 62
    40
100
AcDbSpline
210
0.0
220
0.0
230
1.0
 70
     8
 71
     3
 72
    27
 73
    23
 74
     0
 42
0.0000001
 43
0.0000000001
 40
0.0
 40
0.0
 40
0.0
 40
0.0
 40
0.125
 40
0.15625
 40
0.1875
 40
0.25
 40
0.3125
 40
0.34375
 40
0.375
 40
0.4375
 40
0.46875
 40
0.5
 40
0.53125
 40
0.5625
 40
0.625
 40
0.65625
 40
0.6875
 40
0.75
 40
0.8125
 40
0.84375
 40
0.875
 40
1.0
 40
1.0
 40
1.0
 40
1.0
 10
89.30505998525054
 20
38.5558979279
 30
0.0
 10
89.30502572605055
 20
38.5557486457
 30
0.0
 10
89.30498219165055
 20
38.5555711724
 30
0.0
 10
89.30493208145055
 20
38.5553308159
 30
0.0
 10
89.30489412825055
 20
38.5552290073
 30
0.0
 10
89.30484491655056
 20
38.5551245228
 30
0.0
 10
89.30479686815054
 20
38.5550049975
 30
0.0
 10
89.30475705355055
 20
38.5549272541
 30
0.0
 10
89.30471262565054
 20
38.5549095348
 30
0.0
 10
89.30466969615055
 20
38.5548722895
 30
0.0
 10
89.30462573145055
 20
38.55484860420001
 30
0.0
 10
89.30459436495054
 20
38.5548096862
 30
0.0
 10
89.30455708785055
 20
38.55484860420001
 30
0.0
 10
89.30450952605054
 20
38.5548722895
 30
0.0
 10
89.30446093985054
 20
38.5549095348
 30
0.0
 10
89.30441382085055
 20
38.5549272541
 30
0.0
 10
89.30436219905054
 20
38.5550049975
 30
0.0
 10
89.30429599775054
 20
38.5551245228
 30
0.0
 10
89.30423091745055
 20
38.5552290073
 30
0.0
 10
89.30417750215054
 20
38.5553308159
 30
0.0
 10
89.30409088785054
 20
38.5555711725
 30
0.0
 10
89.30402039975055
 20
38.5557486458
 30
0.0
 10
89.30396346835054
 20
38.555897928
 30
0.0
  0
LINE
  5
23F6
330
222
100
AcDbEntity
  8
0
  6
Continuous
 62
    40
100
AcDbLine
 10
89.30396346835054
 20
38.5558979279
 30
0.0
 11
89.30345260315055
 21
38.5578202215
 31
0.0
  0
LINE
  5
23F7
330
222
100
AcDbEntity
  8
0
  6
Continuous
 62
    40
100
AcDbLine
 10
89.27408690425055
 20
38.9442552835
 30
0.0
 11
89.27417636155054
 21
38.9452867199
 31
0.0
  0
SPLINE
  5
23F8
330
222
100
AcDbEntity
  8
0
  6
Continuous
 62
    40
100
AcDbSpline
210
0.0
220
0.0
230
1.0
 70
     8
 71
     3
 72
    37
 73
    33
 74
     0
 42
0.0000001
 43
0.0000000001
 40
0.0
 40
0.0
 40
0.0
 40
0.0
 40
0.0625
 40
0.125
 40
0.15625
 40
0.171875
 40
0.1875
 40
0.25
 40
0.28125
 40
0.3125
 40
0.328125
 40
0.34375
 40
0.375
 40
0.4375
 40
0.46875
 40
0.484375
 40
0.5
 40
0.515625
 40
0.53125
 40
0.5625
 40
0.625
 40
0.65625
 40
0.671875
 40
0.6875
 40
0.75
 40
0.78125
 40
0.8125
 40
0.828125
 40
0.84375
 40
0.875
 40
0.9375
 40
1.0
 40
1.0
 40
1.0
 40
1.0
 10
89.27417636155054
 20
38.9452867199
 30
0.0
 10
89.27419543325056
 20
38.9454243249
 30
0.0
 10
89.27423346465054
 20
38.9457004027
 30
0.0
 10
89.27428156345056
 20
38.9460411599
 30
0.0
 10
89.27431420435054
 20
38.9462876649
 30
0.0
 10
89.27433445125055
 20
38.9464161557
 30
0.0
 10
89.27437349825055
 20
38.9465416741
 30
0.0
 10
89.27441618455054
 20
38.9467099552
 30
0.0
 10
89.27446612705054
 20
38.9468946044
 30
0.0
 10
89.27449772395055
 20
38.9470042269
 30
0.0
 10
89.27452179315054
 20
38.9471077227
 30
0.0
 10
89.27455038925055
 20
38.9471526542
 30
0.0
 10
89.27460252305055
 20
38.9472042708
 30
0.0
 10
89.27466133555055
 20
38.9472731653
 30
0.0
 10
89.27471272435054
 20
38.9473344632
 30
0.0
 10
89.27474259765054
 20
38.9473627983
 30
0.0
 10
89.27476349825054
 20
38.9474038362
 30
0.0
 10
89.27479016205055
 20
38.94736907409999
 30
0.0
 10
89.27482370795054
 20
38.9473491055
 30
0.0
 10
89.27488330355055
 20
38.947302461
 30
0.0
 10
89.27495132515053
 20
38.947250235
 30
0.0
 10
89.27501018385056
 20
38.9472133967
 30
0.0
 10
89.27504499305054
 20
38.9471766176
 30
0.0
 10
89.27510364945055
 20
38.9470351863
 30
0.0
 10
89.27517001875056
 20
38.9468982862
 30
0.0
 10
89.27524650075055
 20
38.9467317381
 30
0.0
 10
89.27529508145054
 20
38.9466207549
 30
0.0
 10
89.27533191735054
 20
38.9465510285
 30
0.0
 10
89.27537624455055
 20
38.946410574
 30
0.0
 10
89.27545730315054
 20
38.9461318483
 30
0.0
 10
89.27557126635056
 20
38.9457510004
 30
0.0
 10
89.27566299605054
 20
38.9454410401
 30
0.0
 10
89.27570879105054
 20
38.9452867202
 30
0.0
  0
LINE
  5
23F9
330
222
100
AcDbEntity
  8
0
  6
Continuous
 62
    40
100
AcDbLine
 10
89.27570879115055
 20
38.9452867199
 30
0.0
 11
89.27602951835055
 21
38.943915654
 31
0.0
  0
LINE
  5
23FA
330
222
100
AcDbEntity
  8
0
  6
Continuous
 62
    40
100
AcDbLine
 10
89.27602951835055
 20
38.943915654
 30
0.0
 11
89.27674225315055
 21
38.9401617679
 31
0.0
  0
LINE
  5
23FB
330
222
100
AcDbEntity
  8
0
  6
Continuous
 62
    40
100
AcDbLine
 10
89.27674225315055
 20
38.9401617679
 30
0.0
 11
89.27754579325055
 21
38.93508180219999
 31
0.0
  0
SPLINE
  5
23FC
330
222
100
AcDbEntity
  8
0
  6
Continuous
 62
    40
100
AcDbSpline
210
0.0
220
0.0
230
1.0
 70
     8
 71
     3
 72
    92
 73
    88
 74
     0
 42
0.0000001
 43
0.0000000001
 40
0.0
 40
0.0
 40
0.0
 40
0.0
 40
0.03125
 40
0.0625
 40
0.09375
 40
0.109375
 40
0.125
 40
0.140625
 40
0.1484375
 40
0.15625
 40
0.16015625
 40
0.1640625
 40
0.166015625
 40
0.1669921875
 40
0.16796875
 40
0.169921875
 40
0.171875
 40
0.1796875
 40
0.1875
 40
0.1953125
 40
0.203125
 40
0.21875
 40
0.25
 40
0.28125
 40
0.296875
 40
0.3046875
 40
0.3125
 40
0.3203125
 40
0.328125
 40
0.330078125
 40
0.33203125
 40
0.3330078125
 40
0.333984375
 40
0.3359375
 40
0.33984375
 40
0.34375
 40
0.3515625
 40
0.359375
 40
0.375
 40
0.390625
 40
0.40625
 40
0.421875
 40
0.4375
 40
0.453125
 40
0.46875
 40
0.4765625
 40
0.484375
 40
0.4921875
 40
0.49609375
 40
0.498046875
 40
0.5
 40
0.501953125
 40
0.50390625
 40
0.5078125
 40
0.515625
 40
0.5234375
 40
0.53125
 40
0.546875
 40
0.5625
 40
0.578125
 40
0.59375
 40
0.609375
 40
0.625
 40
0.640625
 40
0.65625
 40
0.66015625
 40
0.6640625
 40
0.666015625
 40
0.66796875
 40
0.671875
 40
0.6796875
 40
0.6875
 40
0.703125
 40
0.71875
 40
0.75
 40
0.78125
 40
0.8125
 40
0.8203125
 40
0.828125
 40
0.83203125
 40
0.8359375
 40
0.84375
 40
0.859375
 40
0.875
 40
0.90625
 40
0.9375
 40
1.0
 40
1.0
 40
1.0
 40
1.0
 10
89.27754579325055
 20
38.9350818021
 30
0.0
 10
89.27768837075054
 20
38.9339870982
 30
0.0
 10
89.27797352575055
 20
38.93179769079999
 30
0.0
 10
89.27840125845056
 20
38.9285135767
 30
0.0
 10
89.27875770185055
 20
38.9257768237
 30
0.0
 10
89.27904285765055
 20
38.9235874019
 30
0.0
 10
89.27925672145056
 20
38.9219453885
 30
0.0
 10
89.27943495115055
 20
38.9205768753
 30
0.0
 10
89.27957751265054
 20
38.9194824433
 30
0.0
 10
89.27966666455054
 20
38.91879756130001
 30
0.0
 10
89.27973786915055
 20
38.9182516298
 30
0.0
 10
89.27978263885055
 20
38.9179059185
 30
0.0
 10
89.27981344295055
 20
38.9176729472
 30
0.0
 10
89.27983188185054
 20
38.9175256979
 30
0.0
 10
89.27985347205055
 20
38.917325255
 30
0.0
 10
89.27987938255055
 20
38.9170928831
 30
0.0
 10
89.27994245445054
 20
38.91652022610001
 30
0.0
 10
89.28003668995055
 20
38.915667526
 30
0.0
 10
89.28016255005054
 20
38.914527
 30
0.0
 10
89.28028835325056
 20
38.913387435
 30
0.0
 10
89.28045611075054
 20
38.9118676798
 30
0.0
 10
89.28074967695055
 20
38.90920826510001
 30
0.0
 10
89.28116906255054
 20
38.90540901260001
 30
0.0
 10
89.28158844505055
 20
38.9016098156
 30
0.0
 10
89.28188201565054
 20
38.89895032320001
 30
0.0
 10
89.28204976635056
 20
38.8974306901
 30
0.0
 10
89.28217559025055
 20
38.8962907504
 30
0.0
 10
89.28230137265055
 20
38.8951516314
 30
0.0
 10
89.28239582565055
 20
38.8942949914
 30
0.0
 10
89.28245861365054
 20
38.8937274762
 30
0.0
 10
89.28248504415055
 20
38.8934856871
 30
0.0
 10
89.28250556145055
 20
38.8933046766
 30
0.0
 10
89.28252837215055
 20
38.89307824260001
 30
0.0
 10
89.28256935655054
 20
38.89266087820001
 30
0.0
 10
89.28262734965056
 20
38.8920756549
 30
0.0
 10
89.28272044945055
 20
38.8911331438
 30
0.0
 10
89.28283671765054
 20
38.889957112
 30
0.0
 10
89.28302280635056
 20
38.8880742835
 30
0.0
 10
89.28325539675055
 20
38.885721152
 30
0.0
 10
89.28353451405055
 20
38.8828972207
 30
0.0
 10
89.28381362895054
 20
38.8800733367
 30
0.0
 10
89.28409274465055
 20
38.877249437
 30
0.0
 10
89.28437185965055
 20
38.874425553
 30
0.0
 10
89.28465097645055
 20
38.8716016218
 30
0.0
 10
89.28488356845056
 20
38.8692484901
 30
0.0
 10
89.28506965405054
 20
38.8673656619
 30
0.0
 10
89.28520918525055
 20
38.86595442260001
 30
0.0
 10
89.28532556635055
 20
38.86477558510001
 30
0.0
 10
89.28540682685055
 20
38.86395590300001
 30
0.0
 10
89.28545358355055
 20
38.8634789189
 30
0.0
 10
89.28548774345056
 20
38.8631453911
 30
0.0
 10
89.28552537285055
 20
38.86271931960001
 30
0.0
 10
89.28557433515054
 20
38.8621835045
 30
0.0
 10
89.28566058305055
 20
38.86123078820001
 30
0.0
 10
89.28578349945054
 20
38.8598776279
 30
0.0
 10
89.28593112545055
 20
38.8582504699
 30
0.0
 10
89.28612791595055
 20
38.8560821016
 30
0.0
 10
89.28637391915055
 20
38.853371238
 30
0.0
 10
89.28666911665056
 20
38.8501183734
 30
0.0
 10
89.28696431575055
 20
38.8468654671
 30
0.0
 10
89.28725951465056
 20
38.8436125559
 30
0.0
 10
89.28755471275055
 20
38.8403597057
 30
0.0
 10
89.28784991415055
 20
38.8371066167
 30
0.0
 10
89.28814510335056
 20
38.8338544219
 30
0.0
 10
89.28836652925054
 20
38.8314127723
 30
0.0
 10
89.28851409365055
 20
38.8297888989
 30
0.0
 10
89.28857565755055
 20
38.8291064921
 30
0.0
 10
89.28862472495055
 20
38.8285740802
 30
0.0
 10
89.28867446415054
 20
38.8279922485
 30
0.0
 10
89.28876181965055
 20
38.8269510814
 30
0.0
 10
89.28888645035055
 20
38.8254756799
 30
0.0
 10
89.28908595065054
 20
38.82310834320001
 30
0.0
 10
89.28933529455056
 20
38.8201514598
 30
0.0
 10
89.28973426385054
 20
38.8154191949
 30
0.0
 10
89.29023295835056
 20
38.80950409949999
 30
0.0
 10
89.29083144515054
 20
38.8024067309
 30
0.0
 10
89.29128017075056
 20
38.7970811838
 30
0.0
 10
89.29157953695055
 20
38.7935347871
 30
0.0
 10
89.29170395205055
 20
38.7920512085
 30
0.0
 10
89.29180423245055
 20
38.7908781409
 30
0.0
 10
89.29190177635055
 20
38.7896546227
 30
0.0
 10
89.29207120685054
 20
38.7874900253
 30
0.0
 10
89.29231391375054
 20
38.7844099735
 30
0.0
 10
89.29270187405055
 20
38.7794750556
 30
0.0
 10
89.29318695145054
 20
38.7733087495
 30
0.0
 10
89.29396300395055
 20
38.7634413454
 30
0.0
 10
89.29454505935053
 20
38.7560410881
 30
0.0
 10
89.29493309275056
 20
38.7511075175
 30
0.0
  0
SPLINE
  5
23FD
330
222
100
AcDbEntity
  8
0
  6
Continuous
 62
    40
100
AcDbSpline
210
0.0
220
0.0
230
1.0
 70
     8
 71
     3
 72
    12
 73
     8
 74
     0
 42
0.0000001
 43
0.0000000001
 40
0.0
 40
0.0
 40
0.0
 40
0.0
 40
0.183280726
 40
0.3698978289
 40
0.5702935269000001
 40
0.8291169523
 40
1.0
 40
1.0
 40
1.0
 40
1.0
 10
89.27470608135056
 20
38.7719500078
 30
0.0
 10
89.27437527505055
 20
38.7772198413
 30
0.0
 10
89.27359923815055
 20
38.7886221474
 30
0.0
 10
89.27216715575054
 20
38.8069374732
 30
0.0
 10
89.27051570845057
 20
38.82624789320001
 30
0.0
 10
89.26892564855055
 20
38.8435231579
 30
0.0
 10
89.26793627695055
 20
38.853152739
 30
0.0
 10
89.26756644675055
 20
38.8565208723
 30
0.0
  0
SPLINE
  5
23FE
330
222
100
AcDbEntity
  8
0
  6
Continuous
 62
    40
100
AcDbSpline
210
0.0
220
0.0
230
1.0
 70
     8
 71
     3
 72
    12
 73
     8
 74
     0
 42
0.0000001
 43
0.0000000001
 40
0.0
 40
0.0
 40
0.0
 40
0.0
 40
0.1138249509
 40
0.2719586158
 40
0.4736488813000001
 40
0.7766479667000001
 40
1.0
 40
1.0
 40
1.0
 40
1.0
 10
89.26756644675055
 20
38.8565208723
 30
0.0
 10
89.26782356505055
 20
38.8535631157
 30
0.0
 10
89.26844058825055
 20
38.8465376129
 30
0.0
 10
89.26951544565055
 20
38.8341442049
 30
0.0
 10
89.27102265935054
 20
38.8155470791
 30
0.0
 10
89.27251425745055
 20
38.79495065349999
 30
0.0
 10
89.27351767345056
 20
38.7804719289
 30
0.0
 10
89.27387542425055
 20
38.7747728623
 30
0.0
  0
SPLINE
  5
23FF
330
222
100
AcDbEntity
  8
0
  6
Continuous
 62
    40
100
AcDbSpline
210
0.0
220
0.0
230
1.0
 70
     8
 71
     3
 72
    12
 73
     8
 74
     0
 42
0.0000001
 43
0.0000000001
 40
0.0
 40
0.0
 40
0.0
 40
0.0
 40
0.1138249509
 40
0.2719586158
 40
0.4736488813000001
 40
0.7766479667000001
 40
1.0
 40
1.0
 40
1.0
 40
1.0
 10
89.28395468145055
 20
38.643374975
 30
0.0
 10
89.28369756315055
 20
38.6463327316
 30
0.0
 10
89.28308054005055
 20
38.6533582344
 30
0.0
 10
89.28200568255055
 20
38.6657516424
 30
0.0
 10
89.28049846885055
 20
38.6843487682
 30
0.0
 10
89.27900687075055
 20
38.7049451937
 30
0.0
 10
89.27800345485055
 20
38.71942391840001
 30
0.0
 10
89.27764570405054
 20
38.725122985
 30
0.0
  0
SPLINE
  5
2400
330
222
100
AcDbEntity
  8
0
  6
Continuous
 62
    40
100
AcDbSpline
210
0.0
220
0.0
230
1.0
 70
     8
 71
     3
 72
    12
 73
     8
 74
     0
 42
0.0000001
 43
0.0000000001
 40
0.0
 40
0.0
 40
0.0
 40
0.0
 40
0.183280726
 40
0.3698978289
 40
0.5702935269000001
 40
0.8291169523
 40
1.0
 40
1.0
 40
1.0
 40
1.0
 10
89.27681504685054
 20
38.7279458395
 30
0.0
 10
89.27714585315055
 20
38.722676006
 30
0.0
 10
89.27792189015056
 20
38.7112736999
 30
0.0
 10
89.27935397245056
 20
38.6929583741
 30
0.0
 10
89.28100541985054
 20
38.6736479541
 30
0.0
 10
89.28259547965055
 20
38.6563726894
 30
0.0
 10
89.28358485125055
 20
38.6467431083
 30
0.0
 10
89.28395468145055
 20
38.643374975
 30
0.0
  0
SPLINE
  5
2401
330
222
100
AcDbEntity
  8
0
  6
Continuous
 62
    40
100
AcDbSpline
210
0.0
220
0.0
230
1.0
 70
     8
 71
     3
 72
    12
 73
     8
 74
     0
 42
0.0000001
 43
0.0000000001
 40
0.0
 40
0.0
 40
0.0
 40
0.0
 40
0.1138249509
 40
0.2719586158
 40
0.4736488813000001
 40
0.7766479667000001
 40
1.0
 40
1.0
 40
1.0
 40
1.0
 10
89.26623420065054
 20
38.8565208723
 30
0.0
 10
89.26649131895054
 20
38.8535631157
 30
0.0
 10
89.26710834205055
 20
38.8465376129
 30
0.0
 10
89.26818319955055
 20
38.8341442049
 30
0.0
 10
89.26969041325055
 20
38.8155470791
 30
0.0
 10
89.27118201135055
 20
38.79495065349999
 30
0.0
 10
89.27218542725055
 20
38.7804719289
 30
0.0
 10
89.27254317805054
 20
38.7747728623
 30
0.0
  0
SPLINE
  5
2402
330
222
100
AcDbEntity
  8
0
  6
Continuous
 62
    40
100
AcDbSpline
210
0.0
220
0.0
230
1.0
 70
     8
 71
     3
 72
    12
 73
     8
 74
     0
 42
0.0000001
 43
0.0000000001
 40
0.0
 40
0.0
 40
0.0
 40
0.0
 40
0.183280726
 40
0.3698978289
 40
0.5702935269000001
 40
0.8291169523
 40
1.0
 40
1.0
 40
1.0
 40
1.0
 10
89.27337383525054
 20
38.7719500078
 30
0.0
 10
89.27304302895054
 20
38.7772198413
 30
0.0
 10
89.27226699195054
 20
38.7886221474
 30
0.0
 10
89.27083490965054
 20
38.8069374732
 30
0.0
 10
89.26918346225056
 20
38.82624789320001
 30
0.0
 10
89.26759340245054
 20
38.8435231579
 30
0.0
 10
89.26660403085056
 20
38.853152739
 30
0.0
 10
89.26623420065054
 20
38.8565208723
 30
0.0
  0
SPLINE
  5
2403
330
222
100
AcDbEntity
  8
0
  6
Continuous
 62
    40
100
AcDbSpline
210
0.0
220
0.0
230
1.0
 70
     8
 71
     3
 72
    12
 73
     8
 74
     0
 42
0.0000001
 43
0.0000000001
 40
0.0
 40
0.0
 40
0.0
 40
0.0
 40
0.1138249509
 40
0.2719586158
 40
0.4736488813000001
 40
0.7766479667000001
 40
1.0
 40
1.0
 40
1.0
 40
1.0
 10
89.28262243525054
 20
38.643374975
 30
0.0
 10
89.28236531705055
 20
38.6463327316
 30
0.0
 10
89.28174829385055
 20
38.6533582344
 30
0.0
 10
89.28067343645054
 20
38.6657516424
 30
0.0
 10
89.27916622275054
 20
38.6843487682
 30
0.0
 10
89.27767462465055
 20
38.7049451937
 30
0.0
 10
89.27667120865056
 20
38.71942391840001
 30
0.0
 10
89.27631345785055
 20
38.725122985
 30
0.0
  0
SPLINE
  5
2404
330
222
100
AcDbEntity
  8
0
  6
Continuous
 62
    40
100
AcDbSpline
210
0.0
220
0.0
230
1.0
 70
     8
 71
     3
 72
    12
 73
     8
 74
     0
 42
0.0000001
 43
0.0000000001
 40
0.0
 40
0.0
 40
0.0
 40
0.0
 40
0.183280726
 40
0.3698978289
 40
0.5702935269000001
 40
0.8291169523
 40
1.0
 40
1.0
 40
1.0
 40
1.0
 10
89.27548280075056
 20
38.7279458395
 30
0.0
 10
89.27581360705055
 20
38.722676006
 30
0.0
 10
89.27658964395055
 20
38.7112736999
 30
0.0
 10
89.27802172635056
 20
38.6929583741
 30
0.0
 10
89.27967317365055
 20
38.6736479541
 30
0.0
 10
89.28126323355055
 20
38.6563726894
 30
0.0
 10
89.28225260515054
 20
38.6467431083
 30
0.0
 10
89.28262243525054
 20
38.643374975
 30
0.0
  0
LINE
  5
2405
330
222
100
AcDbEntity
  8
0
  6
Continuous
 62
     7
100
AcDbLine
 10
147.2170706317505
 20
40.6339333023
 30
0.0
 11
147.2187842891505
 21
40.6583528563
 31
0.0
  0
LINE
  5
2406
330
222
100
AcDbEntity
  8
0
  6
Continuous
 62
     7
100
AcDbLine
 10
89.23461505985056
 20
40.6339333023
 30
0.0
 11
89.23290140255055
 21
40.65835285699999
 31
0.0
  0
LINE
  5
2407
330
222
100
AcDbEntity
  8
0
  6
Continuous
 62
     9
100
AcDbLine
 10
146.6147526353505
 20
40.6575809842
 30
0.0
 11
146.6132382266505
 21
40.63393335199999
 31
0.0
  0
LINE
  5
2408
330
222
100
AcDbEntity
  8
0
  6
Continuous
 62
     9
100
AcDbLine
 10
147.2187842891505
 20
40.6583528563
 30
0.0
 11
146.6147526353505
 21
40.6575809842
 31
0.0
  0
LINE
  5
2409
330
222
100
AcDbEntity
  8
0
  6
Continuous
 62
     9
100
AcDbLine
 10
92.95779757315054
 20
40.65362976809999
 30
0.0
 11
92.95910717995054
 21
40.6339333166
 31
0.0
  0
LINE
  5
240A
330
222
100
AcDbEntity
  8
0
  6
Continuous
 62
     9
100
AcDbLine
 10
143.4938883846505
 20
40.6536297023
 30
0.0
 11
143.4925789706505
 21
40.6339333174
 31
0.0
  0
SPLINE
  5
240B
330
222
100
AcDbEntity
  8
0
  6
Continuous
 62
     9
100
AcDbSpline
210
0.0
220
0.0
230
1.0
 70
     8
 71
     3
 72
     9
 73
     5
 74
     0
 42
0.0000001
 43
0.0000000001
 40
0.0
 40
0.0
 40
0.0
 40
0.0
 40
0.4999999879
 40
1.0
 40
1.0
 40
1.0
 40
1.0
 10
143.4938883846505
 20
40.6536297023
 30
0.0
 10
135.0712067929505
 20
40.6542055732
 30
0.0
 10
118.2258431835505
 20
40.6559843426
 30
0.0
 10
101.3804795741505
 20
40.6542056433
 30
0.0
 10
92.95779757315054
 20
40.65362976809999
 30
0.0
  0
LINE
  5
240C
330
222
100
AcDbEntity
  8
0
  6
Continuous
 62
     9
100
AcDbLine
 10
89.83693273855054
 20
40.6575812717
 30
0.0
 11
89.83844714385055
 21
40.633933405
 31
0.0
  0
LINE
  5
240D
330
222
100
AcDbEntity
  8
0
  6
Continuous
 62
     9
100
AcDbLine
 10
89.83693273855054
 20
40.6575812717
 30
0.0
 11
89.23290139625056
 21
40.6583528665
 31
0.0
  0
SPLINE
  5
240E
330
222
100
AcDbEntity
  8
0
  6
Continuous
 62
     9
100
AcDbSpline
210
0.0
220
0.0
230
1.0
 70
     8
 71
     3
 72
    18
 73
    14
 74
     0
 42
0.0000001
 43
0.0000000001
 40
0.0
 40
0.0
 40
0.0
 40
0.0
 40
0.0155906616
 40
0.0388841465
 40
0.0697366932
 40
0.1079493601
 40
0.1532688789
 40
0.2053886758
 40
0.3285469034
 40
0.4739809184000001
 40
0.6375584149
 40
0.8145917736999999
 40
1.0
 40
1.0
 40
1.0
 40
1.0
 10
146.6147540150505
 20
40.6575807212
 30
0.0
 10
146.5985397212505
 20
40.6571948865
 30
0.0
 10
146.5580923017505
 20
40.65659175869999
 30
0.0
 10
146.4855495602505
 20
40.6558556633
 30
0.0
 10
146.3894713788505
 20
40.6551834784
 30
0.0
 10
146.2704791477506
 20
40.65456918179999
 30
0.0
 10
146.1293620837505
 20
40.65402796929999
 30
0.0
 10
145.8998765366505
 20
40.65337102179999
 30
0.0
 10
145.5662418518505
 20
40.6528054665
 30
0.0
 10
145.1166580072505
 20
40.6524827935
 30
0.0
 10
144.6110280256505
 20
40.6525044311
 30
0.0
 10
144.0638132197505
 20
40.6528725465
 30
0.0
 10
143.6867673993505
 20
40.6533392514
 30
0.0
 10
143.4938884094505
 20
40.6536297247
 30
0.0
  0
SPLINE
  5
240F
330
222
100
AcDbEntity
  8
0
  6
Continuous
 62
     9
100
AcDbSpline
210
0.0
220
0.0
230
1.0
 70
     8
 71
     3
 72
    18
 73
    14
 74
     0
 42
0.0000001
 43
0.0000000001
 40
0.0
 40
0.0
 40
0.0
 40
0.0
 40
0.1854073828
 40
0.3624406807
 40
0.5260182154999999
 40
0.6714522884000001
 40
0.7946106033
 40
0.8467304698999999
 40
0.892050075
 40
0.9302628302
 40
0.9611155066
 40
0.9844092041999999
 40
1.0
 40
1.0
 40
1.0
 40
1.0
 10
92.95779754935054
 20
40.6536298681
 30
0.0
 10
92.76491932795055
 20
40.65333934509999
 30
0.0
 10
92.38787423505055
 20
40.6528726403
 30
0.0
 10
91.84066002065055
 20
40.6525044254
 30
0.0
 10
91.33502971635055
 20
40.6524828291
 30
0.0
 10
90.88544542675055
 20
40.6528056409
 30
0.0
 10
90.55181032985055
 20
40.6533713779
 30
0.0
 10
90.32232440045055
 20
40.65402849589999
 30
0.0
 10
90.18120700245054
 20
40.6545697907
 30
0.0
 10
90.06221438885054
 20
40.6551842383
 30
0.0
 10
89.96613570275055
 20
40.65585629949999
 30
0.0
 10
89.89359243075055
 20
40.6565928071
 30
0.0
 10
89.85314461805055
 20
40.6571953583
 30
0.0
 10
89.83693017465055
 20
40.6575811563
 30
0.0
  0
SPLINE
  5
2410
330
222
100
AcDbEntity
  8
0
  6
Continuous
 62
     9
100
AcDbSpline
210
0.0
220
0.0
230
1.0
 70
     8
 71
     3
 72
    15
 73
    11
 74
     0
 42
0.0000001
 43
0.0000000001
 40
0.0
 40
0.0
 40
0.0
 40
0.0
 40
0.1245089901
 40
0.2490871677
 40
0.3738176064
 40
0.4987334286
 40
0.6238460763
 40
0.7491340358
 40
0.8745369837
 40
1.0
 40
1.0
 40
1.0
 40
1.0
 10
146.5217620006505
 20
40.7589333023
 30
0.0
 10
146.5281606974505
 20
40.7589333023
 30
0.0
 10
146.5410013439505
 20
40.7575962838
 30
0.0
 10
146.5594122472505
 20
40.7516644201
 30
0.0
 10
146.5762351716505
 20
40.7420605129
 30
0.0
 10
146.5907469113505
 20
40.72919095729999
 30
0.0
 10
146.6023366949506
 20
40.71360317809999
 30
0.0
 10
146.6105138322505
 20
40.6959551266
 30
0.0
 10
146.6149362519505
 20
40.6770040677
 30
0.0
 10
146.6152537956505
 20
40.6640090488
 30
0.0
 10
146.6147533201505
 20
40.65758077609999
 30
0.0
  0
SPLINE
  5
2411
330
222
100
AcDbEntity
  8
0
  6
Continuous
 62
     9
100
AcDbSpline
210
0.0
220
0.0
230
1.0
 70
     8
 71
     3
 72
    19
 73
    15
 74
     0
 42
0.0000001
 43
0.0000000001
 40
0.0
 40
0.0
 40
0.0
 40
0.0
 40
0.0102299622
 40
0.0178115639
 40
0.0274500141
 40
0.0532680922
 40
0.087961204
 40
0.1313377679
 40
0.1830178641
 40
0.3090902875
 40
0.4608478346
 40
0.6316805241
 40
0.8140682598999999
 40
1.0
 40
1.0
 40
1.0
 40
1.0
 10
143.4848838645505
 20
40.7589333023
 30
0.0
 10
143.4852476352505
 20
40.7589333023
 30
0.0
 10
143.4858318617505
 20
40.7585003112
 30
0.0
 10
143.4863675095505
 20
40.757704488
 30
0.0
 10
143.4870611440505
 20
40.7563272824
 30
0.0
 10
143.4878418204505
 20
40.75395421289999
 30
0.0
 10
143.4887084644505
 20
40.7503602223
 30
0.0
 10
143.4895367129505
 20
40.7458197916
 30
0.0
 10
143.4906591325505
 20
40.73803585599999
 30
0.0
 10
143.4918316613505
 20
40.7263729279
 30
0.0
 10
143.4928948122505
 20
40.7104526375
 30
0.0
 10
143.4936235924505
 20
40.692508858
 30
0.0
 10
143.4939840420505
 20
40.6733391135
 30
0.0
 10
143.4939656685505
 20
40.6602408476
 30
0.0
 10
143.4938883959505
 20
40.6536296888
 30
0.0
  0
SPLINE
  5
2412
330
222
100
AcDbEntity
  8
0
  6
Continuous
 62
     9
100
AcDbSpline
210
0.0
220
0.0
230
1.0
 70
     8
 71
     3
 72
    19
 73
    15
 74
     0
 42
0.0000001
 43
0.0000000001
 40
0.0
 40
0.0
 40
0.0
 40
0.0
 40
0.0102299779
 40
0.0178115819
 40
0.0274500316
 40
0.0532681017
 40
0.0879611983
 40
0.1313377419
 40
0.1830178145
 40
0.3090901882999999
 40
0.4608476972
 40
0.631680378
 40
0.8140681535999998
 40
1.0
 40
1.0
 40
1.0
 40
1.0
 10
92.96680210015054
 20
40.7589333023
 30
0.0
 10
92.96643832955055
 20
40.7589333023
 30
0.0
 10
92.96585410295056
 20
40.7585003128
 30
0.0
 10
92.96531845455055
 20
40.757704491
 30
0.0
 10
92.96462481975053
 20
40.75632728889999
 30
0.0
 10
92.96384414295054
 20
40.75395422489999
 30
0.0
 10
92.96297749865054
 20
40.7503602426
 30
0.0
 10
92.96214924965054
 20
40.74581982219999
 30
0.0
 10
92.96102682935055
 20
40.73803590399999
 30
0.0
 10
92.95985429965055
 20
40.7263730004
 30
0.0
 10
92.95879114725055
 20
40.7104527413
 30
0.0
 10
92.95806236525054
 20
40.6925089934
 30
0.0
 10
92.95770191335055
 20
40.6733392774
 30
0.0
 10
92.95772028515054
 20
40.6602410291
 30
0.0
 10
92.95779755685055
 20
40.653629878
 30
0.0
  0
SPLINE
  5
2413
330
222
100
AcDbEntity
  8
0
  6
Continuous
 62
     9
100
AcDbSpline
210
0.0
220
0.0
230
1.0
 70
     8
 71
     3
 72
    15
 73
    11
 74
     0
 42
0.0000001
 43
0.0000000001
 40
0.0
 40
0.0
 40
0.0
 40
0.0
 40
0.1245089847
 40
0.2490871586
 40
0.3738175948
 40
0.4987334160000001
 40
0.6238460642
 40
0.7491340262000001
 40
0.8745369779999998
 40
1.0
 40
1.0
 40
1.0
 40
1.0
 10
89.92992280585054
 20
40.7589333023
 30
0.0
 10
89.92352412565054
 20
40.7589333023
 30
0.0
 10
89.91068351295055
 20
40.7575962907
 30
0.0
 10
89.89227265355054
 20
40.75166445719999
 30
0.0
 10
89.87544976085056
 20
40.7420605973
 30
0.0
 10
89.86093803545056
 20
40.72919110199999
 30
0.0
 10
89.84934824545055
 20
40.71360339059999
 30
0.0
 10
89.84117107855054
 20
40.6959554084
 30
0.0
 10
89.83674860595057
 20
40.67700441329999
 30
0.0
 10
89.83643101215056
 20
40.6640094292
 30
0.0
 10
89.83693145955056
 20
40.65758117059999
 30
0.0
  0
SPLINE
  5
2414
330
222
100
AcDbEntity
  8
0
  6
Continuous
 62
     9
100
AcDbSpline
210
0.0
220
0.0
230
1.0
 70
     8
 71
     3
 72
    23
 73
    19
 74
     0
 42
0.0000001
 43
0.0000000001
 40
0.0
 40
0.0
 40
0.0
 40
0.0
 40
0.0312414745
 40
0.0624844341
 40
0.0937281189
 40
0.124972904
 40
0.1562187051
 40
0.187465177
 40
0.2187125741
 40
0.2499610052
 40
0.312459637
 40
0.3749602542
 40
0.4374631734000001
 40
0.4999680235000001
 40
0.6249775207
 40
0.7499883355
 40
0.8749970939
 40
1.0
 40
1.0
 40
1.0
 40
1.0
 10
147.2170706521505
 20
40.6339333023
 30
0.0
 10
147.2017976024505
 20
40.4162882736
 30
0.0
 10
147.1712641271505
 20
39.980986726
 30
0.0
 10
147.1260664190505
 20
39.3279831557
 30
0.0
 10
147.0792086740505
 20
38.6750685163
 30
0.0
 10
147.0267951190505
 20
38.0225529115
 30
0.0
 10
146.9698135850505
 20
37.3704041338
 30
0.0
 10
146.9084406947505
 20
36.7186346086
 30
0.0
 10
146.8422698474505
 20
36.0673153227
 30
0.0
 10
146.7476136676505
 20
35.1995356576
 30
0.0
 10
146.6176575812505
 20
34.116079078
 30
0.0
 10
146.4433778205505
 20
32.8182315133
 30
0.0
 10
146.2503298085505
 20
31.5229931848
 30
0.0
 10
145.9680947818505
 20
29.79986636300001
 30
0.0
 10
145.5690523973505
 20
27.65375054510001
 30
0.0
 10
145.0164985004505
 20
25.0932559802
 30
0.0
 10
144.3906735847505
 20
22.54973713
 30
0.0
 10
143.9249919323505
 20
20.8666911013
 30
0.0
 10
143.6801384110505
 20
20.028753201
 30
0.0
  0
SPLINE
  5
2415
330
222
100
AcDbEntity
  8
0
  6
Continuous
 62
     9
100
AcDbSpline
210
0.0
220
0.0
230
1.0
 70
     8
 71
     3
 72
     9
 73
     5
 74
     0
 42
0.0000001
 43
0.0000000001
 40
0.0
 40
0.0
 40
0.0
 40
0.0
 40
0.4999887887
 40
1.0
 40
1.0
 40
1.0
 40
1.0
 10
89.23461505985056
 20
40.6339333023
 30
0.0
 10
89.24789044895055
 20
40.4447554692
 30
0.0
 10
89.27444851135055
 20
40.0663917623
 30
0.0
 10
89.30067274295055
 20
39.6880047547
 30
0.0
 10
89.31390511845055
 20
39.4988153826
 30
0.0
  0
SPLINE
  5
2416
330
222
100
AcDbEntity
  8
0
  6
Continuous
 62
     9
100
AcDbSpline
210
0.0
220
0.0
230
1.0
 70
     8
 71
     3
 72
    21
 73
    17
 74
     0
 42
0.0000001
 43
0.0000000001
 40
0.0
 40
0.0
 40
0.0
 40
0.0
 40
0.0312452104
 40
0.0624910007
 40
0.0937375311
 40
0.1249849832
 40
0.15623325
 40
0.1874821238
 40
0.249980906
 40
0.3124814777
 40
0.3749840854999999
 40
0.4374882052000001
 40
0.4999932570000001
 40
0.6250024608000001
 40
0.7500117884000001
 40
1.0
 40
1.0
 40
1.0
 40
1.0
 10
89.42628549125055
 20
38.0150616998
 30
0.0
 10
89.44224798145055
 20
37.8248754157
 30
0.0
 10
89.47534172135055
 20
37.4445965286
 30
0.0
 10
89.52832997095056
 20
36.8744737906
 30
0.0
 10
89.58492366525055
 20
36.304683111
 30
0.0
 10
89.64522559705056
 20
35.7352579027
 30
0.0
 10
89.70914795195055
 20
35.1662133031
 30
0.0
 10
89.79910565725054
 20
34.40801523440001
 30
0.0
 10
89.92033346665055
 20
33.4613084105
 30
0.0
 10
90.07999462735055
 20
32.3271441681
 30
0.0
 10
90.25401376595056
 20
31.1950606682
 30
0.0
 10
90.44224762325056
 20
30.0652242149
 30
0.0
 10
90.71208083905053
 20
28.5620344389
 30
0.0
 10
91.08469902365055
 20
26.6895242221
 30
0.0
 10
91.75584928565054
 20
23.7097784659
 30
0.0
 10
92.34325339575056
 20
21.4944609173
 30
0.0
 10
92.77154730095055
 20
20.028753201
 30
0.0
  0
SPLINE
  5
2417
330
222
100
AcDbEntity
  8
0
  6
Continuous
 62
     6
100
AcDbSpline
210
0.0
220
0.0
230
1.0
 70
     8
 71
     3
 72
    19
 73
    15
 74
     0
 42
0.0000001
 43
0.0000000001
 40
0.0
 40
0.0
 40
0.0
 40
0.0
 40
0.0296761403
 40
0.0502131852
 40
0.0811693082
 40
0.1122539423
 40
0.148350108
 40
0.1907479426
 40
0.2397193679
 40
0.3566806521
 40
0.4962149262
 40
0.6537180381000001
 40
0.8236750841999999
 40
1.0
 40
1.0
 40
1.0
 40
1.0
 10
89.28894456075054
 20
38.5879413698
 30
0.0
 10
89.28822958245055
 20
38.5893908224
 30
0.0
 10
89.28718253795056
 20
38.5919275187
 30
0.0
 10
89.28592642065053
 20
38.5961693123
 30
0.0
 10
89.28499690875055
 20
38.6005739644
 30
0.0
 10
89.28412813765055
 20
38.6058477369
 30
0.0
 10
89.28328978635056
 20
38.6117568043
 30
0.0
 10
89.28241228085054
 20
38.618643155
 30
0.0
 10
89.28108993825054
 20
38.6299119415
 30
0.0
 10
89.27933982955055
 20
38.6464562086
 30
0.0
 10
89.27717239205055
 20
38.6688988752
 30
0.0
 10
89.27490500805054
 20
38.69423091690001
 30
0.0
 10
89.27261671775054
 20
38.7215722414
 30
0.0
 10
89.27114153235056
 20
38.7403735227
 30
0.0
 10
89.27041440825055
 20
38.7499488394
 30
0.0
  0
LINE
  5
2418
330
222
100
AcDbEntity
  8
0
  6
Continuous
 62
     6
100
AcDbLine
 10
89.27041440825055
 20
38.7499488394
 30
0.0
 11
89.27033257025055
 21
38.7510279122
 31
0.0
  0
SPLINE
  5
2419
330
222
100
AcDbEntity
  8
0
  6
Continuous
 62
     6
100
AcDbSpline
210
0.0
220
0.0
230
1.0
 70
     8
 71
     3
 72
    16
 73
    12
 74
     0
 42
0.0000001
 43
0.0000000001
 40
0.0
 40
0.0
 40
0.0
 40
0.0
 40
0.1766940353
 40
0.3470430622
 40
0.5053529617
 40
0.6464316038
 40
0.7658965775
 40
0.8607199912
 40
0.8986998545999998
 40
0.9312353678
 40
1.0
 40
1.0
 40
1.0
 40
1.0
 10
89.27033257025055
 20
38.7510279122
 30
0.0
 10
89.26963152945054
 20
38.7602832186
 30
0.0
 10
89.26829872965056
 20
38.7784648554
 30
0.0
 10
89.26649133235056
 20
38.80494978090001
 30
0.0
 10
89.26494923215056
 20
38.8295772761
 30
0.0
 10
89.26372052685055
 20
38.8515455592
 30
0.0
 10
89.26284322195055
 20
38.870193314
 30
0.0
 10
89.26238584695054
 20
38.8834365974
 30
0.0
 10
89.26225015335054
 20
38.8921234698
 30
0.0
 10
89.26227483535056
 20
38.899433123
 30
0.0
 10
89.26256754735055
 20
38.90478630469999
 30
0.0
 10
89.26328018675055
 20
38.9083275481
 30
0.0
  0
LINE
  5
241A
330
222
100
AcDbEntity
  8
0
  6
Continuous
 62
     6
100
AcDbLine
 10
89.26328018675055
 20
38.9083275481
 30
0.0
 11
89.26429706365054
 21
38.9122876984
 31
0.0
  0
LINE
  5
241B
330
222
100
AcDbEntity
  8
0
  6
Continuous
 62
     6
100
AcDbLine
 10
89.30203032155054
 20
38.56141303
 30
0.0
 11
89.30341359175056
 21
38.55793926150001
 31
0.0
  0
LINE
  5
241C
330
222
100
AcDbEntity
  8
0
  6
Continuous
 62
     6
100
AcDbLine
 10
89.30341359175056
 20
38.55793926150001
 30
0.0
 11
89.30348555345055
 21
38.5576794734
 31
0.0
  0
LINE
  5
241D
330
222
100
AcDbEntity
  8
0
  6
Continuous
 62
     6
100
AcDbLine
 10
89.27408939355053
 20
38.9443254104
 30
0.0
 11
89.27322386325055
 21
38.9404888012
 31
0.0
  0
SPLINE
  5
241E
330
222
100
AcDbEntity
  8
0
  6
Continuous
 62
     7
100
AcDbSpline
210
0.0
220
0.0
230
1.0
 70
     8
 71
     3
 72
    52
 73
    48
 74
     0
 42
0.0000001
 43
0.0000000001
 40
0.0
 40
0.0
 40
0.0
 40
0.0
 40
0.0467706282
 40
0.0911397976
 40
0.1328007923
 40
0.1714709281
 40
0.2068815053
 40
0.2387934152
 40
0.2669842868
 40
0.2912663186
 40
0.3114713646
 40
0.3200038248
 40
0.32747046
 40
0.3338582368
 40
0.3391598019
 40
0.3433718451
 40
0.3464958064
 40
0.3485487064
 40
0.3491987628
 40
0.3496432702
 40
0.3500027053
 40
0.3504689813000001
 40
0.3511488825
 40
0.3520782752
 40
0.3532706852
 40
0.3547318024
 40
0.3564640431
 40
0.3584684467
 40
0.3632944389
 40
0.3692085778
 40
0.3762056821
 40
0.3842744493
 40
0.3934010402000001
 40
0.4035712199
 40
0.4147697709000001
 40
0.4269767954
 40
0.4543292943
 40
0.4854471078
 40
0.520113368
 40
0.5580942068
 40
0.5991256127000001
 40
0.6429292548
 40
0.6892021814
 40
0.7376292101999999
 40
0.7878718722000001
 40
0.8924269097999999
 40
1.0
 40
1.0
 40
1.0
 40
1.0
 10
89.29440822055054
 20
38.5767276885
 30
0.0
 10
89.29521284575056
 20
38.5677900103
 30
0.0
 10
89.29680466125054
 20
38.5503756998
 30
0.0
 10
89.29920198135055
 20
38.5250083561
 30
0.0
 10
89.30153525765055
 20
38.50119624860001
 30
0.0
 10
89.30378791415055
 20
38.4791035087
 30
0.0
 10
89.30594452495055
 20
38.458881417
 30
0.0
 10
89.30798943455055
 20
38.4406697207
 30
0.0
 10
89.30990809875055
 20
38.424592813
 30
0.0
 10
89.31168624715054
 20
38.4107618073
 30
0.0
 10
89.31310779945055
 20
38.4006883645
 30
0.0
 10
89.31418073485055
 20
38.3938250943
 30
0.0
 10
89.31489655825055
 20
38.3895898054
 30
0.0
 10
89.31556784125055
 20
38.3859755928
 30
0.0
 10
89.31619323585055
 20
38.3829900957
 30
0.0
 10
89.31676796765055
 20
38.3806309683
 30
0.0
 10
89.31729224665055
 20
38.3789125794
 30
0.0
 10
89.31771825945054
 20
38.3778634928
 30
0.0
 10
89.31806692495056
 20
38.3773739981
 30
0.0
 10
89.31830098885056
 20
38.3771916165
 30
0.0
 10
89.31856665085055
 20
38.3772279485
 30
0.0
 10
89.31876117885055
 20
38.3774609235
 30
0.0
 10
89.31893343155055
 20
38.3778176729
 30
0.0
 10
89.31909525815054
 20
38.3783332435
 30
0.0
 10
89.31924623345055
 20
38.3790036595
 30
0.0
 10
89.31938600095056
 20
38.37983401480001
 30
0.0
 10
89.31951402475055
 20
38.3808231327
 30
0.0
 10
89.31967885905056
 20
38.3824579456
 30
0.0
 10
89.31984308345056
 20
38.3848982484
 30
0.0
 10
89.31998252885056
 20
38.3882988177
 30
0.0
 10
89.32007189595054
 20
38.3923234254
 30
0.0
 10
89.32011095785055
 20
38.3969651421
 30
0.0
 10
89.32009912485055
 20
38.4022158019
 30
0.0
 10
89.32003616615054
 20
38.4080666196
 30
0.0
 10
89.31992193075055
 20
38.41450779
 30
0.0
 10
89.31969246545056
 20
38.42424402050001
 30
0.0
 10
89.31927000005055
 20
38.4377984045
 30
0.0
 10
89.31858239415054
 20
38.4556552829
 30
0.0
 10
89.31770025415055
 20
38.4755450746
 30
0.0
 10
89.31662898565056
 20
38.497330177
 30
0.0
 10
89.31537587895055
 20
38.5208614268
 30
0.0
 10
89.31394906365055
 20
38.5459765047
 30
0.0
 10
89.31235842295055
 20
38.5725034143
 30
0.0
 10
89.31061459375056
 20
38.6002586869
 30
0.0
 10
89.30806739375055
 20
38.6391679198
 30
0.0
 10
89.30459182575054
 20
38.6893887611
 30
0.0
 10
89.30160010625055
 20
38.7299795754
 30
0.0
 10
89.30003810415055
 20
38.75056030400001
 30
0.0
  0
LINE
  5
241F
330
222
100
AcDbEntity
  8
0
  6
Continuous
 62
     7
100
AcDbLine
 10
89.30003810415055
 20
38.75056030400001
 30
0.0
 11
89.29999474405056
 21
38.75113145610001
 31
0.0
  0
SPLINE
  5
2420
330
222
100
AcDbEntity
  8
0
  6
Continuous
 62
     7
100
AcDbSpline
210
0.0
220
0.0
230
1.0
 70
     8
 71
     3
 72
    54
 73
    50
 74
     0
 42
0.0000001
 43
0.0000000001
 40
0.0
 40
0.0
 40
0.0
 40
0.0
 40
0.0466940819
 40
0.090984042
 40
0.1325626324
 40
0.1711464398
 40
0.2064664486
 40
0.2382830254
 40
0.2663737459
 40
0.2905505396
 40
0.3011173012
 40
0.3106456737999999
 40
0.3191212566
 40
0.3265299907
 40
0.3328588996000001
 40
0.3381005943999999
 40
0.3422520721
 40
0.3453153490999999
 40
0.3464439677
 40
0.3473116457
 40
0.3479351514
 40
0.3483611446
 40
0.3487230534
 40
0.3492101495
 40
0.3499174715
 40
0.3508766815
 40
0.3520999978
 40
0.3535926457
 40
0.3553568021
 40
0.3573933699
 40
0.3622841168
 40
0.3682632052000001
 40
0.3753252096
 40
0.3834586884
 40
0.392649556
 40
0.4028833409000001
 40
0.4141446455
 40
0.4264134289000001
 40
0.4538855568
 40
0.4851164423
 40
0.5198875909
 40
0.5579633894000001
 40
0.59907813
 40
0.6429517308000001
 40
0.6892795491000001
 40
0.7377446938
 40
0.7880070586
 40
0.8925406454
 40
1.0
 40
1.0
 40
1.0
 40
1.0
 10
89.26800007785054
 20
38.9242532172
 30
0.0
 10
89.26744389065055
 20
38.9332267821
 30
0.0
 10
89.26638417625055
 20
38.9507133949
 30
0.0
 10
89.26491858445054
 20
38.9761958058
 30
0.0
 10
89.26362544415054
 20
39.00012381590001
 30
0.0
 10
89.26251321285056
 20
39.0223317897
 30
0.0
 10
89.26158957055054
 20
39.0426670059
 30
0.0
 10
89.26086001735056
 20
39.0609883023
 30
0.0
 10
89.26032950865055
 20
39.0771698524
 30
0.0
 10
89.26004255875055
 20
39.0892652542
 30
0.0
 10
89.25992554095055
 20
39.0977889258
 30
0.0
 10
89.25989339595055
 20
39.1032900991
 30
0.0
 10
89.25991242095056
 20
39.1081832699
 30
0.0
 10
89.25998219255054
 20
39.11245996570001
 30
0.0
 10
89.26010244545055
 20
39.1161124924
 30
0.0
 10
89.26027117345055
 20
39.1191357291
 30
0.0
 10
89.26048794335056
 20
39.1215242024
 30
0.0
 10
89.26071904405054
 20
39.123117028
 30
0.0
 10
89.26094694305055
 20
39.1240641165
 30
0.0
 10
89.26111305355055
 20
39.12454358530001
 30
0.0
 10
89.26128546315053
 20
39.1248677784
 30
0.0
 10
89.26149881485056
 20
39.1250671742
 30
0.0
 10
89.26176774435054
 20
39.1250421779
 30
0.0
 10
89.26199084075056
 20
39.1248252723
 30
0.0
 10
89.26221810805055
 20
39.1244801392
 30
0.0
 10
89.26245746905054
 20
39.1239751446
 30
0.0
 10
89.26271035665054
 20
39.1233144075
 30
0.0
 10
89.26297601045055
 20
39.1224931847
 30
0.0
 10
89.26325416145054
 20
39.1215125648
 30
0.0
 10
89.26366674605054
 20
39.1198905155
 30
0.0
 10
89.26420140075055
 20
39.1174630904
 30
0.0
 10
89.26485754215056
 20
39.1140730908
 30
0.0
 10
89.26555854995056
 20
39.1100565289
 30
0.0
 10
89.26630312895055
 20
39.10542032969999
 30
0.0
 10
89.26708947385055
 20
39.1001726154
 30
0.0
 10
89.26791601725055
 20
39.0943221831
 30
0.0
 10
89.26878111795055
 20
39.0878788384
 30
0.0
 10
89.27003177265055
 20
39.07813845710001
 30
0.0
 10
89.27167023085054
 20
39.0645714717
 30
0.0
 10
89.27369826975054
 20
39.0466878583
 30
0.0
 10
89.27584100465056
 20
39.0267628181
 30
0.0
 10
89.27808286755055
 20
39.00493464210001
 30
0.0
 10
89.28040840315054
 20
38.9813534018
 30
0.0
 10
89.28280099935054
 20
38.9561823376
 30
0.0
 10
89.28524431475054
 20
38.9295945585
 30
0.0
 10
89.28772102225055
 20
38.9017746477
 30
0.0
 10
89.29108939815055
 20
38.8627826059
 30
0.0
 10
89.29524833415056
 20
38.8124576108
 30
0.0
 10
89.29842804065055
 20
38.7717629848
 30
0.0
 10
89.29999474405056
 20
38.75113145610001
 30
0.0
  0
SPLINE
  5
2421
330
222
100
AcDbEntity
  8
0
  6
Continuous
 62
     7
100
AcDbSpline
210
0.0
220
0.0
230
1.0
 70
     8
 71
     3
 72
    39
 73
    35
 74
     0
 42
0.0000001
 43
0.0000000001
 40
0.0
 40
0.0
 40
0.0
 40
0.0
 40
0.0038772054
 40
0.0070578596
 40
0.0095485673
 40
0.0113655141
 40
0.0120349089
 40
0.0125607264
 40
0.0129719248
 40
0.0133270624
 40
0.0141820716
 40
0.0155726647
 40
0.017612085
 40
0.0203324563
 40
0.0237457014
 40
0.0278568638
 40
0.0326678184
 40
0.0381769581
 40
0.0512753994
 40
0.0671203656
 40
0.085675027
 40
0.1068866949
 40
0.1306920144
 40
0.1570266628
 40
0.1858162561
 40
0.2169736879
 40
0.2504108662
 40
0.3237363319
 40
0.4049387262
 40
0.4930808939000001
 40
0.5871453253
 40
0.6860278045000001
 40
0.7885917963
 40
1.0
 40
1.0
 40
1.0
 40
1.0
 10
89.31950305185054
 20
38.3819266104
 30
0.0
 10
89.31962051735053
 20
38.3814507366
 30
0.0
 10
89.31984531485055
 20
38.3805871657
 30
0.0
 10
89.32019447245055
 20
38.3794308869
 30
0.0
 10
89.32052214895055
 20
38.3785425848
 30
0.0
 10
89.32079569235055
 20
38.3779727154
 30
0.0
 10
89.32101623915055
 20
38.3776607599
 30
0.0
 10
89.32116085235055
 20
38.3775164993
 30
0.0
 10
89.32130711655053
 20
38.3774350045
 30
0.0
 10
89.32152284115055
 20
38.3774325719
 30
0.0
 10
89.32177399555055
 20
38.37769520070001
 30
0.0
 10
89.32197829505055
 20
38.37818960550001
 30
0.0
 10
89.32218400455054
 20
38.3789451219
 30
0.0
 10
89.32236471885055
 20
38.3799615596
 30
0.0
 10
89.32252985795056
 20
38.3812470286
 30
0.0
 10
89.32267388685055
 20
38.3827998383
 30
0.0
 10
89.32279772975055
 20
38.3846202281
 30
0.0
 10
89.32294303035055
 20
38.3875773427
 30
0.0
 10
89.32305897795055
 20
38.391931785
 30
0.0
 10
89.32310872655055
 20
38.3979364709
 30
0.0
 10
89.32307287945056
 20
38.404966946
 30
0.0
 10
89.32295136665056
 20
38.4130028651
 30
0.0
 10
89.32274404145054
 20
38.4220208484
 30
0.0
 10
89.32245108385055
 20
38.4319948946
 30
0.0
 10
89.32207312165054
 20
38.4428961355
 30
0.0
 10
89.32161132715055
 20
38.4546927863
 30
0.0
 10
89.32086182015053
 20
38.4721125922
 30
0.0
 10
89.31971719985055
 20
38.495847755
 30
0.0
 10
89.31807662975055
 20
38.5264823665
 30
0.0
 10
89.31614747405054
 20
38.5597267619
 30
0.0
 10
89.31395168145055
 20
38.5951942769
 30
0.0
 10
89.31151471815054
 20
38.6324733359
 30
0.0
 10
89.30794453195055
 20
38.6845443261
 30
0.0
 10
89.30505150765055
 20
38.7241314895
 30
0.0
 10
89.30302891105055
 20
38.7507811191
 30
0.0
  0
LINE
  5
2422
330
222
100
AcDbEntity
  8
0
  6
Continuous
 62
     7
100
AcDbLine
 10
89.30302891105055
 20
38.7507811191
 30
0.0
 11
89.30298506345055
 21
38.75135869440001
 31
0.0
  0
SPLINE
  5
2423
330
222
100
AcDbEntity
  8
0
  6
Continuous
 62
     7
100
AcDbSpline
210
0.0
220
0.0
230
1.0
 70
     8
 71
     3
 72
    39
 73
    35
 74
     0
 42
0.0000001
 43
0.0000000001
 40
0.0
 40
0.0
 40
0.0
 40
0.0
 40
0.0038878884
 40
0.007077807
 40
0.0095763517
 40
0.0113995935
 40
0.0120714207
 40
0.012599017
 40
0.0130110397
 40
0.0133657082
 40
0.0142173437
 40
0.0156050093
 40
0.0176427561
 40
0.02036272
 40
0.0237767415
 40
0.0278897698
 40
0.0327036903
 40
0.0382171037
 40
0.0513276531
 40
0.0671887723
 40
0.0857630531
 40
0.1069979323
 40
0.1308292304
 40
0.1571917709
 40
0.1860109456
 40
0.2171988445
 40
0.2506663879
 40
0.3240496662
 40
0.4052998317000001
 40
0.4934723547
 40
0.5875417373
 40
0.6863957579000001
 40
0.7888898732
 40
1.0
 40
1.0
 40
1.0
 40
1.0
 10
89.26336972685055
 20
39.120509774
 30
0.0
 10
89.26341391335055
 20
39.1210020738
 30
0.0
 10
89.26350564035054
 20
39.1218973035
 30
0.0
 10
89.26367622245056
 20
39.1231034808
 30
0.0
 10
89.26386621905056
 20
39.1240395195
 30
0.0
 10
89.26405089835055
 20
39.1246499492
 30
0.0
 10
89.26422217095057
 20
39.1249953362
 30
0.0
 10
89.26434361475054
 20
39.1251617792
 30
0.0
 10
89.26447607555054
 20
39.1252660769
 30
0.0
 10
89.26468954935055
 20
39.1253029908
 30
0.0
 10
89.26497929785055
 20
39.1250810233
 30
0.0
 10
89.26525656165054
 20
39.1246212887
 30
0.0
 10
89.26557541595055
 20
39.1239019617
 30
0.0
 10
89.26590890835056
 20
39.12291896860001
 30
0.0
 10
89.26626793075055
 20
39.121665756
 30
0.0
 10
89.26664659385055
 20
39.1201431565
 30
0.0
 10
89.26704589895054
 20
39.1183510615
 30
0.0
 10
89.26763914425055
 20
39.1154308789
 30
0.0
 10
89.26841547165055
 20
39.1111154736
 30
0.0
 10
89.26937672985054
 20
39.1051475607
 30
0.0
 10
89.27040885395054
 20
39.0981455195
 30
0.0
 10
89.27150863065055
 20
39.0901297177
 30
0.0
 10
89.27267236295056
 20
39.0811235718
 30
0.0
 10
89.27389625895054
 20
39.0711531967
 30
0.0
 10
89.27517651365056
 20
39.0602476199
 30
0.0
 10
89.27650944595056
 20
39.0484388717
 30
0.0
 10
89.27841044505056
 20
39.0309928304
 30
0.0
 10
89.28087776375056
 20
39.0072064543
 30
0.0
 10
89.28389969085055
 20
38.9764859777
 30
0.0
 10
89.28703043095055
 20
38.9431339715
 30
0.0
 10
89.29023282675055
 20
38.9075411129
 30
0.0
 10
89.29346942575055
 20
38.8701234581
 30
0.0
 10
89.29782211645054
 20
38.81786732670001
 30
0.0
 10
89.30095282795056
 20
38.7781206987
 30
0.0
 10
89.30298506345055
 20
38.75135869440001
 30
0.0
  0
LINE
  5
2424
330
222
100
AcDbEntity
  8
0
  6
Continuous
 62
     9
100
AcDbLine
 10
89.26399687265055
 20
38.9101934118
 30
0.0
 11
89.26429708475055
 21
38.9122873198
 31
0.0
  0
LINE
  5
2425
330
222
100
AcDbEntity
  8
0
  6
Continuous
 62
     9
100
AcDbLine
 10
89.27042660295056
 20
38.74994792360001
 30
0.0
 11
89.27034463035054
 21
38.7510287821
 31
0.0
  0
SPLINE
  5
2426
330
222
100
AcDbEntity
  8
0
  6
Continuous
 62
     9
100
AcDbSpline
210
0.0
220
0.0
230
1.0
 70
     8
 71
     3
 72
    47
 73
    43
 74
     0
 42
0.0000001
 43
0.0000000001
 40
0.0
 40
0.0
 40
0.0
 40
0.0
 40
0.097564877
 40
0.1912392939
 40
0.2774549251
 40
0.3167298405
 40
0.3529406068999999
 40
0.3857417903
 40
0.4148228934000001
 40
0.4399085868000001
 40
0.4508754570000001
 40
0.4607592167
 40
0.4695366802000001
 40
0.4771851008
 40
0.4836872874
 40
0.4890329898
 40
0.493214209
 40
0.4948670453
 40
0.4962285643000001
 40
0.4973017623
 40
0.4980948648
 40
0.4986293936
 40
0.4989784696
 40
0.4999001968
 40
0.5007407439
 40
0.5018632734000001
 40
0.5032748893
 40
0.5049781335
 40
0.5092603205
 40
0.514706487
 40
0.521308161
 40
0.5290547483
 40
0.5379287627
 40
0.5589665106
 40
0.5842300722
 40
0.6134779020000001
 40
0.6464330600000001
 40
0.6827835513
 40
0.7221826173999999
 40
0.8085951985999999
 40
0.9023921354
 40
1.0
 40
1.0
 40
1.0
 40
1.0
 10
89.27034463035054
 20
38.7510287821
 30
0.0
 10
89.26961095915055
 20
38.7607150794
 30
0.0
 10
89.26822128885055
 20
38.7797051368
 30
0.0
 10
89.26635195185054
 20
38.8072667297
 30
0.0
 10
89.26500502735056
 20
38.8290464574
 30
0.0
 10
89.26410331045055
 20
38.8451210108
 30
0.0
 10
89.26354625045055
 20
38.8558882264
 30
0.0
 10
89.26309195715054
 20
38.865644342
 30
0.0
 10
89.26274461405055
 20
38.8742963988
 30
0.0
 10
89.26253764345055
 20
38.8807782494
 30
0.0
 10
89.26243302825055
 20
38.8853507314
 30
0.0
 10
89.26238654265054
 20
38.8883003148
 30
0.0
 10
89.26236832295055
 20
38.890919814
 30
0.0
 10
89.26237838095055
 20
38.8932026835
 30
0.0
 10
89.26241630835056
 20
38.8951435735
 30
0.0
 10
89.26248169555055
 20
38.89673831280001
 30
0.0
 10
89.26256237445056
 20
38.8978488349
 30
0.0
 10
89.26264638295055
 20
38.898560611
 30
0.0
 10
89.26271155385055
 20
38.8989622009
 30
0.0
 10
89.26278089115056
 20
38.8992770388
 30
0.0
 10
89.26286039735055
 20
38.8995018601
 30
0.0
 10
89.26293645105054
 20
38.8996539794
 30
0.0
 10
89.26311583575055
 20
38.8997473828
 30
0.0
 10
89.26327697145055
 20
38.8995201499
 30
0.0
 10
89.26339316665055
 20
38.89928104
 30
0.0
 10
89.26351534805055
 20
38.8989592708
 30
0.0
 10
89.26363989345055
 20
38.8985590961
 30
0.0
 10
89.26383259325055
 20
38.8978467281
 30
0.0
 10
89.26408145895054
 20
38.8967365514
 30
0.0
 10
89.26438954605055
 20
38.8951396359
 30
0.0
 10
89.26472237435055
 20
38.8931971216
 30
0.0
 10
89.26507935905055
 20
38.8909126236
 30
0.0
 10
89.26561683445056
 20
38.8872018514
 30
0.0
 10
89.26633172775055
 20
38.8817548135
 30
0.0
 10
89.26722793185055
 20
38.8742862632
 30
0.0
 10
89.26819468555054
 20
38.8656314037
 30
0.0
 10
89.26922232685056
 20
38.8558728417
 30
0.0
 10
89.27030065605055
 20
38.845103472
 30
0.0
 10
89.27183993285055
 20
38.82903130840001
 30
0.0
 10
89.27380052925055
 20
38.8072538803
 30
0.0
 10
89.27611720585055
 20
38.77969006420001
 30
0.0
 10
89.27761226275055
 20
38.7606914832
 30
0.0
 10
89.27834995045055
 20
38.7510011985
 30
0.0
  0
LINE
  5
2427
330
222
100
AcDbEntity
  8
0
  6
Continuous
 62
     9
100
AcDbLine
 10
89.27834995045055
 20
38.7510011985
 30
0.0
 11
89.27838290995055
 21
38.75056802079999
 31
0.0
  0
LINE
  5
2428
330
222
100
AcDbEntity
  8
0
  6
Continuous
 62
     9
100
AcDbLine
 10
89.27838290995055
 20
38.75056802079999
 30
0.0
 11
89.27843003305055
 21
38.74994792360001
 31
0.0
  0
SPLINE
  5
2429
330
222
100
AcDbEntity
  8
0
  6
Continuous
 62
     9
100
AcDbSpline
210
0.0
220
0.0
230
1.0
 70
     8
 71
     3
 72
    17
 73
    13
 74
     0
 42
0.0000001
 43
0.0000000001
 40
0.0
 40
0.0
 40
0.0
 40
0.0
 40
0.0890425517
 40
0.1411779006
 40
0.1618857109
 40
0.1865635631
 40
0.2192190183
 40
0.2616434524
 40
0.3785185384
 40
0.5400664596000001
 40
0.7471222337000001
 40
1.0
 40
1.0
 40
1.0
 40
1.0
 10
89.26429709145054
 20
38.912287341
 30
0.0
 10
89.26432557475054
 20
38.9123773629
 30
0.0
 10
89.26437336045054
 20
38.9125141042
 30
0.0
 10
89.26449429415056
 20
38.9126645462
 30
0.0
 10
89.26460429775055
 20
38.9126635463
 30
0.0
 10
89.26467614325055
 20
38.9126176126
 30
0.0
 10
89.26474701205055
 20
38.9125385583
 30
0.0
 10
89.26485654665055
 20
38.9123661644
 30
0.0
 10
89.26499247935053
 20
38.9120528857
 30
0.0
 10
89.26515653125056
 20
38.9115648502
 30
0.0
 10
89.26533223515054
 20
38.910929359
 30
0.0
 10
89.26544583145055
 20
38.9104550181
 30
0.0
 10
89.26550530865055
 20
38.9101935465
 30
0.0
  0
SPLINE
  5
242A
330
222
100
AcDbEntity
  8
0
  6
Continuous
 62
     9
100
AcDbSpline
210
0.0
220
0.0
230
1.0
 70
     8
 71
     3
 72
    17
 73
    13
 74
     0
 42
0.0000001
 43
0.0000000001
 40
0.0
 40
0.0
 40
0.0
 40
0.0
 40
0.0194650675
 40
0.0463073543
 40
0.0803521923
 40
0.121342553
 40
0.2229089599
 40
0.3479732963
 40
0.4927828678
 40
0.6529871636
 40
0.8237660190999999
 40
1.0
 40
1.0
 40
1.0
 40
1.0
 10
89.26550530865055
 20
38.9101935465
 30
0.0
 10
89.26573526015054
 20
38.9091826429
 30
0.0
 10
89.26618994565055
 20
38.9067572808
 30
0.0
 10
89.26685790355055
 20
38.9025301374
 30
0.0
 10
89.26760487815055
 20
38.8971553576
 30
0.0
 10
89.26878573845057
 20
38.8878237258
 30
0.0
 10
89.27037917765053
 20
38.8736587204
 30
0.0
 10
89.27238862365054
 20
38.8539776396
 30
0.0
 10
89.27454086795055
 20
38.8311724065
 30
0.0
 10
89.27677050565055
 20
38.8059294086
 30
0.0
 10
89.27900873895055
 20
38.7790073312
 30
0.0
 10
89.28045344885054
 20
38.7605815823
 30
0.0
 10
89.28116584895056
 20
38.7512222719
 30
0.0
  0
LINE
  5
242B
330
222
100
AcDbEntity
  8
0
  6
Continuous
 62
     9
100
AcDbLine
 10
89.28116584895056
 20
38.7512222719
 30
0.0
 11
89.28124842265054
 21
38.7501361625
 31
0.0
  0
SPLINE
  5
242C
330
222
100
AcDbEntity
  8
0
  6
Continuous
 62
     9
100
AcDbSpline
210
0.0
220
0.0
230
1.0
 70
     8
 71
     3
 72
    47
 73
    43
 74
     0
 42
0.0000001
 43
0.0000000001
 40
0.0
 40
0.0
 40
0.0
 40
0.0
 40
0.0973722419
 40
0.1909755659
 40
0.2771991778
 40
0.3164997987
 40
0.3527450347
 40
0.3855866788
 40
0.4147103083000001
 40
0.4398383076
 40
0.4508251944
 40
0.4607278382000001
 40
0.4695228929
 40
0.4771874183
 40
0.4837038203000001
 40
0.4890616874
 40
0.4932529068
 40
0.4949098834
 40
0.4962749325
 40
0.4973509832
 40
0.4981461757
 40
0.4986818412
 40
0.4990306619
 40
0.4999503421
 40
0.5007908214
 40
0.5019139400000001
 40
0.5033267765999999
 40
0.5050318364000001
 40
0.5093193646000001
 40
0.5147730505000001
 40
0.5213843198000001
 40
0.5291424283000001
 40
0.5380295215
 40
0.5590973709
 40
0.5843947694000001
 40
0.6136771008
 40
0.646665159
 40
0.6830431231000001
 40
0.7224614799
 40
0.8088712655
 40
0.9025891943999999
 40
1.0
 40
1.0
 40
1.0
 40
1.0
 10
89.27843003305055
 20
38.74994792360001
 30
0.0
 10
89.27916938135055
 20
38.7402116298
 30
0.0
 10
89.28057047025054
 20
38.7211121347
 30
0.0
 10
89.28245616915054
 20
38.6933789731
 30
0.0
 10
89.28381619875056
 20
38.6714471692
 30
0.0
 10
89.28472765935055
 20
38.6552507829
 30
0.0
 10
89.28529126465056
 20
38.644396449
 30
0.0
 10
89.28575136005056
 20
38.6345587601
 30
0.0
 10
89.28610363755055
 20
38.6258322369
 30
0.0
 10
89.28631409235055
 20
38.6192934903
 30
0.0
 10
89.28642098865054
 20
38.614680137
 30
0.0
 10
89.28646885495055
 20
38.61170377150001
 30
0.0
 10
89.28648819805054
 20
38.6090602386
 30
0.0
 10
89.28647900825055
 20
38.6067562047
 30
0.0
 10
89.28644168375056
 20
38.6047971312
 30
0.0
 10
89.28637663945055
 20
38.6031872829
 30
0.0
 10
89.28629603995055
 20
38.6020661141
 30
0.0
 10
89.28621195205055
 20
38.6013473963
 30
0.0
 10
89.28614664475054
 20
38.6009418029
 30
0.0
 10
89.28607716065055
 20
38.6006237804
 30
0.0
 10
89.28599734065056
 20
38.6003965775
 30
0.0
 10
89.28592122635055
 20
38.6002429116
 30
0.0
 10
89.28574108565054
 20
38.6001477968
 30
0.0
 10
89.28557878405054
 20
38.6003769656
 30
0.0
 10
89.28546225275054
 20
38.600617639
 30
0.0
 10
89.28533937705054
 20
38.6009420522
 30
0.0
 10
89.28521418565054
 20
38.6013455192
 30
0.0
 10
89.28502038655054
 20
38.6020639515
 30
0.0
 10
89.28477007785055
 20
38.6031836553
 30
0.0
 10
89.28446013025055
 20
38.604794376
 30
0.0
 10
89.28412523845056
 20
38.6067537743
 30
0.0
 10
89.28376599455054
 20
38.6090581577
 30
0.0
 10
89.28322507085054
 20
38.6128011174
 30
0.0
 10
89.28250553515054
 20
38.6182950336
 30
0.0
 10
89.28160349605056
 20
38.6258271069
 30
0.0
 10
89.28063049265054
 20
38.6345542676
 30
0.0
 10
89.27959636885054
 20
38.6443924073
 30
0.0
 10
89.27851144035056
 20
38.6552470791
 30
0.0
 10
89.27696347455055
 20
38.67143905050001
 30
0.0
 10
89.27499292975054
 20
38.69336658530001
 30
0.0
 10
89.27266654275054
 20
38.7211004089
 30
0.0
 10
89.27116624405055
 20
38.7402077738
 30
0.0
 10
89.27042660295056
 20
38.74994792360001
 30
0.0
  0
SPLINE
  5
242D
330
222
100
AcDbEntity
  8
0
  6
Continuous
 62
     9
100
AcDbSpline
210
0.0
220
0.0
230
1.0
 70
     8
 71
     3
 72
    17
 73
    13
 74
     0
 42
0.0000001
 43
0.0000000001
 40
0.0
 40
0.0
 40
0.0
 40
0.0
 40
0.1765019594
 40
0.3475826079
 40
0.5080488745000001
 40
0.6530298557
 40
0.7781271580000001
 40
0.8795511925999999
 40
0.9203963646
 40
0.9542440545999999
 40
0.9808365564
 40
1.0
 40
1.0
 40
1.0
 40
1.0
 10
89.28124842265054
 20
38.7501361625
 30
0.0
 10
89.28196266875055
 20
38.7407304329
 30
0.0
 10
89.28332681795055
 20
38.7222046243
 30
0.0
 10
89.28519298285054
 20
38.6951170237
 30
0.0
 10
89.28681191965054
 20
38.6697012937
 30
0.0
 10
89.28813629385055
 20
38.6467295985
 30
0.0
 10
89.28912646695055
 20
38.6268999314
 30
0.0
 10
89.28969144705055
 20
38.6126215925
 30
0.0
 10
89.28993159125054
 20
38.6032123441
 30
0.0
 10
89.29000258625055
 20
38.5977994334
 30
0.0
 10
89.28997734825054
 20
38.5935453121
 30
0.0
 10
89.28989118185056
 20
38.5911001531
 30
0.0
 10
89.28981398405055
 20
38.5900789131
 30
0.0
  0
SPLINE
  5
242E
330
222
100
AcDbEntity
  8
0
  6
Continuous
 62
     9
100
AcDbSpline
210
0.0
220
0.0
230
1.0
 70
     8
 71
     3
 72
    17
 73
    13
 74
     0
 42
0.0000001
 43
0.0000000001
 40
0.0
 40
0.0
 40
0.0
 40
0.0
 40
0.2521767985999999
 40
0.458391621
 40
0.6189933490000001
 40
0.7348898246
 40
0.7768737368
 40
0.8091972018999999
 40
0.8337919924999999
 40
0.8548634251999999
 40
0.9087939119999999
 40
1.0
 40
1.0
 40
1.0
 40
1.0
 10
89.28981398405055
 20
38.5900789131
 30
0.0
 10
89.28979455695055
 20
38.5898219152
 30
0.0
 10
89.28975377415055
 20
38.5893551665
 30
0.0
 10
89.28967619695056
 20
38.5887269799
 30
0.0
 10
89.28958822675054
 20
38.5882414876
 30
0.0
 10
89.28950190215054
 20
38.5879262547
 30
0.0
 10
89.28942038245054
 20
38.5877490026
 30
0.0
 10
89.28936285395055
 20
38.5876653593
 30
0.0
 10
89.28929888035055
 20
38.5876135067
 30
0.0
 10
89.28919152915055
 20
38.5876014194
 30
0.0
 10
89.28905378975054
 20
38.5877313404
 30
0.0
 10
89.28898575995054
 20
38.5878581068
 30
0.0
 10
89.28894453555054
 20
38.5879417105
 30
0.0
  0
SPLINE
  5
242F
330
222
100
AcDbEntity
  8
0
  6
Continuous
 62
     9
100
AcDbSpline
210
0.0
220
0.0
230
1.0
 70
     8
 71
     3
 72
    16
 73
    12
 74
     0
 42
0.0000001
 43
0.0000000001
 40
0.0
 40
0.0
 40
0.0
 40
0.0
 40
0.0805728081
 40
0.1258235091
 40
0.1696722111
 40
0.2038272853
 40
0.2480912929
 40
0.3688927189
 40
0.5341490041000001
 40
0.7444512637999999
 40
1.0
 40
1.0
 40
1.0
 40
1.0
 10
89.30203027925056
 20
38.56141359929999
 30
0.0
 10
89.30208173665056
 20
38.5613092142
 30
0.0
 10
89.30215636955054
 20
38.5611521434
 30
0.0
 10
89.30238906355056
 20
38.5609759808
 30
0.0
 10
89.30255064175055
 20
38.561118511
 30
0.0
 10
89.30262700685053
 20
38.5612722984
 30
0.0
 10
89.30272974225054
 20
38.5615440837
 30
0.0
 10
89.30283248435054
 20
38.5620100571
 30
0.0
 10
89.30293871005055
 20
38.562719711
 30
0.0
 10
89.30302888305055
 20
38.56362695340001
 30
0.0
 10
89.30307518005056
 20
38.5642983316
 30
0.0
 10
89.30309675525055
 20
38.5646668147
 30
0.0
  0
SPLINE
  5
2430
330
222
100
AcDbEntity
  8
0
  6
Continuous
 62
     9
100
AcDbSpline
210
0.0
220
0.0
230
1.0
 70
     8
 71
     3
 72
    16
 73
    12
 74
     0
 42
0.0000001
 43
0.0000000001
 40
0.0
 40
0.0
 40
0.0
 40
0.0
 40
0.0207184594
 40
0.0486305142
 40
0.1252382253
 40
0.2276218068
 40
0.3527828332
 40
0.4970528638000001
 40
0.6561708704
 40
0.8255029897
 40
1.0
 40
1.0
 40
1.0
 40
1.0
 10
89.30309675525055
 20
38.5646668147
 30
0.0
 10
89.30317209115054
 20
38.5659534755
 30
0.0
 10
89.30325317565054
 20
38.5689787174
 30
0.0
 10
89.30325871915055
 20
38.5767697077
 30
0.0
 10
89.30293113525054
 20
38.5896385131
 30
0.0
 10
89.30217097845055
 20
38.6085440393
 30
0.0
 10
89.30100128135055
 20
38.63164495719999
 30
0.0
 10
89.29945845665056
 20
38.6582597918
 30
0.0
 10
89.29758279545055
 20
38.6876072986
 30
0.0
 10
89.29542896895055
 20
38.7188207766
 30
0.0
 10
89.29385750345055
 20
38.740152158
 30
0.0
 10
89.29303555495055
 20
38.7509761934
 30
0.0
  0
LINE
  5
2431
330
222
100
AcDbEntity
  8
0
  6
Continuous
 62
     9
100
AcDbLine
 10
89.30328737785055
 20
38.5576746932
 30
0.0
 11
89.30332550765054
 21
38.5574567882
 31
0.0
  0
SPLINE
  5
2432
330
222
100
AcDbEntity
  8
0
  6
Continuous
 62
     9
100
AcDbSpline
210
0.0
220
0.0
230
1.0
 70
     8
 71
     3
 72
    24
 73
    20
 74
     0
 42
0.0000001
 43
0.0000000001
 40
0.0
 40
0.0
 40
0.0
 40
0.0
 40
0.2134144253
 40
0.2981123448
 40
0.3681078545
 40
0.4234391270000001
 40
0.4642752755
 40
0.4912252029000001
 40
0.5067452502
 40
0.5133794093999999
 40
0.5216760784000001
 40
0.5327288227000001
 40
0.5470116818000001
 40
0.586009322
 40
0.6394580949000001
 40
0.7075570098
 40
0.7903564526000002
 40
0.8878490324999999
 40
1.0
 40
1.0
 40
1.0
 40
1.0
 10
89.30344809135055
 20
38.5567704532
 30
0.0
 10
89.30361023545055
 20
38.5558773484
 30
0.0
 10
89.30384972875055
 20
38.5546317389
 30
0.0
 10
89.30419831765055
 20
38.5531054696
 30
0.0
 10
89.30442595955055
 20
38.5522408946
 30
0.0
 10
89.30463420185054
 20
38.5515667694
 30
0.0
 10
89.30483541515055
 20
38.5510778855
 30
0.0
 10
89.30499976075054
 20
38.5507728996
 30
0.0
 10
89.30518790815055
 20
38.5506251707
 30
0.0
 10
89.30531962095056
 20
38.550667468
 30
0.0
 10
89.30539714665055
 20
38.5507492187
 30
0.0
 10
89.30546944325055
 20
38.5508732542
 30
0.0
 10
89.30557104595056
 20
38.551128079
 30
0.0
 10
89.30567887325054
 20
38.55157049440001
 30
0.0
 10
89.30578765475054
 20
38.5522447159
 30
0.0
 10
89.30588258915056
 20
38.55310900940001
 30
0.0
 10
89.30596366915056
 20
38.5541624413
 30
0.0
 10
89.30603005865055
 20
38.555404598
 30
0.0
 10
89.30606214165056
 20
38.5562957215
 30
0.0
 10
89.30607628235055
 20
38.5567725176
 30
0.0
  0
LINE
  5
2433
330
222
100
AcDbEntity
  8
0
  6
Continuous
 62
     9
100
AcDbLine
 10
89.30610785255055
 20
38.5580698789
 30
0.0
 11
89.30614229115056
 21
38.5621020089
 31
0.0
  0
SPLINE
  5
2434
330
222
100
AcDbEntity
  8
0
  6
Continuous
 62
     9
100
AcDbSpline
210
0.0
220
0.0
230
1.0
 70
     8
 71
     3
 72
    12
 73
     8
 74
     0
 42
0.0000001
 43
0.0000000001
 40
0.0
 40
0.0
 40
0.0
 40
0.0
 40
0.0735410048
 40
0.1664644959
 40
0.4023623402000001
 40
0.6881183893000001
 40
1.0
 40
1.0
 40
1.0
 40
1.0
 10
89.30609741935056
 20
38.5675010683
 30
0.0
 10
89.30602999015055
 20
38.5720101308
 30
0.0
 10
89.30574817125055
 20
38.5822145925
 30
0.0
 10
89.30475280495056
 20
38.6068677884
 30
0.0
 10
89.30271616815055
 20
38.6445004091
 30
0.0
 10
89.29944843325055
 20
38.6955089534
 30
0.0
 10
89.29680832305054
 20
38.73206164320001
 30
0.0
 10
89.29536021215055
 20
38.75113145610001
 30
0.0
  0
SPLINE
  5
2435
330
222
100
AcDbEntity
  8
0
  6
Continuous
 62
     9
100
AcDbSpline
210
0.0
220
0.0
230
1.0
 70
     8
 71
     3
 72
    12
 73
     8
 74
     0
 42
0.0000001
 43
0.0000000001
 40
0.0
 40
0.0
 40
0.0
 40
0.0
 40
0.3112490313
 40
0.5967895997000001
 40
0.8329050629999999
 40
0.926094855
 40
1.0
 40
1.0
 40
1.0
 40
1.0
 10
89.29536021215055
 20
38.75113145610001
 30
0.0
 10
89.29391119785055
 20
38.770213164
 30
0.0
 10
89.29099772705056
 20
38.8067904686
 30
0.0
 10
89.28651783715055
 20
38.85780431820001
 30
0.0
 10
89.28283917505055
 20
38.8954292326
 30
0.0
 10
89.28009176375054
 20
38.920067514
 30
0.0
 10
89.27882458685054
 20
38.9302632943
 30
0.0
 10
89.27820814865055
 20
38.9347652256
 30
0.0
  0
SPLINE
  5
2436
330
222
100
AcDbEntity
  8
0
  6
Continuous
 62
     9
100
AcDbSpline
210
0.0
220
0.0
230
1.0
 70
     8
 71
     3
 72
    24
 73
    20
 74
     0
 42
0.0000001
 43
0.0000000001
 40
0.0
 40
0.0
 40
0.0
 40
0.0
 40
0.2134144253
 40
0.2981123448
 40
0.3681078545
 40
0.4234391270000001
 40
0.4642752755
 40
0.4912252029000001
 40
0.5067452502
 40
0.5133794093999999
 40
0.5216760784000001
 40
0.5327288227000001
 40
0.5470116818000001
 40
0.586009322
 40
0.6394580949000001
 40
0.7075570098
 40
0.7903564526000002
 40
0.8878490324999999
 40
1.0
 40
1.0
 40
1.0
 40
1.0
 10
89.27655770465056
 20
38.94549245909999
 30
0.0
 10
89.27639556055053
 20
38.9463855639
 30
0.0
 10
89.27615606715056
 20
38.94763117340001
 30
0.0
 10
89.27580747825055
 20
38.9491574427
 30
0.0
 10
89.27557983645055
 20
38.9500220177
 30
0.0
 10
89.27537159405055
 20
38.9506961429
 30
0.0
 10
89.27517038085055
 20
38.9511850268
 30
0.0
 10
89.27500603525054
 20
38.9514900126
 30
0.0
 10
89.27481788775054
 20
38.9516377416
 30
0.0
 10
89.27468617495055
 20
38.9515954442
 30
0.0
 10
89.27460864925055
 20
38.9515136936
 30
0.0
 10
89.27453635275055
 20
38.95138965800001
 30
0.0
 10
89.27443474995055
 20
38.9511348333
 30
0.0
 10
89.27432692265055
 20
38.9506924178
 30
0.0
 10
89.27421814115055
 20
38.9500181963
 30
0.0
 10
89.27412320685055
 20
38.9491539029
 30
0.0
 10
89.27404212675055
 20
38.948100471
 30
0.0
 10
89.27397573725055
 20
38.9468583143
 30
0.0
 10
89.27394365425056
 20
38.9459671907
 30
0.0
 10
89.27392951355054
 20
38.9454903947
 30
0.0
  0
LINE
  5
2437
330
222
100
AcDbEntity
  8
0
  6
Continuous
 62
     9
100
AcDbLine
 10
89.27390004705054
 20
38.9442989772
 30
0.0
 11
89.27389766085054
 21
38.9441784992
 31
0.0
  0
SPLINE
  5
2438
330
222
100
AcDbEntity
  8
0
  6
Continuous
 62
     9
100
AcDbSpline
210
0.0
220
0.0
230
1.0
 70
     8
 71
     3
 72
    16
 73
    12
 74
     0
 42
0.0000001
 43
0.0000000001
 40
0.0
 40
0.0
 40
0.0
 40
0.0
 40
0.1739832249
 40
0.3429375622
 40
0.5018249431
 40
0.6460179749
 40
0.7712577641
 40
0.873873275
 40
0.9508587791
 40
0.9790106960999999
 40
1.0
 40
1.0
 40
1.0
 40
1.0
 10
89.29303555495055
 20
38.7509761934
 30
0.0
 10
89.29221330965054
 20
38.7618041377
 30
0.0
 10
89.29054442455054
 20
38.7831434284
 30
0.0
 10
89.28795758295056
 20
38.8143578069
 30
0.0
 10
89.28537591255055
 20
38.8437065727
 30
0.0
 10
89.28287638605054
 20
38.8703230823
 30
0.0
 10
89.28053716945056
 20
38.8934267292
 30
0.0
 10
89.27842557905055
 20
38.912335715
 30
0.0
 10
89.27679840125055
 20
38.9252018352
 30
0.0
 10
89.27561074105055
 20
38.932984022
 30
0.0
 10
89.27507070715055
 20
38.9360042974
 30
0.0
 10
89.27480093165055
 20
38.9372862613
 30
0.0
  0
SPLINE
  5
2439
330
222
100
AcDbEntity
  8
0
  6
Continuous
 62
     9
100
AcDbSpline
210
0.0
220
0.0
230
1.0
 70
     8
 71
     3
 72
    17
 73
    13
 74
     0
 42
0.0000001
 43
0.0000000001
 40
0.0
 40
0.0
 40
0.0
 40
0.0
 40
0.255667414
 40
0.4662933418
 40
0.6320523183
 40
0.7534856140999999
 40
0.8323234267
 40
0.8762136634999999
 40
0.8956956796
 40
0.9211276079000001
 40
0.9554930137999999
 40
1.0
 40
1.0
 40
1.0
 40
1.0
 10
89.27480093165055
 20
38.9372862613
 30
0.0
 10
89.27472216355054
 20
38.9376605645
 30
0.0
 10
89.27457218065056
 20
38.9383417859
 30
0.0
 10
89.27433881195055
 20
38.9392590085
 30
0.0
 10
89.27412750955054
 20
38.9399717208
 30
0.0
 10
89.27392089685055
 20
38.940485051
 30
0.0
 10
89.27376018305054
 20
38.94080244900001
 30
0.0
 10
89.27356194165055
 20
38.9409531978
 30
0.0
 10
89.27343090135055
 20
38.9408957134
 30
0.0
 10
89.27335534175055
 20
38.9408023376
 30
0.0
 10
89.27328353475054
 20
38.9406631626
 30
0.0
 10
89.27324399015054
 20
38.9405516833
 30
0.0
 10
89.27322391025056
 20
38.9404881967
 30
0.0
  0
ENDSEC
  0
SECTION
  2
OBJECTS
  0
DICTIONARY
  5
C
330
0
100
AcDbDictionary
281
     1
  3
ACAD_CIP_PREVIOUS_PRODUCT_INFO
350
25DD
  3
ACAD_COLOR
350
2573
  3
ACAD_DETAILVIEWSTYLE
350
258C
  3
ACAD_GROUP
350
D
  3
ACAD_LAYOUT
350
1A
  3
ACAD_MATERIAL
350
2541
  3
ACAD_MLEADERSTYLE
350
2588
  3
ACAD_MLINESTYLE
350
17
  3
ACAD_PLOTSETTINGS
350
19
  3
ACAD_PLOTSTYLENAME
350
E
  3
ACAD_SCALELIST
350
2576
  3
ACAD_SECTIONVIEWSTYLE
350
258A
  3
ACAD_TABLESTYLE
350
2574
  3
ACAD_VISUALSTYLE
350
255A
  3
ACDB_RECOMPOSE_DATA
350
26F3
  3
AcDbVariableDictionary
350
25D0
  3
DWGPROPS
350
26F4
  0
DICTIONARY
  5
2591
330
8
100
AcDbDictionary
280
     1
281
     1
  0
DICTIONARY
  5
25DE
330
10
100
AcDbDictionary
280
     1
281
     1
  3
ADSK_XREC_LAYER_RECONCILED
360
25DF
  0
DICTIONARY
  5
25E0
330
1FA
100
AcDbDictionary
280
     1
281
     1
  3
ADSK_XREC_LAYER_RECONCILED
360
25E1
  0
DICTIONARY
  5
25E2
330
1FB
100
AcDbDictionary
280
     1
281
     1
  3
ADSK_XREC_LAYER_RECONCILED
360
25E3
  0
DICTIONARY
  5
25E4
330
1FC
100
AcDbDictionary
280
     1
281
     1
  3
ADSK_XREC_LAYER_RECONCILED
360
25E5
  0
DICTIONARY
  5
25E6
330
1FD
100
AcDbDictionary
280
     1
281
     1
  3
ADSK_XREC_LAYER_RECONCILED
360
25E7
  0
DICTIONARY
  5
25E8
330
1FE
100
AcDbDictionary
280
     1
281
     1
  3
ADSK_XREC_LAYER_RECONCILED
360
25E9
  0
DICTIONARY
  5
25EA
330
1FF
100
AcDbDictionary
280
     1
281
     1
  3
ADSK_XREC_LAYER_RECONCILED
360
25EB
  0
DICTIONARY
  5
25EC
330
200
100
AcDbDictionary
280
     1
281
     1
  3
ADSK_XREC_LAYER_RECONCILED
360
25ED
  0
DICTIONARY
  5
25EE
330
201
100
AcDbDictionary
280
     1
281
     1
  3
ADSK_XREC_LAYER_RECONCILED
360
25EF
  0
DICTIONARY
  5
25F0
330
202
100
AcDbDictionary
280
     1
281
     1
  3
ADSK_XREC_LAYER_RECONCILED
360
25F1
  0
DICTIONARY
  5
25F2
330
203
100
AcDbDictionary
280
     1
281
     1
  3
ADSK_XREC_LAYER_RECONCILED
360
25F3
  0
DICTIONARY
  5
25F4
330
204
100
AcDbDictionary
280
     1
281
     1
  3
ADSK_XREC_LAYER_RECONCILED
360
25F5
  0
DICTIONARY
  5
25F6
330
205
100
AcDbDictionary
280
     1
281
     1
  3
ADSK_XREC_LAYER_RECONCILED
360
25F7
  0
DICTIONARY
  5
25F8
330
206
100
AcDbDictionary
280
     1
281
     1
  3
ADSK_XREC_LAYER_RECONCILED
360
25F9
  0
DICTIONARY
  5
25FA
330
207
100
AcDbDictionary
280
     1
281
     1
  3
ADSK_XREC_LAYER_RECONCILED
360
25FB
  0
DICTIONARY
  5
25FC
330
208
100
AcDbDictionary
280
     1
281
     1
  3
ADSK_XREC_LAYER_RECONCILED
360
25FD
  0
DICTIONARY
  5
25FE
330
209
100
AcDbDictionary
280
     1
281
     1
  3
ADSK_XREC_LAYER_RECONCILED
360
25FF
  0
DICTIONARY
  5
2600
330
20A
100
AcDbDictionary
280
     1
281
     1
  3
ADSK_XREC_LAYER_RECONCILED
360
2601
  0
DICTIONARY
  5
2602
330
20B
100
AcDbDictionary
280
     1
281
     1
  3
ADSK_XREC_LAYER_RECONCILED
360
2603
  0
DICTIONARY
  5
2604
330
20C
100
AcDbDictionary
280
     1
281
     1
  3
ADSK_XREC_LAYER_RECONCILED
360
2605
  0
DICTIONARY
  5
2606
330
20D
100
AcDbDictionary
280
     1
281
     1
  3
ADSK_XREC_LAYER_RECONCILED
360
2607
  0
DICTIONARY
  5
2608
330
20E
100
AcDbDictionary
280
     1
281
     1
  3
ADSK_XREC_LAYER_RECONCILED
360
2609
  0
DICTIONARY
  5
260A
330
20F
100
AcDbDictionary
280
     1
281
     1
  3
ADSK_XREC_LAYER_RECONCILED
360
260B
  0
DICTIONARY
  5
260C
330
210
100
AcDbDictionary
280
     1
281
     1
  3
ADSK_XREC_LAYER_RECONCILED
360
260D
  0
DICTIONARY
  5
260E
330
211
100
AcDbDictionary
280
     1
281
     1
  3
ADSK_XREC_LAYER_RECONCILED
360
260F
  0
DICTIONARY
  5
2610
330
212
100
AcDbDictionary
280
     1
281
     1
  3
ADSK_XREC_LAYER_RECONCILED
360
2611
  0
DICTIONARY
  5
2612
330
213
100
AcDbDictionary
280
     1
281
     1
  3
ADSK_XREC_LAYER_RECONCILED
360
2613
  0
DICTIONARY
  5
2614
330
214
100
AcDbDictionary
280
     1
281
     1
  3
ADSK_XREC_LAYER_RECONCILED
360
2615
  0
DICTIONARY
  5
2616
330
215
100
AcDbDictionary
280
     1
281
     1
  3
ADSK_XREC_LAYER_RECONCILED
360
2617
  0
DICTIONARY
  5
2618
330
216
100
AcDbDictionary
280
     1
281
     1
  3
ADSK_XREC_LAYER_RECONCILED
360
2619
  0
DICTIONARY
  5
261A
330
217
100
AcDbDictionary
280
     1
281
     1
  3
ADSK_XREC_LAYER_RECONCILED
360
261B
  0
DICTIONARY
  5
261C
330
218
100
AcDbDictionary
280
     1
281
     1
  3
ADSK_XREC_LAYER_RECONCILED
360
261D
  0
DICTIONARY
  5
261E
330
219
100
AcDbDictionary
280
     1
281
     1
  3
ADSK_XREC_LAYER_RECONCILED
360
261F
  0
DICTIONARY
  5
2620
330
21A
100
AcDbDictionary
280
     1
281
     1
  3
ADSK_XREC_LAYER_RECONCILED
360
2621
  0
DICTIONARY
  5
2622
330
21B
100
AcDbDictionary
280
     1
281
     1
  3
ADSK_XREC_LAYER_RECONCILED
360
2623
  0
DICTIONARY
  5
2624
330
21C
100
AcDbDictionary
280
     1
281
     1
  3
ADSK_XREC_LAYER_RECONCILED
360
2625
  0
DICTIONARY
  5
2626
330
21D
100
AcDbDictionary
280
     1
281
     1
  3
ADSK_XREC_LAYER_RECONCILED
360
2627
  0
DICTIONARY
  5
2628
330
21E
100
AcDbDictionary
280
     1
281
     1
  3
ADSK_XREC_LAYER_RECONCILED
360
2629
  0
DICTIONARY
  5
262A
330
21F
100
AcDbDictionary
280
     1
281
     1
  3
ADSK_XREC_LAYER_RECONCILED
360
262B
  0
XRECORD
  5
25DD
102
{ACAD_REACTORS
330
C
102
}
330
C
100
AcDbXrecord
280
     1
300
ACDLT
300
2018
300
ACDLT_F_S
  0
DICTIONARY
  5
2573
102
{ACAD_REACTORS
330
C
102
}
330
C
100
AcDbDictionary
281
     1
  0
DICTIONARY
  5
258C
102
{ACAD_REACTORS
330
C
102
}
330
C
100
AcDbDictionary
281
     1
  3
Imperial24
350
258D
  0
DICTIONARY
  5
D
102
{ACAD_REACTORS
330
C
102
}
330
C
100
AcDbDictionary
281
     1
  0
DICTIONARY
  5
1A
102
{ACAD_REACTORS
330
C
102
}
330
C
100
AcDbDictionary
281
     1
  3
Layout1
350
253E
  3
Model
350
253D
  0
DICTIONARY
  5
2541
102
{ACAD_REACTORS
330
C
102
}
330
C
100
AcDbDictionary
281
     1
  3
ByBlock
350
254A
  3
ByLayer
350
2542
  3
Global
350
2552
  0
DICTIONARY
  5
2588
102
{ACAD_REACTORS
330
C
102
}
330
C
100
AcDbDictionary
281
     1
  3
Standard
350
2589
  0
DICTIONARY
  5
17
102
{ACAD_REACTORS
330
C
102
}
330
C
100
AcDbDictionary
281
     1
  3
Standard
350
18
  0
DICTIONARY
  5
19
102
{ACAD_REACTORS
330
C
102
}
330
C
100
AcDbDictionary
281
     1
  0
ACDBDICTIONARYWDFLT
  5
E
102
{ACAD_REACTORS
330
C
102
}
330
C
100
AcDbDictionary
281
     1
  3
Normal
350
F
100
AcDbDictionaryWithDefault
340
F
  0
DICTIONARY
  5
2576
102
{ACAD_REACTORS
330
C
102
}
330
C
100
AcDbDictionary
281
     1
  3
A0
350
2577
  3
A1
350
2578
  3
A2
350
2579
  3
A3
350
257A
  3
A4
350
257B
  3
A5
350
257C
  3
A6
350
257D
  3
A7
350
257E
  3
A8
350
257F
  3
A9
350
2580
  3
B0
350
2581
  3
B1
350
2582
  3
B2
350
2583
  3
B3
350
2584
  3
B4
350
2585
  3
B5
350
2586
  3
B6
350
2587
  0
DICTIONARY
  5
258A
102
{ACAD_REACTORS
330
C
102
}
330
C
100
AcDbDictionary
281
     1
  3
Imperial24
350
258B
  0
DICTIONARY
  5
2574
102
{ACAD_REACTORS
330
C
102
}
330
C
100
AcDbDictionary
281
     1
  3
Standard
350
2575
  0
DICTIONARY
  5
255A
102
{ACAD_REACTORS
330
C
102
}
330
C
100
AcDbDictionary
281
     1
  3
2dWireframe
350
2560
  3
Basic
350
255F
  3
Brighten
350
2566
  3
ColorChange
350
256A
  3
Conceptual
350
2563
  3
Dim
350
2565
  3
EdgeColorOff
350
2572
  3
Facepattern
350
2569
  3
Flat
350
255B
  3
FlatWithEdges
350
255C
  3
Gouraud
350
255D
  3
GouraudWithEdges
350
255E
  3
Hidden
350
2562
  3
JitterOff
350
2570
  3
Linepattern
350
2568
  3
OverhangOff
350
2571
  3
Realistic
350
2564
  3
Shaded
350
256F
  3
Shaded with edges
350
256E
  3
Shades of Gray
350
256B
  3
Sketchy
350
256C
  3
Thicken
350
2567
  3
Wireframe
350
2561
  3
X-Ray
350
256D
  0
XRECORD
  5
26F3
102
{ACAD_REACTORS
330
C
102
}
330
C
100
AcDbXrecord
280
     1
 90
        1
330
2575
  0
DICTIONARY
  5
25D0
102
{ACAD_REACTORS
330
C
102
}
330
C
100
AcDbDictionary
281
     1
  3
CANNOSCALE
350
25D5
  3
CMLEADERSTYLE
350
25D2
  3
CTABLESTYLE
350
25D1
  3
CVIEWDETAILSTYLE
350
25D3
  3
CVIEWSECTIONSTYLE
350
25D4
  3
DIMASSOC
350
25D8
  3
INDEXCTL
350
25D7
  3
SORTENTS
350
25D6
  3
XCLIPFRAME
350
26B2
  0
XRECORD
  5
26F4
102
{ACAD_REACTORS
330
C
102
}
330
C
100
AcDbXrecord
280
     1
  1
DWGPROPS COOKIE
  2

  3

  4

  6

  7

  8
guillaumes
  9

300
=
301
=
302
=
303
=
304
=
305
=
306
=
307
=
308
=
309
=
 40
0.0011458333333333
 41
2458389.568379629
 42
2458389.632569445
  1

 90
        0
  0
XRECORD
  5
25DF
102
{ACAD_REACTORS
330
25DE
102
}
330
25DE
100
AcDbXrecord
280
     1
290
     1
  0
XRECORD
  5
25E1
102
{ACAD_REACTORS
330
25E0
102
}
330
25E0
100
AcDbXrecord
280
     1
290
     1
  0
XRECORD
  5
25E3
102
{ACAD_REACTORS
330
25E2
102
}
330
25E2
100
AcDbXrecord
280
     1
290
     1
  0
XRECORD
  5
25E5
102
{ACAD_REACTORS
330
25E4
102
}
330
25E4
100
AcDbXrecord
280
     1
290
     1
  0
XRECORD
  5
25E7
102
{ACAD_REACTORS
330
25E6
102
}
330
25E6
100
AcDbXrecord
280
     1
290
     1
  0
XRECORD
  5
25E9
102
{ACAD_REACTORS
330
25E8
102
}
330
25E8
100
AcDbXrecord
280
     1
290
     1
  0
XRECORD
  5
25EB
102
{ACAD_REACTORS
330
25EA
102
}
330
25EA
100
AcDbXrecord
280
     1
290
     1
  0
XRECORD
  5
25ED
102
{ACAD_REACTORS
330
25EC
102
}
330
25EC
100
AcDbXrecord
280
     1
290
     1
  0
XRECORD
  5
25EF
102
{ACAD_REACTORS
330
25EE
102
}
330
25EE
100
AcDbXrecord
280
     1
290
     1
  0
XRECORD
  5
25F1
102
{ACAD_REACTORS
330
25F0
102
}
330
25F0
100
AcDbXrecord
280
     1
290
     1
  0
XRECORD
  5
25F3
102
{ACAD_REACTORS
330
25F2
102
}
330
25F2
100
AcDbXrecord
280
     1
290
     1
  0
XRECORD
  5
25F5
102
{ACAD_REACTORS
330
25F4
102
}
330
25F4
100
AcDbXrecord
280
     1
290
     1
  0
XRECORD
  5
25F7
102
{ACAD_REACTORS
330
25F6
102
}
330
25F6
100
AcDbXrecord
280
     1
290
     1
  0
XRECORD
  5
25F9
102
{ACAD_REACTORS
330
25F8
102
}
330
25F8
100
AcDbXrecord
280
     1
290
     1
  0
XRECORD
  5
25FB
102
{ACAD_REACTORS
330
25FA
102
}
330
25FA
100
AcDbXrecord
280
     1
290
     1
  0
XRECORD
  5
25FD
102
{ACAD_REACTORS
330
25FC
102
}
330
25FC
100
AcDbXrecord
280
     1
290
     1
  0
XRECORD
  5
25FF
102
{ACAD_REACTORS
330
25FE
102
}
330
25FE
100
AcDbXrecord
280
     1
290
     1
  0
XRECORD
  5
2601
102
{ACAD_REACTORS
330
2600
102
}
330
2600
100
AcDbXrecord
280
     1
290
     1
  0
XRECORD
  5
2603
102
{ACAD_REACTORS
330
2602
102
}
330
2602
100
AcDbXrecord
280
     1
290
     1
  0
XRECORD
  5
2605
102
{ACAD_REACTORS
330
2604
102
}
330
2604
100
AcDbXrecord
280
     1
290
     1
  0
XRECORD
  5
2607
102
{ACAD_REACTORS
330
2606
102
}
330
2606
100
AcDbXrecord
280
     1
290
     1
  0
XRECORD
  5
2609
102
{ACAD_REACTORS
330
2608
102
}
330
2608
100
AcDbXrecord
280
     1
290
     1
  0
XRECORD
  5
260B
102
{ACAD_REACTORS
330
260A
102
}
330
260A
100
AcDbXrecord
280
     1
290
     1
  0
XRECORD
  5
260D
102
{ACAD_REACTORS
330
260C
102
}
330
260C
100
AcDbXrecord
280
     1
290
     1
  0
XRECORD
  5
260F
102
{ACAD_REACTORS
330
260E
102
}
330
260E
100
AcDbXrecord
280
     1
290
     1
  0
XRECORD
  5
2611
102
{ACAD_REACTORS
330
2610
102
}
330
2610
100
AcDbXrecord
280
     1
290
     1
  0
XRECORD
  5
2613
102
{ACAD_REACTORS
330
2612
102
}
330
2612
100
AcDbXrecord
280
     1
290
     1
  0
XRECORD
  5
2615
102
{ACAD_REACTORS
330
2614
102
}
330
2614
100
AcDbXrecord
280
     1
290
     1
  0
XRECORD
  5
2617
102
{ACAD_REACTORS
330
2616
102
}
330
2616
100
AcDbXrecord
280
     1
290
     1
  0
XRECORD
  5
2619
102
{ACAD_REACTORS
330
2618
102
}
330
2618
100
AcDbXrecord
280
     1
290
     1
  0
XRECORD
  5
261B
102
{ACAD_REACTORS
330
261A
102
}
330
261A
100
AcDbXrecord
280
     1
290
     1
  0
XRECORD
  5
261D
102
{ACAD_REACTORS
330
261C
102
}
330
261C
100
AcDbXrecord
280
     1
290
     1
  0
XRECORD
  5
261F
102
{ACAD_REACTORS
330
261E
102
}
330
261E
100
AcDbXrecord
280
     1
290
     1
  0
XRECORD
  5
2621
102
{ACAD_REACTORS
330
2620
102
}
330
2620
100
AcDbXrecord
280
     1
290
     1
  0
XRECORD
  5
2623
102
{ACAD_REACTORS
330
2622
102
}
330
2622
100
AcDbXrecord
280
     1
290
     1
  0
XRECORD
  5
2625
102
{ACAD_REACTORS
330
2624
102
}
330
2624
100
AcDbXrecord
280
     1
290
     1
  0
XRECORD
  5
2627
102
{ACAD_REACTORS
330
2626
102
}
330
2626
100
AcDbXrecord
280
     1
290
     1
  0
XRECORD
  5
2629
102
{ACAD_REACTORS
330
2628
102
}
330
2628
100
AcDbXrecord
280
     1
290
     1
  0
XRECORD
  5
262B
102
{ACAD_REACTORS
330
262A
102
}
330
262A
100
AcDbXrecord
280
     1
290
     1
  0
ACDBDETAILVIEWSTYLE
  5
258D
102
{ACAD_XDICTIONARY
360
272F
102
}
102
{ACAD_REACTORS
330
258C
102
}
330
258C
100
AcDbModelDocViewStyle
 70
     0
  3
Imperial24
290
     0
100
AcDbDetailViewStyle
 70
     0
 71
     0
 90
        3
 71
     1
340
11
 40
0.24
340
0
 40
0.24
300

 40
0.36
280
     3
 71
     2
340
16
 90
       25
 71
     3
340
11
 40
0.24
 90
        1
 40
0.75
 90
        1
300
%<\AcVar ViewType \f "%tc1">% %<\AcVar ViewDetailId>%\PSCALE %<\AcVar ViewScale \f "%sn">%
 71
     4
340
16
 90
       25
340
16
 90
       25
280
     0
  0
LAYOUT
  5
253E
102
{ACAD_XDICTIONARY
360
26F7
102
}
102
{ACAD_REACTORS
330
1A
102
}
330
1A
100
AcDbPlotSettings
  1

  2
none_device
  4
ANSI_B_(17.00_x_11.00_Inches)
  6

 40
0.0
 41
0.0
 42
0.0
 43
0.0
 44
431.8
 45
279.4
 46
0.0
 47
0.0
 48
0.0
 49
0.0
140
0.0
141
0.0
142
1.0
143
1.0
 70
     0
 72
     0
 73
     0
 74
     0
  7

 75
     0
147
1.0
148
0.0
149
0.0
100
AcDbLayout
  1
Layout1
 70
     1
 71
     1
 10
0.0
 20
0.0
 11
12.0
 21
9.0
 12
0.0
 22
0.0
 32
0.0
 14
1.000000000000000E+20
 24
1.000000000000000E+20
 34
1.000000000000000E+20
 15
-1.000000000000000E+20
 25
-1.000000000000000E+20
 35
-1.000000000000000E+20
146
0.0
 13
0.0
 23
0.0
 33
0.0
 16
1.0
 26
0.0
 36
0.0
 17
0.0
 27
1.0
 37
0.0
 76
     0
330
223
  0
LAYOUT
  5
253D
102
{ACAD_XDICTIONARY
360
26F5
102
}
102
{ACAD_REACTORS
330
1A
102
}
330
1A
100
AcDbPlotSettings
  1

  2
none_device
  4
ANSI_B_(17.00_x_11.00_Inches)
  6

 40
0.0
 41
0.0
 42
0.0
 43
0.0
 44
431.8
 45
279.4
 46
0.0
 47
0.0
 48
0.0
 49
0.0
140
0.0
141
0.0
142
1.0
143
1.0
 70
  1024
 72
     0
 73
     0
 74
     0
  7

 75
     0
147
1.0
148
0.0
149
0.0
100
AcDbLayout
  1
Model
 70
     0
 71
     0
 10
0.0
 20
0.0
 11
17.0
 21
11.0
 12
0.0
 22
0.0
 32
0.0
 14
0.0
 24
0.0
 34
0.0
 15
0.0
 25
0.0
 35
0.0
146
0.0
 13
0.0
 23
0.0
 33
0.0
 16
1.0
 26
0.0
 36
0.0
 17
0.0
 27
1.0
 37
0.0
 76
     0
330
222
331
1F4
  0
MATERIAL
  5
254A
102
{ACAD_XDICTIONARY
360
254B
102
}
102
{ACAD_REACTORS
330
2541
102
}
330
2541
100
AcDbMaterial
  1
ByBlock
 72
     0
 43
0.0208333333333333
 43
0.0
 43
0.0
 43
0.0
 43
0.0
 43
0.0208333333333333
 43
0.0
 43
0.0
 43
0.0
 43
0.0
 43
1.0
 43
0.0
 43
0.0
 43
0.0
 43
0.0
 43
1.0
 77
     0
 47
0.0208333333333333
 47
0.0
 47
0.0
 47
0.0
 47
0.0
 47
0.0208333333333333
 47
0.0
 47
0.0
 47
0.0
 47
0.0
 47
1.0
 47
0.0
 47
0.0
 47
0.0
 47
0.0
 47
1.0
171
     0
 49
0.0208333333333333
 49
0.0
 49
0.0
 49
0.0
 49
0.0
 49
0.0208333333333333
 49
0.0
 49
0.0
 49
0.0
 49
0.0
 49
1.0
 49
0.0
 49
0.0
 49
0.0
 49
0.0
 49
1.0
175
     0
142
0.0208333333333333
142
0.0
142
0.0
142
0.0
142
0.0
142
0.0208333333333333
142
0.0
142
0.0
142
0.0
142
0.0
142
1.0
142
0.0
142
0.0
142
0.0
142
0.0
142
1.0
179
     0
144
0.0208333333333333
144
0.0
144
0.0
144
0.0
144
0.0
144
0.0208333333333333
144
0.0
144
0.0
144
0.0
144
0.0
144
1.0
144
0.0
144
0.0
144
0.0
144
0.0
144
1.0
147
0.0208333333333333
147
0.0
147
0.0
147
0.0
147
0.0
147
0.0208333333333333
147
0.0
147
0.0
147
0.0
147
0.0
147
1.0
147
0.0
147
0.0
147
0.0
147
0.0
147
1.0
  0
MATERIAL
  5
2542
102
{ACAD_XDICTIONARY
360
2543
102
}
102
{ACAD_REACTORS
330
2541
102
}
330
2541
100
AcDbMaterial
  1
ByLayer
 72
     0
 43
0.0208333333333333
 43
0.0
 43
0.0
 43
0.0
 43
0.0
 43
0.0208333333333333
 43
0.0
 43
0.0
 43
0.0
 43
0.0
 43
1.0
 43
0.0
 43
0.0
 43
0.0
 43
0.0
 43
1.0
 77
     0
 47
0.0208333333333333
 47
0.0
 47
0.0
 47
0.0
 47
0.0
 47
0.0208333333333333
 47
0.0
 47
0.0
 47
0.0
 47
0.0
 47
1.0
 47
0.0
 47
0.0
 47
0.0
 47
0.0
 47
1.0
171
     0
 49
0.0208333333333333
 49
0.0
 49
0.0
 49
0.0
 49
0.0
 49
0.0208333333333333
 49
0.0
 49
0.0
 49
0.0
 49
0.0
 49
1.0
 49
0.0
 49
0.0
 49
0.0
 49
0.0
 49
1.0
175
     0
142
0.0208333333333333
142
0.0
142
0.0
142
0.0
142
0.0
142
0.0208333333333333
142
0.0
142
0.0
142
0.0
142
0.0
142
1.0
142
0.0
142
0.0
142
0.0
142
0.0
142
1.0
179
     0
144
0.0208333333333333
144
0.0
144
0.0
144
0.0
144
0.0
144
0.0208333333333333
144
0.0
144
0.0
144
0.0
144
0.0
144
1.0
144
0.0
144
0.0
144
0.0
144
0.0
144
1.0
147
0.0208333333333333
147
0.0
147
0.0
147
0.0
147
0.0
147
0.0208333333333333
147
0.0
147
0.0
147
0.0
147
0.0
147
1.0
147
0.0
147
0.0
147
0.0
147
0.0
147
1.0
  0
MATERIAL
  5
2552
102
{ACAD_XDICTIONARY
360
2553
102
}
102
{ACAD_REACTORS
330
2541
102
}
330
2541
100
AcDbMaterial
  1
Global
 72
     0
 43
0.0208333333333333
 43
0.0
 43
0.0
 43
0.0
 43
0.0
 43
0.0208333333333333
 43
0.0
 43
0.0
 43
0.0
 43
0.0
 43
1.0
 43
0.0
 43
0.0
 43
0.0
 43
0.0
 43
1.0
 77
     0
 47
0.0208333333333333
 47
0.0
 47
0.0
 47
0.0
 47
0.0
 47
0.0208333333333333
 47
0.0
 47
0.0
 47
0.0
 47
0.0
 47
1.0
 47
0.0
 47
0.0
 47
0.0
 47
0.0
 47
1.0
171
     0
 49
0.0208333333333333
 49
0.0
 49
0.0
 49
0.0
 49
0.0
 49
0.0208333333333333
 49
0.0
 49
0.0
 49
0.0
 49
0.0
 49
1.0
 49
0.0
 49
0.0
 49
0.0
 49
0.0
 49
1.0
175
     0
142
0.0208333333333333
142
0.0
142
0.0
142
0.0
142
0.0
142
0.0208333333333333
142
0.0
142
0.0
142
0.0
142
0.0
142
1.0
142
0.0
142
0.0
142
0.0
142
0.0
142
1.0
179
     0
144
0.0208333333333333
144
0.0
144
0.0
144
0.0
144
0.0
144
0.0208333333333333
144
0.0
144
0.0
144
0.0
144
0.0
144
1.0
144
0.0
144
0.0
144
0.0
144
0.0
144
1.0
147
0.0208333333333333
147
0.0
147
0.0
147
0.0
147
0.0
147
0.0208333333333333
147
0.0
147
0.0
147
0.0
147
0.0
147
1.0
147
0.0
147
0.0
147
0.0
147
0.0
147
1.0
  0
MLEADERSTYLE
  5
2589
102
{ACAD_REACTORS
330
2588
102
}
330
2588
100
AcDbMLeaderStyle
170
     2
171
     1
172
     0
 90
        2
 40
0.0
 41
0.0
173
     1
 91
-1056964608
340
14
 92
       -2
290
     1
 42
0.09
291
     1
 43
0.36
  3
Standard
 44
0.18
300

342
11
174
     1
178
     6
175
     1
176
     0
 93
-1056964608
 45
0.18
292
     0
297
     0
 46
0.18
 94
-1056964608
 47
1.0
 49
1.0
140
1.0
293
     1
141
0.0
294
     1
177
     0
142
1.0
295
     0
296
     0
143
0.125
1001
ACAD_MLEADERVER
1070
     2
  0
MLINESTYLE
  5
18
102
{ACAD_REACTORS
330
17
102
}
330
17
100
AcDbMlineStyle
  2
STANDARD
 70
     0
  3

 62
   256
 51
90.0
 52
90.0
 71
     2
 49
0.5
 62
   256
  6
BYLAYER
 49
-0.5
 62
   256
  6
BYLAYER
  0
ACDBPLACEHOLDER
  5
F
102
{ACAD_REACTORS
330
E
102
}
330
E
  0
SCALE
  5
2577
102
{ACAD_REACTORS
330
2576
102
}
330
2576
100
AcDbScale
 70
     0
300
1:1
140
1.0
141
1.0
290
     1
  0
SCALE
  5
2578
102
{ACAD_REACTORS
330
2576
102
}
330
2576
100
AcDbScale
 70
     0
300
1/128" = 1'-0"
140
0.0078125
141
12.0
290
     0
  0
SCALE
  5
2579
102
{ACAD_REACTORS
330
2576
102
}
330
2576
100
AcDbScale
 70
     0
300
1/64" = 1'-0"
140
0.015625
141
12.0
290
     0
  0
SCALE
  5
257A
102
{ACAD_REACTORS
330
2576
102
}
330
2576
100
AcDbScale
 70
     0
300
1/32" = 1'-0"
140
0.03125
141
12.0
290
     0
  0
SCALE
  5
257B
102
{ACAD_REACTORS
330
2576
102
}
330
2576
100
AcDbScale
 70
     0
300
1/16" = 1'-0"
140
0.0625
141
12.0
290
     0
  0
SCALE
  5
257C
102
{ACAD_REACTORS
330
2576
102
}
330
2576
100
AcDbScale
 70
     0
300
3/32" = 1'-0"
140
0.09375
141
12.0
290
     0
  0
SCALE
  5
257D
102
{ACAD_REACTORS
330
2576
102
}
330
2576
100
AcDbScale
 70
     0
300
1/8" = 1'-0"
140
0.125
141
12.0
290
     0
  0
SCALE
  5
257E
102
{ACAD_REACTORS
330
2576
102
}
330
2576
100
AcDbScale
 70
     0
300
3/16" = 1'-0"
140
0.1875
141
12.0
290
     0
  0
SCALE
  5
257F
102
{ACAD_REACTORS
330
2576
102
}
330
2576
100
AcDbScale
 70
     0
300
1/4" = 1'-0"
140
0.25
141
12.0
290
     0
  0
SCALE
  5
2580
102
{ACAD_REACTORS
330
2576
102
}
330
2576
100
AcDbScale
 70
     0
300
3/8" = 1'-0"
140
0.375
141
12.0
290
     0
  0
SCALE
  5
2581
102
{ACAD_REACTORS
330
2576
102
}
330
2576
100
AcDbScale
 70
     0
300
1/2" = 1'-0"
140
0.5
141
12.0
290
     0
  0
SCALE
  5
2582
102
{ACAD_REACTORS
330
2576
102
}
330
2576
100
AcDbScale
 70
     0
300
3/4" = 1'-0"
140
0.75
141
12.0
290
     0
  0
SCALE
  5
2583
102
{ACAD_REACTORS
330
2576
102
}
330
2576
100
AcDbScale
 70
     0
300
1" = 1'-0"
140
1.0
141
12.0
290
     0
  0
SCALE
  5
2584
102
{ACAD_REACTORS
330
2576
102
}
330
2576
100
AcDbScale
 70
     0
300
1-1/2" = 1'-0"
140
1.5
141
12.0
290
     0
  0
SCALE
  5
2585
102
{ACAD_REACTORS
330
2576
102
}
330
2576
100
AcDbScale
 70
     0
300
3" = 1'-0"
140
3.0
141
12.0
290
     0
  0
SCALE
  5
2586
102
{ACAD_REACTORS
330
2576
102
}
330
2576
100
AcDbScale
 70
     0
300
6" = 1'-0"
140
6.0
141
12.0
290
     0
  0
SCALE
  5
2587
102
{ACAD_REACTORS
330
2576
102
}
330
2576
100
AcDbScale
 70
     0
300
1'-0" = 1'-0"
140
12.0
141
12.0
290
     0
  0
ACDBSECTIONVIEWSTYLE
  5
258B
102
{ACAD_XDICTIONARY
360
272D
102
}
102
{ACAD_REACTORS
330
258A
102
}
330
258A
100
AcDbModelDocViewStyle
 70
     0
  3
Imperial24
290
     0
100
AcDbSectionViewStyle
 70
     0
 71
     0
 90
       78
 71
     1
340
11
 40
0.24
340
0
340
0
 40
0.24
300
I, O, Q, S, X, Z
 40
0.48
 90
        3
 40
0.18
 90
        1
 71
     2
340
16
 90
       25
340
16
 90
       50
 40
0.24
 40
0.0
 40
0.24
 71
     3
340
11
 40
0.24
 90
        1
 40
0.75
 90
        1
300
%<\AcVar ViewType \f "%tc1">% %<\AcVar ViewSectionStartId>%-%<\AcVar ViewSectionEndId>%\PSCALE %<\AcVar ViewScale \f "%sn">%
 71
     4
300
ANSI31
 40
1.0
 90
        0
290
     0
290
     0
 90
        6
 40
0.0
 40
1.570796326794896
 40
0.2617993877991494
 40
1.308996938995747
 40
-0.2617993877991494
 40
1.832595714594046
  0
TABLESTYLE
  5
2575
102
{ACAD_XDICTIONARY
360
258E
102
}
102
{ACAD_REACTORS
330
2574
102
}
330
2574
100
AcDbTableStyle
  3
Standard
 70
     0
 71
     0
 40
0.06
 41
0.06
280
     0
281
     0
  7
STANDARD
140
0.18
170
     2
 62
     0
 63
     7
283
     0
274
    -2
284
     1
 64
     0
275
    -2
285
     1
 65
     0
276
    -2
286
     1
 66
     0
277
    -2
287
     1
 67
     0
278
    -2
288
     1
 68
     0
279
    -2
289
     1
 69
     0
  7
STANDARD
140
0.25
170
     5
 62
     0
 63
     7
283
     0
274
    -2
284
     1
 64
     0
275
    -2
285
     1
 65
     0
276
    -2
286
     1
 66
     0
277
    -2
287
     1
 67
     0
278
    -2
288
     1
 68
     0
279
    -2
289
     1
 69
     0
  7
STANDARD
140
0.18
170
     5
 62
     0
 63
     7
283
     0
274
    -2
284
     1
 64
     0
275
    -2
285
     1
 65
     0
276
    -2
286
     1
 66
     0
277
    -2
287
     1
 67
     0
278
    -2
288
     1
 68
     0
279
    -2
289
     1
 69
     0
  0
VISUALSTYLE
  5
2560
102
{ACAD_XDICTIONARY
360
2706
102
}
102
{ACAD_REACTORS
330
255A
102
}
330
255A
100
AcDbVisualStyle
  2
2dWireframe
 70
     4
 71
     0
 72
     2
 73
     0
 90
        0
 40
-0.6
 41
-30.0
 62
     5
 63
     7
 74
     1
 91
        4
 64
     7
 65
   257
 75
     1
175
     1
 42
1.0
 92
        0
 66
   257
 43
1.0
 76
     1
 77
     6
 78
     2
 67
     7
 79
     5
170
     0
171
     0
290
     0
174
     0
 93
        1
 44
0.0
173
     0
291
     0
 45
0.0
1001
ACAD
1000
AcDbSavedByObjectVersion
1070
     0
  0
VISUALSTYLE
  5
255F
102
{ACAD_XDICTIONARY
360
2704
102
}
102
{ACAD_REACTORS
330
255A
102
}
330
255A
100
AcDbVisualStyle
  2
Basic
 70
     7
 71
     1
 72
     0
 73
     1
 90
        0
 40
-0.6
 41
-30.0
 62
     5
 63
     7
 74
     0
 91
        4
 64
     7
 65
   257
 75
     1
175
     1
 42
1.0
 92
        8
 66
     7
 43
1.0
 76
     1
 77
     6
 78
     2
 67
     7
 79
     5
170
     0
171
     0
290
     0
174
     0
 93
        1
 44
0.0
173
     0
291
     1
 45
0.0
1001
ACAD
1000
AcDbSavedByObjectVersion
1070
     0
  0
VISUALSTYLE
  5
2566
102
{ACAD_XDICTIONARY
360
2712
102
}
102
{ACAD_REACTORS
330
255A
102
}
330
255A
100
AcDbVisualStyle
  2
Brighten
 70
    12
 71
     2
 72
     2
 73
     0
 90
        0
 40
-0.6
 41
-30.0
 62
     5
 63
     7
 74
     1
 91
        4
 64
     7
 65
   257
 75
     1
175
     1
 42
1.0
 92
        8
 66
     7
 43
1.0
 76
     1
 77
     6
 78
     2
 67
     7
 79
     5
170
     0
171
     0
290
     0
174
     0
 93
        1
 44
50.0
173
     0
291
     1
 45
0.0
1001
ACAD
1000
AcDbSavedByObjectVersion
1070
     0
  0
VISUALSTYLE
  5
256A
102
{ACAD_XDICTIONARY
360
271A
102
}
102
{ACAD_REACTORS
330
255A
102
}
330
255A
100
AcDbVisualStyle
  2
ColorChange
 70
    16
 71
     2
 72
     2
 73
     3
 90
        0
 40
-0.6
 41
-30.0
 62
     5
 63
     8
 74
     1
 91
        4
 64
     7
 65
   257
 75
     1
175
     1
 42
1.0
 92
        8
 66
     8
 43
1.0
 76
     1
 77
     6
 78
     2
 67
     7
 79
     5
170
     0
171
     0
290
     0
174
     0
 93
        1
 44
0.0
173
     0
291
     1
 45
0.0
1001
ACAD
1000
AcDbSavedByObjectVersion
1070
     0
  0
VISUALSTYLE
  5
2563
102
{ACAD_XDICTIONARY
360
270C
102
}
102
{ACAD_REACTORS
330
255A
102
}
330
255A
100
AcDbVisualStyle
  2
Conceptual
 70
     9
 71
     3
 72
     2
 73
     0
 90
        0
 40
-0.6
 41
-30.0
 62
     5
 63
     7
 74
     2
 91
        2
 64
     7
 65
   257
 75
     1
175
     1
 42
179.0
 92
        8
 66
     7
 43
1.0
 76
     1
 77
     6
 78
     2
 67
     7
 79
     3
170
     0
171
     0
290
     0
174
     0
 93
        1
 44
0.0
173
     0
291
     0
 45
0.0
1001
ACAD
1000
AcDbSavedByObjectVersion
1070
     0
  0
VISUALSTYLE
  5
2565
102
{ACAD_XDICTIONARY
360
2710
102
}
102
{ACAD_REACTORS
330
255A
102
}
330
255A
100
AcDbVisualStyle
  2
Dim
 70
    11
 71
     2
 72
     2
 73
     0
 90
        0
 40
-0.6
 41
-30.0
 62
     5
 63
     7
 74
     1
 91
        4
 64
     7
 65
   257
 75
     1
175
     1
 42
1.0
 92
        8
 66
     7
 43
1.0
 76
     1
 77
     6
 78
     2
 67
     7
 79
     5
170
     0
171
     0
290
     0
174
     0
 93
        1
 44
-50.0
173
     0
291
     1
 45
0.0
1001
ACAD
1000
AcDbSavedByObjectVersion
1070
     0
  0
VISUALSTYLE
  5
2572
102
{ACAD_XDICTIONARY
360
272A
102
}
102
{ACAD_REACTORS
330
255A
102
}
330
255A
100
AcDbVisualStyle
  2
EdgeColorOff
 70
    22
 71
     2
 72
     2
 73
     0
 90
        0
 40
-0.6
 41
-30.0
 62
     5
 63
     7
 74
     1
 91
        4
 64
     7
 65
   257
 75
     1
175
     1
 42
1.0
 92
        8
 66
     7
 43
1.0
 76
     1
 77
     6
 78
     2
 67
     7
 79
     5
170
     0
171
     0
290
     0
174
     0
 93
        1
 44
0.0
173
     0
291
     1
 45
0.0
1001
ACAD
1000
AcDbSavedByObjectVersion
1070
     0
  0
VISUALSTYLE
  5
2569
102
{ACAD_XDICTIONARY
360
2718
102
}
102
{ACAD_REACTORS
330
255A
102
}
330
255A
100
AcDbVisualStyle
  2
Facepattern
 70
    15
 71
     2
 72
     2
 73
     0
 90
        0
 40
-0.6
 41
-30.0
 62
     5
 63
     7
 74
     1
 91
        4
 64
     7
 65
   257
 75
     1
175
     1
 42
1.0
 92
        8
 66
     7
 43
1.0
 76
     1
 77
     6
 78
     2
 67
     7
 79
     5
170
     0
171
     0
290
     0
174
     0
 93
        1
 44
0.0
173
     0
291
     1
 45
0.0
1001
ACAD
1000
AcDbSavedByObjectVersion
1070
     0
  0
VISUALSTYLE
  5
255B
102
{ACAD_XDICTIONARY
360
26FC
102
}
102
{ACAD_REACTORS
330
255A
102
}
330
255A
100
AcDbVisualStyle
  2
Flat
 70
     0
 71
     2
 72
     1
 73
     1
 90
        2
 40
-0.6
 41
30.0
 62
     5
 63
     7
 74
     0
 91
        0
 64
     7
 65
   257
 75
     1
175
     1
 42
1.0
 92
        8
 66
     7
 43
1.0
 76
     1
 77
     6
 78
     2
 67
     7
 79
     5
170
     0
171
     0
290
     0
174
     0
 93
       13
 44
0.0
173
     0
291
     1
 45
0.0
1001
ACAD
1000
AcDbSavedByObjectVersion
1070
     0
  0
VISUALSTYLE
  5
255C
102
{ACAD_XDICTIONARY
360
26FE
102
}
102
{ACAD_REACTORS
330
255A
102
}
330
255A
100
AcDbVisualStyle
  2
FlatWithEdges
 70
     1
 71
     2
 72
     1
 73
     1
 90
        2
 40
-0.6
 41
30.0
 62
     5
 63
     7
 74
     1
 91
        0
 64
     7
 65
   257
 75
     1
175
     1
 42
1.0
 92
        0
 66
   257
 43
1.0
 76
     1
 77
     6
 78
     2
 67
     7
 79
     5
170
     0
171
     0
290
     0
174
     0
 93
       13
 44
0.0
173
     0
291
     1
 45
0.0
1001
ACAD
1000
AcDbSavedByObjectVersion
1070
     0
  0
VISUALSTYLE
  5
255D
102
{ACAD_XDICTIONARY
360
2700
102
}
102
{ACAD_REACTORS
330
255A
102
}
330
255A
100
AcDbVisualStyle
  2
Gouraud
 70
     2
 71
     2
 72
     2
 73
     1
 90
        2
 40
-0.6
 41
30.0
 62
     5
 63
     7
 74
     0
 91
        0
 64
     7
 65
   257
 75
     1
175
     1
 42
1.0
 92
        0
 66
     7
 43
1.0
 76
     1
 77
     6
 78
     2
 67
     7
 79
     5
170
     0
171
     0
290
     0
174
     0
 93
       13
 44
0.0
173
     0
291
     1
 45
0.0
1001
ACAD
1000
AcDbSavedByObjectVersion
1070
     0
  0
VISUALSTYLE
  5
255E
102
{ACAD_XDICTIONARY
360
2702
102
}
102
{ACAD_REACTORS
330
255A
102
}
330
255A
100
AcDbVisualStyle
  2
GouraudWithEdges
 70
     3
 71
     2
 72
     2
 73
     1
 90
        2
 40
-0.6
 41
30.0
 62
     5
 63
     7
 74
     1
 91
        0
 64
     7
 65
   257
 75
     1
175
     1
 42
1.0
 92
        0
 66
   257
 43
1.0
 76
     1
 77
     6
 78
     2
 67
     7
 79
     5
170
     0
171
     0
290
     0
174
     0
 93
       13
 44
0.0
173
     0
291
     1
 45
0.0
1001
ACAD
1000
AcDbSavedByObjectVersion
1070
     0
  0
VISUALSTYLE
  5
2562
102
{ACAD_XDICTIONARY
360
270A
102
}
102
{ACAD_REACTORS
330
255A
102
}
330
255A
100
AcDbVisualStyle
  2
Hidden
 70
     6
 71
     1
 72
     2
 73
     2
 90
        0
 40
-0.6
 41
-30.0
 62
     5
 63
     7
 74
     2
 91
        2
 64
     7
 65
   257
 75
     2
175
     1
 42
40.0
 92
        0
 66
   257
 43
1.0
 76
     1
 77
     6
 78
     2
 67
     7
 79
     3
170
     0
171
     0
290
     0
174
     0
 93
        1
 44
0.0
173
     0
291
     0
 45
0.0
1001
ACAD
1000
AcDbSavedByObjectVersion
1070
     0
  0
VISUALSTYLE
  5
2570
102
{ACAD_XDICTIONARY
360
2726
102
}
102
{ACAD_REACTORS
330
255A
102
}
330
255A
100
AcDbVisualStyle
  2
JitterOff
 70
    20
 71
     2
 72
     2
 73
     0
 90
        0
 40
-0.6
 41
-30.0
 62
     5
 63
     7
 74
     1
 91
        4
 64
     7
 65
   257
 75
     1
175
     1
 42
1.0
 92
       10
 66
     7
 43
1.0
 76
     1
 77
     6
 78
     2
 67
     7
 79
     5
170
     0
171
     0
290
     0
174
     0
 93
        1
 44
0.0
173
     0
291
     1
 45
0.0
1001
ACAD
1000
AcDbSavedByObjectVersion
1070
     0
  0
VISUALSTYLE
  5
2568
102
{ACAD_XDICTIONARY
360
2716
102
}
102
{ACAD_REACTORS
330
255A
102
}
330
255A
100
AcDbVisualStyle
  2
Linepattern
 70
    14
 71
     2
 72
     2
 73
     0
 90
        0
 40
-0.6
 41
-30.0
 62
     5
 63
     7
 74
     1
 91
        4
 64
     7
 65
   257
 75
     7
175
     7
 42
1.0
 92
        8
 66
     7
 43
1.0
 76
     1
 77
     6
 78
     2
 67
     7
 79
     5
170
     0
171
     0
290
     0
174
     0
 93
        1
 44
0.0
173
     0
291
     1
 45
0.0
1001
ACAD
1000
AcDbSavedByObjectVersion
1070
     0
  0
VISUALSTYLE
  5
2571
102
{ACAD_XDICTIONARY
360
2728
102
}
102
{ACAD_REACTORS
330
255A
102
}
330
255A
100
AcDbVisualStyle
  2
OverhangOff
 70
    21
 71
     2
 72
     2
 73
     0
 90
        0
 40
-0.6
 41
-30.0
 62
     5
 63
     7
 74
     1
 91
        4
 64
     7
 65
   257
 75
     1
175
     1
 42
1.0
 92
        9
 66
     7
 43
1.0
 76
     1
 77
     6
 78
     2
 67
     7
 79
     5
170
     0
171
     0
290
     0
174
     0
 93
        1
 44
0.0
173
     0
291
     1
 45
0.0
1001
ACAD
1000
AcDbSavedByObjectVersion
1070
     0
  0
VISUALSTYLE
  5
2564
102
{ACAD_XDICTIONARY
360
270E
102
}
102
{ACAD_REACTORS
330
255A
102
}
330
255A
100
AcDbVisualStyle
  2
Realistic
 70
     8
 71
     2
 72
     2
 73
     0
 90
        2
 40
-0.6
 41
30.0
 62
     5
 63
     7
 74
     0
 91
        0
 64
     7
 65
   257
 75
     1
175
     1
 42
1.0
 92
        8
 66
   257
 43
1.0
 76
     1
 77
     6
 78
     2
 67
     7
 79
     3
170
     0
171
     0
290
     0
174
     0
 93
       13
 44
0.0
173
     0
291
     0
 45
0.0
1001
ACAD
1000
AcDbSavedByObjectVersion
1070
     0
  0
VISUALSTYLE
  5
256F
102
{ACAD_XDICTIONARY
360
2724
102
}
102
{ACAD_REACTORS
330
255A
102
}
330
255A
100
AcDbVisualStyle
  2
Shaded
 70
    27
 71
     2
 72
     2
 73
     1
 90
        2
 40
-0.6
 41
30.0
 62
     5
 63
     7
 74
     0
 91
        4
 64
     7
 65
   257
 75
     1
175
     1
 42
1.0
 92
        8
 66
   257
 43
1.0
 76
     1
 77
     6
 78
     2
 67
     8
 79
     3
170
     0
171
     0
290
     0
174
     0
 93
        5
 44
0.0
173
     0
291
     0
 45
0.0
1001
ACAD
1000
AcDbSavedByObjectVersion
1070
     0
  0
VISUALSTYLE
  5
256E
102
{ACAD_XDICTIONARY
360
2722
102
}
102
{ACAD_REACTORS
330
255A
102
}
330
255A
100
AcDbVisualStyle
  2
Shaded with edges
 70
    26
 71
     2
 72
     2
 73
     1
 90
        2
 40
-0.6
 41
30.0
 62
     5
 63
     7
 74
     1
 91
        2
 64
     7
 65
   257
 75
     2
175
     1
 42
1.0
 92
        8
 66
   257
 43
1.0
 76
     1
 77
     6
 78
     2
 67
     7
 79
     3
170
     0
171
     0
290
     0
174
     0
 93
        5
 44
0.0
173
     0
291
     0
 45
0.0
1001
ACAD
1000
AcDbSavedByObjectVersion
1070
     0
  0
VISUALSTYLE
  5
256B
102
{ACAD_XDICTIONARY
360
271C
102
}
102
{ACAD_REACTORS
330
255A
102
}
330
255A
100
AcDbVisualStyle
  2
Shades of Gray
 70
    23
 71
     2
 72
     2
 73
     3
 90
        0
 40
-0.6
 41
-30.0
 62
     5
 63
     7
 74
     2
 91
        2
 64
     7
 65
     7
 75
     1
175
     1
 42
40.0
 92
        8
 66
     7
 43
1.0
 76
     1
 77
     6
 78
     2
 67
     7
 79
     3
170
     0
171
     0
290
     0
174
     0
 93
        1
 44
0.0
173
     0
291
     0
 45
0.0
1001
ACAD
1000
AcDbSavedByObjectVersion
1070
     0
  0
VISUALSTYLE
  5
256C
102
{ACAD_XDICTIONARY
360
271E
102
}
102
{ACAD_REACTORS
330
255A
102
}
330
255A
100
AcDbVisualStyle
  2
Sketchy
 70
    24
 71
     1
 72
     2
 73
     2
 90
        0
 40
-0.6
 41
-30.0
 62
     5
 63
     7
 74
     2
 91
        2
 64
     7
 65
     7
 75
     1
175
     1
 42
40.0
 92
       11
 66
     7
 43
1.0
 76
     1
 77
     6
 78
     2
 67
     7
 79
     6
170
     0
171
     0
290
     0
174
     0
 93
        1
 44
0.0
173
     0
291
     0
 45
0.0
1001
ACAD
1000
AcDbSavedByObjectVersion
1070
     0
  0
VISUALSTYLE
  5
2567
102
{ACAD_XDICTIONARY
360
2714
102
}
102
{ACAD_REACTORS
330
255A
102
}
330
255A
100
AcDbVisualStyle
  2
Thicken
 70
    13
 71
     2
 72
     2
 73
     0
 90
        0
 40
-0.6
 41
-30.0
 62
     5
 63
     7
 74
     1
 91
        4
 64
     7
 65
   257
 75
     1
175
     1
 42
1.0
 92
       12
 66
     7
 43
1.0
 76
     1
 77
     6
 78
     2
 67
     7
 79
     5
170
     0
171
     0
290
     0
174
     0
 93
        1
 44
0.0
173
     0
291
     1
 45
0.0
1001
ACAD
1000
AcDbSavedByObjectVersion
1070
     0
  0
VISUALSTYLE
  5
2561
102
{ACAD_XDICTIONARY
360
2708
102
}
102
{ACAD_REACTORS
330
255A
102
}
330
255A
100
AcDbVisualStyle
  2
Wireframe
 70
     5
 71
     0
 72
     2
 73
     0
 90
        0
 40
-0.6
 41
-30.0
 62
     5
 63
     7
 74
     1
 91
        4
 64
     7
 65
   257
 75
     1
175
     1
 42
1.0
 92
        0
 66
   257
 43
1.0
 76
     1
 77
     6
 78
     2
 67
     7
 79
     3
170
     0
171
     0
290
     0
174
     0
 93
        1
 44
0.0
173
     0
291
     0
 45
0.0
1001
ACAD
1000
AcDbSavedByObjectVersion
1070
     0
  0
VISUALSTYLE
  5
256D
102
{ACAD_XDICTIONARY
360
2720
102
}
102
{ACAD_REACTORS
330
255A
102
}
330
255A
100
AcDbVisualStyle
  2
X-Ray
 70
    25
 71
     2
 72
     2
 73
     1
 90
        1
 40
0.5
 41
-30.0
 62
     5
 63
     7
 74
     1
 91
        0
 64
     7
 65
   257
 75
     1
175
     1
 42
1.0
 92
        8
 66
     7
 43
1.0
 76
     1
 77
     6
 78
     2
 67
     7
 79
     3
170
     0
171
     0
290
     0
174
     0
 93
       13
 44
0.0
173
     0
291
     0
 45
0.0
1001
ACAD
1000
AcDbSavedByObjectVersion
1070
     0
  0
DICTIONARYVAR
  5
25D5
102
{ACAD_REACTORS
330
25D0
102
}
330
25D0
100
DictionaryVariables
280
     0
  1
1:1
  0
DICTIONARYVAR
  5
25D2
102
{ACAD_REACTORS
330
25D0
102
}
330
25D0
100
DictionaryVariables
280
     0
  1
STANDARD
  0
DICTIONARYVAR
  5
25D1
102
{ACAD_REACTORS
330
25D0
102
}
330
25D0
100
DictionaryVariables
280
     0
  1
STANDARD
  0
DICTIONARYVAR
  5
25D3
102
{ACAD_REACTORS
330
25D0
102
}
330
25D0
100
DictionaryVariables
280
     0
  1
Imperial24
  0
DICTIONARYVAR
  5
25D4
102
{ACAD_REACTORS
330
25D0
102
}
330
25D0
100
DictionaryVariables
280
     0
  1
Imperial24
  0
DICTIONARYVAR
  5
25D8
102
{ACAD_REACTORS
330
25D0
102
}
330
25D0
100
DictionaryVariables
280
     0
  1
1
  0
DICTIONARYVAR
  5
25D7
102
{ACAD_REACTORS
330
25D0
102
}
330
25D0
100
DictionaryVariables
280
     0
  1
0
  0
DICTIONARYVAR
  5
25D6
102
{ACAD_REACTORS
330
25D0
102
}
330
25D0
100
DictionaryVariables
280
     0
  1
127
  0
DICTIONARYVAR
  5
26B2
102
{ACAD_REACTORS
330
25D0
102
}
330
25D0
100
DictionaryVariables
280
     0
  1
2
  0
DICTIONARY
  5
272F
330
258D
100
AcDbDictionary
280
     1
281
     1
  3
ACAD_XREC_ROUNDTRIP
360
2730
  0
DICTIONARY
  5
26F7
330
253E
100
AcDbDictionary
280
     1
281
     1
  3
ACAD_XREC_ROUNDTRIP
360
26F8
  0
DICTIONARY
  5
26F5
330
253D
100
AcDbDictionary
280
     1
281
     1
  3
ACAD_XREC_ROUNDTRIP
360
26F6
  0
DICTIONARY
  5
254B
330
254A
100
AcDbDictionary
280
     1
281
     1
  3
ACAD_XREC_ROUNDTRIP
360
26FA
  3
BUMPTILE
360
254D
  3
DIFFUSETILE
360
254C
  3
OPACITYTILE
360
2550
  3
REFLECTIONTILE
360
254F
  3
REFRACTIONTILE
360
2551
  3
SPECULARTILE
360
254E
  0
DICTIONARY
  5
2543
330
2542
100
AcDbDictionary
280
     1
281
     1
  3
ACAD_XREC_ROUNDTRIP
360
26F9
  3
BUMPTILE
360
2545
  3
DIFFUSETILE
360
2544
  3
OPACITYTILE
360
2548
  3
REFLECTIONTILE
360
2547
  3
REFRACTIONTILE
360
2549
  3
SPECULARTILE
360
2546
  0
DICTIONARY
  5
2553
330
2552
100
AcDbDictionary
280
     1
281
     1
  3
ACAD_XREC_ROUNDTRIP
360
26FB
  3
BUMPTILE
360
2555
  3
DIFFUSETILE
360
2554
  3
OPACITYTILE
360
2558
  3
REFLECTIONTILE
360
2557
  3
REFRACTIONTILE
360
2559
  3
SPECULARTILE
360
2556
  0
DICTIONARY
  5
272D
330
258B
100
AcDbDictionary
280
     1
281
     1
  3
ACAD_XREC_ROUNDTRIP
360
272E
  0
DICTIONARY
  5
258E
330
2575
100
AcDbDictionary
280
     1
281
     1
  3
ACAD_ROUNDTRIP_2008_TABLESTYLE_CELLSTYLEMAP
360
26F2
  3
ACAD_XREC_ROUNDTRIP
360
272C
  0
DICTIONARY
  5
2706
330
2560
100
AcDbDictionary
280
     1
281
     1
  3
ACAD_XREC_ROUNDTRIP
360
2707
  0
DICTIONARY
  5
2704
330
255F
100
AcDbDictionary
280
     1
281
     1
  3
ACAD_XREC_ROUNDTRIP
360
2705
  0
DICTIONARY
  5
2712
330
2566
100
AcDbDictionary
280
     1
281
     1
  3
ACAD_XREC_ROUNDTRIP
360
2713
  0
DICTIONARY
  5
271A
330
256A
100
AcDbDictionary
280
     1
281
     1
  3
ACAD_XREC_ROUNDTRIP
360
271B
  0
DICTIONARY
  5
270C
330
2563
100
AcDbDictionary
280
     1
281
     1
  3
ACAD_XREC_ROUNDTRIP
360
270D
  0
DICTIONARY
  5
2710
330
2565
100
AcDbDictionary
280
     1
281
     1
  3
ACAD_XREC_ROUNDTRIP
360
2711
  0
DICTIONARY
  5
272A
330
2572
100
AcDbDictionary
280
     1
281
     1
  3
ACAD_XREC_ROUNDTRIP
360
272B
  0
DICTIONARY
  5
2718
330
2569
100
AcDbDictionary
280
     1
281
     1
  3
ACAD_XREC_ROUNDTRIP
360
2719
  0
DICTIONARY
  5
26FC
330
255B
100
AcDbDictionary
280
     1
281
     1
  3
ACAD_XREC_ROUNDTRIP
360
26FD
  0
DICTIONARY
  5
26FE
330
255C
100
AcDbDictionary
280
     1
281
     1
  3
ACAD_XREC_ROUNDTRIP
360
26FF
  0
DICTIONARY
  5
2700
330
255D
100
AcDbDictionary
280
     1
281
     1
  3
ACAD_XREC_ROUNDTRIP
360
2701
  0
DICTIONARY
  5
2702
330
255E
100
AcDbDictionary
280
     1
281
     1
  3
ACAD_XREC_ROUNDTRIP
360
2703
  0
DICTIONARY
  5
270A
330
2562
100
AcDbDictionary
280
     1
281
     1
  3
ACAD_XREC_ROUNDTRIP
360
270B
  0
DICTIONARY
  5
2726
330
2570
100
AcDbDictionary
280
     1
281
     1
  3
ACAD_XREC_ROUNDTRIP
360
2727
  0
DICTIONARY
  5
2716
330
2568
100
AcDbDictionary
280
     1
281
     1
  3
ACAD_XREC_ROUNDTRIP
360
2717
  0
DICTIONARY
  5
2728
330
2571
100
AcDbDictionary
280
     1
281
     1
  3
ACAD_XREC_ROUNDTRIP
360
2729
  0
DICTIONARY
  5
270E
330
2564
100
AcDbDictionary
280
     1
281
     1
  3
ACAD_XREC_ROUNDTRIP
360
270F
  0
DICTIONARY
  5
2724
330
256F
100
AcDbDictionary
280
     1
281
     1
  3
ACAD_XREC_ROUNDTRIP
360
2725
  0
DICTIONARY
  5
2722
330
256E
100
AcDbDictionary
280
     1
281
     1
  3
ACAD_XREC_ROUNDTRIP
360
2723
  0
DICTIONARY
  5
271C
330
256B
100
AcDbDictionary
280
     1
281
     1
  3
ACAD_XREC_ROUNDTRIP
360
271D
  0
DICTIONARY
  5
271E
330
256C
100
AcDbDictionary
280
     1
281
     1
  3
ACAD_XREC_ROUNDTRIP
360
271F
  0
DICTIONARY
  5
2714
330
2567
100
AcDbDictionary
280
     1
281
     1
  3
ACAD_XREC_ROUNDTRIP
360
2715
  0
DICTIONARY
  5
2708
330
2561
100
AcDbDictionary
280
     1
281
     1
  3
ACAD_XREC_ROUNDTRIP
360
2709
  0
DICTIONARY
  5
2720
330
256D
100
AcDbDictionary
280
     1
281
     1
  3
ACAD_XREC_ROUNDTRIP
360
2721
  0
XRECORD
  5
2730
102
{ACAD_REACTORS
330
272F
102
}
330
272F
100
AcDbXrecord
280
     1
102
DISPLAYNAME
  1
Imperial24
102
FLAGS
 90
        0
  0
XRECORD
  5
26F8
102
{ACAD_REACTORS
330
26F7
102
}
330
26F7
100
AcDbXrecord
280
     1
102
SHADEPLOT
 70
     0
102
SHADEPLOTRESLEVEL
 70
     2
102
SHADEPLOTCUSTOMDPI
 70
   300
  0
XRECORD
  5
26F6
102
{ACAD_REACTORS
330
26F5
102
}
330
26F5
100
AcDbXrecord
280
     1
102
SHADEPLOT
 70
     0
102
SHADEPLOTRESLEVEL
 70
     2
102
SHADEPLOTCUSTOMDPI
 70
   300
  0
XRECORD
  5
26FA
102
{ACAD_REACTORS
330
254B
102
}
330
254B
100
AcDbXrecord
280
     1
102
MATERIAL
148
0.0
149
0.0
149
0.0
 93
        0
 94
      127
282
     0
 72
     0
 77
     0
171
     0
175
     0
179
     0
273
     0
  0
XRECORD
  5
254D
102
{ACAD_REACTORS
330
254B
102
}
330
254B
100
AcDbXrecord
280
     1
270
     1
271
     1
  0
XRECORD
  5
254C
102
{ACAD_REACTORS
330
254B
102
}
330
254B
100
AcDbXrecord
280
     1
270
     1
271
     1
  0
XRECORD
  5
2550
102
{ACAD_REACTORS
330
254B
102
}
330
254B
100
AcDbXrecord
280
     1
270
     1
271
     1
  0
XRECORD
  5
254F
102
{ACAD_REACTORS
330
254B
102
}
330
254B
100
AcDbXrecord
280
     1
270
     1
271
     1
  0
XRECORD
  5
2551
102
{ACAD_REACTORS
330
254B
102
}
330
254B
100
AcDbXrecord
280
     1
270
     1
271
     1
  0
XRECORD
  5
254E
102
{ACAD_REACTORS
330
254B
102
}
330
254B
100
AcDbXrecord
280
     1
270
     1
271
     1
  0
XRECORD
  5
26F9
102
{ACAD_REACTORS
330
2543
102
}
330
2543
100
AcDbXrecord
280
     1
102
MATERIAL
148
0.0
149
0.0
149
0.0
 93
        0
 94
      127
282
     0
 72
     0
 77
     0
171
     0
175
     0
179
     0
273
     0
  0
XRECORD
  5
2545
102
{ACAD_REACTORS
330
2543
102
}
330
2543
100
AcDbXrecord
280
     1
270
     1
271
     1
  0
XRECORD
  5
2544
102
{ACAD_REACTORS
330
2543
102
}
330
2543
100
AcDbXrecord
280
     1
270
     1
271
     1
  0
XRECORD
  5
2548
102
{ACAD_REACTORS
330
2543
102
}
330
2543
100
AcDbXrecord
280
     1
270
     1
271
     1
  0
XRECORD
  5
2547
102
{ACAD_REACTORS
330
2543
102
}
330
2543
100
AcDbXrecord
280
     1
270
     1
271
     1
  0
XRECORD
  5
2549
102
{ACAD_REACTORS
330
2543
102
}
330
2543
100
AcDbXrecord
280
     1
270
     1
271
     1
  0
XRECORD
  5
2546
102
{ACAD_REACTORS
330
2543
102
}
330
2543
100
AcDbXrecord
280
     1
270
     1
271
     1
  0
XRECORD
  5
26FB
102
{ACAD_REACTORS
330
2553
102
}
330
2553
100
AcDbXrecord
280
     1
102
MATERIAL
148
0.0
149
0.0
149
0.0
 93
        0
 94
      127
282
     0
 72
     0
 77
     0
171
     0
175
     0
179
     0
273
     0
  0
XRECORD
  5
2555
102
{ACAD_REACTORS
330
2553
102
}
330
2553
100
AcDbXrecord
280
     1
270
     1
271
     1
  0
XRECORD
  5
2554
102
{ACAD_REACTORS
330
2553
102
}
330
2553
100
AcDbXrecord
280
     1
270
     1
271
     1
  0
XRECORD
  5
2558
102
{ACAD_REACTORS
330
2553
102
}
330
2553
100
AcDbXrecord
280
     1
270
     1
271
     1
  0
XRECORD
  5
2557
102
{ACAD_REACTORS
330
2553
102
}
330
2553
100
AcDbXrecord
280
     1
270
     1
271
     1
  0
XRECORD
  5
2559
102
{ACAD_REACTORS
330
2553
102
}
330
2553
100
AcDbXrecord
280
     1
270
     1
271
     1
  0
XRECORD
  5
2556
102
{ACAD_REACTORS
330
2553
102
}
330
2553
100
AcDbXrecord
280
     1
270
     1
271
     1
  0
XRECORD
  5
272E
102
{ACAD_REACTORS
330
272D
102
}
330
272D
100
AcDbXrecord
280
     1
102
DISPLAYNAME
  1
Imperial24
102
FLAGS
 90
        0
  0
CELLSTYLEMAP
  5
26F2
102
{ACAD_REACTORS
330
258E
102
}
330
258E
100
AcDbCellStyleMap
 90
        3
300
CELLSTYLE
  1
TABLEFORMAT_BEGIN
 90
        5
170
     1
 91
        0
 92
    32768
 62
   257
 93
        1
300
CONTENTFORMAT
  1
CONTENTFORMAT_BEGIN
 90
        0
 91
        0
 92
      512
 93
        0
300

 40
0.0
140
1.0
 94
        5
 62
     0
340
11
144
0.25
309
CONTENTFORMAT_END
171
     0
 94
        0
309
TABLEFORMAT_END
  1
CELLSTYLE_BEGIN
 90
        1
 91
        1
300
_TITLE
309
CELLSTYLE_END
300
CELLSTYLE
  1
TABLEFORMAT_BEGIN
 90
        5
170
     1
 91
        0
 92
        0
 62
   257
 93
        1
300
CONTENTFORMAT
  1
CONTENTFORMAT_BEGIN
 90
        0
 91
        0
 92
      512
 93
        0
300

 40
0.0
140
1.0
 94
        5
 62
     0
340
11
144
0.18
309
CONTENTFORMAT_END
171
     0
 94
        0
309
TABLEFORMAT_END
  1
CELLSTYLE_BEGIN
 90
        2
 91
        1
300
_HEADER
309
CELLSTYLE_END
300
CELLSTYLE
  1
TABLEFORMAT_BEGIN
 90
        5
170
     1
 91
        0
 92
        0
 62
   257
 93
        1
300
CONTENTFORMAT
  1
CONTENTFORMAT_BEGIN
 90
        0
 91
        0
 92
      512
 93
        0
300

 40
0.0
140
1.0
 94
        2
 62
     0
340
11
144
0.18
309
CONTENTFORMAT_END
171
     0
 94
        0
309
TABLEFORMAT_END
  1
CELLSTYLE_BEGIN
 90
        3
 91
        2
300
_DATA
309
CELLSTYLE_END
  0
XRECORD
  5
272C
102
{ACAD_REACTORS
330
258E
102
}
330
258E
100
AcDbXrecord
280
     1
102
ACAD_ROUNDTRIP_PRE2007_TABLESTYLE
 90
      512
 91
        0
  1

 92
      512
 93
        0
  2

 94
      512
 95
        0
  3

  0
XRECORD
  5
2707
102
{ACAD_REACTORS
330
2706
102
}
330
2706
100
AcDbXrecord
280
     1
102
RTVSPost2010Prop28
280
     1
102
RTVSPost2010PropOp28
 70
     1
102
RTVSPost2010Prop29
280
     1
102
RTVSPost2010PropOp29
 70
     1
102
RTVSPost2010Prop30
280
     0
102
RTVSPost2010PropOp30
 70
     1
102
RTVSPost2010Prop31
280
     0
102
RTVSPost2010PropOp31
 70
     1
102
RTVSPost2010Prop32
280
     0
102
RTVSPost2010PropOp32
 70
     1
102
RTVSPost2010Prop33
280
     0
102
RTVSPost2010PropOp33
 70
     1
102
RTVSPost2010Prop34
280
     0
102
RTVSPost2010PropOp34
 70
     1
102
RTVSPost2010Prop35
280
     0
102
RTVSPost2010PropOp35
 70
     1
102
RTVSPost2010Prop36
280
     0
102
RTVSPost2010PropOp36
 70
     1
102
RTVSPost2010Prop37
 90
       50
102
RTVSPost2010PropOp37
 70
     1
102
RTVSPost2010Prop38
140
0.0
102
RTVSPost2010PropOp38
 70
     1
102
RTVSPost2010Prop39
140
1.0
102
RTVSPost2010PropOp39
 70
     1
102
RTVSPost2010Prop40
 90
        0
102
RTVSPost2010PropOp40
 70
     1
102
RTVSPost2010Prop41ColorIndex
 90
       18
102
RTVSPost2010Prop41ColorRGB
 90
        0
102
RTVSPost2010PropOp41
 70
     1
102
RTVSPost2010Prop42
 90
       50
102
RTVSPost2010PropOp42
 70
     1
102
RTVSPost2010Prop43
 90
        3
102
RTVSPost2010PropOp43
 70
     1
102
RTVSPost2010Prop44ColorIndex
 90
        5
102
RTVSPost2010Prop44ColorRGB
 90
      255
102
RTVSPost2010PropOp44
 70
     1
102
RTVSPost2010Prop45
280
     0
102
RTVSPost2010PropOp45
 70
     1
102
RTVSPost2010Prop46
 90
       50
102
RTVSPost2010PropOp46
 70
     1
102
RTVSPost2010Prop47
 90
       50
102
RTVSPost2010PropOp47
 70
     1
102
RTVSPost2010Prop48
 90
       50
102
RTVSPost2010PropOp48
 70
     1
102
RTVSPost2010Prop49
280
     0
102
RTVSPost2010PropOp49
 70
     1
102
RTVSPost2010Prop50
 90
       50
102
RTVSPost2010PropOp50
 70
     1
102
RTVSPost2010Prop51ColorIndex
 90
      256
102
RTVSPost2010Prop51ColorRGB
 90
-16777216
102
RTVSPost2010PropOp51
 70
     0
102
RTVSPost2010Prop52
140
1.0
102
RTVSPost2010PropOp52
 70
     0
102
RTVSPost2010Prop53
 90
        2
102
RTVSPost2010PropOp53
 70
     1
102
RTVSPost2010Prop54
  1
strokes_ogs.tif
102
RTVSPost2010PropOp54
 70
     1
102
RTVSPost2010Prop55
280
     0
102
RTVSPost2010PropOp55
 70
     1
102
RTVSPost2010Prop56
140
1.0
102
RTVSPost2010PropOp56
 70
     1
102
RTVSPost2010Prop57
140
1.0
102
RTVSPost2010PropOp57
 70
     1
102
RTVSPropertyOp0
 70
     1
102
RTVSPropertyOp1
 70
     1
102
RTVSPropertyOp2
 70
     1
102
RTVSPropertyOp3
 70
     1
102
RTVSPropertyOp4
 70
     1
102
RTVSPropertyOp5
 70
     1
102
RTVSPropertyOp6
 70
     1
102
RTVSPropertyOp7
 70
     1
102
RTVSPropertyOp8
 70
     1
102
RTVSPropertyOp9
 70
     1
102
RTVSPropertyOp10
 70
     1
102
RTVSPropertyOp11
 70
     1
102
RTVSPropertyOp12
 70
     1
102
RTVSPropertyOp13
 70
     1
102
RTVSPropertyOp14
 70
     1
102
RTVSPropertyOp15
 70
     1
102
RTVSPropertyOp16
 70
     1
102
RTVSPropertyOp17
 70
     1
102
RTVSPropertyOp18
 70
     1
102
RTVSPropertyOp19
 70
     1
102
RTVSPropertyOp20
 70
     1
102
RTVSPropertyOp21
 70
     1
102
RTVSPropertyOp22
 70
     1
102
RTVSPropertyOp23
 70
     1
102
RTVSPropertyOp24
 70
     1
102
RTVSPropertyOp25
 70
     1
102
RTVSPropertyOp26
 70
     1
102
RTVSPropertyOp27
 70
     1
102
RTVSPropertyOp28
 70
     1
102
RTVSPropertyOp29
 70
     1
102
RTVSPropertyOp30
 70
     1
102
RTVSPropertyOp31
 70
     1
102
RTVSPropertyOp32
 70
     1
102
RTVSPropertyOp33
 70
     1
102
RTVSPropertyOp34
 70
     1
102
RTVSPropertyOp35
 70
     1
102
RTVSPropertyOp36
 70
     1
102
RTVSPropertyOp37
 70
     1
102
RTVSPropertyOp38
 70
     1
102
RTVSPropertyOp39
 70
     1
102
RTVSPropertyOp40
 70
     1
102
RTVSPropertyOp41
 70
     1
102
RTVSPropertyOp42
 70
     1
102
RTVSPropertyOp43
 70
     1
102
RTVSPropertyOp44
 70
     1
102
RTVSPropertyOp45
 70
     1
102
RTVSPropertyOp46
 70
     1
102
RTVSPropertyOp47
 70
     1
102
RTVSPropertyOp48
 70
     1
102
RTVSPropertyOp49
 70
     1
102
RTVSPropertyOp50
 70
     1
102
RTVSPropertyOp51
 70
     0
102
RTVSPropertyOp52
 70
     0
102
RTVSPropertyOp53
 70
     1
102
RTVSPropertyOp54
 70
     1
102
RTVSPropertyOp55
 70
     1
102
RTVSPropertyOp56
 70
     1
102
RTVSPropertyOp57
 70
     1
102
RTVSPropertyOp58
 70
     1
102
RTVSPropertyOp59
 70
     1
102
RTVSPropertyOp60
 70
     1
102
RTVSPropertyOp61
 70
     1
102
RTVSPropertyOp62
 70
     1
  0
XRECORD
  5
2705
102
{ACAD_REACTORS
330
2704
102
}
330
2704
100
AcDbXrecord
280
     1
102
RTVSPost2010Prop28
280
     0
102
RTVSPost2010PropOp28
 70
     1
102
RTVSPost2010Prop29
280
     1
102
RTVSPost2010PropOp29
 70
     1
102
RTVSPost2010Prop30
280
     1
102
RTVSPost2010PropOp30
 70
     1
102
RTVSPost2010Prop31
280
     0
102
RTVSPost2010PropOp31
 70
     1
102
RTVSPost2010Prop32
280
     0
102
RTVSPost2010PropOp32
 70
     1
102
RTVSPost2010Prop33
280
     0
102
RTVSPost2010PropOp33
 70
     1
102
RTVSPost2010Prop34
280
     0
102
RTVSPost2010PropOp34
 70
     1
102
RTVSPost2010Prop35
280
     0
102
RTVSPost2010PropOp35
 70
     1
102
RTVSPost2010Prop36
280
     0
102
RTVSPost2010PropOp36
 70
     1
102
RTVSPost2010Prop37
 90
       50
102
RTVSPost2010PropOp37
 70
     1
102
RTVSPost2010Prop38
140
0.0
102
RTVSPost2010PropOp38
 70
     1
102
RTVSPost2010Prop39
140
1.0
102
RTVSPost2010PropOp39
 70
     1
102
RTVSPost2010Prop40
 90
        0
102
RTVSPost2010PropOp40
 70
     1
102
RTVSPost2010Prop41ColorIndex
 90
       18
102
RTVSPost2010Prop41ColorRGB
 90
        0
102
RTVSPost2010PropOp41
 70
     1
102
RTVSPost2010Prop42
 90
       50
102
RTVSPost2010PropOp42
 70
     1
102
RTVSPost2010Prop43
 90
        3
102
RTVSPost2010PropOp43
 70
     1
102
RTVSPost2010Prop44ColorIndex
 90
        5
102
RTVSPost2010Prop44ColorRGB
 90
      255
102
RTVSPost2010PropOp44
 70
     1
102
RTVSPost2010Prop45
280
     0
102
RTVSPost2010PropOp45
 70
     1
102
RTVSPost2010Prop46
 90
       50
102
RTVSPost2010PropOp46
 70
     1
102
RTVSPost2010Prop47
 90
       50
102
RTVSPost2010PropOp47
 70
     1
102
RTVSPost2010Prop48
 90
       50
102
RTVSPost2010PropOp48
 70
     1
102
RTVSPost2010Prop49
280
     0
102
RTVSPost2010PropOp49
 70
     1
102
RTVSPost2010Prop50
 90
       50
102
RTVSPost2010PropOp50
 70
     1
102
RTVSPost2010Prop51ColorIndex
 90
      256
102
RTVSPost2010Prop51ColorRGB
 90
-16777216
102
RTVSPost2010PropOp51
 70
     0
102
RTVSPost2010Prop52
140
1.0
102
RTVSPost2010PropOp52
 70
     0
102
RTVSPost2010Prop53
 90
        2
102
RTVSPost2010PropOp53
 70
     1
102
RTVSPost2010Prop54
  1
strokes_ogs.tif
102
RTVSPost2010PropOp54
 70
     1
102
RTVSPost2010Prop55
280
     0
102
RTVSPost2010PropOp55
 70
     1
102
RTVSPost2010Prop56
140
1.0
102
RTVSPost2010PropOp56
 70
     1
102
RTVSPost2010Prop57
140
1.0
102
RTVSPost2010PropOp57
 70
     1
102
RTVSPropertyOp0
 70
     1
102
RTVSPropertyOp1
 70
     1
102
RTVSPropertyOp2
 70
     1
102
RTVSPropertyOp3
 70
     1
102
RTVSPropertyOp4
 70
     1
102
RTVSPropertyOp5
 70
     1
102
RTVSPropertyOp6
 70
     1
102
RTVSPropertyOp7
 70
     1
102
RTVSPropertyOp8
 70
     1
102
RTVSPropertyOp9
 70
     1
102
RTVSPropertyOp10
 70
     1
102
RTVSPropertyOp11
 70
     1
102
RTVSPropertyOp12
 70
     1
102
RTVSPropertyOp13
 70
     1
102
RTVSPropertyOp14
 70
     1
102
RTVSPropertyOp15
 70
     1
102
RTVSPropertyOp16
 70
     1
102
RTVSPropertyOp17
 70
     1
102
RTVSPropertyOp18
 70
     1
102
RTVSPropertyOp19
 70
     1
102
RTVSPropertyOp20
 70
     1
102
RTVSPropertyOp21
 70
     1
102
RTVSPropertyOp22
 70
     1
102
RTVSPropertyOp23
 70
     1
102
RTVSPropertyOp24
 70
     1
102
RTVSPropertyOp25
 70
     1
102
RTVSPropertyOp26
 70
     1
102
RTVSPropertyOp27
 70
     1
102
RTVSPropertyOp28
 70
     1
102
RTVSPropertyOp29
 70
     1
102
RTVSPropertyOp30
 70
     1
102
RTVSPropertyOp31
 70
     1
102
RTVSPropertyOp32
 70
     1
102
RTVSPropertyOp33
 70
     1
102
RTVSPropertyOp34
 70
     1
102
RTVSPropertyOp35
 70
     1
102
RTVSPropertyOp36
 70
     1
102
RTVSPropertyOp37
 70
     1
102
RTVSPropertyOp38
 70
     1
102
RTVSPropertyOp39
 70
     1
102
RTVSPropertyOp40
 70
     1
102
RTVSPropertyOp41
 70
     1
102
RTVSPropertyOp42
 70
     1
102
RTVSPropertyOp43
 70
     1
102
RTVSPropertyOp44
 70
     1
102
RTVSPropertyOp45
 70
     1
102
RTVSPropertyOp46
 70
     1
102
RTVSPropertyOp47
 70
     1
102
RTVSPropertyOp48
 70
     1
102
RTVSPropertyOp49
 70
     1
102
RTVSPropertyOp50
 70
     1
102
RTVSPropertyOp51
 70
     0
102
RTVSPropertyOp52
 70
     0
102
RTVSPropertyOp53
 70
     1
102
RTVSPropertyOp54
 70
     1
102
RTVSPropertyOp55
 70
     1
102
RTVSPropertyOp56
 70
     1
102
RTVSPropertyOp57
 70
     1
102
RTVSPropertyOp58
 70
     1
102
RTVSPropertyOp59
 70
     1
102
RTVSPropertyOp60
 70
     1
102
RTVSPropertyOp61
 70
     1
102
RTVSPropertyOp62
 70
     1
  0
XRECORD
  5
2713
102
{ACAD_REACTORS
330
2712
102
}
330
2712
100
AcDbXrecord
280
     1
102
RTVSPost2010Prop28
280
     0
102
RTVSPost2010PropOp28
 70
     1
102
RTVSPost2010Prop29
280
     1
102
RTVSPost2010PropOp29
 70
     1
102
RTVSPost2010Prop30
280
     1
102
RTVSPost2010PropOp30
 70
     1
102
RTVSPost2010Prop31
280
     0
102
RTVSPost2010PropOp31
 70
     1
102
RTVSPost2010Prop32
280
     0
102
RTVSPost2010PropOp32
 70
     1
102
RTVSPost2010Prop33
280
     0
102
RTVSPost2010PropOp33
 70
     1
102
RTVSPost2010Prop34
280
     0
102
RTVSPost2010PropOp34
 70
     1
102
RTVSPost2010Prop35
280
     0
102
RTVSPost2010PropOp35
 70
     1
102
RTVSPost2010Prop36
280
     0
102
RTVSPost2010PropOp36
 70
     1
102
RTVSPost2010Prop37
 90
       50
102
RTVSPost2010PropOp37
 70
     1
102
RTVSPost2010Prop38
140
0.0
102
RTVSPost2010PropOp38
 70
     1
102
RTVSPost2010Prop39
140
1.0
102
RTVSPost2010PropOp39
 70
     1
102
RTVSPost2010Prop40
 90
        0
102
RTVSPost2010PropOp40
 70
     1
102
RTVSPost2010Prop41ColorIndex
 90
       18
102
RTVSPost2010Prop41ColorRGB
 90
        0
102
RTVSPost2010PropOp41
 70
     1
102
RTVSPost2010Prop42
 90
       50
102
RTVSPost2010PropOp42
 70
     1
102
RTVSPost2010Prop43
 90
        3
102
RTVSPost2010PropOp43
 70
     1
102
RTVSPost2010Prop44ColorIndex
 90
        5
102
RTVSPost2010Prop44ColorRGB
 90
      255
102
RTVSPost2010PropOp44
 70
     1
102
RTVSPost2010Prop45
280
     0
102
RTVSPost2010PropOp45
 70
     1
102
RTVSPost2010Prop46
 90
       50
102
RTVSPost2010PropOp46
 70
     1
102
RTVSPost2010Prop47
 90
       50
102
RTVSPost2010PropOp47
 70
     1
102
RTVSPost2010Prop48
 90
       50
102
RTVSPost2010PropOp48
 70
     1
102
RTVSPost2010Prop49
280
     0
102
RTVSPost2010PropOp49
 70
     1
102
RTVSPost2010Prop50
 90
       50
102
RTVSPost2010PropOp50
 70
     1
102
RTVSPost2010Prop51ColorIndex
 90
      256
102
RTVSPost2010Prop51ColorRGB
 90
-16777216
102
RTVSPost2010PropOp51
 70
     0
102
RTVSPost2010Prop52
140
1.0
102
RTVSPost2010PropOp52
 70
     0
102
RTVSPost2010Prop53
 90
        2
102
RTVSPost2010PropOp53
 70
     1
102
RTVSPost2010Prop54
  1
strokes_ogs.tif
102
RTVSPost2010PropOp54
 70
     1
102
RTVSPost2010Prop55
280
     0
102
RTVSPost2010PropOp55
 70
     1
102
RTVSPost2010Prop56
140
1.0
102
RTVSPost2010PropOp56
 70
     1
102
RTVSPost2010Prop57
140
1.0
102
RTVSPost2010PropOp57
 70
     1
102
RTVSPropertyOp0
 70
     1
102
RTVSPropertyOp1
 70
     1
102
RTVSPropertyOp2
 70
     1
102
RTVSPropertyOp3
 70
     1
102
RTVSPropertyOp4
 70
     1
102
RTVSPropertyOp5
 70
     1
102
RTVSPropertyOp6
 70
     1
102
RTVSPropertyOp7
 70
     1
102
RTVSPropertyOp8
 70
     1
102
RTVSPropertyOp9
 70
     1
102
RTVSPropertyOp10
 70
     1
102
RTVSPropertyOp11
 70
     1
102
RTVSPropertyOp12
 70
     1
102
RTVSPropertyOp13
 70
     1
102
RTVSPropertyOp14
 70
     1
102
RTVSPropertyOp15
 70
     1
102
RTVSPropertyOp16
 70
     1
102
RTVSPropertyOp17
 70
     1
102
RTVSPropertyOp18
 70
     1
102
RTVSPropertyOp19
 70
     1
102
RTVSPropertyOp20
 70
     1
102
RTVSPropertyOp21
 70
     1
102
RTVSPropertyOp22
 70
     1
102
RTVSPropertyOp23
 70
     1
102
RTVSPropertyOp24
 70
     1
102
RTVSPropertyOp25
 70
     1
102
RTVSPropertyOp26
 70
     1
102
RTVSPropertyOp27
 70
     1
102
RTVSPropertyOp28
 70
     1
102
RTVSPropertyOp29
 70
     1
102
RTVSPropertyOp30
 70
     1
102
RTVSPropertyOp31
 70
     1
102
RTVSPropertyOp32
 70
     1
102
RTVSPropertyOp33
 70
     1
102
RTVSPropertyOp34
 70
     1
102
RTVSPropertyOp35
 70
     1
102
RTVSPropertyOp36
 70
     1
102
RTVSPropertyOp37
 70
     1
102
RTVSPropertyOp38
 70
     1
102
RTVSPropertyOp39
 70
     1
102
RTVSPropertyOp40
 70
     1
102
RTVSPropertyOp41
 70
     1
102
RTVSPropertyOp42
 70
     1
102
RTVSPropertyOp43
 70
     1
102
RTVSPropertyOp44
 70
     1
102
RTVSPropertyOp45
 70
     1
102
RTVSPropertyOp46
 70
     1
102
RTVSPropertyOp47
 70
     1
102
RTVSPropertyOp48
 70
     1
102
RTVSPropertyOp49
 70
     1
102
RTVSPropertyOp50
 70
     1
102
RTVSPropertyOp51
 70
     0
102
RTVSPropertyOp52
 70
     0
102
RTVSPropertyOp53
 70
     1
102
RTVSPropertyOp54
 70
     1
102
RTVSPropertyOp55
 70
     1
102
RTVSPropertyOp56
 70
     1
102
RTVSPropertyOp57
 70
     1
102
RTVSPropertyOp58
 70
     1
102
RTVSPropertyOp59
 70
     1
102
RTVSPropertyOp60
 70
     1
102
RTVSPropertyOp61
 70
     1
102
RTVSPropertyOp62
 70
     1
  0
XRECORD
  5
271B
102
{ACAD_REACTORS
330
271A
102
}
330
271A
100
AcDbXrecord
280
     1
102
RTVSPost2010Prop28
280
     0
102
RTVSPost2010PropOp28
 70
     1
102
RTVSPost2010Prop29
280
     1
102
RTVSPost2010PropOp29
 70
     1
102
RTVSPost2010Prop30
280
     1
102
RTVSPost2010PropOp30
 70
     1
102
RTVSPost2010Prop31
280
     0
102
RTVSPost2010PropOp31
 70
     1
102
RTVSPost2010Prop32
280
     0
102
RTVSPost2010PropOp32
 70
     1
102
RTVSPost2010Prop33
280
     0
102
RTVSPost2010PropOp33
 70
     1
102
RTVSPost2010Prop34
280
     0
102
RTVSPost2010PropOp34
 70
     1
102
RTVSPost2010Prop35
280
     0
102
RTVSPost2010PropOp35
 70
     1
102
RTVSPost2010Prop36
280
     0
102
RTVSPost2010PropOp36
 70
     1
102
RTVSPost2010Prop37
 90
       50
102
RTVSPost2010PropOp37
 70
     1
102
RTVSPost2010Prop38
140
0.0
102
RTVSPost2010PropOp38
 70
     1
102
RTVSPost2010Prop39
140
1.0
102
RTVSPost2010PropOp39
 70
     1
102
RTVSPost2010Prop40
 90
        0
102
RTVSPost2010PropOp40
 70
     1
102
RTVSPost2010Prop41ColorIndex
 90
       18
102
RTVSPost2010Prop41ColorRGB
 90
        0
102
RTVSPost2010PropOp41
 70
     1
102
RTVSPost2010Prop42
 90
       50
102
RTVSPost2010PropOp42
 70
     1
102
RTVSPost2010Prop43
 90
        3
102
RTVSPost2010PropOp43
 70
     1
102
RTVSPost2010Prop44ColorIndex
 90
        5
102
RTVSPost2010Prop44ColorRGB
 90
      255
102
RTVSPost2010PropOp44
 70
     1
102
RTVSPost2010Prop45
280
     0
102
RTVSPost2010PropOp45
 70
     1
102
RTVSPost2010Prop46
 90
       50
102
RTVSPost2010PropOp46
 70
     1
102
RTVSPost2010Prop47
 90
       50
102
RTVSPost2010PropOp47
 70
     1
102
RTVSPost2010Prop48
 90
       50
102
RTVSPost2010PropOp48
 70
     1
102
RTVSPost2010Prop49
280
     0
102
RTVSPost2010PropOp49
 70
     1
102
RTVSPost2010Prop50
 90
       50
102
RTVSPost2010PropOp50
 70
     1
102
RTVSPost2010Prop51ColorIndex
 90
      256
102
RTVSPost2010Prop51ColorRGB
 90
-16777216
102
RTVSPost2010PropOp51
 70
     0
102
RTVSPost2010Prop52
140
1.0
102
RTVSPost2010PropOp52
 70
     0
102
RTVSPost2010Prop53
 90
        2
102
RTVSPost2010PropOp53
 70
     1
102
RTVSPost2010Prop54
  1
strokes_ogs.tif
102
RTVSPost2010PropOp54
 70
     1
102
RTVSPost2010Prop55
280
     0
102
RTVSPost2010PropOp55
 70
     1
102
RTVSPost2010Prop56
140
1.0
102
RTVSPost2010PropOp56
 70
     1
102
RTVSPost2010Prop57
140
1.0
102
RTVSPost2010PropOp57
 70
     1
102
RTVSPropertyOp0
 70
     1
102
RTVSPropertyOp1
 70
     1
102
RTVSPropertyOp2
 70
     1
102
RTVSPropertyOp3
 70
     1
102
RTVSPropertyOp4
 70
     1
102
RTVSPropertyOp5
 70
     1
102
RTVSPropertyOp6
 70
     1
102
RTVSPropertyOp7
 70
     1
102
RTVSPropertyOp8
 70
     1
102
RTVSPropertyOp9
 70
     1
102
RTVSPropertyOp10
 70
     1
102
RTVSPropertyOp11
 70
     1
102
RTVSPropertyOp12
 70
     1
102
RTVSPropertyOp13
 70
     1
102
RTVSPropertyOp14
 70
     1
102
RTVSPropertyOp15
 70
     1
102
RTVSPropertyOp16
 70
     1
102
RTVSPropertyOp17
 70
     1
102
RTVSPropertyOp18
 70
     1
102
RTVSPropertyOp19
 70
     1
102
RTVSPropertyOp20
 70
     1
102
RTVSPropertyOp21
 70
     1
102
RTVSPropertyOp22
 70
     1
102
RTVSPropertyOp23
 70
     1
102
RTVSPropertyOp24
 70
     1
102
RTVSPropertyOp25
 70
     1
102
RTVSPropertyOp26
 70
     1
102
RTVSPropertyOp27
 70
     1
102
RTVSPropertyOp28
 70
     1
102
RTVSPropertyOp29
 70
     1
102
RTVSPropertyOp30
 70
     1
102
RTVSPropertyOp31
 70
     1
102
RTVSPropertyOp32
 70
     1
102
RTVSPropertyOp33
 70
     1
102
RTVSPropertyOp34
 70
     1
102
RTVSPropertyOp35
 70
     1
102
RTVSPropertyOp36
 70
     1
102
RTVSPropertyOp37
 70
     1
102
RTVSPropertyOp38
 70
     1
102
RTVSPropertyOp39
 70
     1
102
RTVSPropertyOp40
 70
     1
102
RTVSPropertyOp41
 70
     1
102
RTVSPropertyOp42
 70
     1
102
RTVSPropertyOp43
 70
     1
102
RTVSPropertyOp44
 70
     1
102
RTVSPropertyOp45
 70
     1
102
RTVSPropertyOp46
 70
     1
102
RTVSPropertyOp47
 70
     1
102
RTVSPropertyOp48
 70
     1
102
RTVSPropertyOp49
 70
     1
102
RTVSPropertyOp50
 70
     1
102
RTVSPropertyOp51
 70
     0
102
RTVSPropertyOp52
 70
     0
102
RTVSPropertyOp53
 70
     1
102
RTVSPropertyOp54
 70
     1
102
RTVSPropertyOp55
 70
     1
102
RTVSPropertyOp56
 70
     1
102
RTVSPropertyOp57
 70
     1
102
RTVSPropertyOp58
 70
     1
102
RTVSPropertyOp59
 70
     1
102
RTVSPropertyOp60
 70
     1
102
RTVSPropertyOp61
 70
     1
102
RTVSPropertyOp62
 70
     1
  0
XRECORD
  5
270D
102
{ACAD_REACTORS
330
270C
102
}
330
270C
100
AcDbXrecord
280
     1
102
RTVSPost2010Prop28
280
     0
102
RTVSPost2010PropOp28
 70
     1
102
RTVSPost2010Prop29
280
     1
102
RTVSPost2010PropOp29
 70
     1
102
RTVSPost2010Prop30
280
     1
102
RTVSPost2010PropOp30
 70
     1
102
RTVSPost2010Prop31
280
     0
102
RTVSPost2010PropOp31
 70
     1
102
RTVSPost2010Prop32
280
     0
102
RTVSPost2010PropOp32
 70
     1
102
RTVSPost2010Prop33
280
     0
102
RTVSPost2010PropOp33
 70
     1
102
RTVSPost2010Prop34
280
     0
102
RTVSPost2010PropOp34
 70
     1
102
RTVSPost2010Prop35
280
     0
102
RTVSPost2010PropOp35
 70
     1
102
RTVSPost2010Prop36
280
     0
102
RTVSPost2010PropOp36
 70
     1
102
RTVSPost2010Prop37
 90
       50
102
RTVSPost2010PropOp37
 70
     1
102
RTVSPost2010Prop38
140
0.0
102
RTVSPost2010PropOp38
 70
     1
102
RTVSPost2010Prop39
140
1.0
102
RTVSPost2010PropOp39
 70
     1
102
RTVSPost2010Prop40
 90
        0
102
RTVSPost2010PropOp40
 70
     1
102
RTVSPost2010Prop41ColorIndex
 90
       18
102
RTVSPost2010Prop41ColorRGB
 90
        0
102
RTVSPost2010PropOp41
 70
     1
102
RTVSPost2010Prop42
 90
       50
102
RTVSPost2010PropOp42
 70
     1
102
RTVSPost2010Prop43
 90
        3
102
RTVSPost2010PropOp43
 70
     1
102
RTVSPost2010Prop44ColorIndex
 90
        5
102
RTVSPost2010Prop44ColorRGB
 90
      255
102
RTVSPost2010PropOp44
 70
     1
102
RTVSPost2010Prop45
280
     0
102
RTVSPost2010PropOp45
 70
     1
102
RTVSPost2010Prop46
 90
       50
102
RTVSPost2010PropOp46
 70
     1
102
RTVSPost2010Prop47
 90
       50
102
RTVSPost2010PropOp47
 70
     1
102
RTVSPost2010Prop48
 90
       50
102
RTVSPost2010PropOp48
 70
     1
102
RTVSPost2010Prop49
280
     0
102
RTVSPost2010PropOp49
 70
     1
102
RTVSPost2010Prop50
 90
       50
102
RTVSPost2010PropOp50
 70
     1
102
RTVSPost2010Prop51ColorIndex
 90
      256
102
RTVSPost2010Prop51ColorRGB
 90
-16777216
102
RTVSPost2010PropOp51
 70
     0
102
RTVSPost2010Prop52
140
1.0
102
RTVSPost2010PropOp52
 70
     0
102
RTVSPost2010Prop53
 90
        2
102
RTVSPost2010PropOp53
 70
     1
102
RTVSPost2010Prop54
  1
strokes_ogs.tif
102
RTVSPost2010PropOp54
 70
     1
102
RTVSPost2010Prop55
280
     0
102
RTVSPost2010PropOp55
 70
     1
102
RTVSPost2010Prop56
140
1.0
102
RTVSPost2010PropOp56
 70
     1
102
RTVSPost2010Prop57
140
1.0
102
RTVSPost2010PropOp57
 70
     1
102
RTVSPropertyOp0
 70
     1
102
RTVSPropertyOp1
 70
     1
102
RTVSPropertyOp2
 70
     1
102
RTVSPropertyOp3
 70
     1
102
RTVSPropertyOp4
 70
     1
102
RTVSPropertyOp5
 70
     1
102
RTVSPropertyOp6
 70
     1
102
RTVSPropertyOp7
 70
     1
102
RTVSPropertyOp8
 70
     1
102
RTVSPropertyOp9
 70
     1
102
RTVSPropertyOp10
 70
     1
102
RTVSPropertyOp11
 70
     1
102
RTVSPropertyOp12
 70
     1
102
RTVSPropertyOp13
 70
     1
102
RTVSPropertyOp14
 70
     1
102
RTVSPropertyOp15
 70
     1
102
RTVSPropertyOp16
 70
     1
102
RTVSPropertyOp17
 70
     1
102
RTVSPropertyOp18
 70
     1
102
RTVSPropertyOp19
 70
     1
102
RTVSPropertyOp20
 70
     1
102
RTVSPropertyOp21
 70
     1
102
RTVSPropertyOp22
 70
     1
102
RTVSPropertyOp23
 70
     1
102
RTVSPropertyOp24
 70
     1
102
RTVSPropertyOp25
 70
     1
102
RTVSPropertyOp26
 70
     1
102
RTVSPropertyOp27
 70
     1
102
RTVSPropertyOp28
 70
     1
102
RTVSPropertyOp29
 70
     1
102
RTVSPropertyOp30
 70
     1
102
RTVSPropertyOp31
 70
     1
102
RTVSPropertyOp32
 70
     1
102
RTVSPropertyOp33
 70
     1
102
RTVSPropertyOp34
 70
     1
102
RTVSPropertyOp35
 70
     1
102
RTVSPropertyOp36
 70
     1
102
RTVSPropertyOp37
 70
     1
102
RTVSPropertyOp38
 70
     1
102
RTVSPropertyOp39
 70
     1
102
RTVSPropertyOp40
 70
     1
102
RTVSPropertyOp41
 70
     1
102
RTVSPropertyOp42
 70
     1
102
RTVSPropertyOp43
 70
     1
102
RTVSPropertyOp44
 70
     1
102
RTVSPropertyOp45
 70
     1
102
RTVSPropertyOp46
 70
     1
102
RTVSPropertyOp47
 70
     1
102
RTVSPropertyOp48
 70
     1
102
RTVSPropertyOp49
 70
     1
102
RTVSPropertyOp50
 70
     1
102
RTVSPropertyOp51
 70
     0
102
RTVSPropertyOp52
 70
     0
102
RTVSPropertyOp53
 70
     1
102
RTVSPropertyOp54
 70
     1
102
RTVSPropertyOp55
 70
     1
102
RTVSPropertyOp56
 70
     1
102
RTVSPropertyOp57
 70
     1
102
RTVSPropertyOp58
 70
     1
102
RTVSPropertyOp59
 70
     1
102
RTVSPropertyOp60
 70
     1
102
RTVSPropertyOp61
 70
     1
102
RTVSPropertyOp62
 70
     1
  0
XRECORD
  5
2711
102
{ACAD_REACTORS
330
2710
102
}
330
2710
100
AcDbXrecord
280
     1
102
RTVSPost2010Prop28
280
     0
102
RTVSPost2010PropOp28
 70
     1
102
RTVSPost2010Prop29
280
     1
102
RTVSPost2010PropOp29
 70
     1
102
RTVSPost2010Prop30
280
     1
102
RTVSPost2010PropOp30
 70
     1
102
RTVSPost2010Prop31
280
     0
102
RTVSPost2010PropOp31
 70
     1
102
RTVSPost2010Prop32
280
     0
102
RTVSPost2010PropOp32
 70
     1
102
RTVSPost2010Prop33
280
     0
102
RTVSPost2010PropOp33
 70
     1
102
RTVSPost2010Prop34
280
     0
102
RTVSPost2010PropOp34
 70
     1
102
RTVSPost2010Prop35
280
     0
102
RTVSPost2010PropOp35
 70
     1
102
RTVSPost2010Prop36
280
     0
102
RTVSPost2010PropOp36
 70
     1
102
RTVSPost2010Prop37
 90
       50
102
RTVSPost2010PropOp37
 70
     1
102
RTVSPost2010Prop38
140
0.0
102
RTVSPost2010PropOp38
 70
     1
102
RTVSPost2010Prop39
140
1.0
102
RTVSPost2010PropOp39
 70
     1
102
RTVSPost2010Prop40
 90
        0
102
RTVSPost2010PropOp40
 70
     1
102
RTVSPost2010Prop41ColorIndex
 90
       18
102
RTVSPost2010Prop41ColorRGB
 90
        0
102
RTVSPost2010PropOp41
 70
     1
102
RTVSPost2010Prop42
 90
       50
102
RTVSPost2010PropOp42
 70
     1
102
RTVSPost2010Prop43
 90
        3
102
RTVSPost2010PropOp43
 70
     1
102
RTVSPost2010Prop44ColorIndex
 90
        5
102
RTVSPost2010Prop44ColorRGB
 90
      255
102
RTVSPost2010PropOp44
 70
     1
102
RTVSPost2010Prop45
280
     0
102
RTVSPost2010PropOp45
 70
     1
102
RTVSPost2010Prop46
 90
       50
102
RTVSPost2010PropOp46
 70
     1
102
RTVSPost2010Prop47
 90
       50
102
RTVSPost2010PropOp47
 70
     1
102
RTVSPost2010Prop48
 90
       50
102
RTVSPost2010PropOp48
 70
     1
102
RTVSPost2010Prop49
280
     0
102
RTVSPost2010PropOp49
 70
     1
102
RTVSPost2010Prop50
 90
       50
102
RTVSPost2010PropOp50
 70
     1
102
RTVSPost2010Prop51ColorIndex
 90
      256
102
RTVSPost2010Prop51ColorRGB
 90
-16777216
102
RTVSPost2010PropOp51
 70
     0
102
RTVSPost2010Prop52
140
1.0
102
RTVSPost2010PropOp52
 70
     0
102
RTVSPost2010Prop53
 90
        2
102
RTVSPost2010PropOp53
 70
     1
102
RTVSPost2010Prop54
  1
strokes_ogs.tif
102
RTVSPost2010PropOp54
 70
     1
102
RTVSPost2010Prop55
280
     0
102
RTVSPost2010PropOp55
 70
     1
102
RTVSPost2010Prop56
140
1.0
102
RTVSPost2010PropOp56
 70
     1
102
RTVSPost2010Prop57
140
1.0
102
RTVSPost2010PropOp57
 70
     1
102
RTVSPropertyOp0
 70
     1
102
RTVSPropertyOp1
 70
     1
102
RTVSPropertyOp2
 70
     1
102
RTVSPropertyOp3
 70
     1
102
RTVSPropertyOp4
 70
     1
102
RTVSPropertyOp5
 70
     1
102
RTVSPropertyOp6
 70
     1
102
RTVSPropertyOp7
 70
     1
102
RTVSPropertyOp8
 70
     1
102
RTVSPropertyOp9
 70
     1
102
RTVSPropertyOp10
 70
     1
102
RTVSPropertyOp11
 70
     1
102
RTVSPropertyOp12
 70
     1
102
RTVSPropertyOp13
 70
     1
102
RTVSPropertyOp14
 70
     1
102
RTVSPropertyOp15
 70
     1
102
RTVSPropertyOp16
 70
     1
102
RTVSPropertyOp17
 70
     1
102
RTVSPropertyOp18
 70
     1
102
RTVSPropertyOp19
 70
     1
102
RTVSPropertyOp20
 70
     1
102
RTVSPropertyOp21
 70
     1
102
RTVSPropertyOp22
 70
     1
102
RTVSPropertyOp23
 70
     1
102
RTVSPropertyOp24
 70
     1
102
RTVSPropertyOp25
 70
     1
102
RTVSPropertyOp26
 70
     1
102
RTVSPropertyOp27
 70
     1
102
RTVSPropertyOp28
 70
     1
102
RTVSPropertyOp29
 70
     1
102
RTVSPropertyOp30
 70
     1
102
RTVSPropertyOp31
 70
     1
102
RTVSPropertyOp32
 70
     1
102
RTVSPropertyOp33
 70
     1
102
RTVSPropertyOp34
 70
     1
102
RTVSPropertyOp35
 70
     1
102
RTVSPropertyOp36
 70
     1
102
RTVSPropertyOp37
 70
     1
102
RTVSPropertyOp38
 70
     1
102
RTVSPropertyOp39
 70
     1
102
RTVSPropertyOp40
 70
     1
102
RTVSPropertyOp41
 70
     1
102
RTVSPropertyOp42
 70
     1
102
RTVSPropertyOp43
 70
     1
102
RTVSPropertyOp44
 70
     1
102
RTVSPropertyOp45
 70
     1
102
RTVSPropertyOp46
 70
     1
102
RTVSPropertyOp47
 70
     1
102
RTVSPropertyOp48
 70
     1
102
RTVSPropertyOp49
 70
     1
102
RTVSPropertyOp50
 70
     1
102
RTVSPropertyOp51
 70
     0
102
RTVSPropertyOp52
 70
     0
102
RTVSPropertyOp53
 70
     1
102
RTVSPropertyOp54
 70
     1
102
RTVSPropertyOp55
 70
     1
102
RTVSPropertyOp56
 70
     1
102
RTVSPropertyOp57
 70
     1
102
RTVSPropertyOp58
 70
     1
102
RTVSPropertyOp59
 70
     1
102
RTVSPropertyOp60
 70
     1
102
RTVSPropertyOp61
 70
     1
102
RTVSPropertyOp62
 70
     1
  0
XRECORD
  5
272B
102
{ACAD_REACTORS
330
272A
102
}
330
272A
100
AcDbXrecord
280
     1
102
RTVSPost2010Prop28
280
     0
102
RTVSPost2010PropOp28
 70
     1
102
RTVSPost2010Prop29
280
     1
102
RTVSPost2010PropOp29
 70
     1
102
RTVSPost2010Prop30
280
     1
102
RTVSPost2010PropOp30
 70
     1
102
RTVSPost2010Prop31
280
     0
102
RTVSPost2010PropOp31
 70
     1
102
RTVSPost2010Prop32
280
     0
102
RTVSPost2010PropOp32
 70
     1
102
RTVSPost2010Prop33
280
     0
102
RTVSPost2010PropOp33
 70
     1
102
RTVSPost2010Prop34
280
     0
102
RTVSPost2010PropOp34
 70
     1
102
RTVSPost2010Prop35
280
     0
102
RTVSPost2010PropOp35
 70
     1
102
RTVSPost2010Prop36
280
     0
102
RTVSPost2010PropOp36
 70
     1
102
RTVSPost2010Prop37
 90
       50
102
RTVSPost2010PropOp37
 70
     0
102
RTVSPost2010Prop38
140
0.0
102
RTVSPost2010PropOp38
 70
     0
102
RTVSPost2010Prop39
140
1.0
102
RTVSPost2010PropOp39
 70
     0
102
RTVSPost2010Prop40
 90
        0
102
RTVSPost2010PropOp40
 70
     0
102
RTVSPost2010Prop41ColorIndex
 90
       18
102
RTVSPost2010Prop41ColorRGB
 90
        0
102
RTVSPost2010PropOp41
 70
     0
102
RTVSPost2010Prop42
 90
       50
102
RTVSPost2010PropOp42
 70
     0
102
RTVSPost2010Prop43
 90
        3
102
RTVSPost2010PropOp43
 70
     0
102
RTVSPost2010Prop44ColorIndex
 90
        5
102
RTVSPost2010Prop44ColorRGB
 90
      255
102
RTVSPost2010PropOp44
 70
     0
102
RTVSPost2010Prop45
280
     0
102
RTVSPost2010PropOp45
 70
     1
102
RTVSPost2010Prop46
 90
       50
102
RTVSPost2010PropOp46
 70
     0
102
RTVSPost2010Prop47
 90
       50
102
RTVSPost2010PropOp47
 70
     0
102
RTVSPost2010Prop48
 90
       50
102
RTVSPost2010PropOp48
 70
     0
102
RTVSPost2010Prop49
280
     0
102
RTVSPost2010PropOp49
 70
     1
102
RTVSPost2010Prop50
 90
       50
102
RTVSPost2010PropOp50
 70
     0
102
RTVSPost2010Prop51ColorIndex
 90
      256
102
RTVSPost2010Prop51ColorRGB
 90
-16777216
102
RTVSPost2010PropOp51
 70
     0
102
RTVSPost2010Prop52
140
1.0
102
RTVSPost2010PropOp52
 70
     0
102
RTVSPost2010Prop53
 90
        2
102
RTVSPost2010PropOp53
 70
     0
102
RTVSPost2010Prop54
  1
strokes_ogs.tif
102
RTVSPost2010PropOp54
 70
     0
102
RTVSPost2010Prop55
280
     0
102
RTVSPost2010PropOp55
 70
     1
102
RTVSPost2010Prop56
140
1.0
102
RTVSPost2010PropOp56
 70
     0
102
RTVSPost2010Prop57
140
1.0
102
RTVSPost2010PropOp57
 70
     0
102
RTVSPropertyOp0
 70
     0
102
RTVSPropertyOp1
 70
     0
102
RTVSPropertyOp2
 70
     0
102
RTVSPropertyOp3
 70
     0
102
RTVSPropertyOp4
 70
     0
102
RTVSPropertyOp5
 70
     0
102
RTVSPropertyOp6
 70
     0
102
RTVSPropertyOp7
 70
     0
102
RTVSPropertyOp8
 70
     0
102
RTVSPropertyOp9
 70
     0
102
RTVSPropertyOp10
 70
     0
102
RTVSPropertyOp11
 70
     0
102
RTVSPropertyOp12
 70
     0
102
RTVSPropertyOp13
 70
     0
102
RTVSPropertyOp14
 70
     2
102
RTVSPropertyOp15
 70
     0
102
RTVSPropertyOp16
 70
     0
102
RTVSPropertyOp17
 70
     0
102
RTVSPropertyOp18
 70
     0
102
RTVSPropertyOp19
 70
     0
102
RTVSPropertyOp20
 70
     0
102
RTVSPropertyOp21
 70
     0
102
RTVSPropertyOp22
 70
     0
102
RTVSPropertyOp23
 70
     0
102
RTVSPropertyOp24
 70
     0
102
RTVSPropertyOp25
 70
     0
102
RTVSPropertyOp26
 70
     0
102
RTVSPropertyOp27
 70
     0
102
RTVSPropertyOp28
 70
     1
102
RTVSPropertyOp29
 70
     1
102
RTVSPropertyOp30
 70
     1
102
RTVSPropertyOp31
 70
     1
102
RTVSPropertyOp32
 70
     1
102
RTVSPropertyOp33
 70
     1
102
RTVSPropertyOp34
 70
     1
102
RTVSPropertyOp35
 70
     1
102
RTVSPropertyOp36
 70
     1
102
RTVSPropertyOp37
 70
     0
102
RTVSPropertyOp38
 70
     0
102
RTVSPropertyOp39
 70
     0
102
RTVSPropertyOp40
 70
     0
102
RTVSPropertyOp41
 70
     0
102
RTVSPropertyOp42
 70
     0
102
RTVSPropertyOp43
 70
     0
102
RTVSPropertyOp44
 70
     0
102
RTVSPropertyOp45
 70
     1
102
RTVSPropertyOp46
 70
     0
102
RTVSPropertyOp47
 70
     0
102
RTVSPropertyOp48
 70
     0
102
RTVSPropertyOp49
 70
     1
102
RTVSPropertyOp50
 70
     0
102
RTVSPropertyOp51
 70
     0
102
RTVSPropertyOp52
 70
     0
102
RTVSPropertyOp53
 70
     0
102
RTVSPropertyOp54
 70
     0
102
RTVSPropertyOp55
 70
     1
102
RTVSPropertyOp56
 70
     0
102
RTVSPropertyOp57
 70
     0
102
RTVSPropertyOp58
 70
     0
102
RTVSPropertyOp59
 70
     0
102
RTVSPropertyOp60
 70
     0
102
RTVSPropertyOp61
 70
     0
102
RTVSPropertyOp62
 70
     0
  0
XRECORD
  5
2719
102
{ACAD_REACTORS
330
2718
102
}
330
2718
100
AcDbXrecord
280
     1
102
RTVSPost2010Prop28
280
     0
102
RTVSPost2010PropOp28
 70
     1
102
RTVSPost2010Prop29
280
     1
102
RTVSPost2010PropOp29
 70
     1
102
RTVSPost2010Prop30
280
     1
102
RTVSPost2010PropOp30
 70
     1
102
RTVSPost2010Prop31
280
     0
102
RTVSPost2010PropOp31
 70
     1
102
RTVSPost2010Prop32
280
     0
102
RTVSPost2010PropOp32
 70
     1
102
RTVSPost2010Prop33
280
     0
102
RTVSPost2010PropOp33
 70
     1
102
RTVSPost2010Prop34
280
     0
102
RTVSPost2010PropOp34
 70
     1
102
RTVSPost2010Prop35
280
     0
102
RTVSPost2010PropOp35
 70
     1
102
RTVSPost2010Prop36
280
     0
102
RTVSPost2010PropOp36
 70
     1
102
RTVSPost2010Prop37
 90
       50
102
RTVSPost2010PropOp37
 70
     1
102
RTVSPost2010Prop38
140
0.0
102
RTVSPost2010PropOp38
 70
     1
102
RTVSPost2010Prop39
140
1.0
102
RTVSPost2010PropOp39
 70
     1
102
RTVSPost2010Prop40
 90
        0
102
RTVSPost2010PropOp40
 70
     1
102
RTVSPost2010Prop41ColorIndex
 90
       18
102
RTVSPost2010Prop41ColorRGB
 90
        0
102
RTVSPost2010PropOp41
 70
     1
102
RTVSPost2010Prop42
 90
       50
102
RTVSPost2010PropOp42
 70
     1
102
RTVSPost2010Prop43
 90
        3
102
RTVSPost2010PropOp43
 70
     1
102
RTVSPost2010Prop44ColorIndex
 90
        5
102
RTVSPost2010Prop44ColorRGB
 90
      255
102
RTVSPost2010PropOp44
 70
     1
102
RTVSPost2010Prop45
280
     0
102
RTVSPost2010PropOp45
 70
     1
102
RTVSPost2010Prop46
 90
       50
102
RTVSPost2010PropOp46
 70
     1
102
RTVSPost2010Prop47
 90
       50
102
RTVSPost2010PropOp47
 70
     1
102
RTVSPost2010Prop48
 90
       50
102
RTVSPost2010PropOp48
 70
     1
102
RTVSPost2010Prop49
280
     0
102
RTVSPost2010PropOp49
 70
     1
102
RTVSPost2010Prop50
 90
       50
102
RTVSPost2010PropOp50
 70
     1
102
RTVSPost2010Prop51ColorIndex
 90
      256
102
RTVSPost2010Prop51ColorRGB
 90
-16777216
102
RTVSPost2010PropOp51
 70
     0
102
RTVSPost2010Prop52
140
1.0
102
RTVSPost2010PropOp52
 70
     0
102
RTVSPost2010Prop53
 90
        2
102
RTVSPost2010PropOp53
 70
     1
102
RTVSPost2010Prop54
  1
strokes_ogs.tif
102
RTVSPost2010PropOp54
 70
     1
102
RTVSPost2010Prop55
280
     0
102
RTVSPost2010PropOp55
 70
     1
102
RTVSPost2010Prop56
140
1.0
102
RTVSPost2010PropOp56
 70
     1
102
RTVSPost2010Prop57
140
1.0
102
RTVSPost2010PropOp57
 70
     1
102
RTVSPropertyOp0
 70
     1
102
RTVSPropertyOp1
 70
     1
102
RTVSPropertyOp2
 70
     1
102
RTVSPropertyOp3
 70
     1
102
RTVSPropertyOp4
 70
     1
102
RTVSPropertyOp5
 70
     1
102
RTVSPropertyOp6
 70
     1
102
RTVSPropertyOp7
 70
     1
102
RTVSPropertyOp8
 70
     1
102
RTVSPropertyOp9
 70
     1
102
RTVSPropertyOp10
 70
     1
102
RTVSPropertyOp11
 70
     1
102
RTVSPropertyOp12
 70
     1
102
RTVSPropertyOp13
 70
     1
102
RTVSPropertyOp14
 70
     1
102
RTVSPropertyOp15
 70
     1
102
RTVSPropertyOp16
 70
     1
102
RTVSPropertyOp17
 70
     1
102
RTVSPropertyOp18
 70
     1
102
RTVSPropertyOp19
 70
     1
102
RTVSPropertyOp20
 70
     1
102
RTVSPropertyOp21
 70
     1
102
RTVSPropertyOp22
 70
     1
102
RTVSPropertyOp23
 70
     1
102
RTVSPropertyOp24
 70
     1
102
RTVSPropertyOp25
 70
     1
102
RTVSPropertyOp26
 70
     1
102
RTVSPropertyOp27
 70
     1
102
RTVSPropertyOp28
 70
     1
102
RTVSPropertyOp29
 70
     1
102
RTVSPropertyOp30
 70
     1
102
RTVSPropertyOp31
 70
     1
102
RTVSPropertyOp32
 70
     1
102
RTVSPropertyOp33
 70
     1
102
RTVSPropertyOp34
 70
     1
102
RTVSPropertyOp35
 70
     1
102
RTVSPropertyOp36
 70
     1
102
RTVSPropertyOp37
 70
     1
102
RTVSPropertyOp38
 70
     1
102
RTVSPropertyOp39
 70
     1
102
RTVSPropertyOp40
 70
     1
102
RTVSPropertyOp41
 70
     1
102
RTVSPropertyOp42
 70
     1
102
RTVSPropertyOp43
 70
     1
102
RTVSPropertyOp44
 70
     1
102
RTVSPropertyOp45
 70
     1
102
RTVSPropertyOp46
 70
     1
102
RTVSPropertyOp47
 70
     1
102
RTVSPropertyOp48
 70
     1
102
RTVSPropertyOp49
 70
     1
102
RTVSPropertyOp50
 70
     1
102
RTVSPropertyOp51
 70
     0
102
RTVSPropertyOp52
 70
     0
102
RTVSPropertyOp53
 70
     1
102
RTVSPropertyOp54
 70
     1
102
RTVSPropertyOp55
 70
     1
102
RTVSPropertyOp56
 70
     1
102
RTVSPropertyOp57
 70
     1
102
RTVSPropertyOp58
 70
     1
102
RTVSPropertyOp59
 70
     1
102
RTVSPropertyOp60
 70
     1
102
RTVSPropertyOp61
 70
     1
102
RTVSPropertyOp62
 70
     1
  0
XRECORD
  5
26FD
102
{ACAD_REACTORS
330
26FC
102
}
330
26FC
100
AcDbXrecord
280
     1
102
RTVSPost2010Prop28
280
     0
102
RTVSPost2010PropOp28
 70
     1
102
RTVSPost2010Prop29
280
     1
102
RTVSPost2010PropOp29
 70
     1
102
RTVSPost2010Prop30
280
     1
102
RTVSPost2010PropOp30
 70
     1
102
RTVSPost2010Prop31
280
     0
102
RTVSPost2010PropOp31
 70
     1
102
RTVSPost2010Prop32
280
     0
102
RTVSPost2010PropOp32
 70
     1
102
RTVSPost2010Prop33
280
     0
102
RTVSPost2010PropOp33
 70
     1
102
RTVSPost2010Prop34
280
     0
102
RTVSPost2010PropOp34
 70
     1
102
RTVSPost2010Prop35
280
     0
102
RTVSPost2010PropOp35
 70
     1
102
RTVSPost2010Prop36
280
     0
102
RTVSPost2010PropOp36
 70
     1
102
RTVSPost2010Prop37
 90
       50
102
RTVSPost2010PropOp37
 70
     1
102
RTVSPost2010Prop38
140
0.0
102
RTVSPost2010PropOp38
 70
     1
102
RTVSPost2010Prop39
140
1.0
102
RTVSPost2010PropOp39
 70
     1
102
RTVSPost2010Prop40
 90
        0
102
RTVSPost2010PropOp40
 70
     1
102
RTVSPost2010Prop41ColorIndex
 90
       18
102
RTVSPost2010Prop41ColorRGB
 90
        0
102
RTVSPost2010PropOp41
 70
     1
102
RTVSPost2010Prop42
 90
       50
102
RTVSPost2010PropOp42
 70
     1
102
RTVSPost2010Prop43
 90
        3
102
RTVSPost2010PropOp43
 70
     1
102
RTVSPost2010Prop44ColorIndex
 90
        5
102
RTVSPost2010Prop44ColorRGB
 90
      255
102
RTVSPost2010PropOp44
 70
     1
102
RTVSPost2010Prop45
280
     0
102
RTVSPost2010PropOp45
 70
     1
102
RTVSPost2010Prop46
 90
       50
102
RTVSPost2010PropOp46
 70
     1
102
RTVSPost2010Prop47
 90
       50
102
RTVSPost2010PropOp47
 70
     1
102
RTVSPost2010Prop48
 90
       50
102
RTVSPost2010PropOp48
 70
     1
102
RTVSPost2010Prop49
280
     0
102
RTVSPost2010PropOp49
 70
     1
102
RTVSPost2010Prop50
 90
       50
102
RTVSPost2010PropOp50
 70
     1
102
RTVSPost2010Prop51ColorIndex
 90
      256
102
RTVSPost2010Prop51ColorRGB
 90
-16777216
102
RTVSPost2010PropOp51
 70
     0
102
RTVSPost2010Prop52
140
1.0
102
RTVSPost2010PropOp52
 70
     0
102
RTVSPost2010Prop53
 90
        2
102
RTVSPost2010PropOp53
 70
     1
102
RTVSPost2010Prop54
  1
strokes_ogs.tif
102
RTVSPost2010PropOp54
 70
     1
102
RTVSPost2010Prop55
280
     0
102
RTVSPost2010PropOp55
 70
     1
102
RTVSPost2010Prop56
140
1.0
102
RTVSPost2010PropOp56
 70
     1
102
RTVSPost2010Prop57
140
1.0
102
RTVSPost2010PropOp57
 70
     1
102
RTVSPropertyOp0
 70
     1
102
RTVSPropertyOp1
 70
     1
102
RTVSPropertyOp2
 70
     1
102
RTVSPropertyOp3
 70
     1
102
RTVSPropertyOp4
 70
     1
102
RTVSPropertyOp5
 70
     1
102
RTVSPropertyOp6
 70
     1
102
RTVSPropertyOp7
 70
     1
102
RTVSPropertyOp8
 70
     1
102
RTVSPropertyOp9
 70
     1
102
RTVSPropertyOp10
 70
     1
102
RTVSPropertyOp11
 70
     1
102
RTVSPropertyOp12
 70
     1
102
RTVSPropertyOp13
 70
     1
102
RTVSPropertyOp14
 70
     1
102
RTVSPropertyOp15
 70
     1
102
RTVSPropertyOp16
 70
     1
102
RTVSPropertyOp17
 70
     1
102
RTVSPropertyOp18
 70
     1
102
RTVSPropertyOp19
 70
     1
102
RTVSPropertyOp20
 70
     1
102
RTVSPropertyOp21
 70
     1
102
RTVSPropertyOp22
 70
     1
102
RTVSPropertyOp23
 70
     1
102
RTVSPropertyOp24
 70
     1
102
RTVSPropertyOp25
 70
     1
102
RTVSPropertyOp26
 70
     1
102
RTVSPropertyOp27
 70
     1
102
RTVSPropertyOp28
 70
     1
102
RTVSPropertyOp29
 70
     1
102
RTVSPropertyOp30
 70
     1
102
RTVSPropertyOp31
 70
     1
102
RTVSPropertyOp32
 70
     1
102
RTVSPropertyOp33
 70
     1
102
RTVSPropertyOp34
 70
     1
102
RTVSPropertyOp35
 70
     1
102
RTVSPropertyOp36
 70
     1
102
RTVSPropertyOp37
 70
     1
102
RTVSPropertyOp38
 70
     1
102
RTVSPropertyOp39
 70
     1
102
RTVSPropertyOp40
 70
     1
102
RTVSPropertyOp41
 70
     1
102
RTVSPropertyOp42
 70
     1
102
RTVSPropertyOp43
 70
     1
102
RTVSPropertyOp44
 70
     1
102
RTVSPropertyOp45
 70
     1
102
RTVSPropertyOp46
 70
     1
102
RTVSPropertyOp47
 70
     1
102
RTVSPropertyOp48
 70
     1
102
RTVSPropertyOp49
 70
     1
102
RTVSPropertyOp50
 70
     1
102
RTVSPropertyOp51
 70
     0
102
RTVSPropertyOp52
 70
     0
102
RTVSPropertyOp53
 70
     1
102
RTVSPropertyOp54
 70
     1
102
RTVSPropertyOp55
 70
     1
102
RTVSPropertyOp56
 70
     1
102
RTVSPropertyOp57
 70
     1
102
RTVSPropertyOp58
 70
     1
102
RTVSPropertyOp59
 70
     1
102
RTVSPropertyOp60
 70
     1
102
RTVSPropertyOp61
 70
     1
102
RTVSPropertyOp62
 70
     1
  0
XRECORD
  5
26FF
102
{ACAD_REACTORS
330
26FE
102
}
330
26FE
100
AcDbXrecord
280
     1
102
RTVSPost2010Prop28
280
     0
102
RTVSPost2010PropOp28
 70
     1
102
RTVSPost2010Prop29
280
     1
102
RTVSPost2010PropOp29
 70
     1
102
RTVSPost2010Prop30
280
     1
102
RTVSPost2010PropOp30
 70
     1
102
RTVSPost2010Prop31
280
     0
102
RTVSPost2010PropOp31
 70
     1
102
RTVSPost2010Prop32
280
     0
102
RTVSPost2010PropOp32
 70
     1
102
RTVSPost2010Prop33
280
     0
102
RTVSPost2010PropOp33
 70
     1
102
RTVSPost2010Prop34
280
     0
102
RTVSPost2010PropOp34
 70
     1
102
RTVSPost2010Prop35
280
     0
102
RTVSPost2010PropOp35
 70
     1
102
RTVSPost2010Prop36
280
     0
102
RTVSPost2010PropOp36
 70
     1
102
RTVSPost2010Prop37
 90
       50
102
RTVSPost2010PropOp37
 70
     1
102
RTVSPost2010Prop38
140
0.0
102
RTVSPost2010PropOp38
 70
     1
102
RTVSPost2010Prop39
140
1.0
102
RTVSPost2010PropOp39
 70
     1
102
RTVSPost2010Prop40
 90
        0
102
RTVSPost2010PropOp40
 70
     1
102
RTVSPost2010Prop41ColorIndex
 90
       18
102
RTVSPost2010Prop41ColorRGB
 90
        0
102
RTVSPost2010PropOp41
 70
     1
102
RTVSPost2010Prop42
 90
       50
102
RTVSPost2010PropOp42
 70
     1
102
RTVSPost2010Prop43
 90
        3
102
RTVSPost2010PropOp43
 70
     1
102
RTVSPost2010Prop44ColorIndex
 90
        5
102
RTVSPost2010Prop44ColorRGB
 90
      255
102
RTVSPost2010PropOp44
 70
     1
102
RTVSPost2010Prop45
280
     0
102
RTVSPost2010PropOp45
 70
     1
102
RTVSPost2010Prop46
 90
       50
102
RTVSPost2010PropOp46
 70
     1
102
RTVSPost2010Prop47
 90
       50
102
RTVSPost2010PropOp47
 70
     1
102
RTVSPost2010Prop48
 90
       50
102
RTVSPost2010PropOp48
 70
     1
102
RTVSPost2010Prop49
280
     0
102
RTVSPost2010PropOp49
 70
     1
102
RTVSPost2010Prop50
 90
       50
102
RTVSPost2010PropOp50
 70
     1
102
RTVSPost2010Prop51ColorIndex
 90
      256
102
RTVSPost2010Prop51ColorRGB
 90
-16777216
102
RTVSPost2010PropOp51
 70
     0
102
RTVSPost2010Prop52
140
1.0
102
RTVSPost2010PropOp52
 70
     0
102
RTVSPost2010Prop53
 90
        2
102
RTVSPost2010PropOp53
 70
     1
102
RTVSPost2010Prop54
  1
strokes_ogs.tif
102
RTVSPost2010PropOp54
 70
     1
102
RTVSPost2010Prop55
280
     0
102
RTVSPost2010PropOp55
 70
     1
102
RTVSPost2010Prop56
140
1.0
102
RTVSPost2010PropOp56
 70
     1
102
RTVSPost2010Prop57
140
1.0
102
RTVSPost2010PropOp57
 70
     1
102
RTVSPropertyOp0
 70
     1
102
RTVSPropertyOp1
 70
     1
102
RTVSPropertyOp2
 70
     1
102
RTVSPropertyOp3
 70
     1
102
RTVSPropertyOp4
 70
     1
102
RTVSPropertyOp5
 70
     1
102
RTVSPropertyOp6
 70
     1
102
RTVSPropertyOp7
 70
     1
102
RTVSPropertyOp8
 70
     1
102
RTVSPropertyOp9
 70
     1
102
RTVSPropertyOp10
 70
     1
102
RTVSPropertyOp11
 70
     1
102
RTVSPropertyOp12
 70
     1
102
RTVSPropertyOp13
 70
     1
102
RTVSPropertyOp14
 70
     1
102
RTVSPropertyOp15
 70
     1
102
RTVSPropertyOp16
 70
     1
102
RTVSPropertyOp17
 70
     1
102
RTVSPropertyOp18
 70
     1
102
RTVSPropertyOp19
 70
     1
102
RTVSPropertyOp20
 70
     1
102
RTVSPropertyOp21
 70
     1
102
RTVSPropertyOp22
 70
     1
102
RTVSPropertyOp23
 70
     1
102
RTVSPropertyOp24
 70
     1
102
RTVSPropertyOp25
 70
     1
102
RTVSPropertyOp26
 70
     1
102
RTVSPropertyOp27
 70
     1
102
RTVSPropertyOp28
 70
     1
102
RTVSPropertyOp29
 70
     1
102
RTVSPropertyOp30
 70
     1
102
RTVSPropertyOp31
 70
     1
102
RTVSPropertyOp32
 70
     1
102
RTVSPropertyOp33
 70
     1
102
RTVSPropertyOp34
 70
     1
102
RTVSPropertyOp35
 70
     1
102
RTVSPropertyOp36
 70
     1
102
RTVSPropertyOp37
 70
     1
102
RTVSPropertyOp38
 70
     1
102
RTVSPropertyOp39
 70
     1
102
RTVSPropertyOp40
 70
     1
102
RTVSPropertyOp41
 70
     1
102
RTVSPropertyOp42
 70
     1
102
RTVSPropertyOp43
 70
     1
102
RTVSPropertyOp44
 70
     1
102
RTVSPropertyOp45
 70
     1
102
RTVSPropertyOp46
 70
     1
102
RTVSPropertyOp47
 70
     1
102
RTVSPropertyOp48
 70
     1
102
RTVSPropertyOp49
 70
     1
102
RTVSPropertyOp50
 70
     1
102
RTVSPropertyOp51
 70
     0
102
RTVSPropertyOp52
 70
     0
102
RTVSPropertyOp53
 70
     1
102
RTVSPropertyOp54
 70
     1
102
RTVSPropertyOp55
 70
     1
102
RTVSPropertyOp56
 70
     1
102
RTVSPropertyOp57
 70
     1
102
RTVSPropertyOp58
 70
     1
102
RTVSPropertyOp59
 70
     1
102
RTVSPropertyOp60
 70
     1
102
RTVSPropertyOp61
 70
     1
102
RTVSPropertyOp62
 70
     1
  0
XRECORD
  5
2701
102
{ACAD_REACTORS
330
2700
102
}
330
2700
100
AcDbXrecord
280
     1
102
RTVSPost2010Prop28
280
     0
102
RTVSPost2010PropOp28
 70
     1
102
RTVSPost2010Prop29
280
     1
102
RTVSPost2010PropOp29
 70
     1
102
RTVSPost2010Prop30
280
     1
102
RTVSPost2010PropOp30
 70
     1
102
RTVSPost2010Prop31
280
     0
102
RTVSPost2010PropOp31
 70
     1
102
RTVSPost2010Prop32
280
     0
102
RTVSPost2010PropOp32
 70
     1
102
RTVSPost2010Prop33
280
     0
102
RTVSPost2010PropOp33
 70
     1
102
RTVSPost2010Prop34
280
     0
102
RTVSPost2010PropOp34
 70
     1
102
RTVSPost2010Prop35
280
     0
102
RTVSPost2010PropOp35
 70
     1
102
RTVSPost2010Prop36
280
     0
102
RTVSPost2010PropOp36
 70
     1
102
RTVSPost2010Prop37
 90
       50
102
RTVSPost2010PropOp37
 70
     1
102
RTVSPost2010Prop38
140
0.0
102
RTVSPost2010PropOp38
 70
     1
102
RTVSPost2010Prop39
140
1.0
102
RTVSPost2010PropOp39
 70
     1
102
RTVSPost2010Prop40
 90
        0
102
RTVSPost2010PropOp40
 70
     1
102
RTVSPost2010Prop41ColorIndex
 90
       18
102
RTVSPost2010Prop41ColorRGB
 90
        0
102
RTVSPost2010PropOp41
 70
     1
102
RTVSPost2010Prop42
 90
       50
102
RTVSPost2010PropOp42
 70
     1
102
RTVSPost2010Prop43
 90
        3
102
RTVSPost2010PropOp43
 70
     1
102
RTVSPost2010Prop44ColorIndex
 90
        5
102
RTVSPost2010Prop44ColorRGB
 90
      255
102
RTVSPost2010PropOp44
 70
     1
102
RTVSPost2010Prop45
280
     0
102
RTVSPost2010PropOp45
 70
     1
102
RTVSPost2010Prop46
 90
       50
102
RTVSPost2010PropOp46
 70
     1
102
RTVSPost2010Prop47
 90
       50
102
RTVSPost2010PropOp47
 70
     1
102
RTVSPost2010Prop48
 90
       50
102
RTVSPost2010PropOp48
 70
     1
102
RTVSPost2010Prop49
280
     0
102
RTVSPost2010PropOp49
 70
     1
102
RTVSPost2010Prop50
 90
       50
102
RTVSPost2010PropOp50
 70
     1
102
RTVSPost2010Prop51ColorIndex
 90
      256
102
RTVSPost2010Prop51ColorRGB
 90
-16777216
102
RTVSPost2010PropOp51
 70
     0
102
RTVSPost2010Prop52
140
1.0
102
RTVSPost2010PropOp52
 70
     0
102
RTVSPost2010Prop53
 90
        2
102
RTVSPost2010PropOp53
 70
     1
102
RTVSPost2010Prop54
  1
strokes_ogs.tif
102
RTVSPost2010PropOp54
 70
     1
102
RTVSPost2010Prop55
280
     0
102
RTVSPost2010PropOp55
 70
     1
102
RTVSPost2010Prop56
140
1.0
102
RTVSPost2010PropOp56
 70
     1
102
RTVSPost2010Prop57
140
1.0
102
RTVSPost2010PropOp57
 70
     1
102
RTVSPropertyOp0
 70
     1
102
RTVSPropertyOp1
 70
     1
102
RTVSPropertyOp2
 70
     1
102
RTVSPropertyOp3
 70
     1
102
RTVSPropertyOp4
 70
     1
102
RTVSPropertyOp5
 70
     1
102
RTVSPropertyOp6
 70
     1
102
RTVSPropertyOp7
 70
     1
102
RTVSPropertyOp8
 70
     1
102
RTVSPropertyOp9
 70
     1
102
RTVSPropertyOp10
 70
     1
102
RTVSPropertyOp11
 70
     1
102
RTVSPropertyOp12
 70
     1
102
RTVSPropertyOp13
 70
     1
102
RTVSPropertyOp14
 70
     1
102
RTVSPropertyOp15
 70
     1
102
RTVSPropertyOp16
 70
     1
102
RTVSPropertyOp17
 70
     1
102
RTVSPropertyOp18
 70
     1
102
RTVSPropertyOp19
 70
     1
102
RTVSPropertyOp20
 70
     1
102
RTVSPropertyOp21
 70
     1
102
RTVSPropertyOp22
 70
     1
102
RTVSPropertyOp23
 70
     1
102
RTVSPropertyOp24
 70
     1
102
RTVSPropertyOp25
 70
     1
102
RTVSPropertyOp26
 70
     1
102
RTVSPropertyOp27
 70
     1
102
RTVSPropertyOp28
 70
     1
102
RTVSPropertyOp29
 70
     1
102
RTVSPropertyOp30
 70
     1
102
RTVSPropertyOp31
 70
     1
102
RTVSPropertyOp32
 70
     1
102
RTVSPropertyOp33
 70
     1
102
RTVSPropertyOp34
 70
     1
102
RTVSPropertyOp35
 70
     1
102
RTVSPropertyOp36
 70
     1
102
RTVSPropertyOp37
 70
     1
102
RTVSPropertyOp38
 70
     1
102
RTVSPropertyOp39
 70
     1
102
RTVSPropertyOp40
 70
     1
102
RTVSPropertyOp41
 70
     1
102
RTVSPropertyOp42
 70
     1
102
RTVSPropertyOp43
 70
     1
102
RTVSPropertyOp44
 70
     1
102
RTVSPropertyOp45
 70
     1
102
RTVSPropertyOp46
 70
     1
102
RTVSPropertyOp47
 70
     1
102
RTVSPropertyOp48
 70
     1
102
RTVSPropertyOp49
 70
     1
102
RTVSPropertyOp50
 70
     1
102
RTVSPropertyOp51
 70
     0
102
RTVSPropertyOp52
 70
     0
102
RTVSPropertyOp53
 70
     1
102
RTVSPropertyOp54
 70
     1
102
RTVSPropertyOp55
 70
     1
102
RTVSPropertyOp56
 70
     1
102
RTVSPropertyOp57
 70
     1
102
RTVSPropertyOp58
 70
     1
102
RTVSPropertyOp59
 70
     1
102
RTVSPropertyOp60
 70
     1
102
RTVSPropertyOp61
 70
     1
102
RTVSPropertyOp62
 70
     1
  0
XRECORD
  5
2703
102
{ACAD_REACTORS
330
2702
102
}
330
2702
100
AcDbXrecord
280
     1
102
RTVSPost2010Prop28
280
     0
102
RTVSPost2010PropOp28
 70
     1
102
RTVSPost2010Prop29
280
     1
102
RTVSPost2010PropOp29
 70
     1
102
RTVSPost2010Prop30
280
     1
102
RTVSPost2010PropOp30
 70
     1
102
RTVSPost2010Prop31
280
     0
102
RTVSPost2010PropOp31
 70
     1
102
RTVSPost2010Prop32
280
     0
102
RTVSPost2010PropOp32
 70
     1
102
RTVSPost2010Prop33
280
     0
102
RTVSPost2010PropOp33
 70
     1
102
RTVSPost2010Prop34
280
     0
102
RTVSPost2010PropOp34
 70
     1
102
RTVSPost2010Prop35
280
     0
102
RTVSPost2010PropOp35
 70
     1
102
RTVSPost2010Prop36
280
     0
102
RTVSPost2010PropOp36
 70
     1
102
RTVSPost2010Prop37
 90
       50
102
RTVSPost2010PropOp37
 70
     1
102
RTVSPost2010Prop38
140
0.0
102
RTVSPost2010PropOp38
 70
     1
102
RTVSPost2010Prop39
140
1.0
102
RTVSPost2010PropOp39
 70
     1
102
RTVSPost2010Prop40
 90
        0
102
RTVSPost2010PropOp40
 70
     1
102
RTVSPost2010Prop41ColorIndex
 90
       18
102
RTVSPost2010Prop41ColorRGB
 90
        0
102
RTVSPost2010PropOp41
 70
     1
102
RTVSPost2010Prop42
 90
       50
102
RTVSPost2010PropOp42
 70
     1
102
RTVSPost2010Prop43
 90
        3
102
RTVSPost2010PropOp43
 70
     1
102
RTVSPost2010Prop44ColorIndex
 90
        5
102
RTVSPost2010Prop44ColorRGB
 90
      255
102
RTVSPost2010PropOp44
 70
     1
102
RTVSPost2010Prop45
280
     0
102
RTVSPost2010PropOp45
 70
     1
102
RTVSPost2010Prop46
 90
       50
102
RTVSPost2010PropOp46
 70
     1
102
RTVSPost2010Prop47
 90
       50
102
RTVSPost2010PropOp47
 70
     1
102
RTVSPost2010Prop48
 90
       50
102
RTVSPost2010PropOp48
 70
     1
102
RTVSPost2010Prop49
280
     0
102
RTVSPost2010PropOp49
 70
     1
102
RTVSPost2010Prop50
 90
       50
102
RTVSPost2010PropOp50
 70
     1
102
RTVSPost2010Prop51ColorIndex
 90
      256
102
RTVSPost2010Prop51ColorRGB
 90
-16777216
102
RTVSPost2010PropOp51
 70
     0
102
RTVSPost2010Prop52
140
1.0
102
RTVSPost2010PropOp52
 70
     0
102
RTVSPost2010Prop53
 90
        2
102
RTVSPost2010PropOp53
 70
     1
102
RTVSPost2010Prop54
  1
strokes_ogs.tif
102
RTVSPost2010PropOp54
 70
     1
102
RTVSPost2010Prop55
280
     0
102
RTVSPost2010PropOp55
 70
     1
102
RTVSPost2010Prop56
140
1.0
102
RTVSPost2010PropOp56
 70
     1
102
RTVSPost2010Prop57
140
1.0
102
RTVSPost2010PropOp57
 70
     1
102
RTVSPropertyOp0
 70
     1
102
RTVSPropertyOp1
 70
     1
102
RTVSPropertyOp2
 70
     1
102
RTVSPropertyOp3
 70
     1
102
RTVSPropertyOp4
 70
     1
102
RTVSPropertyOp5
 70
     1
102
RTVSPropertyOp6
 70
     1
102
RTVSPropertyOp7
 70
     1
102
RTVSPropertyOp8
 70
     1
102
RTVSPropertyOp9
 70
     1
102
RTVSPropertyOp10
 70
     1
102
RTVSPropertyOp11
 70
     1
102
RTVSPropertyOp12
 70
     1
102
RTVSPropertyOp13
 70
     1
102
RTVSPropertyOp14
 70
     1
102
RTVSPropertyOp15
 70
     1
102
RTVSPropertyOp16
 70
     1
102
RTVSPropertyOp17
 70
     1
102
RTVSPropertyOp18
 70
     1
102
RTVSPropertyOp19
 70
     1
102
RTVSPropertyOp20
 70
     1
102
RTVSPropertyOp21
 70
     1
102
RTVSPropertyOp22
 70
     1
102
RTVSPropertyOp23
 70
     1
102
RTVSPropertyOp24
 70
     1
102
RTVSPropertyOp25
 70
     1
102
RTVSPropertyOp26
 70
     1
102
RTVSPropertyOp27
 70
     1
102
RTVSPropertyOp28
 70
     1
102
RTVSPropertyOp29
 70
     1
102
RTVSPropertyOp30
 70
     1
102
RTVSPropertyOp31
 70
     1
102
RTVSPropertyOp32
 70
     1
102
RTVSPropertyOp33
 70
     1
102
RTVSPropertyOp34
 70
     1
102
RTVSPropertyOp35
 70
     1
102
RTVSPropertyOp36
 70
     1
102
RTVSPropertyOp37
 70
     1
102
RTVSPropertyOp38
 70
     1
102
RTVSPropertyOp39
 70
     1
102
RTVSPropertyOp40
 70
     1
102
RTVSPropertyOp41
 70
     1
102
RTVSPropertyOp42
 70
     1
102
RTVSPropertyOp43
 70
     1
102
RTVSPropertyOp44
 70
     1
102
RTVSPropertyOp45
 70
     1
102
RTVSPropertyOp46
 70
     1
102
RTVSPropertyOp47
 70
     1
102
RTVSPropertyOp48
 70
     1
102
RTVSPropertyOp49
 70
     1
102
RTVSPropertyOp50
 70
     1
102
RTVSPropertyOp51
 70
     0
102
RTVSPropertyOp52
 70
     0
102
RTVSPropertyOp53
 70
     1
102
RTVSPropertyOp54
 70
     1
102
RTVSPropertyOp55
 70
     1
102
RTVSPropertyOp56
 70
     1
102
RTVSPropertyOp57
 70
     1
102
RTVSPropertyOp58
 70
     1
102
RTVSPropertyOp59
 70
     1
102
RTVSPropertyOp60
 70
     1
102
RTVSPropertyOp61
 70
     1
102
RTVSPropertyOp62
 70
     1
  0
XRECORD
  5
270B
102
{ACAD_REACTORS
330
270A
102
}
330
270A
100
AcDbXrecord
280
     1
102
RTVSPost2010Prop28
280
     0
102
RTVSPost2010PropOp28
 70
     1
102
RTVSPost2010Prop29
280
     1
102
RTVSPost2010PropOp29
 70
     1
102
RTVSPost2010Prop30
280
     1
102
RTVSPost2010PropOp30
 70
     1
102
RTVSPost2010Prop31
280
     0
102
RTVSPost2010PropOp31
 70
     1
102
RTVSPost2010Prop32
280
     0
102
RTVSPost2010PropOp32
 70
     1
102
RTVSPost2010Prop33
280
     0
102
RTVSPost2010PropOp33
 70
     1
102
RTVSPost2010Prop34
280
     0
102
RTVSPost2010PropOp34
 70
     1
102
RTVSPost2010Prop35
280
     0
102
RTVSPost2010PropOp35
 70
     1
102
RTVSPost2010Prop36
280
     0
102
RTVSPost2010PropOp36
 70
     1
102
RTVSPost2010Prop37
 90
       50
102
RTVSPost2010PropOp37
 70
     1
102
RTVSPost2010Prop38
140
0.0
102
RTVSPost2010PropOp38
 70
     1
102
RTVSPost2010Prop39
140
1.0
102
RTVSPost2010PropOp39
 70
     1
102
RTVSPost2010Prop40
 90
        0
102
RTVSPost2010PropOp40
 70
     1
102
RTVSPost2010Prop41ColorIndex
 90
       18
102
RTVSPost2010Prop41ColorRGB
 90
        0
102
RTVSPost2010PropOp41
 70
     1
102
RTVSPost2010Prop42
 90
       50
102
RTVSPost2010PropOp42
 70
     1
102
RTVSPost2010Prop43
 90
        3
102
RTVSPost2010PropOp43
 70
     1
102
RTVSPost2010Prop44ColorIndex
 90
        5
102
RTVSPost2010Prop44ColorRGB
 90
      255
102
RTVSPost2010PropOp44
 70
     1
102
RTVSPost2010Prop45
280
     0
102
RTVSPost2010PropOp45
 70
     1
102
RTVSPost2010Prop46
 90
       50
102
RTVSPost2010PropOp46
 70
     1
102
RTVSPost2010Prop47
 90
       50
102
RTVSPost2010PropOp47
 70
     1
102
RTVSPost2010Prop48
 90
       50
102
RTVSPost2010PropOp48
 70
     1
102
RTVSPost2010Prop49
280
     0
102
RTVSPost2010PropOp49
 70
     1
102
RTVSPost2010Prop50
 90
       50
102
RTVSPost2010PropOp50
 70
     1
102
RTVSPost2010Prop51ColorIndex
 90
      256
102
RTVSPost2010Prop51ColorRGB
 90
-16777216
102
RTVSPost2010PropOp51
 70
     0
102
RTVSPost2010Prop52
140
1.0
102
RTVSPost2010PropOp52
 70
     0
102
RTVSPost2010Prop53
 90
        2
102
RTVSPost2010PropOp53
 70
     1
102
RTVSPost2010Prop54
  1
strokes_ogs.tif
102
RTVSPost2010PropOp54
 70
     1
102
RTVSPost2010Prop55
280
     0
102
RTVSPost2010PropOp55
 70
     1
102
RTVSPost2010Prop56
140
1.0
102
RTVSPost2010PropOp56
 70
     1
102
RTVSPost2010Prop57
140
1.0
102
RTVSPost2010PropOp57
 70
     1
102
RTVSPropertyOp0
 70
     1
102
RTVSPropertyOp1
 70
     1
102
RTVSPropertyOp2
 70
     1
102
RTVSPropertyOp3
 70
     1
102
RTVSPropertyOp4
 70
     1
102
RTVSPropertyOp5
 70
     1
102
RTVSPropertyOp6
 70
     1
102
RTVSPropertyOp7
 70
     1
102
RTVSPropertyOp8
 70
     1
102
RTVSPropertyOp9
 70
     1
102
RTVSPropertyOp10
 70
     1
102
RTVSPropertyOp11
 70
     1
102
RTVSPropertyOp12
 70
     1
102
RTVSPropertyOp13
 70
     1
102
RTVSPropertyOp14
 70
     1
102
RTVSPropertyOp15
 70
     1
102
RTVSPropertyOp16
 70
     1
102
RTVSPropertyOp17
 70
     1
102
RTVSPropertyOp18
 70
     1
102
RTVSPropertyOp19
 70
     1
102
RTVSPropertyOp20
 70
     1
102
RTVSPropertyOp21
 70
     1
102
RTVSPropertyOp22
 70
     1
102
RTVSPropertyOp23
 70
     1
102
RTVSPropertyOp24
 70
     1
102
RTVSPropertyOp25
 70
     1
102
RTVSPropertyOp26
 70
     1
102
RTVSPropertyOp27
 70
     1
102
RTVSPropertyOp28
 70
     1
102
RTVSPropertyOp29
 70
     1
102
RTVSPropertyOp30
 70
     1
102
RTVSPropertyOp31
 70
     1
102
RTVSPropertyOp32
 70
     1
102
RTVSPropertyOp33
 70
     1
102
RTVSPropertyOp34
 70
     1
102
RTVSPropertyOp35
 70
     1
102
RTVSPropertyOp36
 70
     1
102
RTVSPropertyOp37
 70
     1
102
RTVSPropertyOp38
 70
     1
102
RTVSPropertyOp39
 70
     1
102
RTVSPropertyOp40
 70
     1
102
RTVSPropertyOp41
 70
     1
102
RTVSPropertyOp42
 70
     1
102
RTVSPropertyOp43
 70
     1
102
RTVSPropertyOp44
 70
     1
102
RTVSPropertyOp45
 70
     1
102
RTVSPropertyOp46
 70
     1
102
RTVSPropertyOp47
 70
     1
102
RTVSPropertyOp48
 70
     1
102
RTVSPropertyOp49
 70
     1
102
RTVSPropertyOp50
 70
     1
102
RTVSPropertyOp51
 70
     0
102
RTVSPropertyOp52
 70
     0
102
RTVSPropertyOp53
 70
     1
102
RTVSPropertyOp54
 70
     1
102
RTVSPropertyOp55
 70
     1
102
RTVSPropertyOp56
 70
     1
102
RTVSPropertyOp57
 70
     1
102
RTVSPropertyOp58
 70
     1
102
RTVSPropertyOp59
 70
     1
102
RTVSPropertyOp60
 70
     1
102
RTVSPropertyOp61
 70
     1
102
RTVSPropertyOp62
 70
     1
  0
XRECORD
  5
2727
102
{ACAD_REACTORS
330
2726
102
}
330
2726
100
AcDbXrecord
280
     1
102
RTVSPost2010Prop28
280
     0
102
RTVSPost2010PropOp28
 70
     1
102
RTVSPost2010Prop29
280
     1
102
RTVSPost2010PropOp29
 70
     1
102
RTVSPost2010Prop30
280
     1
102
RTVSPost2010PropOp30
 70
     1
102
RTVSPost2010Prop31
280
     0
102
RTVSPost2010PropOp31
 70
     1
102
RTVSPost2010Prop32
280
     0
102
RTVSPost2010PropOp32
 70
     1
102
RTVSPost2010Prop33
280
     0
102
RTVSPost2010PropOp33
 70
     1
102
RTVSPost2010Prop34
280
     0
102
RTVSPost2010PropOp34
 70
     1
102
RTVSPost2010Prop35
280
     0
102
RTVSPost2010PropOp35
 70
     1
102
RTVSPost2010Prop36
280
     0
102
RTVSPost2010PropOp36
 70
     1
102
RTVSPost2010Prop37
 90
       50
102
RTVSPost2010PropOp37
 70
     0
102
RTVSPost2010Prop38
140
0.0
102
RTVSPost2010PropOp38
 70
     0
102
RTVSPost2010Prop39
140
1.0
102
RTVSPost2010PropOp39
 70
     0
102
RTVSPost2010Prop40
 90
        0
102
RTVSPost2010PropOp40
 70
     0
102
RTVSPost2010Prop41ColorIndex
 90
       18
102
RTVSPost2010Prop41ColorRGB
 90
        0
102
RTVSPost2010PropOp41
 70
     0
102
RTVSPost2010Prop42
 90
       50
102
RTVSPost2010PropOp42
 70
     0
102
RTVSPost2010Prop43
 90
        3
102
RTVSPost2010PropOp43
 70
     0
102
RTVSPost2010Prop44ColorIndex
 90
        5
102
RTVSPost2010Prop44ColorRGB
 90
      255
102
RTVSPost2010PropOp44
 70
     0
102
RTVSPost2010Prop45
280
     0
102
RTVSPost2010PropOp45
 70
     1
102
RTVSPost2010Prop46
 90
       50
102
RTVSPost2010PropOp46
 70
     0
102
RTVSPost2010Prop47
 90
       50
102
RTVSPost2010PropOp47
 70
     0
102
RTVSPost2010Prop48
 90
       50
102
RTVSPost2010PropOp48
 70
     0
102
RTVSPost2010Prop49
280
     0
102
RTVSPost2010PropOp49
 70
     1
102
RTVSPost2010Prop50
 90
       50
102
RTVSPost2010PropOp50
 70
     0
102
RTVSPost2010Prop51ColorIndex
 90
      256
102
RTVSPost2010Prop51ColorRGB
 90
-16777216
102
RTVSPost2010PropOp51
 70
     0
102
RTVSPost2010Prop52
140
1.0
102
RTVSPost2010PropOp52
 70
     0
102
RTVSPost2010Prop53
 90
        2
102
RTVSPost2010PropOp53
 70
     0
102
RTVSPost2010Prop54
  1
strokes_ogs.tif
102
RTVSPost2010PropOp54
 70
     0
102
RTVSPost2010Prop55
280
     0
102
RTVSPost2010PropOp55
 70
     1
102
RTVSPost2010Prop56
140
1.0
102
RTVSPost2010PropOp56
 70
     0
102
RTVSPost2010Prop57
140
1.0
102
RTVSPost2010PropOp57
 70
     0
102
RTVSPropertyOp0
 70
     0
102
RTVSPropertyOp1
 70
     0
102
RTVSPropertyOp2
 70
     0
102
RTVSPropertyOp3
 70
     0
102
RTVSPropertyOp4
 70
     0
102
RTVSPropertyOp5
 70
     0
102
RTVSPropertyOp6
 70
     0
102
RTVSPropertyOp7
 70
     0
102
RTVSPropertyOp8
 70
     0
102
RTVSPropertyOp9
 70
     0
102
RTVSPropertyOp10
 70
     0
102
RTVSPropertyOp11
 70
     0
102
RTVSPropertyOp12
 70
     0
102
RTVSPropertyOp13
 70
     0
102
RTVSPropertyOp14
 70
     2
102
RTVSPropertyOp15
 70
     0
102
RTVSPropertyOp16
 70
     0
102
RTVSPropertyOp17
 70
     0
102
RTVSPropertyOp18
 70
     0
102
RTVSPropertyOp19
 70
     0
102
RTVSPropertyOp20
 70
     0
102
RTVSPropertyOp21
 70
     0
102
RTVSPropertyOp22
 70
     0
102
RTVSPropertyOp23
 70
     0
102
RTVSPropertyOp24
 70
     0
102
RTVSPropertyOp25
 70
     0
102
RTVSPropertyOp26
 70
     0
102
RTVSPropertyOp27
 70
     0
102
RTVSPropertyOp28
 70
     1
102
RTVSPropertyOp29
 70
     1
102
RTVSPropertyOp30
 70
     1
102
RTVSPropertyOp31
 70
     1
102
RTVSPropertyOp32
 70
     1
102
RTVSPropertyOp33
 70
     1
102
RTVSPropertyOp34
 70
     1
102
RTVSPropertyOp35
 70
     1
102
RTVSPropertyOp36
 70
     1
102
RTVSPropertyOp37
 70
     0
102
RTVSPropertyOp38
 70
     0
102
RTVSPropertyOp39
 70
     0
102
RTVSPropertyOp40
 70
     0
102
RTVSPropertyOp41
 70
     0
102
RTVSPropertyOp42
 70
     0
102
RTVSPropertyOp43
 70
     0
102
RTVSPropertyOp44
 70
     0
102
RTVSPropertyOp45
 70
     1
102
RTVSPropertyOp46
 70
     0
102
RTVSPropertyOp47
 70
     0
102
RTVSPropertyOp48
 70
     0
102
RTVSPropertyOp49
 70
     1
102
RTVSPropertyOp50
 70
     0
102
RTVSPropertyOp51
 70
     0
102
RTVSPropertyOp52
 70
     0
102
RTVSPropertyOp53
 70
     0
102
RTVSPropertyOp54
 70
     0
102
RTVSPropertyOp55
 70
     1
102
RTVSPropertyOp56
 70
     0
102
RTVSPropertyOp57
 70
     0
102
RTVSPropertyOp58
 70
     0
102
RTVSPropertyOp59
 70
     0
102
RTVSPropertyOp60
 70
     0
102
RTVSPropertyOp61
 70
     0
102
RTVSPropertyOp62
 70
     0
  0
XRECORD
  5
2717
102
{ACAD_REACTORS
330
2716
102
}
330
2716
100
AcDbXrecord
280
     1
102
RTVSPost2010Prop28
280
     0
102
RTVSPost2010PropOp28
 70
     1
102
RTVSPost2010Prop29
280
     1
102
RTVSPost2010PropOp29
 70
     1
102
RTVSPost2010Prop30
280
     1
102
RTVSPost2010PropOp30
 70
     1
102
RTVSPost2010Prop31
280
     0
102
RTVSPost2010PropOp31
 70
     1
102
RTVSPost2010Prop32
280
     0
102
RTVSPost2010PropOp32
 70
     1
102
RTVSPost2010Prop33
280
     0
102
RTVSPost2010PropOp33
 70
     1
102
RTVSPost2010Prop34
280
     0
102
RTVSPost2010PropOp34
 70
     1
102
RTVSPost2010Prop35
280
     0
102
RTVSPost2010PropOp35
 70
     1
102
RTVSPost2010Prop36
280
     0
102
RTVSPost2010PropOp36
 70
     1
102
RTVSPost2010Prop37
 90
       50
102
RTVSPost2010PropOp37
 70
     1
102
RTVSPost2010Prop38
140
0.0
102
RTVSPost2010PropOp38
 70
     1
102
RTVSPost2010Prop39
140
1.0
102
RTVSPost2010PropOp39
 70
     1
102
RTVSPost2010Prop40
 90
        0
102
RTVSPost2010PropOp40
 70
     1
102
RTVSPost2010Prop41ColorIndex
 90
       18
102
RTVSPost2010Prop41ColorRGB
 90
        0
102
RTVSPost2010PropOp41
 70
     1
102
RTVSPost2010Prop42
 90
       50
102
RTVSPost2010PropOp42
 70
     1
102
RTVSPost2010Prop43
 90
        3
102
RTVSPost2010PropOp43
 70
     1
102
RTVSPost2010Prop44ColorIndex
 90
        5
102
RTVSPost2010Prop44ColorRGB
 90
      255
102
RTVSPost2010PropOp44
 70
     1
102
RTVSPost2010Prop45
280
     0
102
RTVSPost2010PropOp45
 70
     1
102
RTVSPost2010Prop46
 90
       50
102
RTVSPost2010PropOp46
 70
     1
102
RTVSPost2010Prop47
 90
       50
102
RTVSPost2010PropOp47
 70
     1
102
RTVSPost2010Prop48
 90
       50
102
RTVSPost2010PropOp48
 70
     1
102
RTVSPost2010Prop49
280
     0
102
RTVSPost2010PropOp49
 70
     1
102
RTVSPost2010Prop50
 90
       50
102
RTVSPost2010PropOp50
 70
     1
102
RTVSPost2010Prop51ColorIndex
 90
      256
102
RTVSPost2010Prop51ColorRGB
 90
-16777216
102
RTVSPost2010PropOp51
 70
     0
102
RTVSPost2010Prop52
140
1.0
102
RTVSPost2010PropOp52
 70
     0
102
RTVSPost2010Prop53
 90
        2
102
RTVSPost2010PropOp53
 70
     1
102
RTVSPost2010Prop54
  1
strokes_ogs.tif
102
RTVSPost2010PropOp54
 70
     1
102
RTVSPost2010Prop55
280
     0
102
RTVSPost2010PropOp55
 70
     1
102
RTVSPost2010Prop56
140
1.0
102
RTVSPost2010PropOp56
 70
     1
102
RTVSPost2010Prop57
140
1.0
102
RTVSPost2010PropOp57
 70
     1
102
RTVSPropertyOp0
 70
     1
102
RTVSPropertyOp1
 70
     1
102
RTVSPropertyOp2
 70
     1
102
RTVSPropertyOp3
 70
     1
102
RTVSPropertyOp4
 70
     1
102
RTVSPropertyOp5
 70
     1
102
RTVSPropertyOp6
 70
     1
102
RTVSPropertyOp7
 70
     1
102
RTVSPropertyOp8
 70
     1
102
RTVSPropertyOp9
 70
     1
102
RTVSPropertyOp10
 70
     1
102
RTVSPropertyOp11
 70
     1
102
RTVSPropertyOp12
 70
     1
102
RTVSPropertyOp13
 70
     1
102
RTVSPropertyOp14
 70
     1
102
RTVSPropertyOp15
 70
     1
102
RTVSPropertyOp16
 70
     1
102
RTVSPropertyOp17
 70
     1
102
RTVSPropertyOp18
 70
     1
102
RTVSPropertyOp19
 70
     1
102
RTVSPropertyOp20
 70
     1
102
RTVSPropertyOp21
 70
     1
102
RTVSPropertyOp22
 70
     1
102
RTVSPropertyOp23
 70
     1
102
RTVSPropertyOp24
 70
     1
102
RTVSPropertyOp25
 70
     1
102
RTVSPropertyOp26
 70
     1
102
RTVSPropertyOp27
 70
     1
102
RTVSPropertyOp28
 70
     1
102
RTVSPropertyOp29
 70
     1
102
RTVSPropertyOp30
 70
     1
102
RTVSPropertyOp31
 70
     1
102
RTVSPropertyOp32
 70
     1
102
RTVSPropertyOp33
 70
     1
102
RTVSPropertyOp34
 70
     1
102
RTVSPropertyOp35
 70
     1
102
RTVSPropertyOp36
 70
     1
102
RTVSPropertyOp37
 70
     1
102
RTVSPropertyOp38
 70
     1
102
RTVSPropertyOp39
 70
     1
102
RTVSPropertyOp40
 70
     1
102
RTVSPropertyOp41
 70
     1
102
RTVSPropertyOp42
 70
     1
102
RTVSPropertyOp43
 70
     1
102
RTVSPropertyOp44
 70
     1
102
RTVSPropertyOp45
 70
     1
102
RTVSPropertyOp46
 70
     1
102
RTVSPropertyOp47
 70
     1
102
RTVSPropertyOp48
 70
     1
102
RTVSPropertyOp49
 70
     1
102
RTVSPropertyOp50
 70
     1
102
RTVSPropertyOp51
 70
     0
102
RTVSPropertyOp52
 70
     0
102
RTVSPropertyOp53
 70
     1
102
RTVSPropertyOp54
 70
     1
102
RTVSPropertyOp55
 70
     1
102
RTVSPropertyOp56
 70
     1
102
RTVSPropertyOp57
 70
     1
102
RTVSPropertyOp58
 70
     1
102
RTVSPropertyOp59
 70
     1
102
RTVSPropertyOp60
 70
     1
102
RTVSPropertyOp61
 70
     1
102
RTVSPropertyOp62
 70
     1
  0
XRECORD
  5
2729
102
{ACAD_REACTORS
330
2728
102
}
330
2728
100
AcDbXrecord
280
     1
102
RTVSPost2010Prop28
280
     0
102
RTVSPost2010PropOp28
 70
     1
102
RTVSPost2010Prop29
280
     1
102
RTVSPost2010PropOp29
 70
     1
102
RTVSPost2010Prop30
280
     1
102
RTVSPost2010PropOp30
 70
     1
102
RTVSPost2010Prop31
280
     0
102
RTVSPost2010PropOp31
 70
     1
102
RTVSPost2010Prop32
280
     0
102
RTVSPost2010PropOp32
 70
     1
102
RTVSPost2010Prop33
280
     0
102
RTVSPost2010PropOp33
 70
     1
102
RTVSPost2010Prop34
280
     0
102
RTVSPost2010PropOp34
 70
     1
102
RTVSPost2010Prop35
280
     0
102
RTVSPost2010PropOp35
 70
     1
102
RTVSPost2010Prop36
280
     0
102
RTVSPost2010PropOp36
 70
     1
102
RTVSPost2010Prop37
 90
       50
102
RTVSPost2010PropOp37
 70
     0
102
RTVSPost2010Prop38
140
0.0
102
RTVSPost2010PropOp38
 70
     0
102
RTVSPost2010Prop39
140
1.0
102
RTVSPost2010PropOp39
 70
     0
102
RTVSPost2010Prop40
 90
        0
102
RTVSPost2010PropOp40
 70
     0
102
RTVSPost2010Prop41ColorIndex
 90
       18
102
RTVSPost2010Prop41ColorRGB
 90
        0
102
RTVSPost2010PropOp41
 70
     0
102
RTVSPost2010Prop42
 90
       50
102
RTVSPost2010PropOp42
 70
     0
102
RTVSPost2010Prop43
 90
        3
102
RTVSPost2010PropOp43
 70
     0
102
RTVSPost2010Prop44ColorIndex
 90
        5
102
RTVSPost2010Prop44ColorRGB
 90
      255
102
RTVSPost2010PropOp44
 70
     0
102
RTVSPost2010Prop45
280
     0
102
RTVSPost2010PropOp45
 70
     1
102
RTVSPost2010Prop46
 90
       50
102
RTVSPost2010PropOp46
 70
     0
102
RTVSPost2010Prop47
 90
       50
102
RTVSPost2010PropOp47
 70
     0
102
RTVSPost2010Prop48
 90
       50
102
RTVSPost2010PropOp48
 70
     0
102
RTVSPost2010Prop49
280
     0
102
RTVSPost2010PropOp49
 70
     1
102
RTVSPost2010Prop50
 90
       50
102
RTVSPost2010PropOp50
 70
     0
102
RTVSPost2010Prop51ColorIndex
 90
      256
102
RTVSPost2010Prop51ColorRGB
 90
-16777216
102
RTVSPost2010PropOp51
 70
     0
102
RTVSPost2010Prop52
140
1.0
102
RTVSPost2010PropOp52
 70
     0
102
RTVSPost2010Prop53
 90
        2
102
RTVSPost2010PropOp53
 70
     0
102
RTVSPost2010Prop54
  1
strokes_ogs.tif
102
RTVSPost2010PropOp54
 70
     0
102
RTVSPost2010Prop55
280
     0
102
RTVSPost2010PropOp55
 70
     1
102
RTVSPost2010Prop56
140
1.0
102
RTVSPost2010PropOp56
 70
     0
102
RTVSPost2010Prop57
140
1.0
102
RTVSPost2010PropOp57
 70
     0
102
RTVSPropertyOp0
 70
     0
102
RTVSPropertyOp1
 70
     0
102
RTVSPropertyOp2
 70
     0
102
RTVSPropertyOp3
 70
     0
102
RTVSPropertyOp4
 70
     0
102
RTVSPropertyOp5
 70
     0
102
RTVSPropertyOp6
 70
     0
102
RTVSPropertyOp7
 70
     0
102
RTVSPropertyOp8
 70
     0
102
RTVSPropertyOp9
 70
     0
102
RTVSPropertyOp10
 70
     0
102
RTVSPropertyOp11
 70
     0
102
RTVSPropertyOp12
 70
     0
102
RTVSPropertyOp13
 70
     0
102
RTVSPropertyOp14
 70
     2
102
RTVSPropertyOp15
 70
     0
102
RTVSPropertyOp16
 70
     0
102
RTVSPropertyOp17
 70
     0
102
RTVSPropertyOp18
 70
     0
102
RTVSPropertyOp19
 70
     0
102
RTVSPropertyOp20
 70
     0
102
RTVSPropertyOp21
 70
     0
102
RTVSPropertyOp22
 70
     0
102
RTVSPropertyOp23
 70
     0
102
RTVSPropertyOp24
 70
     0
102
RTVSPropertyOp25
 70
     0
102
RTVSPropertyOp26
 70
     0
102
RTVSPropertyOp27
 70
     0
102
RTVSPropertyOp28
 70
     1
102
RTVSPropertyOp29
 70
     1
102
RTVSPropertyOp30
 70
     1
102
RTVSPropertyOp31
 70
     1
102
RTVSPropertyOp32
 70
     1
102
RTVSPropertyOp33
 70
     1
102
RTVSPropertyOp34
 70
     1
102
RTVSPropertyOp35
 70
     1
102
RTVSPropertyOp36
 70
     1
102
RTVSPropertyOp37
 70
     0
102
RTVSPropertyOp38
 70
     0
102
RTVSPropertyOp39
 70
     0
102
RTVSPropertyOp40
 70
     0
102
RTVSPropertyOp41
 70
     0
102
RTVSPropertyOp42
 70
     0
102
RTVSPropertyOp43
 70
     0
102
RTVSPropertyOp44
 70
     0
102
RTVSPropertyOp45
 70
     1
102
RTVSPropertyOp46
 70
     0
102
RTVSPropertyOp47
 70
     0
102
RTVSPropertyOp48
 70
     0
102
RTVSPropertyOp49
 70
     1
102
RTVSPropertyOp50
 70
     0
102
RTVSPropertyOp51
 70
     0
102
RTVSPropertyOp52
 70
     0
102
RTVSPropertyOp53
 70
     0
102
RTVSPropertyOp54
 70
     0
102
RTVSPropertyOp55
 70
     1
102
RTVSPropertyOp56
 70
     0
102
RTVSPropertyOp57
 70
     0
102
RTVSPropertyOp58
 70
     0
102
RTVSPropertyOp59
 70
     0
102
RTVSPropertyOp60
 70
     0
102
RTVSPropertyOp61
 70
     0
102
RTVSPropertyOp62
 70
     0
  0
XRECORD
  5
270F
102
{ACAD_REACTORS
330
270E
102
}
330
270E
100
AcDbXrecord
280
     1
102
RTVSPost2010Prop28
280
     0
102
RTVSPost2010PropOp28
 70
     1
102
RTVSPost2010Prop29
280
     1
102
RTVSPost2010PropOp29
 70
     1
102
RTVSPost2010Prop30
280
     1
102
RTVSPost2010PropOp30
 70
     1
102
RTVSPost2010Prop31
280
     0
102
RTVSPost2010PropOp31
 70
     1
102
RTVSPost2010Prop32
280
     0
102
RTVSPost2010PropOp32
 70
     1
102
RTVSPost2010Prop33
280
     0
102
RTVSPost2010PropOp33
 70
     1
102
RTVSPost2010Prop34
280
     0
102
RTVSPost2010PropOp34
 70
     1
102
RTVSPost2010Prop35
280
     0
102
RTVSPost2010PropOp35
 70
     1
102
RTVSPost2010Prop36
280
     0
102
RTVSPost2010PropOp36
 70
     1
102
RTVSPost2010Prop37
 90
       50
102
RTVSPost2010PropOp37
 70
     1
102
RTVSPost2010Prop38
140
0.0
102
RTVSPost2010PropOp38
 70
     1
102
RTVSPost2010Prop39
140
1.0
102
RTVSPost2010PropOp39
 70
     1
102
RTVSPost2010Prop40
 90
        0
102
RTVSPost2010PropOp40
 70
     1
102
RTVSPost2010Prop41ColorIndex
 90
       18
102
RTVSPost2010Prop41ColorRGB
 90
        0
102
RTVSPost2010PropOp41
 70
     1
102
RTVSPost2010Prop42
 90
       50
102
RTVSPost2010PropOp42
 70
     1
102
RTVSPost2010Prop43
 90
        3
102
RTVSPost2010PropOp43
 70
     1
102
RTVSPost2010Prop44ColorIndex
 90
        5
102
RTVSPost2010Prop44ColorRGB
 90
      255
102
RTVSPost2010PropOp44
 70
     1
102
RTVSPost2010Prop45
280
     0
102
RTVSPost2010PropOp45
 70
     1
102
RTVSPost2010Prop46
 90
       50
102
RTVSPost2010PropOp46
 70
     1
102
RTVSPost2010Prop47
 90
       50
102
RTVSPost2010PropOp47
 70
     1
102
RTVSPost2010Prop48
 90
       50
102
RTVSPost2010PropOp48
 70
     1
102
RTVSPost2010Prop49
280
     0
102
RTVSPost2010PropOp49
 70
     1
102
RTVSPost2010Prop50
 90
       50
102
RTVSPost2010PropOp50
 70
     1
102
RTVSPost2010Prop51ColorIndex
 90
      256
102
RTVSPost2010Prop51ColorRGB
 90
-16777216
102
RTVSPost2010PropOp51
 70
     0
102
RTVSPost2010Prop52
140
1.0
102
RTVSPost2010PropOp52
 70
     0
102
RTVSPost2010Prop53
 90
        2
102
RTVSPost2010PropOp53
 70
     1
102
RTVSPost2010Prop54
  1
strokes_ogs.tif
102
RTVSPost2010PropOp54
 70
     1
102
RTVSPost2010Prop55
280
     0
102
RTVSPost2010PropOp55
 70
     1
102
RTVSPost2010Prop56
140
1.0
102
RTVSPost2010PropOp56
 70
     1
102
RTVSPost2010Prop57
140
1.0
102
RTVSPost2010PropOp57
 70
     1
102
RTVSPropertyOp0
 70
     1
102
RTVSPropertyOp1
 70
     1
102
RTVSPropertyOp2
 70
     1
102
RTVSPropertyOp3
 70
     1
102
RTVSPropertyOp4
 70
     1
102
RTVSPropertyOp5
 70
     1
102
RTVSPropertyOp6
 70
     1
102
RTVSPropertyOp7
 70
     1
102
RTVSPropertyOp8
 70
     1
102
RTVSPropertyOp9
 70
     1
102
RTVSPropertyOp10
 70
     1
102
RTVSPropertyOp11
 70
     1
102
RTVSPropertyOp12
 70
     1
102
RTVSPropertyOp13
 70
     1
102
RTVSPropertyOp14
 70
     1
102
RTVSPropertyOp15
 70
     1
102
RTVSPropertyOp16
 70
     1
102
RTVSPropertyOp17
 70
     1
102
RTVSPropertyOp18
 70
     1
102
RTVSPropertyOp19
 70
     1
102
RTVSPropertyOp20
 70
     1
102
RTVSPropertyOp21
 70
     1
102
RTVSPropertyOp22
 70
     1
102
RTVSPropertyOp23
 70
     1
102
RTVSPropertyOp24
 70
     1
102
RTVSPropertyOp25
 70
     1
102
RTVSPropertyOp26
 70
     1
102
RTVSPropertyOp27
 70
     1
102
RTVSPropertyOp28
 70
     1
102
RTVSPropertyOp29
 70
     1
102
RTVSPropertyOp30
 70
     1
102
RTVSPropertyOp31
 70
     1
102
RTVSPropertyOp32
 70
     1
102
RTVSPropertyOp33
 70
     1
102
RTVSPropertyOp34
 70
     1
102
RTVSPropertyOp35
 70
     1
102
RTVSPropertyOp36
 70
     1
102
RTVSPropertyOp37
 70
     1
102
RTVSPropertyOp38
 70
     1
102
RTVSPropertyOp39
 70
     1
102
RTVSPropertyOp40
 70
     1
102
RTVSPropertyOp41
 70
     1
102
RTVSPropertyOp42
 70
     1
102
RTVSPropertyOp43
 70
     1
102
RTVSPropertyOp44
 70
     1
102
RTVSPropertyOp45
 70
     1
102
RTVSPropertyOp46
 70
     1
102
RTVSPropertyOp47
 70
     1
102
RTVSPropertyOp48
 70
     1
102
RTVSPropertyOp49
 70
     1
102
RTVSPropertyOp50
 70
     1
102
RTVSPropertyOp51
 70
     0
102
RTVSPropertyOp52
 70
     0
102
RTVSPropertyOp53
 70
     1
102
RTVSPropertyOp54
 70
     1
102
RTVSPropertyOp55
 70
     1
102
RTVSPropertyOp56
 70
     1
102
RTVSPropertyOp57
 70
     1
102
RTVSPropertyOp58
 70
     1
102
RTVSPropertyOp59
 70
     1
102
RTVSPropertyOp60
 70
     1
102
RTVSPropertyOp61
 70
     1
102
RTVSPropertyOp62
 70
     1
  0
XRECORD
  5
2725
102
{ACAD_REACTORS
330
2724
102
}
330
2724
100
AcDbXrecord
280
     1
102
RTVSPost2010Prop28
280
     0
102
RTVSPost2010PropOp28
 70
     1
102
RTVSPost2010Prop29
280
     1
102
RTVSPost2010PropOp29
 70
     1
102
RTVSPost2010Prop30
280
     1
102
RTVSPost2010PropOp30
 70
     1
102
RTVSPost2010Prop31
280
     0
102
RTVSPost2010PropOp31
 70
     1
102
RTVSPost2010Prop32
280
     0
102
RTVSPost2010PropOp32
 70
     1
102
RTVSPost2010Prop33
280
     0
102
RTVSPost2010PropOp33
 70
     1
102
RTVSPost2010Prop34
280
     0
102
RTVSPost2010PropOp34
 70
     1
102
RTVSPost2010Prop35
280
     0
102
RTVSPost2010PropOp35
 70
     1
102
RTVSPost2010Prop36
280
     0
102
RTVSPost2010PropOp36
 70
     1
102
RTVSPost2010Prop37
 90
       50
102
RTVSPost2010PropOp37
 70
     1
102
RTVSPost2010Prop38
140
0.0
102
RTVSPost2010PropOp38
 70
     1
102
RTVSPost2010Prop39
140
1.0
102
RTVSPost2010PropOp39
 70
     1
102
RTVSPost2010Prop40
 90
        0
102
RTVSPost2010PropOp40
 70
     1
102
RTVSPost2010Prop41ColorIndex
 90
       18
102
RTVSPost2010Prop41ColorRGB
 90
        0
102
RTVSPost2010PropOp41
 70
     1
102
RTVSPost2010Prop42
 90
       50
102
RTVSPost2010PropOp42
 70
     1
102
RTVSPost2010Prop43
 90
        3
102
RTVSPost2010PropOp43
 70
     1
102
RTVSPost2010Prop44ColorIndex
 90
        5
102
RTVSPost2010Prop44ColorRGB
 90
      255
102
RTVSPost2010PropOp44
 70
     1
102
RTVSPost2010Prop45
280
     0
102
RTVSPost2010PropOp45
 70
     1
102
RTVSPost2010Prop46
 90
       50
102
RTVSPost2010PropOp46
 70
     1
102
RTVSPost2010Prop47
 90
       50
102
RTVSPost2010PropOp47
 70
     1
102
RTVSPost2010Prop48
 90
       50
102
RTVSPost2010PropOp48
 70
     1
102
RTVSPost2010Prop49
280
     0
102
RTVSPost2010PropOp49
 70
     1
102
RTVSPost2010Prop50
 90
       50
102
RTVSPost2010PropOp50
 70
     1
102
RTVSPost2010Prop51ColorIndex
 90
      256
102
RTVSPost2010Prop51ColorRGB
 90
-16777216
102
RTVSPost2010PropOp51
 70
     0
102
RTVSPost2010Prop52
140
1.0
102
RTVSPost2010PropOp52
 70
     0
102
RTVSPost2010Prop53
 90
        2
102
RTVSPost2010PropOp53
 70
     1
102
RTVSPost2010Prop54
  1
strokes_ogs.tif
102
RTVSPost2010PropOp54
 70
     1
102
RTVSPost2010Prop55
280
     0
102
RTVSPost2010PropOp55
 70
     1
102
RTVSPost2010Prop56
140
1.0
102
RTVSPost2010PropOp56
 70
     1
102
RTVSPost2010Prop57
140
1.0
102
RTVSPost2010PropOp57
 70
     1
102
RTVSPropertyOp0
 70
     1
102
RTVSPropertyOp1
 70
     1
102
RTVSPropertyOp2
 70
     1
102
RTVSPropertyOp3
 70
     1
102
RTVSPropertyOp4
 70
     1
102
RTVSPropertyOp5
 70
     1
102
RTVSPropertyOp6
 70
     1
102
RTVSPropertyOp7
 70
     1
102
RTVSPropertyOp8
 70
     1
102
RTVSPropertyOp9
 70
     1
102
RTVSPropertyOp10
 70
     1
102
RTVSPropertyOp11
 70
     1
102
RTVSPropertyOp12
 70
     1
102
RTVSPropertyOp13
 70
     1
102
RTVSPropertyOp14
 70
     1
102
RTVSPropertyOp15
 70
     1
102
RTVSPropertyOp16
 70
     1
102
RTVSPropertyOp17
 70
     1
102
RTVSPropertyOp18
 70
     1
102
RTVSPropertyOp19
 70
     1
102
RTVSPropertyOp20
 70
     1
102
RTVSPropertyOp21
 70
     1
102
RTVSPropertyOp22
 70
     1
102
RTVSPropertyOp23
 70
     1
102
RTVSPropertyOp24
 70
     1
102
RTVSPropertyOp25
 70
     1
102
RTVSPropertyOp26
 70
     1
102
RTVSPropertyOp27
 70
     1
102
RTVSPropertyOp28
 70
     1
102
RTVSPropertyOp29
 70
     1
102
RTVSPropertyOp30
 70
     1
102
RTVSPropertyOp31
 70
     1
102
RTVSPropertyOp32
 70
     1
102
RTVSPropertyOp33
 70
     1
102
RTVSPropertyOp34
 70
     1
102
RTVSPropertyOp35
 70
     1
102
RTVSPropertyOp36
 70
     1
102
RTVSPropertyOp37
 70
     1
102
RTVSPropertyOp38
 70
     1
102
RTVSPropertyOp39
 70
     1
102
RTVSPropertyOp40
 70
     1
102
RTVSPropertyOp41
 70
     1
102
RTVSPropertyOp42
 70
     1
102
RTVSPropertyOp43
 70
     1
102
RTVSPropertyOp44
 70
     1
102
RTVSPropertyOp45
 70
     1
102
RTVSPropertyOp46
 70
     1
102
RTVSPropertyOp47
 70
     1
102
RTVSPropertyOp48
 70
     1
102
RTVSPropertyOp49
 70
     1
102
RTVSPropertyOp50
 70
     1
102
RTVSPropertyOp51
 70
     0
102
RTVSPropertyOp52
 70
     0
102
RTVSPropertyOp53
 70
     1
102
RTVSPropertyOp54
 70
     1
102
RTVSPropertyOp55
 70
     1
102
RTVSPropertyOp56
 70
     1
102
RTVSPropertyOp57
 70
     1
102
RTVSPropertyOp58
 70
     1
102
RTVSPropertyOp59
 70
     1
102
RTVSPropertyOp60
 70
     1
102
RTVSPropertyOp61
 70
     1
102
RTVSPropertyOp62
 70
     1
  0
XRECORD
  5
2723
102
{ACAD_REACTORS
330
2722
102
}
330
2722
100
AcDbXrecord
280
     1
102
RTVSPost2010Prop28
280
     0
102
RTVSPost2010PropOp28
 70
     1
102
RTVSPost2010Prop29
280
     1
102
RTVSPost2010PropOp29
 70
     1
102
RTVSPost2010Prop30
280
     1
102
RTVSPost2010PropOp30
 70
     1
102
RTVSPost2010Prop31
280
     0
102
RTVSPost2010PropOp31
 70
     1
102
RTVSPost2010Prop32
280
     0
102
RTVSPost2010PropOp32
 70
     1
102
RTVSPost2010Prop33
280
     0
102
RTVSPost2010PropOp33
 70
     1
102
RTVSPost2010Prop34
280
     0
102
RTVSPost2010PropOp34
 70
     1
102
RTVSPost2010Prop35
280
     0
102
RTVSPost2010PropOp35
 70
     1
102
RTVSPost2010Prop36
280
     0
102
RTVSPost2010PropOp36
 70
     1
102
RTVSPost2010Prop37
 90
       50
102
RTVSPost2010PropOp37
 70
     1
102
RTVSPost2010Prop38
140
0.0
102
RTVSPost2010PropOp38
 70
     1
102
RTVSPost2010Prop39
140
1.0
102
RTVSPost2010PropOp39
 70
     1
102
RTVSPost2010Prop40
 90
        0
102
RTVSPost2010PropOp40
 70
     1
102
RTVSPost2010Prop41ColorIndex
 90
       18
102
RTVSPost2010Prop41ColorRGB
 90
        0
102
RTVSPost2010PropOp41
 70
     1
102
RTVSPost2010Prop42
 90
       50
102
RTVSPost2010PropOp42
 70
     1
102
RTVSPost2010Prop43
 90
        3
102
RTVSPost2010PropOp43
 70
     1
102
RTVSPost2010Prop44ColorIndex
 90
        5
102
RTVSPost2010Prop44ColorRGB
 90
      255
102
RTVSPost2010PropOp44
 70
     1
102
RTVSPost2010Prop45
280
     0
102
RTVSPost2010PropOp45
 70
     1
102
RTVSPost2010Prop46
 90
       50
102
RTVSPost2010PropOp46
 70
     1
102
RTVSPost2010Prop47
 90
       50
102
RTVSPost2010PropOp47
 70
     1
102
RTVSPost2010Prop48
 90
       50
102
RTVSPost2010PropOp48
 70
     1
102
RTVSPost2010Prop49
280
     0
102
RTVSPost2010PropOp49
 70
     1
102
RTVSPost2010Prop50
 90
       50
102
RTVSPost2010PropOp50
 70
     1
102
RTVSPost2010Prop51ColorIndex
 90
      256
102
RTVSPost2010Prop51ColorRGB
 90
-16777216
102
RTVSPost2010PropOp51
 70
     0
102
RTVSPost2010Prop52
140
1.0
102
RTVSPost2010PropOp52
 70
     0
102
RTVSPost2010Prop53
 90
        2
102
RTVSPost2010PropOp53
 70
     1
102
RTVSPost2010Prop54
  1
strokes_ogs.tif
102
RTVSPost2010PropOp54
 70
     1
102
RTVSPost2010Prop55
280
     0
102
RTVSPost2010PropOp55
 70
     1
102
RTVSPost2010Prop56
140
1.0
102
RTVSPost2010PropOp56
 70
     1
102
RTVSPost2010Prop57
140
1.0
102
RTVSPost2010PropOp57
 70
     1
102
RTVSPropertyOp0
 70
     1
102
RTVSPropertyOp1
 70
     1
102
RTVSPropertyOp2
 70
     1
102
RTVSPropertyOp3
 70
     1
102
RTVSPropertyOp4
 70
     1
102
RTVSPropertyOp5
 70
     1
102
RTVSPropertyOp6
 70
     1
102
RTVSPropertyOp7
 70
     1
102
RTVSPropertyOp8
 70
     1
102
RTVSPropertyOp9
 70
     1
102
RTVSPropertyOp10
 70
     1
102
RTVSPropertyOp11
 70
     1
102
RTVSPropertyOp12
 70
     1
102
RTVSPropertyOp13
 70
     1
102
RTVSPropertyOp14
 70
     1
102
RTVSPropertyOp15
 70
     1
102
RTVSPropertyOp16
 70
     1
102
RTVSPropertyOp17
 70
     1
102
RTVSPropertyOp18
 70
     1
102
RTVSPropertyOp19
 70
     1
102
RTVSPropertyOp20
 70
     1
102
RTVSPropertyOp21
 70
     1
102
RTVSPropertyOp22
 70
     1
102
RTVSPropertyOp23
 70
     1
102
RTVSPropertyOp24
 70
     1
102
RTVSPropertyOp25
 70
     1
102
RTVSPropertyOp26
 70
     1
102
RTVSPropertyOp27
 70
     1
102
RTVSPropertyOp28
 70
     1
102
RTVSPropertyOp29
 70
     1
102
RTVSPropertyOp30
 70
     1
102
RTVSPropertyOp31
 70
     1
102
RTVSPropertyOp32
 70
     1
102
RTVSPropertyOp33
 70
     1
102
RTVSPropertyOp34
 70
     1
102
RTVSPropertyOp35
 70
     1
102
RTVSPropertyOp36
 70
     1
102
RTVSPropertyOp37
 70
     1
102
RTVSPropertyOp38
 70
     1
102
RTVSPropertyOp39
 70
     1
102
RTVSPropertyOp40
 70
     1
102
RTVSPropertyOp41
 70
     1
102
RTVSPropertyOp42
 70
     1
102
RTVSPropertyOp43
 70
     1
102
RTVSPropertyOp44
 70
     1
102
RTVSPropertyOp45
 70
     1
102
RTVSPropertyOp46
 70
     1
102
RTVSPropertyOp47
 70
     1
102
RTVSPropertyOp48
 70
     1
102
RTVSPropertyOp49
 70
     1
102
RTVSPropertyOp50
 70
     1
102
RTVSPropertyOp51
 70
     0
102
RTVSPropertyOp52
 70
     0
102
RTVSPropertyOp53
 70
     1
102
RTVSPropertyOp54
 70
     1
102
RTVSPropertyOp55
 70
     1
102
RTVSPropertyOp56
 70
     1
102
RTVSPropertyOp57
 70
     1
102
RTVSPropertyOp58
 70
     1
102
RTVSPropertyOp59
 70
     1
102
RTVSPropertyOp60
 70
     1
102
RTVSPropertyOp61
 70
     1
102
RTVSPropertyOp62
 70
     1
  0
XRECORD
  5
271D
102
{ACAD_REACTORS
330
271C
102
}
330
271C
100
AcDbXrecord
280
     1
102
RTVSPost2010Prop28
280
     0
102
RTVSPost2010PropOp28
 70
     1
102
RTVSPost2010Prop29
280
     1
102
RTVSPost2010PropOp29
 70
     1
102
RTVSPost2010Prop30
280
     1
102
RTVSPost2010PropOp30
 70
     1
102
RTVSPost2010Prop31
280
     0
102
RTVSPost2010PropOp31
 70
     1
102
RTVSPost2010Prop32
280
     0
102
RTVSPost2010PropOp32
 70
     1
102
RTVSPost2010Prop33
280
     0
102
RTVSPost2010PropOp33
 70
     1
102
RTVSPost2010Prop34
280
     0
102
RTVSPost2010PropOp34
 70
     1
102
RTVSPost2010Prop35
280
     0
102
RTVSPost2010PropOp35
 70
     1
102
RTVSPost2010Prop36
280
     0
102
RTVSPost2010PropOp36
 70
     1
102
RTVSPost2010Prop37
 90
       50
102
RTVSPost2010PropOp37
 70
     1
102
RTVSPost2010Prop38
140
0.0
102
RTVSPost2010PropOp38
 70
     1
102
RTVSPost2010Prop39
140
1.0
102
RTVSPost2010PropOp39
 70
     1
102
RTVSPost2010Prop40
 90
        0
102
RTVSPost2010PropOp40
 70
     1
102
RTVSPost2010Prop41ColorIndex
 90
       18
102
RTVSPost2010Prop41ColorRGB
 90
        0
102
RTVSPost2010PropOp41
 70
     1
102
RTVSPost2010Prop42
 90
       50
102
RTVSPost2010PropOp42
 70
     1
102
RTVSPost2010Prop43
 90
        3
102
RTVSPost2010PropOp43
 70
     1
102
RTVSPost2010Prop44ColorIndex
 90
        5
102
RTVSPost2010Prop44ColorRGB
 90
      255
102
RTVSPost2010PropOp44
 70
     1
102
RTVSPost2010Prop45
280
     0
102
RTVSPost2010PropOp45
 70
     1
102
RTVSPost2010Prop46
 90
       50
102
RTVSPost2010PropOp46
 70
     1
102
RTVSPost2010Prop47
 90
       50
102
RTVSPost2010PropOp47
 70
     1
102
RTVSPost2010Prop48
 90
       50
102
RTVSPost2010PropOp48
 70
     1
102
RTVSPost2010Prop49
280
     0
102
RTVSPost2010PropOp49
 70
     1
102
RTVSPost2010Prop50
 90
       50
102
RTVSPost2010PropOp50
 70
     1
102
RTVSPost2010Prop51ColorIndex
 90
      256
102
RTVSPost2010Prop51ColorRGB
 90
-16777216
102
RTVSPost2010PropOp51
 70
     0
102
RTVSPost2010Prop52
140
1.0
102
RTVSPost2010PropOp52
 70
     0
102
RTVSPost2010Prop53
 90
        2
102
RTVSPost2010PropOp53
 70
     1
102
RTVSPost2010Prop54
  1
strokes_ogs.tif
102
RTVSPost2010PropOp54
 70
     1
102
RTVSPost2010Prop55
280
     0
102
RTVSPost2010PropOp55
 70
     1
102
RTVSPost2010Prop56
140
1.0
102
RTVSPost2010PropOp56
 70
     1
102
RTVSPost2010Prop57
140
1.0
102
RTVSPost2010PropOp57
 70
     1
102
RTVSPropertyOp0
 70
     1
102
RTVSPropertyOp1
 70
     1
102
RTVSPropertyOp2
 70
     1
102
RTVSPropertyOp3
 70
     1
102
RTVSPropertyOp4
 70
     1
102
RTVSPropertyOp5
 70
     1
102
RTVSPropertyOp6
 70
     1
102
RTVSPropertyOp7
 70
     1
102
RTVSPropertyOp8
 70
     1
102
RTVSPropertyOp9
 70
     1
102
RTVSPropertyOp10
 70
     1
102
RTVSPropertyOp11
 70
     1
102
RTVSPropertyOp12
 70
     1
102
RTVSPropertyOp13
 70
     1
102
RTVSPropertyOp14
 70
     1
102
RTVSPropertyOp15
 70
     1
102
RTVSPropertyOp16
 70
     1
102
RTVSPropertyOp17
 70
     1
102
RTVSPropertyOp18
 70
     1
102
RTVSPropertyOp19
 70
     1
102
RTVSPropertyOp20
 70
     1
102
RTVSPropertyOp21
 70
     1
102
RTVSPropertyOp22
 70
     1
102
RTVSPropertyOp23
 70
     1
102
RTVSPropertyOp24
 70
     1
102
RTVSPropertyOp25
 70
     1
102
RTVSPropertyOp26
 70
     1
102
RTVSPropertyOp27
 70
     1
102
RTVSPropertyOp28
 70
     1
102
RTVSPropertyOp29
 70
     1
102
RTVSPropertyOp30
 70
     1
102
RTVSPropertyOp31
 70
     1
102
RTVSPropertyOp32
 70
     1
102
RTVSPropertyOp33
 70
     1
102
RTVSPropertyOp34
 70
     1
102
RTVSPropertyOp35
 70
     1
102
RTVSPropertyOp36
 70
     1
102
RTVSPropertyOp37
 70
     1
102
RTVSPropertyOp38
 70
     1
102
RTVSPropertyOp39
 70
     1
102
RTVSPropertyOp40
 70
     1
102
RTVSPropertyOp41
 70
     1
102
RTVSPropertyOp42
 70
     1
102
RTVSPropertyOp43
 70
     1
102
RTVSPropertyOp44
 70
     1
102
RTVSPropertyOp45
 70
     1
102
RTVSPropertyOp46
 70
     1
102
RTVSPropertyOp47
 70
     1
102
RTVSPropertyOp48
 70
     1
102
RTVSPropertyOp49
 70
     1
102
RTVSPropertyOp50
 70
     1
102
RTVSPropertyOp51
 70
     0
102
RTVSPropertyOp52
 70
     0
102
RTVSPropertyOp53
 70
     1
102
RTVSPropertyOp54
 70
     1
102
RTVSPropertyOp55
 70
     1
102
RTVSPropertyOp56
 70
     1
102
RTVSPropertyOp57
 70
     1
102
RTVSPropertyOp58
 70
     1
102
RTVSPropertyOp59
 70
     1
102
RTVSPropertyOp60
 70
     1
102
RTVSPropertyOp61
 70
     1
102
RTVSPropertyOp62
 70
     1
  0
XRECORD
  5
271F
102
{ACAD_REACTORS
330
271E
102
}
330
271E
100
AcDbXrecord
280
     1
102
RTVSPost2010Prop28
280
     0
102
RTVSPost2010PropOp28
 70
     1
102
RTVSPost2010Prop29
280
     1
102
RTVSPost2010PropOp29
 70
     1
102
RTVSPost2010Prop30
280
     1
102
RTVSPost2010PropOp30
 70
     1
102
RTVSPost2010Prop31
280
     0
102
RTVSPost2010PropOp31
 70
     1
102
RTVSPost2010Prop32
280
     0
102
RTVSPost2010PropOp32
 70
     1
102
RTVSPost2010Prop33
280
     0
102
RTVSPost2010PropOp33
 70
     1
102
RTVSPost2010Prop34
280
     0
102
RTVSPost2010PropOp34
 70
     1
102
RTVSPost2010Prop35
280
     0
102
RTVSPost2010PropOp35
 70
     1
102
RTVSPost2010Prop36
280
     0
102
RTVSPost2010PropOp36
 70
     1
102
RTVSPost2010Prop37
 90
       50
102
RTVSPost2010PropOp37
 70
     1
102
RTVSPost2010Prop38
140
0.0
102
RTVSPost2010PropOp38
 70
     1
102
RTVSPost2010Prop39
140
1.0
102
RTVSPost2010PropOp39
 70
     1
102
RTVSPost2010Prop40
 90
        0
102
RTVSPost2010PropOp40
 70
     1
102
RTVSPost2010Prop41ColorIndex
 90
       18
102
RTVSPost2010Prop41ColorRGB
 90
        0
102
RTVSPost2010PropOp41
 70
     1
102
RTVSPost2010Prop42
 90
       50
102
RTVSPost2010PropOp42
 70
     1
102
RTVSPost2010Prop43
 90
        3
102
RTVSPost2010PropOp43
 70
     1
102
RTVSPost2010Prop44ColorIndex
 90
        5
102
RTVSPost2010Prop44ColorRGB
 90
      255
102
RTVSPost2010PropOp44
 70
     1
102
RTVSPost2010Prop45
280
     0
102
RTVSPost2010PropOp45
 70
     1
102
RTVSPost2010Prop46
 90
       50
102
RTVSPost2010PropOp46
 70
     1
102
RTVSPost2010Prop47
 90
       50
102
RTVSPost2010PropOp47
 70
     1
102
RTVSPost2010Prop48
 90
       50
102
RTVSPost2010PropOp48
 70
     1
102
RTVSPost2010Prop49
280
     0
102
RTVSPost2010PropOp49
 70
     1
102
RTVSPost2010Prop50
 90
       50
102
RTVSPost2010PropOp50
 70
     1
102
RTVSPost2010Prop51ColorIndex
 90
      256
102
RTVSPost2010Prop51ColorRGB
 90
-16777216
102
RTVSPost2010PropOp51
 70
     0
102
RTVSPost2010Prop52
140
1.0
102
RTVSPost2010PropOp52
 70
     0
102
RTVSPost2010Prop53
 90
        2
102
RTVSPost2010PropOp53
 70
     1
102
RTVSPost2010Prop54
  1
strokes_ogs.tif
102
RTVSPost2010PropOp54
 70
     1
102
RTVSPost2010Prop55
280
     0
102
RTVSPost2010PropOp55
 70
     1
102
RTVSPost2010Prop56
140
1.0
102
RTVSPost2010PropOp56
 70
     1
102
RTVSPost2010Prop57
140
1.0
102
RTVSPost2010PropOp57
 70
     1
102
RTVSPropertyOp0
 70
     1
102
RTVSPropertyOp1
 70
     1
102
RTVSPropertyOp2
 70
     1
102
RTVSPropertyOp3
 70
     1
102
RTVSPropertyOp4
 70
     1
102
RTVSPropertyOp5
 70
     1
102
RTVSPropertyOp6
 70
     1
102
RTVSPropertyOp7
 70
     1
102
RTVSPropertyOp8
 70
     1
102
RTVSPropertyOp9
 70
     1
102
RTVSPropertyOp10
 70
     1
102
RTVSPropertyOp11
 70
     1
102
RTVSPropertyOp12
 70
     1
102
RTVSPropertyOp13
 70
     1
102
RTVSPropertyOp14
 70
     1
102
RTVSPropertyOp15
 70
     1
102
RTVSPropertyOp16
 70
     1
102
RTVSPropertyOp17
 70
     1
102
RTVSPropertyOp18
 70
     1
102
RTVSPropertyOp19
 70
     1
102
RTVSPropertyOp20
 70
     1
102
RTVSPropertyOp21
 70
     1
102
RTVSPropertyOp22
 70
     1
102
RTVSPropertyOp23
 70
     1
102
RTVSPropertyOp24
 70
     1
102
RTVSPropertyOp25
 70
     1
102
RTVSPropertyOp26
 70
     1
102
RTVSPropertyOp27
 70
     1
102
RTVSPropertyOp28
 70
     1
102
RTVSPropertyOp29
 70
     1
102
RTVSPropertyOp30
 70
     1
102
RTVSPropertyOp31
 70
     1
102
RTVSPropertyOp32
 70
     1
102
RTVSPropertyOp33
 70
     1
102
RTVSPropertyOp34
 70
     1
102
RTVSPropertyOp35
 70
     1
102
RTVSPropertyOp36
 70
     1
102
RTVSPropertyOp37
 70
     1
102
RTVSPropertyOp38
 70
     1
102
RTVSPropertyOp39
 70
     1
102
RTVSPropertyOp40
 70
     1
102
RTVSPropertyOp41
 70
     1
102
RTVSPropertyOp42
 70
     1
102
RTVSPropertyOp43
 70
     1
102
RTVSPropertyOp44
 70
     1
102
RTVSPropertyOp45
 70
     1
102
RTVSPropertyOp46
 70
     1
102
RTVSPropertyOp47
 70
     1
102
RTVSPropertyOp48
 70
     1
102
RTVSPropertyOp49
 70
     1
102
RTVSPropertyOp50
 70
     1
102
RTVSPropertyOp51
 70
     0
102
RTVSPropertyOp52
 70
     0
102
RTVSPropertyOp53
 70
     1
102
RTVSPropertyOp54
 70
     1
102
RTVSPropertyOp55
 70
     1
102
RTVSPropertyOp56
 70
     1
102
RTVSPropertyOp57
 70
     1
102
RTVSPropertyOp58
 70
     1
102
RTVSPropertyOp59
 70
     1
102
RTVSPropertyOp60
 70
     1
102
RTVSPropertyOp61
 70
     1
102
RTVSPropertyOp62
 70
     1
  0
XRECORD
  5
2715
102
{ACAD_REACTORS
330
2714
102
}
330
2714
100
AcDbXrecord
280
     1
102
RTVSPost2010Prop28
280
     0
102
RTVSPost2010PropOp28
 70
     1
102
RTVSPost2010Prop29
280
     1
102
RTVSPost2010PropOp29
 70
     1
102
RTVSPost2010Prop30
280
     1
102
RTVSPost2010PropOp30
 70
     1
102
RTVSPost2010Prop31
280
     0
102
RTVSPost2010PropOp31
 70
     1
102
RTVSPost2010Prop32
280
     0
102
RTVSPost2010PropOp32
 70
     1
102
RTVSPost2010Prop33
280
     0
102
RTVSPost2010PropOp33
 70
     1
102
RTVSPost2010Prop34
280
     0
102
RTVSPost2010PropOp34
 70
     1
102
RTVSPost2010Prop35
280
     0
102
RTVSPost2010PropOp35
 70
     1
102
RTVSPost2010Prop36
280
     0
102
RTVSPost2010PropOp36
 70
     1
102
RTVSPost2010Prop37
 90
       50
102
RTVSPost2010PropOp37
 70
     1
102
RTVSPost2010Prop38
140
0.0
102
RTVSPost2010PropOp38
 70
     1
102
RTVSPost2010Prop39
140
1.0
102
RTVSPost2010PropOp39
 70
     1
102
RTVSPost2010Prop40
 90
        0
102
RTVSPost2010PropOp40
 70
     1
102
RTVSPost2010Prop41ColorIndex
 90
       18
102
RTVSPost2010Prop41ColorRGB
 90
        0
102
RTVSPost2010PropOp41
 70
     1
102
RTVSPost2010Prop42
 90
       50
102
RTVSPost2010PropOp42
 70
     1
102
RTVSPost2010Prop43
 90
        3
102
RTVSPost2010PropOp43
 70
     1
102
RTVSPost2010Prop44ColorIndex
 90
        5
102
RTVSPost2010Prop44ColorRGB
 90
      255
102
RTVSPost2010PropOp44
 70
     1
102
RTVSPost2010Prop45
280
     0
102
RTVSPost2010PropOp45
 70
     1
102
RTVSPost2010Prop46
 90
       50
102
RTVSPost2010PropOp46
 70
     1
102
RTVSPost2010Prop47
 90
       50
102
RTVSPost2010PropOp47
 70
     1
102
RTVSPost2010Prop48
 90
       50
102
RTVSPost2010PropOp48
 70
     1
102
RTVSPost2010Prop49
280
     0
102
RTVSPost2010PropOp49
 70
     1
102
RTVSPost2010Prop50
 90
       50
102
RTVSPost2010PropOp50
 70
     1
102
RTVSPost2010Prop51ColorIndex
 90
      256
102
RTVSPost2010Prop51ColorRGB
 90
-16777216
102
RTVSPost2010PropOp51
 70
     0
102
RTVSPost2010Prop52
140
1.0
102
RTVSPost2010PropOp52
 70
     0
102
RTVSPost2010Prop53
 90
        2
102
RTVSPost2010PropOp53
 70
     1
102
RTVSPost2010Prop54
  1
strokes_ogs.tif
102
RTVSPost2010PropOp54
 70
     1
102
RTVSPost2010Prop55
280
     0
102
RTVSPost2010PropOp55
 70
     1
102
RTVSPost2010Prop56
140
1.0
102
RTVSPost2010PropOp56
 70
     1
102
RTVSPost2010Prop57
140
1.0
102
RTVSPost2010PropOp57
 70
     1
102
RTVSPropertyOp0
 70
     1
102
RTVSPropertyOp1
 70
     1
102
RTVSPropertyOp2
 70
     1
102
RTVSPropertyOp3
 70
     1
102
RTVSPropertyOp4
 70
     1
102
RTVSPropertyOp5
 70
     1
102
RTVSPropertyOp6
 70
     1
102
RTVSPropertyOp7
 70
     1
102
RTVSPropertyOp8
 70
     1
102
RTVSPropertyOp9
 70
     1
102
RTVSPropertyOp10
 70
     1
102
RTVSPropertyOp11
 70
     1
102
RTVSPropertyOp12
 70
     1
102
RTVSPropertyOp13
 70
     1
102
RTVSPropertyOp14
 70
     1
102
RTVSPropertyOp15
 70
     1
102
RTVSPropertyOp16
 70
     1
102
RTVSPropertyOp17
 70
     1
102
RTVSPropertyOp18
 70
     1
102
RTVSPropertyOp19
 70
     1
102
RTVSPropertyOp20
 70
     1
102
RTVSPropertyOp21
 70
     1
102
RTVSPropertyOp22
 70
     1
102
RTVSPropertyOp23
 70
     1
102
RTVSPropertyOp24
 70
     1
102
RTVSPropertyOp25
 70
     1
102
RTVSPropertyOp26
 70
     1
102
RTVSPropertyOp27
 70
     1
102
RTVSPropertyOp28
 70
     1
102
RTVSPropertyOp29
 70
     1
102
RTVSPropertyOp30
 70
     1
102
RTVSPropertyOp31
 70
     1
102
RTVSPropertyOp32
 70
     1
102
RTVSPropertyOp33
 70
     1
102
RTVSPropertyOp34
 70
     1
102
RTVSPropertyOp35
 70
     1
102
RTVSPropertyOp36
 70
     1
102
RTVSPropertyOp37
 70
     1
102
RTVSPropertyOp38
 70
     1
102
RTVSPropertyOp39
 70
     1
102
RTVSPropertyOp40
 70
     1
102
RTVSPropertyOp41
 70
     1
102
RTVSPropertyOp42
 70
     1
102
RTVSPropertyOp43
 70
     1
102
RTVSPropertyOp44
 70
     1
102
RTVSPropertyOp45
 70
     1
102
RTVSPropertyOp46
 70
     1
102
RTVSPropertyOp47
 70
     1
102
RTVSPropertyOp48
 70
     1
102
RTVSPropertyOp49
 70
     1
102
RTVSPropertyOp50
 70
     1
102
RTVSPropertyOp51
 70
     0
102
RTVSPropertyOp52
 70
     0
102
RTVSPropertyOp53
 70
     1
102
RTVSPropertyOp54
 70
     1
102
RTVSPropertyOp55
 70
     1
102
RTVSPropertyOp56
 70
     1
102
RTVSPropertyOp57
 70
     1
102
RTVSPropertyOp58
 70
     1
102
RTVSPropertyOp59
 70
     1
102
RTVSPropertyOp60
 70
     1
102
RTVSPropertyOp61
 70
     1
102
RTVSPropertyOp62
 70
     1
  0
XRECORD
  5
2709
102
{ACAD_REACTORS
330
2708
102
}
330
2708
100
AcDbXrecord
280
     1
102
RTVSPost2010Prop28
280
     0
102
RTVSPost2010PropOp28
 70
     1
102
RTVSPost2010Prop29
280
     1
102
RTVSPost2010PropOp29
 70
     1
102
RTVSPost2010Prop30
280
     1
102
RTVSPost2010PropOp30
 70
     1
102
RTVSPost2010Prop31
280
     0
102
RTVSPost2010PropOp31
 70
     1
102
RTVSPost2010Prop32
280
     0
102
RTVSPost2010PropOp32
 70
     1
102
RTVSPost2010Prop33
280
     0
102
RTVSPost2010PropOp33
 70
     1
102
RTVSPost2010Prop34
280
     0
102
RTVSPost2010PropOp34
 70
     1
102
RTVSPost2010Prop35
280
     0
102
RTVSPost2010PropOp35
 70
     1
102
RTVSPost2010Prop36
280
     0
102
RTVSPost2010PropOp36
 70
     1
102
RTVSPost2010Prop37
 90
       50
102
RTVSPost2010PropOp37
 70
     1
102
RTVSPost2010Prop38
140
0.0
102
RTVSPost2010PropOp38
 70
     1
102
RTVSPost2010Prop39
140
1.0
102
RTVSPost2010PropOp39
 70
     1
102
RTVSPost2010Prop40
 90
        0
102
RTVSPost2010PropOp40
 70
     1
102
RTVSPost2010Prop41ColorIndex
 90
       18
102
RTVSPost2010Prop41ColorRGB
 90
        0
102
RTVSPost2010PropOp41
 70
     1
102
RTVSPost2010Prop42
 90
       50
102
RTVSPost2010PropOp42
 70
     1
102
RTVSPost2010Prop43
 90
        3
102
RTVSPost2010PropOp43
 70
     1
102
RTVSPost2010Prop44ColorIndex
 90
        5
102
RTVSPost2010Prop44ColorRGB
 90
      255
102
RTVSPost2010PropOp44
 70
     1
102
RTVSPost2010Prop45
280
     0
102
RTVSPost2010PropOp45
 70
     1
102
RTVSPost2010Prop46
 90
       50
102
RTVSPost2010PropOp46
 70
     1
102
RTVSPost2010Prop47
 90
       50
102
RTVSPost2010PropOp47
 70
     1
102
RTVSPost2010Prop48
 90
       50
102
RTVSPost2010PropOp48
 70
     1
102
RTVSPost2010Prop49
280
     0
102
RTVSPost2010PropOp49
 70
     1
102
RTVSPost2010Prop50
 90
       50
102
RTVSPost2010PropOp50
 70
     1
102
RTVSPost2010Prop51ColorIndex
 90
      256
102
RTVSPost2010Prop51ColorRGB
 90
-16777216
102
RTVSPost2010PropOp51
 70
     0
102
RTVSPost2010Prop52
140
1.0
102
RTVSPost2010PropOp52
 70
     0
102
RTVSPost2010Prop53
 90
        2
102
RTVSPost2010PropOp53
 70
     1
102
RTVSPost2010Prop54
  1
strokes_ogs.tif
102
RTVSPost2010PropOp54
 70
     1
102
RTVSPost2010Prop55
280
     0
102
RTVSPost2010PropOp55
 70
     1
102
RTVSPost2010Prop56
140
1.0
102
RTVSPost2010PropOp56
 70
     1
102
RTVSPost2010Prop57
140
1.0
102
RTVSPost2010PropOp57
 70
     1
102
RTVSPropertyOp0
 70
     1
102
RTVSPropertyOp1
 70
     1
102
RTVSPropertyOp2
 70
     1
102
RTVSPropertyOp3
 70
     1
102
RTVSPropertyOp4
 70
     1
102
RTVSPropertyOp5
 70
     1
102
RTVSPropertyOp6
 70
     1
102
RTVSPropertyOp7
 70
     1
102
RTVSPropertyOp8
 70
     1
102
RTVSPropertyOp9
 70
     1
102
RTVSPropertyOp10
 70
     1
102
RTVSPropertyOp11
 70
     1
102
RTVSPropertyOp12
 70
     1
102
RTVSPropertyOp13
 70
     1
102
RTVSPropertyOp14
 70
     1
102
RTVSPropertyOp15
 70
     1
102
RTVSPropertyOp16
 70
     1
102
RTVSPropertyOp17
 70
     1
102
RTVSPropertyOp18
 70
     1
102
RTVSPropertyOp19
 70
     1
102
RTVSPropertyOp20
 70
     1
102
RTVSPropertyOp21
 70
     1
102
RTVSPropertyOp22
 70
     1
102
RTVSPropertyOp23
 70
     1
102
RTVSPropertyOp24
 70
     1
102
RTVSPropertyOp25
 70
     1
102
RTVSPropertyOp26
 70
     1
102
RTVSPropertyOp27
 70
     1
102
RTVSPropertyOp28
 70
     1
102
RTVSPropertyOp29
 70
     1
102
RTVSPropertyOp30
 70
     1
102
RTVSPropertyOp31
 70
     1
102
RTVSPropertyOp32
 70
     1
102
RTVSPropertyOp33
 70
     1
102
RTVSPropertyOp34
 70
     1
102
RTVSPropertyOp35
 70
     1
102
RTVSPropertyOp36
 70
     1
102
RTVSPropertyOp37
 70
     1
102
RTVSPropertyOp38
 70
     1
102
RTVSPropertyOp39
 70
     1
102
RTVSPropertyOp40
 70
     1
102
RTVSPropertyOp41
 70
     1
102
RTVSPropertyOp42
 70
     1
102
RTVSPropertyOp43
 70
     1
102
RTVSPropertyOp44
 70
     1
102
RTVSPropertyOp45
 70
     1
102
RTVSPropertyOp46
 70
     1
102
RTVSPropertyOp47
 70
     1
102
RTVSPropertyOp48
 70
     1
102
RTVSPropertyOp49
 70
     1
102
RTVSPropertyOp50
 70
     1
102
RTVSPropertyOp51
 70
     0
102
RTVSPropertyOp52
 70
     0
102
RTVSPropertyOp53
 70
     1
102
RTVSPropertyOp54
 70
     1
102
RTVSPropertyOp55
 70
     1
102
RTVSPropertyOp56
 70
     1
102
RTVSPropertyOp57
 70
     1
102
RTVSPropertyOp58
 70
     1
102
RTVSPropertyOp59
 70
     1
102
RTVSPropertyOp60
 70
     1
102
RTVSPropertyOp61
 70
     1
102
RTVSPropertyOp62
 70
     1
  0
XRECORD
  5
2721
102
{ACAD_REACTORS
330
2720
102
}
330
2720
100
AcDbXrecord
280
     1
102
RTVSPost2010Prop28
280
     0
102
RTVSPost2010PropOp28
 70
     1
102
RTVSPost2010Prop29
280
     1
102
RTVSPost2010PropOp29
 70
     1
102
RTVSPost2010Prop30
280
     1
102
RTVSPost2010PropOp30
 70
     1
102
RTVSPost2010Prop31
280
     0
102
RTVSPost2010PropOp31
 70
     1
102
RTVSPost2010Prop32
280
     0
102
RTVSPost2010PropOp32
 70
     1
102
RTVSPost2010Prop33
280
     0
102
RTVSPost2010PropOp33
 70
     1
102
RTVSPost2010Prop34
280
     0
102
RTVSPost2010PropOp34
 70
     1
102
RTVSPost2010Prop35
280
     0
102
RTVSPost2010PropOp35
 70
     1
102
RTVSPost2010Prop36
280
     0
102
RTVSPost2010PropOp36
 70
     1
102
RTVSPost2010Prop37
 90
       50
102
RTVSPost2010PropOp37
 70
     1
102
RTVSPost2010Prop38
140
0.0
102
RTVSPost2010PropOp38
 70
     1
102
RTVSPost2010Prop39
140
1.0
102
RTVSPost2010PropOp39
 70
     1
102
RTVSPost2010Prop40
 90
        0
102
RTVSPost2010PropOp40
 70
     1
102
RTVSPost2010Prop41ColorIndex
 90
       18
102
RTVSPost2010Prop41ColorRGB
 90
        0
102
RTVSPost2010PropOp41
 70
     1
102
RTVSPost2010Prop42
 90
       50
102
RTVSPost2010PropOp42
 70
     1
102
RTVSPost2010Prop43
 90
        3
102
RTVSPost2010PropOp43
 70
     1
102
RTVSPost2010Prop44ColorIndex
 90
        5
102
RTVSPost2010Prop44ColorRGB
 90
      255
102
RTVSPost2010PropOp44
 70
     1
102
RTVSPost2010Prop45
280
     0
102
RTVSPost2010PropOp45
 70
     1
102
RTVSPost2010Prop46
 90
       50
102
RTVSPost2010PropOp46
 70
     1
102
RTVSPost2010Prop47
 90
       50
102
RTVSPost2010PropOp47
 70
     1
102
RTVSPost2010Prop48
 90
       50
102
RTVSPost2010PropOp48
 70
     1
102
RTVSPost2010Prop49
280
     0
102
RTVSPost2010PropOp49
 70
     1
102
RTVSPost2010Prop50
 90
       50
102
RTVSPost2010PropOp50
 70
     1
102
RTVSPost2010Prop51ColorIndex
 90
      256
102
RTVSPost2010Prop51ColorRGB
 90
-16777216
102
RTVSPost2010PropOp51
 70
     0
102
RTVSPost2010Prop52
140
1.0
102
RTVSPost2010PropOp52
 70
     0
102
RTVSPost2010Prop53
 90
        2
102
RTVSPost2010PropOp53
 70
     1
102
RTVSPost2010Prop54
  1
strokes_ogs.tif
102
RTVSPost2010PropOp54
 70
     1
102
RTVSPost2010Prop55
280
     0
102
RTVSPost2010PropOp55
 70
     1
102
RTVSPost2010Prop56
140
1.0
102
RTVSPost2010PropOp56
 70
     1
102
RTVSPost2010Prop57
140
1.0
102
RTVSPost2010PropOp57
 70
     1
102
RTVSPropertyOp0
 70
     1
102
RTVSPropertyOp1
 70
     1
102
RTVSPropertyOp2
 70
     1
102
RTVSPropertyOp3
 70
     1
102
RTVSPropertyOp4
 70
     1
102
RTVSPropertyOp5
 70
     1
102
RTVSPropertyOp6
 70
     1
102
RTVSPropertyOp7
 70
     1
102
RTVSPropertyOp8
 70
     1
102
RTVSPropertyOp9
 70
     1
102
RTVSPropertyOp10
 70
     1
102
RTVSPropertyOp11
 70
     1
102
RTVSPropertyOp12
 70
     1
102
RTVSPropertyOp13
 70
     1
102
RTVSPropertyOp14
 70
     1
102
RTVSPropertyOp15
 70
     1
102
RTVSPropertyOp16
 70
     1
102
RTVSPropertyOp17
 70
     1
102
RTVSPropertyOp18
 70
     1
102
RTVSPropertyOp19
 70
     1
102
RTVSPropertyOp20
 70
     1
102
RTVSPropertyOp21
 70
     1
102
RTVSPropertyOp22
 70
     1
102
RTVSPropertyOp23
 70
     1
102
RTVSPropertyOp24
 70
     1
102
RTVSPropertyOp25
 70
     1
102
RTVSPropertyOp26
 70
     1
102
RTVSPropertyOp27
 70
     1
102
RTVSPropertyOp28
 70
     1
102
RTVSPropertyOp29
 70
     1
102
RTVSPropertyOp30
 70
     1
102
RTVSPropertyOp31
 70
     1
102
RTVSPropertyOp32
 70
     1
102
RTVSPropertyOp33
 70
     1
102
RTVSPropertyOp34
 70
     1
102
RTVSPropertyOp35
 70
     1
102
RTVSPropertyOp36
 70
     1
102
RTVSPropertyOp37
 70
     1
102
RTVSPropertyOp38
 70
     1
102
RTVSPropertyOp39
 70
     1
102
RTVSPropertyOp40
 70
     1
102
RTVSPropertyOp41
 70
     1
102
RTVSPropertyOp42
 70
     1
102
RTVSPropertyOp43
 70
     1
102
RTVSPropertyOp44
 70
     1
102
RTVSPropertyOp45
 70
     1
102
RTVSPropertyOp46
 70
     1
102
RTVSPropertyOp47
 70
     1
102
RTVSPropertyOp48
 70
     1
102
RTVSPropertyOp49
 70
     1
102
RTVSPropertyOp50
 70
     1
102
RTVSPropertyOp51
 70
     0
102
RTVSPropertyOp52
 70
     0
102
RTVSPropertyOp53
 70
     1
102
RTVSPropertyOp54
 70
     1
102
RTVSPropertyOp55
 70
     1
102
RTVSPropertyOp56
 70
     1
102
RTVSPropertyOp57
 70
     1
102
RTVSPropertyOp58
 70
     1
102
RTVSPropertyOp59
 70
     1
102
RTVSPropertyOp60
 70
     1
102
RTVSPropertyOp61
 70
     1
102
RTVSPropertyOp62
 70
     1
  0
ENDSEC
  0
EOF
