  0
SECTION
  2
HEADER
  9
$ACADVER
  1
AC1014
  9
$ACADMAINTVER
 70
     9
  9
$DWGCODEPAGE
  3
ANSI_1252
  9
$INSBASE
 10
95.03009718156517
 20
-412.3917560887868
 30
0.0
  9
$EXTMIN
 10
43.42083126340114
 20
-415.2419002517953
 30
-2.475193127874518
  9
$EXTMAX
 10
103.6388093393365
 20
-392.0336359369075
 30
0.0000377759427064
  9
$LIMMIN
 10
0.0
 20
0.0
  9
$LIMMAX
 10
12.0
 20
9.0
  9
$ORTHOMODE
 70
     1
  9
$REGENMODE
 70
     1
  9
$FILLMODE
 70
     1
  9
$QTEXTMODE
 70
     0
  9
$MIRRTEXT
 70
     1
  9
$DRAGMODE
 70
     2
  9
$LTSCALE
 40
5.0
  9
$OSMODE
 70
    55
  9
$ATTMODE
 70
     1
  9
$TEXTSIZE
 40
1.0
  9
$TRACEWID
 40
0.05
  9
$TEXTSTYLE
  7
TEMPLATE
  9
$CLAYER
  8
0
  9
$CELTYPE
  6
BYLAYER
  9
$CECOLOR
 62
   256
  9
$CELTSCALE
 40
1.0
  9
$DELOBJ
 70
     1
  9
$DISPSILH
 70
     0
  9
$DIMSCALE
 40
16.0
  9
$DIMASZ
 40
0.1
  9
$DIMEXO
 40
0.0625
  9
$DIMDLI
 40
0.25
  9
$DIMRND
 40
0.0
  9
$DIMDLE
 40
0.0
  9
$DIMEXE
 40
0.1
  9
$DIMTP
 40
0.00001
  9
$DIMTM
 40
0.00001
  9
$DIMTXT
 40
0.1
  9
$DIMCEN
 40
0.09
  9
$DIMTSZ
 40
0.0
  9
$DIMTOL
 70
     0
  9
$DIMLIM
 70
     0
  9
$DIMTIH
 70
     1
  9
$DIMTOH
 70
     1
  9
$DIMSE1
 70
     0
  9
$DIMSE2
 70
     0
  9
$DIMTAD
 70
     0
  9
$DIMZIN
 70
     4
  9
$DIMBLK
  1

  9
$DIMASO
 70
     1
  9
$DIMSHO
 70
     1
  9
$DIMPOST
  1
\X
  9
$DIMAPOST
  1
cm
  9
$DIMALT
 70
     1
  9
$DIMALTD
 70
     1
  9
$DIMALTF
 40
2.54
  9
$DIMLFAC
 40
1.0
  9
$DIMTOFL
 70
     1
  9
$DIMTVP
 40
0.0
  9
$DIMTIX
 70
     0
  9
$DIMSOXD
 70
     0
  9
$DIMSAH
 70
     0
  9
$DIMBLK1
  1

  9
$DIMBLK2
  1

  9
$DIMSTYLE
  2
STANDARD
  9
$DIMCLRD
 70
     0
  9
$DIMCLRE
 70
     0
  9
$DIMCLRT
 70
     0
  9
$DIMTFAC
 40
1.0
  9
$DIMGAP
 40
0.08
  9
$DIMJUST
 70
     0
  9
$DIMSD1
 70
     0
  9
$DIMSD2
 70
     0
  9
$DIMTOLJ
 70
     1
  9
$DIMTZIN
 70
     0
  9
$DIMALTZ
 70
     0
  9
$DIMALTTZ
 70
     0
  9
$DIMFIT
 70
     3
  9
$DIMUPT
 70
     1
  9
$DIMUNIT
 70
     5
  9
$DIMDEC
 70
     4
  9
$DIMTDEC
 70
     4
  9
$DIMALTU
 70
     2
  9
$DIMALTTD
 70
     1
  9
$DIMTXSTY
  7
ROMANS
  9
$DIMAUNIT
 70
     0
  9
$LUNITS
 70
     2
  9
$LUPREC
 70
     4
  9
$SKETCHINC
 40
0.1
  9
$FILLETRAD
 40
0.0
  9
$AUNITS
 70
     0
  9
$AUPREC
 70
     0
  9
$MENU
  1
.
  9
$ELEVATION
 40
0.0
  9
$PELEVATION
 40
0.0
  9
$THICKNESS
 40
0.0
  9
$LIMCHECK
 70
     0
  9
$BLIPMODE
 70
     0
  9
$CHAMFERA
 40
0.5
  9
$CHAMFERB
 40
0.5
  9
$CHAMFERC
 40
1.0
  9
$CHAMFERD
 40
0.0
  9
$SKPOLY
 70
     0
  9
$TDCREATE
 40
2451681.662295729
  9
$TDUPDATE
 40
2453686.652973426
  9
$TDINDWG
 40
4.4909783681
  9
$TDUSRTIMER
 40
4.4909782523
  9
$USRTIMER
 70
     1
  9
$ANGBASE
 50
0.0
  9
$ANGDIR
 70
     0
  9
$PDMODE
 70
     0
  9
$PDSIZE
 40
0.0
  9
$PLINEWID
 40
0.0
  9
$COORDS
 70
     1
  9
$SPLFRAME
 70
     0
  9
$SPLINETYPE
 70
     6
  9
$SPLINESEGS
 70
     8
  9
$ATTDIA
 70
     0
  9
$ATTREQ
 70
     1
  9
$HANDLING
 70
 22529
  9
$HANDSEED
  5
18A
  9
$SURFTAB1
 70
     6
  9
$SURFTAB2
 70
     6
  9
$SURFTYPE
 70
     6
  9
$SURFU
 70
     6
  9
$SURFV
 70
     6
  9
$UCSNAME
  2

  9
$UCSORG
 10
0.0
 20
0.0
 30
0.0
  9
$UCSXDIR
 10
1.0
 20
0.0
 30
0.0
  9
$UCSYDIR
 10
0.0
 20
1.0
 30
0.0
  9
$PUCSNAME
  2

  9
$PUCSORG
 10
0.0
 20
0.0
 30
0.0
  9
$PUCSXDIR
 10
1.0
 20
0.0
 30
0.0
  9
$PUCSYDIR
 10
0.0
 20
1.0
 30
0.0
  9
$USERI1
 70
     0
  9
$USERI2
 70
     0
  9
$USERI3
 70
     0
  9
$USERI4
 70
     0
  9
$USERI5
 70
     0
  9
$USERR1
 40
0.0
  9
$USERR2
 40
0.0
  9
$USERR3
 40
0.0
  9
$USERR4
 40
0.0
  9
$USERR5
 40
0.0
  9
$WORLDVIEW
 70
     1
  9
$SHADEDGE
 70
     3
  9
$SHADEDIF
 70
    70
  9
$TILEMODE
 70
     1
  9
$MAXACTVP
 70
    48
  9
$PINSBASE
 10
0.0
 20
0.0
 30
0.0
  9
$PLIMCHECK
 70
     0
  9
$PEXTMIN
 10
1.000000000000000E+20
 20
1.000000000000000E+20
 30
1.000000000000000E+20
  9
$PEXTMAX
 10
-1.000000000000000E+20
 20
-1.000000000000000E+20
 30
-1.000000000000000E+20
  9
$PLIMMIN
 10
-0.5312499849815068
 20
-0.1645829921632301
  9
$PLIMMAX
 10
11.15874981316994
 20
8.10208345022727
  9
$UNITMODE
 70
     0
  9
$VISRETAIN
 70
     1
  9
$PLINEGEN
 70
     0
  9
$PSLTSCALE
 70
     1
  9
$TREEDEPTH
 70
  3020
  9
$PICKSTYLE
 70
     1
  9
$CMLSTYLE
  2
STANDARD
  9
$CMLJUST
 70
     0
  9
$CMLSCALE
 40
1.0
  9
$PROXYGRAPHICS
 70
     1
  9
$MEASUREMENT
 70
     0
  0
ENDSEC
  0
SECTION
  2
CLASSES
  0
CLASS
  1
ACDBDICTIONARYWDFLT
  2
AcDbDictionaryWithDefault
  3
AutoCAD 2000
 90
        0
280
     0
281
     0
  0
CLASS
  1
ACDBPLACEHOLDER
  2
AcDbPlaceHolder
  3
AutoCAD 2000
 90
        0
280
     0
281
     0
  0
CLASS
  1
LAYOUT
  2
AcDbLayout
  3
AutoCAD 2000
 90
        0
280
     0
281
     0
  0
CLASS
  1
DICTIONARYVAR
  2
AcDbDictionaryVar
  3
AutoCAD 2000
 90
        0
280
     0
281
     0
  0
CLASS
  1
RASTERVARIABLES
  2
AcDbRasterVariables
  3
ISM
 90
        0
280
     0
281
     0
  0
CLASS
  1
IMAGEDEF
  2
AcDbRasterImageDef
  3
ISM
 90
        0
280
     0
281
     0
  0
CLASS
  1
IMAGEDEF_REACTOR
  2
AcDbRasterImageDefReactor
  3
ISM
 90
        1
280
     0
281
     0
  0
CLASS
  1
IMAGE
  2
AcDbRasterImage
  3
ISM
 90
      127
280
     0
281
     1
  0
CLASS
  1
LONG_TRANSACTION
  2
AcDbLongTransaction
  3
AutoCAD 2000
 90
        0
280
     0
281
     0
  0
CLASS
  1
LWPOLYLINE
  2
AcDbPolyline
  3
AutoCAD 2000
 90
        0
280
     0
281
     1
  0
CLASS
  1
HATCH
  2
AcDbHatch
  3
AutoCAD 2000
 90
        0
280
     0
281
     1
  0
CLASS
  1
XRECORD
  2
AcDbXrecord
  3
AutoCAD 2000
 90
        0
280
     0
281
     0
  0
CLASS
  1
LONG_TRANSACTION
  2
AcDbLongTransaction
  3
AutoCAD 2000
 90
        0
280
     0
281
     0
  0
CLASS
  1
LWPOLYLINE
  2
AcDbPolyline
  3
AutoCAD 2000
 90
        0
280
     0
281
     1
  0
CLASS
  1
HATCH
  2
AcDbHatch
  3
AutoCAD 2000
 90
        0
280
     0
281
     1
  0
CLASS
  1
XRECORD
  2
AcDbXrecord
  3
AutoCAD 2000
 90
        0
280
     0
281
     0
  0
CLASS
  1
LONG_TRANSACTION
  2
AcDbLongTransaction
  3
AutoCAD 2000
 90
        0
280
     0
281
     0
  0
CLASS
  1
LWPOLYLINE
  2
AcDbPolyline
  3
AutoCAD 2000
 90
        0
280
     0
281
     1
  0
CLASS
  1
HATCH
  2
AcDbHatch
  3
AutoCAD 2000
 90
        0
280
     0
281
     1
  0
CLASS
  1
XRECORD
  2
AcDbXrecord
  3
AutoCAD 2000
 90
        0
280
     0
281
     0
  0
ENDSEC
  0
SECTION
  2
TABLES
  0
TABLE
  2
VPORT
  5
1D
330
0
100
AcDbSymbolTable
 70
     3
  0
VPORT
  5
166
330
1D
100
AcDbSymbolTableRecord
100
AcDbViewportTableRecord
  2
*ACTIVE
 70
     0
 10
0.0
 20
0.0
 11
1.0
 21
1.0
 12
73.52982024020424
 22
-403.637768135334
 13
0.0
 23
0.0
 14
0.5
 24
0.5
 15
0.5
 25
0.5
 16
0.0
 26
0.0
 36
1.0
 17
0.0
 27
0.0
 37
0.0
 40
43.0718527207049
 41
1.786792452830188
 42
50.0
 43
0.0
 44
0.0
 50
0.0
 51
0.0
 71
     0
 72
 20000
 73
     1
 74
     1
 75
     0
 76
     0
 77
     0
 78
     0
  0
ENDTAB
  0
TABLE
  2
LTYPE
  5
18
330
0
100
AcDbSymbolTable
 70
     3
  0
LTYPE
  5
19
330
18
100
AcDbSymbolTableRecord
100
AcDbLinetypeTableRecord
  2
BYBLOCK
 70
     0
  3

 72
    65
 73
     0
 40
0.0
  0
LTYPE
  5
1A
330
18
100
AcDbSymbolTableRecord
100
AcDbLinetypeTableRecord
  2
BYLAYER
 70
     0
  3

 72
    65
 73
     0
 40
0.0
  0
LTYPE
  5
8
330
18
100
AcDbSymbolTableRecord
100
AcDbLinetypeTableRecord
  2
CONTINUOUS
 70
     0
  3
Solid line
 72
    65
 73
     0
 40
0.0
  0
LTYPE
  5
5C
330
18
100
AcDbSymbolTableRecord
100
AcDbLinetypeTableRecord
  2
CENTER
 70
     0
  3
Center ____ _ ____ _ ____ _ ____ _ ____ _ ____
 72
    65
 73
     4
 40
2.0
 49
1.25
 74
     0
 49
-0.25
 74
     0
 49
0.25
 74
     0
 49
-0.25
 74
     0
  0
LTYPE
  5
33
330
18
100
AcDbSymbolTableRecord
100
AcDbLinetypeTableRecord
  2
HIDDEN
 70
     0
  3
- - - - - - - - - - - - - - - - - - - -
 72
    65
 73
     2
 40
0.2
 49
0.1
 74
     0
 49
-0.1
 74
     0
  0
ENDTAB
  0
TABLE
  2
LAYER
  5
10
102
{ACAD_XDICTIONARY
360
11
102
}
330
0
100
AcDbSymbolTable
 70
     2
  0
LAYER
  5
4
330
10
100
AcDbSymbolTableRecord
100
AcDbLayerTableRecord
  2
0
 70
     0
 62
     7
  6
CONTINUOUS
  0
LAYER
  5
5B
330
10
100
AcDbSymbolTableRecord
100
AcDbLayerTableRecord
  2
CENTER
 70
     0
 62
     1
  6
CENTER
  0
ENDTAB
  0
TABLE
  2
STYLE
  5
15
330
0
100
AcDbSymbolTable
 70
     3
  0
STYLE
  5
16
330
15
100
AcDbSymbolTableRecord
100
AcDbTextStyleTableRecord
  2
STANDARD
 70
     0
 40
0.0
 41
1.0
 50
0.0
 71
     0
 42
1.0
  3
txt
  4

  0
STYLE
  5
23
330
15
100
AcDbSymbolTableRecord
100
AcDbTextStyleTableRecord
  2
ROMANS
 70
     0
 40
0.0
 41
1.0
 50
0.0
 71
     0
 42
0.375
  3
TIMESBD.TTF
  4

1001
ACAD
1000
Times New Roman
1071
 33554450
  0
STYLE
  5
30
330
15
100
AcDbSymbolTableRecord
100
AcDbTextStyleTableRecord
  2
TEMPLATE
 70
     0
 40
0.0
 41
1.0
 50
0.0
 71
     0
 42
1.0
  3
TIMESBD.TTF
  4

1001
ACAD
1000
Times New Roman
1071
 33554450
  0
ENDTAB
  0
TABLE
  2
VIEW
  5
1B
330
0
100
AcDbSymbolTable
 70
     0
  0
ENDTAB
  0
TABLE
  2
UCS
  5
1C
330
0
100
AcDbSymbolTable
 70
     0
  0
ENDTAB
  0
TABLE
  2
APPID
  5
1F
330
0
100
AcDbSymbolTable
 70
     2
  0
APPID
  5
20
330
1F
100
AcDbSymbolTableRecord
100
AcDbRegAppTableRecord
  2
ACAD
 70
     0
  0
APPID
  5
7E
330
1F
100
AcDbSymbolTableRecord
100
AcDbRegAppTableRecord
  2
DCO15
 70
     0
  0
ENDTAB
  0
TABLE
  2
DIMSTYLE
  5
21
330
0
100
AcDbSymbolTable
 70
     1
  0
DIMSTYLE
105
22
330
21
100
AcDbSymbolTableRecord
100
AcDbDimStyleTableRecord
  2
STANDARD
 70
     0
  3
\X
  4
cm
  5

  6

  7

 40
16.0
 41
0.1
 42
0.0625
 43
0.25
 44
0.1
 45
0.0
 46
0.0
 47
0.00001
 48
0.00001
140
0.1
141
0.09
142
0.0
143
2.54
144
1.0
145
0.0
146
1.0
147
0.08
 71
     0
 72
     0
 73
     1
 74
     1
 75
     0
 76
     0
 77
     0
 78
     4
170
     1
171
     1
172
     1
173
     0
174
     0
175
     0
176
     0
177
     0
178
     0
270
     5
271
     4
272
     4
273
     2
274
     1
340
23
275
     0
280
     0
281
     0
282
     0
283
     1
284
     0
285
     0
286
     0
287
     3
288
     1
  0
ENDTAB
  0
TABLE
  2
BLOCK_RECORD
  5
1
330
0
100
AcDbSymbolTable
 70
     0
  0
BLOCK_RECORD
  5
2
102
{ACAD_XDICTIONARY
360
87
102
}
330
1
100
AcDbSymbolTableRecord
100
AcDbBlockTableRecord
  2
*MODEL_SPACE
  0
BLOCK_RECORD
  5
C
102
{ACAD_XDICTIONARY
360
89
102
}
330
1
100
AcDbSymbolTableRecord
100
AcDbBlockTableRecord
  2
*PAPER_SPACE
  0
ENDTAB
  0
ENDSEC
  0
SECTION
  2
BLOCKS
  0
BLOCK
  5
3
330
2
100
AcDbEntity
  8
0
100
AcDbBlockBegin
  2
*MODEL_SPACE
 70
     0
 10
0.0
 20
0.0
 30
0.0
  3
*MODEL_SPACE
  1

  0
ENDBLK
  5
9
330
2
100
AcDbEntity
  8
0
100
AcDbBlockEnd
  0
BLOCK
  5
D
330
C
100
AcDbEntity
 67
     1
  8
0
100
AcDbBlockBegin
  2
*PAPER_SPACE
 70
     0
 10
0.0
 20
0.0
 30
0.0
  3
*PAPER_SPACE
  1

  0
ENDBLK
  5
E
330
C
100
AcDbEntity
 67
     1
  8
0
100
AcDbBlockEnd
  0
ENDSEC
  0
SECTION
  2
ENTITIES
  0
LINE
  5
32
330
2
100
AcDbEntity
  8
0
  6
HIDDEN
100
AcDbLine
 10
76.64357527940532
 20
-399.1417560887867
 30
-1.968701004259055
 11
78.85741694358737
 21
-395.9432516618974
 31
-1.296475117970356
  0
ARC
  5
34
330
2
100
AcDbEntity
  8
0
  6
HIDDEN
100
AcDbCircle
 10
-278.734638958244
 20
-6.915771738400471
 30
291.7117597238426
 40
0.5000000000000001
210
0.8202302445011383
220
-0.5717174623095897
230
0.0190128718474049
100
AcDbArc
 50
265.1323187457904
 51
355.1323187457899
  0
ARC
  5
35
330
2
100
AcDbEntity
  8
0
  6
HIDDEN
100
AcDbCircle
 10
-278.734638958244
 20
-6.915771738400471
 30
291.7117597238426
 40
0.5000000000000001
210
0.8202302445011383
220
-0.5717174623095897
230
0.0190128718474049
100
AcDbArc
 50
265.1323187457904
 51
355.1323187457899
  0
ARC
  5
36
330
2
100
AcDbEntity
  8
0
  6
HIDDEN
100
AcDbCircle
 10
-278.734638958244
 20
-6.915771738400481
 30
290.5242597238426
 40
0.5000000000000001
210
0.8202302445011383
220
-0.5717174623095897
230
0.0190128718474049
100
AcDbArc
 50
265.1323187457904
 51
332.9560743478523
  0
LINE
  5
37
330
2
100
AcDbEntity
  8
0
  6
HIDDEN
100
AcDbLine
 10
79.40483508441431
 20
-396.3765303598353
 30
-1.781510373396729
 11
77.47075531575636
 21
-399.1417560887867
 31
-1.494184760225926
  0
LINE
  5
38
330
2
100
AcDbEntity
  8
0
  6
HIDDEN
100
AcDbLine
 10
78.43081166906921
 20
-395.6976158733427
 30
-1.804088158715524
 11
76.02187924761462
 21
-399.1417560887867
 31
-1.446218749036653
210
0.0329803045348973
220
0.0804458852003877
230
0.9962132096429517
  0
ARC
  5
39
330
2
100
AcDbEntity
  8
0
  6
HIDDEN
100
AcDbCircle
 10
-291.5636214454749
 20
-25.4839489374269
 30
-278.1424948059522
 40
0.5
210
0.571081995442325
220
0.8164971542170919
230
-0.0848395641019135
100
AcDbArc
 50
358.9066345756583
 51
88.90663457565727
  0
ARC
  5
3A
330
2
100
AcDbEntity
  8
0
  6
HIDDEN
100
AcDbCircle
 10
-291.5636214454749
 20
-25.4839489374269
 30
-278.1424948059522
 40
0.5
210
0.571081995442325
220
0.8164971542170919
230
-0.0848395641019135
100
AcDbArc
 50
358.9066345756583
 51
88.90663457565727
  0
ARC
  5
3B
330
2
100
AcDbEntity
  8
0
  6
HIDDEN
100
AcDbCircle
 10
-291.7510873070481
 20
-25.48037112459792
 30
-278.1424948059523
 40
0.5
210
0.571081995442325
220
0.8164971542170919
230
-0.0848395641019135
100
AcDbArc
 50
88.90663457565727
 51
178.9066345756572
  0
ARC
  5
3C
330
2
100
AcDbEntity
  8
0
  6
HIDDEN
100
AcDbCircle
 10
-291.7510873070481
 20
-25.48037112459792
 30
-278.1424948059523
 40
0.5
210
0.571081995442325
220
0.8164971542170919
230
-0.0848395641019135
100
AcDbArc
 50
88.90663457565727
 51
178.9066345756572
  0
ARC
  5
3D
330
2
100
AcDbEntity
  8
0
  6
HIDDEN
100
AcDbCircle
 10
-291.5636214454749
 20
-25.48394893742689
 30
-277.1424948059522
 40
0.5
210
0.571081995442325
220
0.8164971542170919
230
-0.0848395641019135
100
AcDbArc
 50
272.2081784895233
 51
358.9066345756575
  0
ARC
  5
3E
330
2
100
AcDbEntity
  8
0
  6
HIDDEN
100
AcDbCircle
 10
-291.751087307048
 20
-25.48037112459792
 30
-277.1424948059522
 40
0.5
210
0.571081995442325
220
0.8164971542170919
230
-0.0848395641019135
100
AcDbArc
 50
178.9066345756576
 51
268.9066345756572
  0
LINE
  5
3F
330
2
100
AcDbEntity
  8
0
  6
HIDDEN
100
AcDbLine
 10
79.40483508441433
 20
-396.3765303598353
 30
-1.78151037339673
 11
79.97591707985666
 21
-395.5600332056182
 31
-1.866349937498649
210
0.8202302445011383
220
-0.5717174623095897
230
0.0190128718474049
  0
LINE
  5
40
330
2
100
AcDbEntity
  8
0
  6
HIDDEN
100
AcDbLine
 10
79.40483508441433
 20
-396.3765303598353
 30
-1.78151037339673
 11
79.97591707985666
 21
-395.5600332056182
 31
-1.866349937498649
  0
LINE
  5
41
330
2
100
AcDbEntity
  8
0
  6
HIDDEN
100
AcDbLine
 10
79.00189366451155
 20
-394.8811187191255
 30
-1.888927722817444
 11
78.43081166906921
 21
-395.6976158733427
 31
-1.804088158715525
  0
LINE
  5
42
330
2
100
AcDbEntity
  8
0
  6
HIDDEN
100
AcDbLine
 10
79.47384685776507
 20
-395.0161414155296
 30
-0.0115215188132066
 11
79.46147924356447
 21
-395.0463086224798
 31
-0.3851014724293077
  0
LINE
  5
43
330
2
100
AcDbEntity
  8
0
  6
HIDDEN
100
AcDbLine
 10
79.61527241440844
 20
-395.1535056466628
 30
-0.3815365589579213
 11
79.627640028609
 21
-395.1233384397127
 31
-0.0079566053418131
  0
LINE
  5
44
330
2
100
AcDbEntity
  8
0
  6
HIDDEN
100
AcDbLine
 10
79.47384685776507
 20
-395.0161414155296
 30
-0.0115215188132066
 11
79.46147924356447
 21
-395.0463086224798
 31
-0.3851014724293077
210
-0.5710819954423246
220
-0.8164971542170903
230
0.0848395641019324
  0
LINE
  5
45
330
2
100
AcDbEntity
  8
0
  6
HIDDEN
100
AcDbLine
 10
79.61527241440844
 20
-395.1535056466628
 30
-0.3815365589579213
 11
79.627640028609
 21
-395.1233384397127
 31
-0.0079566053418131
210
-0.5710819954423246
220
-0.8164971542170903
230
0.0848395641019324
  0
ARC
  5
46
330
2
100
AcDbEntity
  8
0
  6
HIDDEN
100
AcDbCircle
 10
-279.6461773743672
 20
-5.83452351716189
 30
291.0242597238427
 40
1.0
210
0.8202302445011383
220
-0.5717174623095897
230
0.0190128718474049
100
AcDbArc
 50
265.1323187457908
 51
355.1323187457906
  0
LINE
  5
47
330
2
100
AcDbEntity
  8
0
  6
HIDDEN
100
AcDbLine
 10
76.84905928396569
 20
-399.1417560887867
 30
-0.971702505003537
 11
79.0112101144312
 21
-396.0504486860803
 31
-1.292910204498961
  0
ARC
  5
48
330
2
100
AcDbEntity
  8
0
  6
HIDDEN
100
AcDbCircle
 10
-279.6461773743672
 20
-5.83452351716188
 30
291.2117597238426
 40
1.0
210
0.8202302445011383
220
-0.5717174623095897
230
0.0190128718474049
100
AcDbArc
 50
265.1323187457908
 51
355.1323187457906
  0
LINE
  5
49
330
2
100
AcDbEntity
  8
0
  6
HIDDEN
100
AcDbLine
 10
80.2779482298453
 20
-395.1115616859095
 30
-1.410663114728133
 11
80.31092853438016
 21
-395.0311158007091
 31
-0.4144499050851733
  0
LINE
  5
4A
330
2
100
AcDbEntity
  8
0
  6
HIDDEN
100
AcDbLine
 10
80.2779482298453
 20
-395.1115616859095
 30
-1.410663114728133
 11
80.31092853438016
 21
-395.0311158007091
 31
-0.4144499050851733
210
0.8202302445011383
220
-0.5717174623095897
230
0.0190128718474049
  0
ARC
  5
4B
330
2
100
AcDbEntity
  8
0
  6
HIDDEN
100
AcDbCircle
 10
-279.6461773743672
 20
-5.83452351716188
 30
291.2117597238426
 40
1.0
210
0.8202302445011383
220
-0.5717174623095897
230
0.0190128718474049
100
AcDbArc
 50
265.1323187457908
 51
355.1323187457906
  0
LINE
  5
4C
330
2
100
AcDbEntity
  8
0
 48
0.1
100
AcDbLine
 10
93.32636244518434
 20
-412.3917560887868
 30
0.0
 11
58.32812235263694
 21
-412.3917560887868
 31
0.0
  0
LINE
  5
4D
330
2
100
AcDbEntity
  8
0
 48
0.1
100
AcDbLine
 10
57.38741376525371
 20
-411.2784160728536
 30
0.0
 11
97.56095681053706
 21
-411.6206301621093
 31
0.0
  0
LINE
  5
4E
330
2
100
AcDbEntity
  8
0
 48
0.1
100
AcDbLine
 10
100.7732511308482
 20
-399.1417560887867
 30
0.0
 11
67.4133834054569
 21
-399.1417560887867
 31
0.0
  0
LINE
  5
4F
330
2
100
AcDbEntity
  8
0
 48
0.1
100
AcDbLine
 10
100.5151805604185
 20
-400.0317207656599
 30
0.0
 11
69.37272654181964
 21
-400.0317207656599
 31
0.0
  0
LINE
  5
50
330
2
100
AcDbEntity
  8
0
100
AcDbLine
 10
44.03009718156517
 20
-392.1417560887867
 30
0.0
 11
103.0300971815651
 21
-392.1417560887867
 31
0.0
  0
LINE
  5
51
330
2
100
AcDbEntity
  8
0
100
AcDbLine
 10
43.53009718156516
 20
-393.6417560887868
 30
0.0
 11
103.5300971815651
 21
-393.6417560887868
 31
0.0
  0
SPLINE
  5
52
330
2
100
AcDbEntity
  8
0
 48
0.1
100
AcDbSpline
210
0.0
220
0.0
230
1.0
 70
     8
 71
     3
 72
    10
 73
     6
 74
     4
 42
0.0000000001
 43
0.0000000001
 44
0.0000000001
 12
0.0
 22
1.0
 32
0.0
 40
0.0
 40
0.0
 40
0.0
 40
0.0
 40
1.245671856234941
 40
7.160156069933345
 40
11.7012495958183
 40
11.7012495958183
 40
11.7012495958183
 40
11.7012495958183
 10
59.03009718156517
 20
-404.1417560887867
 30
0.0
 10
59.03009718156517
 20
-403.7265321367085
 30
0.0
 10
60.56146110665701
 20
-401.6175068484696
 30
0.0
 10
64.36346143900212
 20
-400.0496172839718
 30
0.0
 10
67.85588717625994
 20
-400.0371399524917
 30
0.0
 10
69.37272654182208
 20
-400.0317207656599
 30
0.0
 11
59.03009718156517
 21
-404.1417560887867
 31
0.0
 11
59.58699417452783
 21
-403.0275011302405
 31
0.0
 11
64.8401613831254
 21
-400.3098996523554
 31
0.0
 11
69.37272654182208
 21
-400.0317207656599
 31
0.0
  0
SPLINE
  5
53
330
2
100
AcDbEntity
  8
0
 48
0.1
100
AcDbSpline
210
0.0
220
0.0
230
1.0
 70
     8
 71
     3
 72
    10
 73
     6
 74
     4
 42
0.0000000001
 43
0.0000000001
 44
0.0000000001
 12
0.0
 22
1.0
 32
0.0
 40
0.0
 40
0.0
 40
0.0
 40
0.0
 40
3.684777462846467
 40
8.619114169698917
 40
10.56809693002103
 40
10.56809693002103
 40
10.56809693002103
 40
10.56809693002103
 10
59.03009718156517
 20
-404.1417560887867
 30
0.0
 10
59.03009718156517
 20
-402.9134969345046
 30
0.0
 10
60.91355317288419
 20
-400.1613454382614
 30
0.0
 10
64.47747546956296
 20
-399.233896408781
 30
0.0
 10
66.76553035360637
 20
-399.1620882615968
 30
0.0
 10
67.4133834054569
 20
-399.1417560887867
 30
0.0
 11
59.03009718156517
 21
-404.1417560887867
 31
0.0
 11
60.82750595283778
 21
-400.925095295409
 31
0.0
 11
65.46715975515041
 21
-399.2454252887478
 31
0.0
 11
67.4133834054569
 21
-399.1417560887867
 31
0.0
  0
LINE
  5
54
330
2
100
AcDbEntity
  8
0
 48
0.1
100
AcDbLine
 10
47.50104267476167
 20
-393.6417560887868
 30
0.0
 11
54.67233164878002
 21
-409.4987348407259
 31
0.0
  0
ARC
  5
55
330
2
100
AcDbEntity
  8
0
100
AcDbCircle
 10
44.03009718156517
 20
-392.6417560887868
 30
0.0
 40
0.5
100
AcDbArc
 50
90.0
 51
180.0
  0
LINE
  5
56
330
2
100
AcDbEntity
  8
0
100
AcDbLine
 10
43.53009718156516
 20
-392.6417560887868
 30
0.0
 11
43.53009718156516
 21
-393.6417560887868
 31
0.0
  0
ARC
  5
57
330
2
100
AcDbEntity
  8
0
 48
0.1
100
AcDbCircle
 10
57.41296802170783
 20
-408.2785249114984
 30
0.0
 40
3.0
100
AcDbArc
 50
204.0000000000009
 51
269.5119437500272
  0
LINE
  5
58
330
2
100
AcDbEntity
  8
0
 48
0.1
100
AcDbLine
 10
57.18510102494576
 20
-411.2830814890098
 30
0.0
 11
57.41457689499434
 21
-411.7984927318626
 31
0.0
  0
ARC
  5
59
330
2
100
AcDbEntity
  8
0
 48
0.1
100
AcDbCircle
 10
58.32812235263694
 20
-411.3917560887868
 30
0.0
 40
1.0
100
AcDbArc
 50
204.0000000000009
 51
270.0
  0
LINE
  5
5A
330
2
100
AcDbEntity
  8
CENTER
 48
0.5
100
AcDbLine
 10
95.03009718156517
 20
-415.2354306863363
 30
0.0
 11
95.03009718156517
 21
-409.0265543517062
 31
0.0
  0
ARC
  5
5D
330
2
100
AcDbEntity
  8
0
 48
0.5
100
AcDbCircle
 10
93.3262756076923
 20
-411.4215565947154
 30
0.0
 40
0.9701994979575433
100
AcDbArc
 50
270.0051282454912
 51
349.457359992599
  0
ARC
  5
5E
330
2
100
AcDbEntity
  8
0
100
AcDbCircle
 10
93.94057027650744
 20
-411.881011607075
 30
0.0
 40
0.25
100
AcDbArc
 50
198.7136489003382
 51
271.0000000000001
  0
ARC
  5
5F
330
2
100
AcDbEntity
  8
0
  6
HIDDEN
100
AcDbCircle
 10
-223.4843857170454
 20
333.5879479551782
 30
-29.16782938192029
 40
0.5000000000000001
210
0.0329803045348943
220
0.0804458852003833
230
0.996213209642952
100
AcDbArc
 50
257.3684980783401
 51
77.36849807834459
  0
ARC
  5
60
330
2
100
AcDbEntity
  8
0
  6
HIDDEN
100
AcDbCircle
 10
-223.66734759391
 20
333.6289504138142
 30
-29.1678293819203
 40
0.5000000000000001
210
0.0329803045348943
220
0.0804458852003833
230
0.996213209642952
100
AcDbArc
 50
77.36849807834206
 51
257.3684980783446
  0
ARC
  5
61
330
2
100
AcDbEntity
  8
0
  6
HIDDEN
100
AcDbCircle
 10
-223.4843857170454
 20
333.5879479551782
 30
-29.16782938192029
 40
0.5000000000000001
210
0.0329803045348943
220
0.0804458852003833
230
0.996213209642952
100
AcDbArc
 50
257.3684980783401
 51
77.36849807834459
  0
ARC
  5
62
330
2
100
AcDbEntity
  8
0
  6
HIDDEN
100
AcDbCircle
 10
-223.66734759391
 20
333.6289504138142
 30
-29.1678293819203
 40
0.5000000000000001
210
0.0329803045348943
220
0.0804458852003833
230
0.996213209642952
100
AcDbArc
 50
77.36849807834206
 51
257.3684980783446
  0
LINE
  5
63
330
2
100
AcDbEntity
  8
0
  6
HIDDEN
100
AcDbLine
 10
80.19872202405133
 20
-394.3068412854956
 30
-0.0927961694437326
 11
80.04492885320741
 21
-394.1996442613125
 31
-0.096361082915119
210
0.0329803045348943
220
0.0804458852003833
230
0.996213209642952
  0
CIRCLE
  5
64
330
2
100
AcDbEntity
  8
0
  6
HIDDEN
100
AcDbCircle
 10
-223.5756227063149
 20
333.608394514547
 30
-29.16782938192164
 40
0.125
210
0.0329803045348978
220
0.0804458852003874
230
0.9962132096429517
  0
CIRCLE
  5
65
330
2
100
AcDbEntity
  8
0
  6
HIDDEN
100
AcDbCircle
 10
-223.5756227063149
 20
333.608394514547
 30
-29.16782938192164
 40
0.125
210
0.0329803045348978
220
0.0804458852003874
230
0.9962132096429517
  0
CIRCLE
  5
66
330
2
100
AcDbEntity
  8
0
  6
HIDDEN
100
AcDbCircle
 10
-223.5756227063148
 20
333.6083945145472
 30
-29.16782938192166
 40
0.234375
210
0.0329803045348977
220
0.0804458852003874
230
0.9962132096429517
  0
CIRCLE
  5
67
330
2
100
AcDbEntity
  8
0
  6
HIDDEN
100
AcDbCircle
 10
-223.5756227063148
 20
333.6083945145472
 30
-29.16782938192166
 40
0.234375
210
0.0329803045348977
220
0.0804458852003874
230
0.9962132096429517
  0
LINE
  5
68
330
2
100
AcDbEntity
  8
0
  6
HIDDEN
100
AcDbLine
 10
79.627640028609
 20
-395.1233384397127
 30
-0.0079566053418131
 11
79.47384685776507
 21
-395.0161414155296
 31
-0.0115215188132066
210
0.0329803045348943
220
0.0804458852003833
230
0.996213209642952
  0
LINE
  5
69
330
2
100
AcDbEntity
  8
0
  6
HIDDEN
100
AcDbLine
 10
79.627640028609
 20
-395.1233384397127
 30
-0.0079566053418131
 11
79.47384685776507
 21
-395.0161414155296
 31
-0.0115215188132066
210
-0.5710819954423246
220
-0.8164971542170903
230
0.0848395641019324
  0
LINE
  5
6A
330
2
100
AcDbEntity
  8
0
100
AcDbLine
 10
93.70378680775615
 20
-411.9612212631403
 30
0.0
 11
93.57908682502564
 21
-411.5930998185088
 31
0.0
  0
ARC
  5
6B
330
2
100
AcDbEntity
  8
0
100
AcDbCircle
 10
103.0300971815651
 20
-392.6417560887868
 30
0.0
 40
0.5
100
AcDbArc
 50
0.0
 51
90.0
  0
LINE
  5
6C
330
2
100
AcDbEntity
  8
CENTER
 48
0.5
100
AcDbLine
 10
103.3832422747992
 20
-396.3917560887868
 30
0.0
 11
98.46423888602508
 21
-396.3917560887868
 31
0.0
  0
LINE
  5
6D
330
2
100
AcDbEntity
  8
0
 48
0.1
100
AcDbLine
 10
100.7732511308482
 20
-399.1417560887867
 30
0.0
 11
101.074230029976
 21
-393.6417560887868
 31
0.0
  0
ARC
  5
6E
330
2
100
AcDbEntity
  8
0
 48
0.1
100
AcDbCircle
 10
97.57799298150647
 20
-409.6207027212058
 30
0.0
 40
2.0
100
AcDbArc
 50
269.5119437500272
 51
354.6101134499502
  0
LINE
  5
6F
330
2
100
AcDbEntity
  8
0
 48
0.1
100
AcDbLine
 10
93.94493337811674
 20
-412.130973530864
 30
0.0
 11
96.86972831550164
 21
-412.1310115853476
 31
0.0
  0
LINE
  5
70
330
2
100
AcDbEntity
  8
0
 48
0.1
100
AcDbLine
 10
97.10640755537419
 20
-411.9612212631403
 30
0.0
 11
97.22455591929966
 21
-411.6124405700181
 31
0.0
  0
ARC
  5
71
330
2
100
AcDbEntity
  8
0
 48
0.1
100
AcDbCircle
 10
96.8696240866229
 20
-411.881011607075
 30
0.0
 40
0.25
100
AcDbArc
 50
268.9999999999998
 51
341.2863510996617
  0
LINE
  5
72
330
2
100
AcDbEntity
  8
0
 48
0.1
100
AcDbLine
 10
99.56915010237537
 20
-409.8085678856538
 30
0.0
 11
100.5151805604185
 21
-400.0317207656599
 31
0.0
  0
SPLINE
  5
73
330
2
100
AcDbEntity
  8
0
 48
0.1
100
AcDbSpline
210
0.0
220
0.0
230
1.0
 70
     8
 71
     3
 72
     9
 73
     5
 74
     3
 42
0.0000000001
 43
0.0000000001
 44
0.0000000001
 40
0.0
 40
0.0
 40
0.0
 40
0.0
 40
0.6680957876951181
 40
0.9314730156964472
 40
0.9314730156964472
 40
0.9314730156964472
 40
0.9314730156964472
 10
100.7729322498414
 20
-399.1475832266447
 30
0.0
 10
100.7558688425939
 20
-399.3755795432272
 30
0.0
 10
100.7320786860033
 20
-399.6934567406087
 30
0.0
 10
100.5629907587061
 20
-399.9571582489593
 30
0.0
 10
100.5151805604185
 20
-400.0317207656599
 30
0.0
 11
100.7729322498414
 21
-399.1475832266447
 31
0.0
 11
100.6469946675063
 21
-399.8037018949445
 31
0.0
 11
100.5151805604185
 21
-400.0317207656599
 31
0.0
  0
LINE
  5
74
330
2
100
AcDbEntity
  8
0
100
AcDbLine
 10
103.5300971815651
 20
-392.6417560887868
 30
0.0
 11
103.5300971815651
 21
-393.6417560887868
 31
0.0
  0
XLINE
  5
124
330
2
100
AcDbEntity
  8
0
100
AcDbXline
 10
58.32812235263694
 20
-352.3917560887868
 30
0.0
 11
-1.0
 21
0.0
 31
0.0
  0
XLINE
  5
125
330
2
100
AcDbEntity
  8
0
100
AcDbXline
 10
58.32812235263694
 20
-352.3917560887868
 30
0.0
 11
-1.0
 21
0.0
 31
0.0
  0
ENDSEC
  0
SECTION
  2
OBJECTS
  0
DICTIONARY
  5
7
330
0
100
AcDbDictionary
  3
ACAD_GROUP
350
2D
  3
ACAD_LAYOUT
350
B
  3
ACAD_MLINESTYLE
350
2E
  3
ACAD_PLOTSETTINGS
350
2F
  3
ACAD_PLOTSTYLENAME
350
6
  3
ACDBHEADERROUNDTRIPXREC
350
167
  3
ACDBVARIABLEDICTIONARY
350
75
  0
DICTIONARY
  5
11
330
10
100
AcDbDictionary
280
     1
  3
ACAD_LAYERFILTERS
360
12
  0
DICTIONARY
  5
87
330
2
100
AcDbDictionary
280
     1
  3
ACAD_LAYOUTSELFREF
360
188
  0
DICTIONARY
  5
89
330
C
100
AcDbDictionary
280
     1
  3
ACAD_LAYOUTSELFREF
360
189
  0
DICTIONARY
  5
2D
102
{ACAD_REACTORS
330
7
102
}
330
7
100
AcDbDictionary
  0
DICTIONARY
  5
B
102
{ACAD_REACTORS
330
7
102
}
330
7
100
AcDbDictionary
  0
DICTIONARY
  5
2E
102
{ACAD_REACTORS
330
7
102
}
330
7
100
AcDbDictionary
  3
STANDARD
350
31
  0
DICTIONARY
  5
2F
102
{ACAD_REACTORS
330
7
102
}
330
7
100
AcDbDictionary
  0
ACDBDICTIONARYWDFLT
  5
6
102
{ACAD_REACTORS
330
7
102
}
330
7
100
AcDbDictionary
281
     1
  3
Normal
350
5
100
AcDbDictionaryWithDefault
340
5
  0
DICTIONARY
  5
167
102
{ACAD_REACTORS
330
7
102
}
330
7
100
AcDbDictionary
  3
CEPSNTYPE
350
171
  3
DIMSTYLEDATA
350
175
  3
FINGERPRINTGUID
350
172
  3
HYPERLINKBASE
350
16A
  3
INSUNITS
350
170
  3
LAYOUTDICT
350
16C
  3
LWETCUNION
350
16F
  3
PLOTSETDICT
350
16D
  3
PLOTSTYLNAMDICT
350
16E
  3
PSVPSCALE
350
174
  3
PUCSBASE
350
178
  3
PUCSORGBACK
350
17E
  3
PUCSORGBOTTOM
350
17A
  3
PUCSORGFRONT
350
17D
  3
PUCSORGLEFT
350
17B
  3
PUCSORGRIGHT
350
17C
  3
PUCSORGTOP
350
179
  3
PUCSORTHOREF
350
176
  3
PUCSORTHOVIEW
350
177
  3
STYLESHEET
350
16B
  3
TSTACKALIGN
350
168
  3
TSTACKSIZE
350
169
  3
UCSBASE
350
181
  3
UCSORGBACK
350
187
  3
UCSORGBOTTOM
350
183
  3
UCSORGFRONT
350
186
  3
UCSORGLEFT
350
184
  3
UCSORGRIGHT
350
185
  3
UCSORGTOP
350
182
  3
UCSORTHOREF
350
17F
  3
UCSORTHOVIEW
350
180
  3
VERSIONGUID
350
173
  0
DICTIONARY
  5
75
102
{ACAD_REACTORS
330
7
102
}
330
7
100
AcDbDictionary
  3
DIMASSOC
350
77
  3
HIDETEXT
350
76
  0
DICTIONARY
  5
12
102
{ACAD_REACTORS
330
11
102
}
330
11
100
AcDbDictionary
280
     1
  3
DIM-1_12
360
13
  3
DIM-1_16
360
14
  0
XRECORD
  5
188
102
{ACAD_REACTORS
330
87
102
}
330
87
100
AcDbXrecord
340
2
  0
XRECORD
  5
189
102
{ACAD_REACTORS
330
89
102
}
330
89
100
AcDbXrecord
340
C
  0
MLINESTYLE
  5
31
102
{ACAD_REACTORS
330
2E
102
}
330
2E
100
AcDbMlineStyle
  2
STANDARD
 70
     0
  3

 62
   256
 51
90.0
 52
90.0
 71
     2
 49
0.5
 62
   256
  6
BYLAYER
 49
-0.5
 62
   256
  6
BYLAYER
  0
ACDBPLACEHOLDER
  5
5
102
{ACAD_REACTORS
330
6
102
}
330
6
100
AcDbPlaceHolder
280
     0
  0
XRECORD
  5
171
102
{ACAD_REACTORS
330
167
102
}
330
167
100
AcDbXrecord
 90
        0
  0
XRECORD
  5
175
102
{ACAD_REACTORS
330
167
102
}
330
167
100
AcDbXrecord
1000
DSTYLE
1002
{
1070
    79
 70
     1
1070
   276
 70
     1
1070
   277
 70
     5
1002
}
  0
XRECORD
  5
172
102
{ACAD_REACTORS
330
167
102
}
330
167
100
AcDbXrecord
  1
{5F719058-2B28-11D4-A9E6-00A083372445}
  0
XRECORD
  5
16A
102
{ACAD_REACTORS
330
167
102
}
330
167
100
AcDbXrecord
  1

  0
XRECORD
  5
170
102
{ACAD_REACTORS
330
167
102
}
330
167
100
AcDbXrecord
 90
        1
  0
XRECORD
  5
16C
102
{ACAD_REACTORS
330
167
102
}
330
167
100
AcDbXrecord
340
B
  0
XRECORD
  5
16F
102
{ACAD_REACTORS
330
167
102
}
330
167
100
AcDbXrecord
 90
    10781
  0
XRECORD
  5
16D
102
{ACAD_REACTORS
330
167
102
}
330
167
100
AcDbXrecord
340
2F
  0
XRECORD
  5
16E
102
{ACAD_REACTORS
330
167
102
}
330
167
100
AcDbXrecord
340
6
  0
XRECORD
  5
174
102
{ACAD_REACTORS
330
167
102
}
330
167
100
AcDbXrecord
 40
0.0
  0
XRECORD
  5
178
102
{ACAD_REACTORS
330
167
102
}
330
167
100
AcDbXrecord
340
0
  0
XRECORD
  5
17E
102
{ACAD_REACTORS
330
167
102
}
330
167
100
AcDbXrecord
 10
0.0
 20
0.0
 30
0.0
  0
XRECORD
  5
17A
102
{ACAD_REACTORS
330
167
102
}
330
167
100
AcDbXrecord
 10
0.0
 20
0.0
 30
0.0
  0
XRECORD
  5
17D
102
{ACAD_REACTORS
330
167
102
}
330
167
100
AcDbXrecord
 10
0.0
 20
0.0
 30
0.0
  0
XRECORD
  5
17B
102
{ACAD_REACTORS
330
167
102
}
330
167
100
AcDbXrecord
 10
0.0
 20
0.0
 30
0.0
  0
XRECORD
  5
17C
102
{ACAD_REACTORS
330
167
102
}
330
167
100
AcDbXrecord
 10
0.0
 20
0.0
 30
0.0
  0
XRECORD
  5
179
102
{ACAD_REACTORS
330
167
102
}
330
167
100
AcDbXrecord
 10
0.0
 20
0.0
 30
0.0
  0
XRECORD
  5
176
102
{ACAD_REACTORS
330
167
102
}
330
167
100
AcDbXrecord
340
0
  0
XRECORD
  5
177
102
{ACAD_REACTORS
330
167
102
}
330
167
100
AcDbXrecord
 70
     0
  0
XRECORD
  5
16B
102
{ACAD_REACTORS
330
167
102
}
330
167
100
AcDbXrecord
  1

  0
XRECORD
  5
168
102
{ACAD_REACTORS
330
167
102
}
330
167
100
AcDbXrecord
 90
        1
  0
XRECORD
  5
169
102
{ACAD_REACTORS
330
167
102
}
330
167
100
AcDbXrecord
 90
       70
  0
XRECORD
  5
181
102
{ACAD_REACTORS
330
167
102
}
330
167
100
AcDbXrecord
340
0
  0
XRECORD
  5
187
102
{ACAD_REACTORS
330
167
102
}
330
167
100
AcDbXrecord
 10
0.0
 20
0.0
 30
0.0
  0
XRECORD
  5
183
102
{ACAD_REACTORS
330
167
102
}
330
167
100
AcDbXrecord
 10
0.0
 20
0.0
 30
0.0
  0
XRECORD
  5
186
102
{ACAD_REACTORS
330
167
102
}
330
167
100
AcDbXrecord
 10
0.0
 20
0.0
 30
0.0
  0
XRECORD
  5
184
102
{ACAD_REACTORS
330
167
102
}
330
167
100
AcDbXrecord
 10
0.0
 20
0.0
 30
0.0
  0
XRECORD
  5
185
102
{ACAD_REACTORS
330
167
102
}
330
167
100
AcDbXrecord
 10
0.0
 20
0.0
 30
0.0
  0
XRECORD
  5
182
102
{ACAD_REACTORS
330
167
102
}
330
167
100
AcDbXrecord
 10
0.0
 20
0.0
 30
0.0
  0
XRECORD
  5
17F
102
{ACAD_REACTORS
330
167
102
}
330
167
100
AcDbXrecord
340
0
  0
XRECORD
  5
180
102
{ACAD_REACTORS
330
167
102
}
330
167
100
AcDbXrecord
 70
     0
  0
XRECORD
  5
173
102
{ACAD_REACTORS
330
167
102
}
330
167
100
AcDbXrecord
  1
{A61D4C78-EA53-453B-8915-3E0AB339429D}
  0
DICTIONARYVAR
  5
77
102
{ACAD_REACTORS
330
75
102
}
330
75
100
DictionaryVariables
280
     0
  1
1
  0
DICTIONARYVAR
  5
76
102
{ACAD_REACTORS
330
75
102
}
330
75
100
DictionaryVariables
280
     0
  1
1
  0
XRECORD
  5
13
102
{ACAD_REACTORS
330
12
102
}
330
12
100
AcDbXrecord
  1
DIM-1_12
  1
DIM-1_12
  1
*
  1
*
 70
     0
  1
*
  1
*
  0
XRECORD
  5
14
102
{ACAD_REACTORS
330
12
102
}
330
12
100
AcDbXrecord
  1
dim-1_16
  1
*
  1
*
  1
*
 70
     0
  1
*
  1
*
  0
ENDSEC
  0
EOF
