  0
SECTION
  2
HEADER
  9
$ACADVER
  1
AC1015
  9
$ACADMAINTVER
 70
    20
  9
$DWGCODEPAGE
  3
ANSI_1252
  9
$INSBASE
 10
0.0
 20
0.0
 30
0.0
  9
$EXTMIN
 10
93.47509818725177
 20
20.63932321387611
 30
-0.0015258207003583
  9
$EXTMAX
 10
128.4490563501939
 20
46.74283873266318
 30
0.0000000349246037
  9
$LIMMIN
 10
0.0
 20
0.0
  9
$LIMMAX
 10
181.3333333333
 20
117.3333333333
  9
$ORTHOMODE
 70
     0
  9
$REGENMODE
 70
     1
  9
$FILLMODE
 70
     1
  9
$QTEXTMODE
 70
     0
  9
$MIRRTEXT
 70
     0
  9
$LTSCALE
 40
9.973333333300001
  9
$ATTMODE
 70
     1
  9
$TEXTSIZE
 40
0.2
  9
$TRACEWID
 40
0.05
  9
$TEXTSTYLE
  7
STANDARD
  9
$CLAYER
  8
0
  9
$CELTYPE
  6
BYLAYER
  9
$CECOLOR
 62
   256
  9
$CELTSCALE
 40
1.0
  9
$DISPSILH
 70
     0
  9
$DIMSCALE
 40
1.0
  9
$DIMASZ
 40
2.0
  9
$DIMEXO
 40
0.0625
  9
$DIMDLI
 40
6.890666666699999
  9
$DIMRND
 40
0.0
  9
$DIMDLE
 40
0.0
  9
$DIMEXE
 40
0.125
  9
$DIMTP
 40
0.001
  9
$DIMTM
 40
0.001
  9
$DIMTXT
 40
1.333333333299999
  9
$DIMCEN
 40
1.631999999999999
  9
$DIMTSZ
 40
0.0
  9
$DIMTOL
 70
     1
  9
$DIMLIM
 70
     0
  9
$DIMTIH
 70
     1
  9
$DIMTOH
 70
     1
  9
$DIMSE1
 70
     0
  9
$DIMSE2
 70
     0
  9
$DIMTAD
 70
     0
  9
$DIMZIN
 70
     0
  9
$DIMBLK
  1
_FILLED
  9
$DIMASO
 70
     1
  9
$DIMSHO
 70
     1
  9
$DIMPOST
  1

  9
$DIMAPOST
  1

  9
$DIMALT
 70
     1
  9
$DIMALTD
 70
     2
  9
$DIMALTF
 40
25.4
  9
$DIMLFAC
 40
1.0
  9
$DIMTOFL
 70
     0
  9
$DIMTVP
 40
0.0
  9
$DIMTIX
 70
     0
  9
$DIMSOXD
 70
     0
  9
$DIMSAH
 70
     0
  9
$DIMBLK1
  1

  9
$DIMBLK2
  1

  9
$DIMSTYLE
  2
STANDARD
  9
$DIMCLRD
 70
     0
  9
$DIMCLRE
 70
     0
  9
$DIMCLRT
 70
     0
  9
$DIMTFAC
 40
1.0
  9
$DIMGAP
 40
0.09
  9
$DIMJUST
 70
     0
  9
$DIMSD1
 70
     0
  9
$DIMSD2
 70
     0
  9
$DIMTOLJ
 70
     1
  9
$DIMTZIN
 70
     0
  9
$DIMALTZ
 70
     0
  9
$DIMALTTZ
 70
     0
  9
$DIMUPT
 70
     0
  9
$DIMDEC
 70
     4
  9
$DIMTDEC
 70
     4
  9
$DIMALTU
 70
     2
  9
$DIMALTTD
 70
     2
  9
$DIMTXSTY
  7
STANDARD
  9
$DIMAUNIT
 70
     0
  9
$DIMADEC
 70
     0
  9
$DIMALTRND
 40
0.0
  9
$DIMAZIN
 70
     0
  9
$DIMDSEP
 70
    46
  9
$DIMATFIT
 70
     3
  9
$DIMFRAC
 70
     0
  9
$DIMLDRBLK
  1

  9
$DIMLUNIT
 70
     2
  9
$DIMLWD
 70
    -2
  9
$DIMLWE
 70
    -2
  9
$DIMTMOVE
 70
     0
  9
$LUNITS
 70
     2
  9
$LUPREC
 70
     4
  9
$SKETCHINC
 40
0.1
  9
$FILLETRAD
 40
0.0
  9
$AUNITS
 70
     0
  9
$AUPREC
 70
     0
  9
$MENU
  1
.
  9
$ELEVATION
 40
0.0
  9
$PELEVATION
 40
0.0
  9
$THICKNESS
 40
0.0
  9
$LIMCHECK
 70
     0
  9
$CHAMFERA
 40
0.0
  9
$CHAMFERB
 40
0.0
  9
$CHAMFERC
 40
0.0
  9
$CHAMFERD
 40
0.0
  9
$SKPOLY
 70
     0
  9
$TDCREATE
 40
2459138.421157408
  9
$TDUCREATE
 40
2459138.587824075
  9
$TDUPDATE
 40
2459138.426006944
  9
$TDUUPDATE
 40
2459138.592673611
  9
$TDINDWG
 40
0.0009027778
  9
$TDUSRTIMER
 40
0.0009027778
  9
$USRTIMER
 70
     1
  9
$ANGBASE
 50
0.0
  9
$ANGDIR
 70
     0
  9
$PDMODE
 70
     3
  9
$PDSIZE
 40
0.03125
  9
$PLINEWID
 40
0.0
  9
$SPLFRAME
 70
     0
  9
$SPLINETYPE
 70
     6
  9
$SPLINESEGS
 70
     8
  9
$HANDSEED
  5
1B01
  9
$SURFTAB1
 70
     6
  9
$SURFTAB2
 70
     6
  9
$SURFTYPE
 70
     6
  9
$SURFU
 70
     6
  9
$SURFV
 70
     6
  9
$UCSBASE
  2

  9
$UCSNAME
  2

  9
$UCSORG
 10
0.0
 20
0.0
 30
0.0
  9
$UCSXDIR
 10
1.0
 20
0.0
 30
0.0
  9
$UCSYDIR
 10
0.0
 20
1.0
 30
0.0
  9
$UCSORTHOREF
  2

  9
$UCSORTHOVIEW
 70
     0
  9
$UCSORGTOP
 10
0.0
 20
0.0
 30
0.0
  9
$UCSORGBOTTOM
 10
0.0
 20
0.0
 30
0.0
  9
$UCSORGLEFT
 10
0.0
 20
0.0
 30
0.0
  9
$UCSORGRIGHT
 10
0.0
 20
0.0
 30
0.0
  9
$UCSORGFRONT
 10
0.0
 20
0.0
 30
0.0
  9
$UCSORGBACK
 10
0.0
 20
0.0
 30
0.0
  9
$PUCSBASE
  2

  9
$PUCSNAME
  2

  9
$PUCSORG
 10
0.0
 20
0.0
 30
0.0
  9
$PUCSXDIR
 10
1.0
 20
0.0
 30
0.0
  9
$PUCSYDIR
 10
0.0
 20
1.0
 30
0.0
  9
$PUCSORTHOREF
  2

  9
$PUCSORTHOVIEW
 70
     0
  9
$PUCSORGTOP
 10
0.0
 20
0.0
 30
0.0
  9
$PUCSORGBOTTOM
 10
0.0
 20
0.0
 30
0.0
  9
$PUCSORGLEFT
 10
0.0
 20
0.0
 30
0.0
  9
$PUCSORGRIGHT
 10
0.0
 20
0.0
 30
0.0
  9
$PUCSORGFRONT
 10
0.0
 20
0.0
 30
0.0
  9
$PUCSORGBACK
 10
0.0
 20
0.0
 30
0.0
  9
$USERI1
 70
     0
  9
$USERI2
 70
     0
  9
$USERI3
 70
     0
  9
$USERI4
 70
     0
  9
$USERI5
 70
     0
  9
$USERR1
 40
0.0
  9
$USERR2
 40
0.0
  9
$USERR3
 40
0.0
  9
$USERR4
 40
0.0
  9
$USERR5
 40
0.0
  9
$WORLDVIEW
 70
     1
  9
$SHADEDGE
 70
     3
  9
$SHADEDIF
 70
    70
  9
$TILEMODE
 70
     1
  9
$MAXACTVP
 70
    64
  9
$PINSBASE
 10
0.0
 20
0.0
 30
0.0
  9
$PLIMCHECK
 70
     0
  9
$PEXTMIN
 10
1.000000000000000E+20
 20
1.000000000000000E+20
 30
1.000000000000000E+20
  9
$PEXTMAX
 10
-1.000000000000000E+20
 20
-1.000000000000000E+20
 30
-1.000000000000000E+20
  9
$PLIMMIN
 10
0.0
 20
0.0
  9
$PLIMMAX
 10
12.0
 20
9.0
  9
$UNITMODE
 70
     0
  9
$VISRETAIN
 70
     1
  9
$PLINEGEN
 70
     0
  9
$PSLTSCALE
 70
     1
  9
$TREEDEPTH
 70
  3020
  9
$CMLSTYLE
  2
Standard
  9
$CMLJUST
 70
     0
  9
$CMLSCALE
 40
1.0
  9
$PROXYGRAPHICS
 70
     1
  9
$MEASUREMENT
 70
     0
  9
$CELWEIGHT
370
    -1
  9
$ENDCAPS
280
     0
  9
$JOINSTYLE
280
     0
  9
$LWDISPLAY
290
     0
  9
$INSUNITS
 70
     1
  9
$HYPERLINKBASE
  1

  9
$STYLESHEET
  1

  9
$XEDIT
290
     1
  9
$CEPSNTYPE
380
     0
  9
$PSTYLEMODE
290
     1
  9
$FINGERPRINTGUID
  2
{18327285-B6B5-9D43-B13C-6EF858950600}
  9
$VERSIONGUID
  2
{8D6F2872-3BEE-8A46-9168-C94C94CD334B}
  9
$EXTNAMES
290
     1
  9
$PSVPSCALE
 40
0.0
  9
$OLESTARTUP
290
     0
  0
ENDSEC
  0
SECTION
  2
CLASSES
  0
CLASS
  1
ACDBDICTIONARYWDFLT
  2
AcDbDictionaryWithDefault
  3
ObjectDBX Classes
 90
        0
280
     0
281
     0
  0
CLASS
  1
ACDBPLACEHOLDER
  2
AcDbPlaceHolder
  3
ObjectDBX Classes
 90
        0
280
     0
281
     0
  0
CLASS
  1
LAYOUT
  2
AcDbLayout
  3
ObjectDBX Classes
 90
        0
280
     0
281
     0
  0
CLASS
  1
MATERIAL
  2
AcDbMaterial
  3
ObjectDBX Classes
 90
     1153
280
     0
281
     0
  0
CLASS
  1
VISUALSTYLE
  2
AcDbVisualStyle
  3
ObjectDBX Classes
 90
     4095
280
     0
281
     0
  0
CLASS
  1
TABLESTYLE
  2
AcDbTableStyle
  3
ObjectDBX Classes
 90
     4095
280
     0
281
     0
  0
CLASS
  1
SCALE
  2
AcDbScale
  3
ObjectDBX Classes
 90
     1153
280
     0
281
     0
  0
CLASS
  1
MLEADERSTYLE
  2
AcDbMLeaderStyle
  3
ACDB_MLEADERSTYLE_CLASS
 90
     4095
280
     0
281
     0
  0
CLASS
  1
ACDBSECTIONVIEWSTYLE
  2
AcDbSectionViewStyle
  3
ObjectDBX Classes
 90
     1025
280
     0
281
     0
  0
CLASS
  1
ACDBDETAILVIEWSTYLE
  2
AcDbDetailViewStyle
  3
ObjectDBX Classes
 90
     1025
280
     0
281
     0
  0
CLASS
  1
CELLSTYLEMAP
  2
AcDbCellStyleMap
  3
ObjectDBX Classes
 90
     1152
280
     0
281
     0
  0
CLASS
  1
DICTIONARYVAR
  2
AcDbDictionaryVar
  3
ObjectDBX Classes
 90
        0
280
     0
281
     0
  0
CLASS
  1
EXACXREFPANELOBJECT
  2
ExAcXREFPanelObject
  3
EXAC_ESW
 90
     1025
280
     0
281
     0
  0
CLASS
  1
NPOCOLLECTION
  2
AcDbImpNonPersistentObjectsCollection
  3
ObjectDBX Classes
 90
     1153
280
     0
281
     0
  0
ENDSEC
  0
SECTION
  2
TABLES
  0
TABLE
  2
VPORT
  5
8
102
{ACAD_XDICTIONARY
360
1990
102
}
330
0
100
AcDbSymbolTable
 70
     1
  0
VPORT
  5
1F4
330
8
100
AcDbSymbolTableRecord
100
AcDbViewportTableRecord
  2
*ACTIVE
 70
     0
 10
0.0
 20
0.0
 11
1.0
 21
1.0
 12
110.9620772687228
 22
33.69108097326965
 13
0.0
 23
0.0
 14
1.0
 24
1.0
 15
0.0
 25
0.0
 16
0.0
 26
0.0
 36
1.0
 17
0.0
 27
0.0
 37
0.0
 40
26.19116022674047
 41
2.151735722284434
 42
50.0
 43
0.0
 44
0.0
 50
0.0
 51
0.0
 71
     0
 72
   100
 73
     1
 74
     1
 75
     0
 76
     0
 77
     0
 78
     0
281
     0
 65
     1
110
0.0
120
0.0
130
0.0
111
1.0
121
0.0
131
0.0
112
0.0
122
1.0
132
0.0
 79
     0
146
0.0
1001
ACAD_NAV_VCDISPLAY
1070
     3
  0
ENDTAB
  0
TABLE
  2
LTYPE
  5
5
330
0
100
AcDbSymbolTable
 70
     6
  0
LTYPE
  5
14
330
5
100
AcDbSymbolTableRecord
100
AcDbLinetypeTableRecord
  2
BYBLOCK
 70
     0
  3

 72
    65
 73
     0
 40
0.0
  0
LTYPE
  5
15
330
5
100
AcDbSymbolTableRecord
100
AcDbLinetypeTableRecord
  2
BYLAYER
 70
     0
  3

 72
    65
 73
     0
 40
0.0
  0
LTYPE
  5
16
330
5
100
AcDbSymbolTableRecord
100
AcDbLinetypeTableRecord
  2
CONTINUOUS
 70
     0
  3
Solid line
 72
    65
 73
     0
 40
0.0
  0
LTYPE
  5
1F5
330
5
100
AcDbSymbolTableRecord
100
AcDbLinetypeTableRecord
  2
CENTER
 70
     0
  3
____ _ ____ _ ____ _ ____ _ ____ _ ____ _ ____
 72
    65
 73
     4
 40
0.6
 49
0.375
 74
     0
 49
-0.075
 74
     0
 49
0.075
 74
     0
 49
-0.075
 74
     0
  0
LTYPE
  5
1F6
330
5
100
AcDbSymbolTableRecord
100
AcDbLinetypeTableRecord
  2
HIDDEN
 70
     0
  3
- - - - - - - - - - - - - - - - - - - -
 72
    65
 73
     2
 40
0.2
 49
0.1
 74
     0
 49
-0.1
 74
     0
  0
LTYPE
  5
1F7
330
5
100
AcDbSymbolTableRecord
100
AcDbLinetypeTableRecord
  2
PHANTOM
 70
     0
  3
_____ _ _ _____ _ _ _____ _ _ _____
 72
    65
 73
     6
 40
0.8
 49
0.45
 74
     0
 49
-0.05
 74
     0
 49
0.1
 74
     0
 49
-0.05
 74
     0
 49
0.1
 74
     0
 49
-0.05
 74
     0
  0
LTYPE
  5
1F8
330
5
100
AcDbSymbolTableRecord
100
AcDbLinetypeTableRecord
  2
DOT
 70
     0
  3
. . . . . . . . . . . . . . . . . . . .
 72
    65
 73
     2
 40
0.2
 49
0.1
 74
     0
 49
-0.1
 74
     0
  0
LTYPE
  5
1F9
330
5
100
AcDbSymbolTableRecord
100
AcDbLinetypeTableRecord
  2
DASHED
 70
     0
  3
- - - - - - - - - - - - - - - - - - - -
 72
    65
 73
     2
 40
0.2
 49
0.1
 74
     0
 49
-0.1
 74
     0
  0
ENDTAB
  0
TABLE
  2
LAYER
  5
2
330
0
100
AcDbSymbolTable
 70
    15
  0
LAYER
  5
10
102
{ACAD_XDICTIONARY
360
19DF
102
}
330
2
100
AcDbSymbolTableRecord
100
AcDbLayerTableRecord
  2
0
 70
     0
 62
     7
  6
CONTINUOUS
370
    -3
390
F
  0
LAYER
  5
1FA
102
{ACAD_XDICTIONARY
360
19E1
102
}
330
2
100
AcDbSymbolTableRecord
100
AcDbLayerTableRecord
  2
DEFAULT_1
 70
     0
 62
     7
  6
CENTER
370
    -3
390
F
  0
LAYER
  5
1FB
102
{ACAD_XDICTIONARY
360
19E3
102
}
330
2
100
AcDbSymbolTableRecord
100
AcDbLayerTableRecord
  2
DEFAULT_2
 70
     0
 62
     8
  6
HIDDEN
370
    -3
390
F
  0
LAYER
  5
1FC
102
{ACAD_XDICTIONARY
360
19E5
102
}
330
2
100
AcDbSymbolTableRecord
100
AcDbLayerTableRecord
  2
DEFAULT_3
 70
     0
 62
     7
  6
PHANTOM
370
    -3
390
F
  0
LAYER
  5
1FD
102
{ACAD_XDICTIONARY
360
19E7
102
}
330
2
100
AcDbSymbolTableRecord
100
AcDbLayerTableRecord
  2
1_CURVES
 70
     0
 62
     7
  6
CONTINUOUS
370
    -3
390
F
  0
LAYER
  5
1FE
102
{ACAD_XDICTIONARY
360
19E9
102
}
330
2
100
AcDbSymbolTableRecord
100
AcDbLayerTableRecord
  2
2_PLANES
 70
     0
 62
     7
  6
CONTINUOUS
370
    -3
390
F
  0
LAYER
  5
1FF
102
{ACAD_XDICTIONARY
360
19EB
102
}
330
2
100
AcDbSymbolTableRecord
100
AcDbLayerTableRecord
  2
3_POINTS
 70
     0
 62
     7
  6
CONTINUOUS
370
    -3
390
F
  0
LAYER
  5
200
102
{ACAD_XDICTIONARY
360
19ED
102
}
330
2
100
AcDbSymbolTableRecord
100
AcDbLayerTableRecord
  2
4_CSYS
 70
     0
 62
     7
  6
CONTINUOUS
370
    -3
390
F
  0
LAYER
  5
201
102
{ACAD_XDICTIONARY
360
19EF
102
}
330
2
100
AcDbSymbolTableRecord
100
AcDbLayerTableRecord
  2
5_AXIS
 70
     0
 62
     7
  6
CONTINUOUS
370
    -3
390
F
  0
LAYER
  5
202
102
{ACAD_XDICTIONARY
360
19F1
102
}
330
2
100
AcDbSymbolTableRecord
100
AcDbLayerTableRecord
  2
6_SURFACES
 70
     0
 62
     7
  6
CONTINUOUS
370
    -3
390
F
  0
LAYER
  5
203
102
{ACAD_XDICTIONARY
360
19F3
102
}
330
2
100
AcDbSymbolTableRecord
100
AcDbLayerTableRecord
  2
6_SURFACES_TOOLING
 70
     0
 62
     7
  6
CONTINUOUS
370
    -3
390
F
  0
LAYER
  5
204
102
{ACAD_XDICTIONARY
360
19F5
102
}
330
2
100
AcDbSymbolTableRecord
100
AcDbLayerTableRecord
  2
7_NOTES
 70
     0
 62
     7
  6
CONTINUOUS
370
    -3
390
F
  0
LAYER
  5
205
102
{ACAD_XDICTIONARY
360
19F7
102
}
330
2
100
AcDbSymbolTableRecord
100
AcDbLayerTableRecord
  2
8_SOLIDS
 70
     0
 62
     7
  6
CONTINUOUS
370
    -3
390
F
  0
LAYER
  5
206
102
{ACAD_XDICTIONARY
360
19F9
102
}
330
2
100
AcDbSymbolTableRecord
100
AcDbLayerTableRecord
  2
DEGAGEMENT_SERIGRAPHIE
 70
     0
 62
     7
  6
CONTINUOUS
370
    -3
390
F
  0
LAYER
  5
207
102
{ACAD_XDICTIONARY
360
19FB
102
}
330
2
100
AcDbSymbolTableRecord
100
AcDbLayerTableRecord
  2
XSEC_DATUMS
 70
     0
 62
     7
  6
CONTINUOUS
370
    -3
390
F
  0
ENDTAB
  0
TABLE
  2
STYLE
  5
3
330
0
100
AcDbSymbolTable
 70
     2
  0
STYLE
  5
11
330
3
100
AcDbSymbolTableRecord
100
AcDbTextStyleTableRecord
  2
STANDARD
 70
     0
 40
0.0
 41
1.0
 50
0.0
 71
     0
 42
0.2
  3
trium.ttf
  4

  0
STYLE
  5
208
330
3
100
AcDbSymbolTableRecord
100
AcDbTextStyleTableRecord
  2
TEXTSTYLE_1
 70
     0
 40
0.0
 41
0.8
 50
0.0
 71
     0
 42
0.2
  3
gdt
  4

  0
ENDTAB
  0
TABLE
  2
VIEW
  5
6
330
0
100
AcDbSymbolTable
 70
     0
  0
ENDTAB
  0
TABLE
  2
UCS
  5
7
330
0
100
AcDbSymbolTable
 70
     0
  0
ENDTAB
  0
TABLE
  2
APPID
  5
9
330
0
100
AcDbSymbolTable
 70
     3
  0
APPID
  5
209
330
9
100
AcDbSymbolTableRecord
100
AcDbRegAppTableRecord
  2
ACAD
 70
     0
  0
APPID
  5
19CA
330
9
100
AcDbSymbolTableRecord
100
AcDbRegAppTableRecord
  2
ACAD_MLEADERVER
 70
     0
  0
APPID
  5
19FD
330
9
100
AcDbSymbolTableRecord
100
AcDbRegAppTableRecord
  2
ACAD_NAV_VCDISPLAY
 70
     0
  0
ENDTAB
  0
TABLE
  2
DIMSTYLE
  5
A
330
0
100
AcDbSymbolTable
 70
     1
100
AcDbDimStyleTable
 71
     0
  0
DIMSTYLE
105
20D
330
A
100
AcDbSymbolTableRecord
100
AcDbDimStyleTableRecord
  2
STANDARD
 70
     0
 41
2.0
 44
0.125
 47
0.001
 48
0.001
 71
     1
 78
     4
 79
     1
140
1.333333333299999
170
     1
179
     3
271
     3
272
     3
284
     4
340
11
341
20C
342
20C
343
20C
344
20C
  0
ENDTAB
  0
TABLE
  2
BLOCK_RECORD
  5
1
330
0
100
AcDbSymbolTable
 70
     1
  0
BLOCK_RECORD
  5
20A
330
1
100
AcDbSymbolTableRecord
100
AcDbBlockTableRecord
  2
*Model_Space
340
193C
  0
BLOCK_RECORD
  5
20B
330
1
100
AcDbSymbolTableRecord
100
AcDbBlockTableRecord
  2
*Paper_Space
340
193D
  0
BLOCK_RECORD
  5
20C
330
1
100
AcDbSymbolTableRecord
100
AcDbBlockTableRecord
  2
_FILLED
340
0
  0
ENDTAB
  0
ENDSEC
  0
SECTION
  2
BLOCKS
  0
BLOCK
  5
20
330
20A
100
AcDbEntity
  8
0
100
AcDbBlockBegin
  2
*Model_Space
 70
     0
 10
0.0
 20
0.0
 30
0.0
  3
*Model_Space
  1

  0
ENDBLK
  5
21
330
20A
100
AcDbEntity
  8
0
100
AcDbBlockEnd
  0
BLOCK
  5
1C
330
20B
100
AcDbEntity
 67
     1
  8
0
100
AcDbBlockBegin
  2
*Paper_Space
 70
     0
 10
0.0
 20
0.0
 30
0.0
  3
*Paper_Space
  1

  0
ENDBLK
  5
1D
330
20B
100
AcDbEntity
 67
     1
  8
0
100
AcDbBlockEnd
  0
BLOCK
  5
20E
330
20C
100
AcDbEntity
  8
0
100
AcDbBlockBegin
  2
_FILLED
 70
     0
 10
0.0
 20
0.0
 30
0.0
  3
_FILLED
  1

  0
SOLID
  5
20F
330
20C
100
AcDbEntity
  8
0
  6
ByBlock
 62
     0
100
AcDbTrace
 10
0.0
 20
0.0
 30
0.0
 11
-1.0
 21
0.1666666667
 31
0.0
 12
-1.0
 22
-0.1666666667
 32
0.0
 13
-1.0
 23
-0.1666666667
 33
0.0
  0
ENDBLK
  5
210
330
20C
100
AcDbEntity
  8
0
  6
ByBlock
 62
     0
100
AcDbBlockEnd
  0
ENDSEC
  0
SECTION
  2
ENTITIES
  0
LINE
  5
215
330
20A
100
AcDbEntity
  8
DEFAULT_2
  6
HIDDEN
 62
     8
100
AcDbLine
 10
109.9642157343
 20
24.6106072473
 30
0.0
 11
109.9642157343
 21
22.9856072473
 31
0.0
  0
LINE
  5
216
330
20A
100
AcDbEntity
  8
DEFAULT_2
  6
HIDDEN
 62
     8
100
AcDbLine
 10
111.9642157343
 20
24.6106072473
 30
0.0
 11
111.9642157343
 21
22.9856072473
 31
0.0
  0
LWPOLYLINE
  5
17CA
330
20A
100
AcDbEntity
  8
0
  6
Continuous
 62
     7
100
AcDbPolyline
 90
        8
 70
     0
 43
0.0
 10
99.30340432500001
 20
22.263903062
 10
99.3671195906
 20
22.1817313765
 10
99.42350578999999
 20
22.1085064927
 10
99.47661175290001
 20
22.0393172864
 10
99.5273253182
 20
21.9732658891
 10
99.5773962288
 20
21.9083356332
 10
99.6290595992
 20
21.8419995512
 10
99.656849728
 20
21.8067647031
  0
LINE
  5
17CB
330
20A
100
AcDbEntity
  8
0
  6
Continuous
 62
     7
100
AcDbLine
 10
122.124300603
 20
21.7356072473
 30
0.0
 11
99.80413086570001
 21
21.7356072473
 31
0.0
  0
LINE
  5
17CC
330
20A
100
AcDbEntity
  8
DEFAULT_2
  6
HIDDEN
 62
     8
100
AcDbLine
 10
110.4917476704
 20
22.3780040731
 30
0.0
 11
110.9642157343
 21
22.3780038849
 31
0.0
  0
LINE
  5
17CD
330
20A
100
AcDbEntity
  8
DEFAULT_2
  6
HIDDEN
 62
     8
100
AcDbLine
 10
121.2499575206
 20
22.4856072473
 30
0.0
 11
120.9405230617
 21
22.4856072473
 31
0.0
  0
LINE
  5
17CE
330
20A
100
AcDbEntity
  8
DEFAULT_2
  6
HIDDEN
 62
     8
100
AcDbLine
 10
100.987908407
 20
22.4856072473
 30
0.0
 11
100.5696213604
 21
22.4856072473
 31
0.0
  0
LINE
  5
17CF
330
20A
100
AcDbEntity
  8
DEFAULT_2
  6
HIDDEN
 62
     8
100
AcDbLine
 10
110.7643278925
 20
22.4856072473
 30
0.0
 11
110.9642157343
 21
22.4856072473
 31
0.0
  0
LINE
  5
17D0
330
20A
100
AcDbEntity
  8
6_SURFACES
  6
HIDDEN
 62
     8
100
AcDbLine
 10
113.4365867967
 20
24.0795380668
 30
0.0
 11
120.3530871631
 21
24.4447166049
 31
0.0
  0
LINE
  5
17D1
330
20A
100
AcDbEntity
  8
DEFAULT_2
  6
HIDDEN
 62
     8
100
AcDbLine
 10
109.4182633291
 20
22.9856072473
 30
0.0
 11
112.5101681396
 21
22.9856072473
 31
0.0
  0
LINE
  5
17D2
330
20A
100
AcDbEntity
  8
DEFAULT_2
  6
HIDDEN
 62
     8
100
AcDbLine
 10
121.2501492661
 20
22.4856072473
 30
0.0
 11
121.2561216665
 21
22.4854644875
 31
0.0
  0
LINE
  5
17D3
330
20A
100
AcDbEntity
  8
6_SURFACES
  6
HIDDEN
 62
     8
100
AcDbLine
 10
101.575304839
 20
24.4447195961
 30
0.0
 11
108.4918532882
 21
24.0795381809
 31
0.0
  0
LINE
  5
17D4
330
20A
100
AcDbEntity
  8
DEFAULT_2
  6
HIDDEN
 62
     8
100
AcDbLine
 10
98.4548006776
 20
30.1640579022
 30
0.0
 11
98.46094078490001
 21
30.1218546864
 31
0.0
  0
LINE
  5
17D5
330
20A
100
AcDbEntity
  8
DEFAULT_2
  6
HIDDEN
 62
     8
100
AcDbLine
 10
112.9719774962
 20
25.2426272552
 30
0.0
 11
121.5886818868
 21
25.698179221
 31
0.0
  0
LWPOLYLINE
  5
17D6
330
20A
100
AcDbEntity
  8
DEFAULT_2
  6
HIDDEN
 62
     8
100
AcDbPolyline
 90
        6
 70
     0
 43
0.0
 10
120.3529272373
 20
24.4447073401
 10
120.3786472698
 20
24.4447403214
 10
120.4046232883
 20
24.4420702521
 10
120.4301790737
 20
24.4367052198
 10
120.4550358211
 20
24.4287037583
 10
120.4789223509
 20
24.4181531611
  0
LINE
  5
17D7
330
20A
100
AcDbEntity
  8
DEFAULT_2
  6
HIDDEN
 62
     8
100
AcDbLine
 10
109.6057691624
 20
24.6106072473
 30
0.0
 11
112.3226623063
 21
24.6106072473
 31
0.0
  0
LINE
  5
17D8
330
20A
100
AcDbEntity
  8
DEFAULT_2
  6
HIDDEN
 62
     8
100
AcDbLine
 10
100.339665387
 20
25.6981837627
 30
0.0
 11
108.9564539724
 21
25.2426272552
 31
0.0
  0
LWPOLYLINE
  5
17D9
330
20A
100
AcDbEntity
  8
DEFAULT_2
  6
HIDDEN
 62
     8
100
AcDbPolyline
 90
       12
 70
     0
 43
0.0
 10
108.9564488646
 20
25.2426275407
 10
108.9699464832
 20
25.2415465445
 10
108.9948406598
 20
25.237594671
 10
109.0192070395
 20
25.23115723
 10
109.0428023374
 20
25.2222988647
 10
109.0653907409
 20
25.2111070594
 10
109.0867397541
 20
25.19769553550001
 10
109.1066310042
 20
25.1822005424
 10
109.1248618675
 20
25.164779077
 10
109.1412462724
 20
25.14560803510001
 10
109.1556170443
 20
25.1248820371
 10
109.1576204889
 20
25.1216004278
  0
LINE
  5
17DA
330
20A
100
AcDbEntity
  8
DEFAULT_2
  6
HIDDEN
 62
     8
100
AcDbLine
 10
100.4869602246
 20
21.8974427043
 30
0.0
 11
100.5696213604
 21
22.4856072473
 31
0.0
  0
LINE
  5
17DB
330
20A
100
AcDbEntity
  8
DEFAULT_2
  6
HIDDEN
 62
     8
100
AcDbLine
 10
101.3147745159
 20
24.2299625876
 30
0.0
 11
101.0809936055
 21
22.5665249758
 31
0.0
  0
LWPOLYLINE
  5
17DC
330
20A
100
AcDbEntity
  8
DEFAULT_2
  6
HIDDEN
 62
     8
100
AcDbPolyline
 90
        6
 70
     0
 43
0.0
 10
101.3147578014
 20
24.2298501223
 10
101.3156030767
 20
24.2354100613
 10
101.3211580489
 20
24.2609247714
 10
101.3293441018
 20
24.2857208787
 10
101.3400719276
 20
24.3095278612
 10
101.3532244879
 20
24.3320859879
  0
LWPOLYLINE
  5
17DD
330
20A
100
AcDbEntity
  8
0
  6
Continuous
 62
     7
100
AcDbPolyline
 90
       56
 70
     0
 43
0.0
 10
127.784765679
 20
46.729202853
 10
127.7598169034
 20
46.72113853259999
 10
127.7279948871
 20
46.7110434953
 10
127.6834426877
 20
46.6971972394
 10
127.6263263471
 20
46.6798025388
 10
127.5568708652
 20
46.6590660606
 10
127.4752886078
 20
46.63518076359999
 10
127.3817928257
 20
46.60833232279999
 10
127.2765630167
 20
46.5786972363
 10
127.1597445478
 20
46.5464415181
 10
127.0314296362
 20
46.5117240225
 10
126.8916628826
 20
46.47469305729999
 10
126.7404427503
 20
46.43549043270001
 10
126.5777212324
 20
46.3942501479
 10
126.4034118143
 20
46.351099353
 10
126.2173970103
 20
46.3061618759
 10
126.0194791598
 20
46.25954508159999
 10
125.8096261025
 20
46.2113968429
 10
125.5877240306
 20
46.16184581949999
 10
125.3538292786
 20
46.1110587272
 10
125.1079770887
 20
46.0591968358
 10
124.8502220688
 20
46.00642665859999
 10
124.5806214969
 20
45.952918351
 10
124.2992276805
 20
45.8988467169
 10
124.0060760751
 20
45.8443917837
 10
123.7011897279
 20
45.78973862939999
 10
123.3846259382
 20
45.73507265359999
 10
123.0566360789
 20
45.6805938247
 10
122.7175581817
 20
45.6264939642
 10
122.3679082668
 20
45.57298211129999
 10
122.0081837657
 20
45.52026815109999
 10
121.6388766486
 20
45.4685658475
 10
121.2606636548
 20
45.4180994622
 10
120.8740365501
 20
45.3690370156
 10
120.479844667
 20
45.32156261519999
 10
120.0784962796
 20
45.2757914913
 10
119.6705144521
 20
45.2318522397
 10
119.2564207972
 20
45.1898626606
 10
118.8368769309
 20
45.1499337421
 10
118.4123968805
 20
45.1121406139
 10
117.983831473
 20
45.0765710937
 10
117.5510199865
 20
45.0432204511
 10
117.1140528383
 20
45.0121095392
 10
116.6726789247
 20
44.9832394694
 10
116.2266711095
 20
44.95661856699999
 10
115.7757795922
 20
44.9322534895
 10
115.3197398781
 20
44.9101456217
 10
114.8582626856
 20
44.8902910322
 10
114.3910033932
 20
44.87268666729999
 10
113.9175535404
 20
44.8573412103
 10
113.4374709014
 20
44.8442809825
 10
112.9502859475
 20
44.8335445434
 10
112.4555408077
 20
44.82517214069999
 10
111.9527758327
 20
44.81919992069999
 10
111.4408591318
 20
44.81565880409999
 10
110.9642157343
 20
44.8145902763
  0
LINE
  5
17DE
330
20A
100
AcDbEntity
  8
DEFAULT_2
  6
HIDDEN
 62
     8
100
AcDbLine
 10
108.6895305132
 20
23.9640828208
 30
0.0
 11
108.6929704444
 21
23.9585160638
 31
0.0
  0
LINE
  5
17DF
330
20A
100
AcDbEntity
  8
DEFAULT_2
  6
HIDDEN
 62
     8
100
AcDbLine
 10
109.2130054624
 20
23.0917910339
 30
0.0
 11
108.6625883953
 21
24.0091528124
 31
0.0
  0
LINE
  5
17E0
330
20A
100
AcDbEntity
  8
DEFAULT_2
  6
HIDDEN
 62
     8
100
AcDbLine
 10
109.3913900977
 20
24.7319833084
 30
0.0
 11
109.1576310029
 21
25.1215817998
 31
0.0
  0
LWPOLYLINE
  5
17E1
330
20A
100
AcDbEntity
  8
DEFAULT_2
  6
HIDDEN
 62
     8
100
AcDbPolyline
 90
        6
 70
     0
 43
0.0
 10
120.4789223509
 20
24.4181531611
 10
120.5015780518
 20
24.4051685377
 10
120.5227557454
 20
24.389891553
 10
120.5422243796
 20
24.3724888811
 10
120.5597715486
 20
24.3531503877
 10
120.5752058092
 20
24.3320870599
  0
LINE
  5
17E2
330
20A
100
AcDbEntity
  8
DEFAULT_2
  6
HIDDEN
 62
     8
100
AcDbLine
 10
108.9642157343
 20
42.70730583379999
 30
0.0
 11
108.9642157343
 21
42.7310413659
 31
0.0
  0
LINE
  5
17E3
330
20A
100
AcDbEntity
  8
DEFAULT_2
  6
HIDDEN
 62
     8
100
AcDbLine
 10
109.2454657343
 20
42.7385367971
 30
0.0
 11
109.2454657343
 21
42.70730583379999
 31
0.0
  0
LINE
  5
17E4
330
20A
100
AcDbEntity
  8
DEFAULT_2
  6
HIDDEN
 62
     8
100
AcDbLine
 10
109.3079657343
 20
42.7385367971
 30
0.0
 11
109.3079657343
 21
42.70730583379999
 31
0.0
  0
LINE
  5
17E5
330
20A
100
AcDbEntity
  8
DEFAULT_2
  6
HIDDEN
 62
     8
100
AcDbLine
 10
109.4017157343
 20
42.692037304
 30
0.0
 11
109.4017157343
 21
42.81386693099999
 31
0.0
  0
LINE
  5
17E6
330
20A
100
AcDbEntity
  8
DEFAULT_2
  6
HIDDEN
 62
     8
100
AcDbLine
 10
109.6517157343
 20
42.8085893644
 30
0.0
 11
109.6517157343
 21
42.69312791329999
 31
0.0
  0
LINE
  5
17E7
330
20A
100
AcDbEntity
  8
DEFAULT_2
  6
HIDDEN
 62
     8
100
AcDbLine
 10
109.9642157343
 20
22.9856072473
 30
0.0
 11
109.9642157343
 21
23.3601072473
 31
0.0
  0
LINE
  5
17E8
330
20A
100
AcDbEntity
  8
DEFAULT_2
  6
HIDDEN
 62
     8
100
AcDbLine
 10
109.9642157343
 20
24.2361072473
 30
0.0
 11
109.9642157343
 21
24.6106072473
 31
0.0
  0
LWPOLYLINE
  5
17E9
330
20A
100
AcDbEntity
  8
DEFAULT_2
  6
HIDDEN
 62
     8
100
AcDbPolyline
 90
        5
 70
     0
 43
0.0
 10
101.3532244879
 20
24.3320859879
 10
101.3686582907
 20
24.35314915260001
 10
101.3862049554
 20
24.3724875593
 10
101.4056730503
 20
24.3898902286
 10
101.4268501814
 20
24.4051673008
  0
LINE
  5
17EA
330
20A
100
AcDbEntity
  8
DEFAULT_2
  6
HIDDEN
 62
     8
100
AcDbLine
 10
125.5060181501
 20
35.2322905774
 30
0.0
 11
124.232088575
 21
35.1878039767
 31
0.0
  0
LINE
  5
17EB
330
20A
100
AcDbEntity
  8
0
  6
Continuous
 62
     7
100
AcDbLine
 10
110.9642157343
 20
44.8145902763
 30
0.0
 11
110.9642157343
 21
44.8137110924
 31
0.0
  0
LINE
  5
17EC
330
20A
100
AcDbEntity
  8
6_SURFACES
  6
CENTER
 62
     7
100
AcDbLine
 10
110.9642157343
 20
26.3249082174
 30
0.0
 11
110.9642157343
 21
20.6400143054
 31
0.0
  0
LINE
  5
17ED
330
20A
100
AcDbEntity
  8
DEFAULT_2
  6
HIDDEN
 62
     8
100
AcDbLine
 10
97.6963428936
 20
35.1878039767
 30
0.0
 11
96.42241331860001
 21
35.2322905774
 31
0.0
  0
LINE
  5
17EE
330
20A
100
AcDbEntity
  8
DEFAULT_2
  6
HIDDEN
 62
     8
100
AcDbLine
 10
111.9642157343
 20
22.9856072473
 30
0.0
 11
111.9642157343
 21
23.3601072473
 31
0.0
  0
LINE
  5
17EF
330
20A
100
AcDbEntity
  8
DEFAULT_2
  6
HIDDEN
 62
     8
100
AcDbLine
 10
111.9642157343
 20
24.2361072473
 30
0.0
 11
111.9642157343
 21
24.6106072473
 31
0.0
  0
LINE
  5
17F0
330
20A
100
AcDbEntity
  8
DEFAULT_2
  6
HIDDEN
 62
     8
100
AcDbLine
 10
112.2767157343
 20
42.69312791329999
 30
0.0
 11
112.2767157343
 21
42.8085893644
 31
0.0
  0
LINE
  5
17F1
330
20A
100
AcDbEntity
  8
DEFAULT_2
  6
HIDDEN
 62
     8
100
AcDbLine
 10
112.5267157343
 20
42.692037304
 30
0.0
 11
112.5267157343
 21
42.81386693099999
 31
0.0
  0
LINE
  5
17F2
330
20A
100
AcDbEntity
  8
DEFAULT_2
  6
HIDDEN
 62
     8
100
AcDbLine
 10
112.6204657343
 20
42.70730583379999
 30
0.0
 11
112.6204657343
 21
42.7385367971
 31
0.0
  0
LINE
  5
17F3
330
20A
100
AcDbEntity
  8
DEFAULT_2
  6
HIDDEN
 62
     8
100
AcDbLine
 10
112.6829657343
 20
42.70730583379999
 30
0.0
 11
112.6829657343
 21
42.7385367971
 31
0.0
  0
LINE
  5
17F4
330
20A
100
AcDbEntity
  8
DEFAULT_2
  6
HIDDEN
 62
     8
100
AcDbLine
 10
112.9642157343
 20
42.7310413659
 30
0.0
 11
112.9642157343
 21
42.70730583379999
 31
0.0
  0
LWPOLYLINE
  5
17F5
330
20A
100
AcDbEntity
  8
DEFAULT_2
  6
HIDDEN
 62
     8
100
AcDbPolyline
 90
        7
 70
     0
 43
0.0
 10
101.4268501814
 20
24.4051673008
 10
101.4495053104
 20
24.41815210630001
 10
101.4733912699
 20
24.428702982
 10
101.4982474551
 20
24.4367048177
 10
101.523802714
 20
24.4420703243
 10
101.5497782709
 20
24.4447409645
 10
101.5755042763
 20
24.44470829530001
  0
LWPOLYLINE
  5
17F6
330
20A
100
AcDbEntity
  8
DEFAULT_2
  6
HIDDEN
 62
     8
100
AcDbPolyline
 90
        6
 70
     0
 43
0.0
 10
120.5752058092
 20
24.3320870599
 10
120.588358771
 20
24.3095287027
 10
120.5990869332
 20
24.2857214325
 10
120.6072732504
 20
24.2609249915
 10
120.6128284095
 20
24.2354099139
 10
120.6136738136
 20
24.2298491871
  0
LINE
  5
17F7
330
20A
100
AcDbEntity
  8
DEFAULT_2
  6
HIDDEN
 62
     8
100
AcDbLine
 10
112.7708004658
 20
25.1215817998
 30
0.0
 11
112.537041371
 21
24.7319833084
 31
0.0
  0
LWPOLYLINE
  5
17F8
330
20A
100
AcDbEntity
  8
DEFAULT_2
  6
HIDDEN
 62
     8
100
AcDbPolyline
 90
       12
 70
     0
 43
0.0
 10
112.7708109798
 20
25.1216004279
 10
112.7745284718
 20
25.1276024871
 10
112.7889656915
 20
25.1478903072
 10
112.8053478772
 20
25.1666396354
 10
112.8235120619
 20
25.1836649961
 10
112.8432774921
 20
25.1987979337
 10
112.8644478928
 20
25.2118890677
 10
112.8868121008
 20
25.2228088045
 10
112.9101455466
 20
25.2314490286
 10
112.9342212514
 20
25.2377267908
 10
112.9588052498
 20
25.2415807347
 10
112.9719826038
 20
25.2426275398
  0
LINE
  5
17F9
330
20A
100
AcDbEntity
  8
0
  6
Continuous
 62
     7
100
AcDbLine
 10
94.16861449770001
 20
46.72113855430001
 30
0.0
 11
94.14366571059998
 21
46.7292028793
 31
0.0
  0
LINE
  5
17FA
330
20A
100
AcDbEntity
  8
DEFAULT_2
  6
HIDDEN
 62
     8
100
AcDbLine
 10
113.2658302614
 20
24.0091314591
 30
0.0
 11
112.7154260063
 21
23.0917910338
 31
0.0
  0
LINE
  5
17FB
330
20A
100
AcDbEntity
  8
DEFAULT_2
  6
HIDDEN
 62
     8
100
AcDbLine
 10
113.239377604
 20
23.9648290827
 30
0.0
 11
113.2354604978
 21
23.9585151863
 31
0.0
  0
LWPOLYLINE
  5
17FC
330
20A
100
AcDbEntity
  8
DEFAULT_2
  6
HIDDEN
 62
     8
100
AcDbPolyline
 90
        4
 70
     0
 43
0.0
 10
113.239377604
 20
23.9648290827
 10
113.2433325898
 20
23.9708071067
 10
113.2473816884
 20
23.9765649362
 10
113.2515696019
 20
23.9821782638
  0
LWPOLYLINE
  5
17FD
330
20A
100
AcDbEntity
  8
DEFAULT_2
  6
HIDDEN
 62
     8
100
AcDbPolyline
 90
        5
 70
     0
 43
0.0
 10
113.2515696019
 20
23.9821782638
 10
113.2558894451
 20
23.9876429949
 10
113.2603341636
 20
23.992955386
 10
113.2648965527
 20
23.998112051
 10
113.2695692767
 20
24.003109966
  0
LWPOLYLINE
  5
17FE
330
20A
100
AcDbEntity
  8
0
  6
Continuous
 62
     7
100
AcDbPolyline
 90
        4
 70
     0
 43
0.0
 10
127.7988207399
 20
46.7329906891
 10
127.7961842353
 20
46.73241290029999
 10
127.7940939075
 20
46.7319121708
 10
127.7925875896
 20
46.7315276927
  0
LINE
  5
17FF
330
20A
100
AcDbEntity
  8
DEFAULT_2
  6
HIDDEN
 62
     8
100
AcDbLine
 10
112.5267157343
 20
42.692037304
 30
0.0
 11
109.4017157343
 21
42.692037304
 31
0.0
  0
LINE
  5
1800
330
20A
100
AcDbEntity
  8
DEFAULT_2
  6
HIDDEN
 62
     8
100
AcDbLine
 10
112.2767157343
 20
42.69312791329999
 30
0.0
 11
109.6517157343
 21
42.69312791329999
 31
0.0
  0
LINE
  5
1801
330
20A
100
AcDbEntity
  8
DEFAULT_2
  6
HIDDEN
 62
     8
100
AcDbLine
 10
112.2767157343
 20
42.69530913179999
 30
0.0
 11
109.6517157343
 21
42.69530913179999
 31
0.0
  0
LINE
  5
1802
330
20A
100
AcDbEntity
  8
DEFAULT_2
  6
HIDDEN
 62
     8
100
AcDbLine
 10
112.2767157343
 20
42.6974903504
 30
0.0
 11
109.6517157343
 21
42.6974903504
 31
0.0
  0
LINE
  5
1803
330
20A
100
AcDbEntity
  8
DEFAULT_2
  6
HIDDEN
 62
     8
100
AcDbLine
 10
112.5267157343
 20
42.7157728361
 30
0.0
 11
109.4017157343
 21
42.7157728361
 31
0.0
  0
LINE
  5
1804
330
20A
100
AcDbEntity
  8
DEFAULT_2
  6
HIDDEN
 62
     8
100
AcDbLine
 10
112.2767157343
 20
42.7171213172
 30
0.0
 11
109.6517157343
 21
42.7171213172
 31
0.0
  0
LINE
  5
1805
330
20A
100
AcDbEntity
  8
DEFAULT_2
  6
HIDDEN
 62
     8
100
AcDbLine
 10
112.2767157343
 20
42.71930253579999
 30
0.0
 11
109.6517157343
 21
42.71930253579999
 31
0.0
  0
LINE
  5
1806
330
20A
100
AcDbEntity
  8
DEFAULT_2
  6
HIDDEN
 62
     8
100
AcDbLine
 10
112.2767157343
 20
42.72148375429999
 30
0.0
 11
109.6517157343
 21
42.72148375429999
 31
0.0
  0
LINE
  5
1807
330
20A
100
AcDbEntity
  8
DEFAULT_2
  6
HIDDEN
 62
     8
100
AcDbLine
 10
109.4017157343
 20
42.7225743636
 30
0.0
 11
112.5267157343
 21
42.7225743636
 31
0.0
  0
LINE
  5
1808
330
20A
100
AcDbEntity
  8
DEFAULT_2
  6
HIDDEN
 62
     8
100
AcDbLine
 10
112.2767157343
 20
42.7243588766
 30
0.0
 11
109.6517157343
 21
42.7243588766
 31
0.0
  0
LINE
  5
1809
330
20A
100
AcDbEntity
  8
DEFAULT_2
  6
HIDDEN
 62
     8
100
AcDbLine
 10
112.2767157343
 20
42.7265400952
 30
0.0
 11
109.6517157343
 21
42.7265400952
 31
0.0
  0
LINE
  5
180A
330
20A
100
AcDbEntity
  8
DEFAULT_2
  6
HIDDEN
 62
     8
100
AcDbLine
 10
109.4017157343
 20
42.74630989579999
 30
0.0
 11
112.5267157343
 21
42.74630989579999
 31
0.0
  0
LINE
  5
180B
330
20A
100
AcDbEntity
  8
DEFAULT_2
  6
HIDDEN
 62
     8
100
AcDbLine
 10
112.2767157343
 20
42.7505334991
 30
0.0
 11
109.6517157343
 21
42.7505334991
 31
0.0
  0
LINE
  5
180C
330
20A
100
AcDbEntity
  8
DEFAULT_2
  6
HIDDEN
 62
     8
100
AcDbLine
 10
112.2767157343
 20
42.75271471769999
 30
0.0
 11
109.6517157343
 21
42.75271471769999
 31
0.0
  0
LINE
  5
180D
330
20A
100
AcDbEntity
  8
DEFAULT_2
  6
HIDDEN
 62
     8
100
AcDbLine
 10
109.6517157343
 20
42.7566994859
 30
0.0
 11
112.2767157343
 21
42.7566994859
 31
0.0
  0
LINE
  5
180E
330
20A
100
AcDbEntity
  8
DEFAULT_2
  6
HIDDEN
 62
     8
100
AcDbLine
 10
112.2767157343
 20
42.7644733434
 30
0.0
 11
109.6517157343
 21
42.7644733434
 31
0.0
  0
LINE
  5
180F
330
20A
100
AcDbEntity
  8
DEFAULT_2
  6
HIDDEN
 62
     8
100
AcDbLine
 10
109.6517157343
 20
42.7775606547
 30
0.0
 11
112.2767157343
 21
42.7775606547
 31
0.0
  0
LINE
  5
1810
330
20A
100
AcDbEntity
  8
DEFAULT_2
  6
HIDDEN
 62
     8
100
AcDbLine
 10
112.2767157343
 20
42.78287410839999
 30
0.0
 11
109.6517157343
 21
42.78287410839999
 31
0.0
  0
LINE
  5
1811
330
20A
100
AcDbEntity
  8
DEFAULT_2
  6
HIDDEN
 62
     8
100
AcDbLine
 10
112.5267157343
 20
42.7881731588
 30
0.0
 11
109.4017157343
 21
42.7881731588
 31
0.0
  0
LINE
  5
1812
330
20A
100
AcDbEntity
  8
DEFAULT_2
  6
HIDDEN
 62
     8
100
AcDbLine
 10
112.2767157343
 20
42.7934080833
 30
0.0
 11
109.6517157343
 21
42.7934080833
 31
0.0
  0
LINE
  5
1813
330
20A
100
AcDbEntity
  8
DEFAULT_2
  6
HIDDEN
 62
     8
100
AcDbLine
 10
112.2767157343
 20
42.79342635849999
 30
0.0
 11
109.6517157343
 21
42.79342635849999
 31
0.0
  0
LINE
  5
1814
330
20A
100
AcDbEntity
  8
DEFAULT_2
  6
HIDDEN
 62
     8
100
AcDbLine
 10
109.6517157343
 20
42.8085893644
 30
0.0
 11
112.2767157343
 21
42.8085893644
 31
0.0
  0
LINE
  5
1815
330
20A
100
AcDbEntity
  8
DEFAULT_2
  6
HIDDEN
 62
     8
100
AcDbLine
 10
109.4017157343
 20
42.8138242889
 30
0.0
 11
112.5267157343
 21
42.8138242889
 31
0.0
  0
LINE
  5
1816
330
20A
100
AcDbEntity
  8
DEFAULT_2
  6
HIDDEN
 62
     8
100
AcDbLine
 10
109.4017157343
 20
42.81386693099999
 30
0.0
 11
112.5267157343
 21
42.81386693099999
 31
0.0
  0
LWPOLYLINE
  5
1817
330
20A
100
AcDbEntity
  8
0
  6
Continuous
 62
     7
100
AcDbPolyline
 90
        6
 70
     0
 43
0.0
 10
94.13371223490001
 20
46.7320659477
 10
94.1321760187
 20
46.7324292922
 10
94.12998292280001
 20
46.73291273149999
 10
94.12713818230001
 20
46.733478713
 10
94.1235976405
 20
46.7340880297
 10
94.11925789360001
 20
46.73469311029999
  0
LWPOLYLINE
  5
1818
330
20A
100
AcDbEntity
  8
DEFAULT_2
  6
HIDDEN
 62
     8
100
AcDbPolyline
 90
       36
 70
     0
 43
0.0
 10
113.2695692767
 20
24.003109966
 10
113.2743448883
 20
24.0079464724
 10
113.2792158475
 20
24.0126192798
 10
113.2841745409
 20
24.0171264672
 10
113.2892133003
 20
24.0214664823
 10
113.2943244215
 20
24.0256381414
 10
113.2995001842
 20
24.0296406274
 10
113.3047328629
 20
24.0334734819
 10
113.3100147729
 20
24.0371366211
 10
113.3153382776
 20
24.0406303195
 10
113.3206957239
 20
24.0439551535
 10
113.3260795444
 20
24.0471120545
 10
113.3314822419
 20
24.0501022812
 10
113.3368964148
 20
24.0529274176
 10
113.3423147834
 20
24.0555893695
 10
113.3477301874
 20
24.0580903449
 10
113.3531356053
 20
24.0604328465
 10
113.3585241668
 20
24.0626196599
 10
113.3638891368
 20
24.0646538307
 10
113.3692240378
 20
24.0665386931
 10
113.3745222213
 20
24.0682777066
 10
113.3797784159
 20
24.0698749348
 10
113.3849830729
 20
24.0713333684
 10
113.3901280777
 20
24.0726568275
 10
113.3952046967
 20
24.0738493262
 10
113.4002045384
 20
24.0749153261
 10
113.4051194342
 20
24.075859667
 10
113.4099593016
 20
24.0766904194
 10
113.4146625463
 20
24.0774043792
 10
113.4192084924
 20
24.0780077655
 10
113.4234830153
 20
24.078497933
 10
113.4274021131
 20
24.0788819623
 10
113.4308522396
 20
24.0791684723
 10
113.4336688605
 20
24.0793666449
 10
113.4359191975
 20
24.0795018814
 10
113.4365869762
 20
24.0795380545
  0
LWPOLYLINE
  5
1819
330
20A
100
AcDbEntity
  8
0
  6
Continuous
 62
     7
100
AcDbPolyline
 90
        5
 70
     0
 43
0.0
 10
127.8168186713
 20
46.7353853517
 10
127.8112434819
 20
46.73492733329999
 10
127.8063293983
 20
46.73431407909999
 10
127.8021440503
 20
46.7336347006
 10
127.7988207399
 20
46.7329906891
  0
LWPOLYLINE
  5
181A
330
20A
100
AcDbEntity
  8
0
  6
Continuous
 62
     7
100
AcDbPolyline
 90
       55
 70
     0
 43
0.0
 10
110.9642157343
 20
44.8145902763
 10
110.4875723117
 20
44.81565880419999
 10
109.9756555864
 20
44.81919992109999
 10
109.4728905878
 20
44.8251721418
 10
108.9781454251
 20
44.8335445452
 10
108.490960449
 20
44.84428098539999
 10
108.0108777884
 20
44.8573412145
 10
107.5374279144
 20
44.872686673
 10
107.0701686012
 20
44.8902910395
 10
106.6086913885
 20
44.91014563100001
 10
106.1526516545
 20
44.9322535009
 10
105.7017601177
 20
44.9566185808
 10
105.2557522834
 20
44.98323948569999
 10
104.8143783509
 20
45.01210955829999
 10
104.3774111842
 20
45.04322047319999
 10
103.9445996794
 20
45.07657111899999
 10
103.5160342541
 20
45.1121406426
 10
103.0915541866
 20
45.14993377449999
 10
102.6720103042
 20
45.1898626967
 10
102.2579166344
 20
45.23185227969999
 10
101.849934793
 20
45.2757915352
 10
101.4485863928
 20
45.3215626631
 10
101.0543944982
 20
45.3690370675
 10
100.6677673833
 20
45.41809951829999
 10
100.2895543807
 20
45.4685659075
 10
99.9202472566
 20
45.5202682151
 10
99.56052275020001
 20
45.57298217899999
 10
99.21087283150001
 20
45.6264940354
 10
98.87179493239999
 20
45.6805938992
 10
98.543805073
 20
45.73507273109999
 10
98.2272412848
 20
45.7897387096
 10
97.92235494049998
 20
45.8443918664
 10
97.62920333910001
 20
45.8988468018
 10
97.34780952790002
 20
45.9529184377
 10
97.0782089623
 20
46.0064267468
 10
96.8204539499
 20
46.0591969252
 10
96.5746017686
 20
46.1110588174
 10
96.34070702629999
 20
46.1618459102
 10
96.11880496520001
 20
46.21139693369999
 10
95.90895191979999
 20
46.2595451721
 10
95.71103408209998
 20
46.3061619657
 10
95.5250192917
 20
46.35109944169999
 10
95.35070988820001
 20
46.3942502351
 10
95.187988386
 20
46.43549051789999
 10
95.03676827059999
 20
46.47469314
 10
94.8970015353
 20
46.511724102
 10
94.76868664340001
 20
46.5464415939
 10
94.65186819569998
 20
46.5786973077
 10
94.54663840930001
 20
46.6083323893
 10
94.45314265090001
 20
46.63518082449999
 10
94.37156041860001
 20
46.6590661153
 10
94.30210496309999
 20
46.6798025866
 10
94.2449886506
 20
46.69719727949999
 10
94.2004364866
 20
46.7110435251
 10
94.16861449770001
 20
46.72113855430001
  0
LINE
  5
181B
330
20A
100
AcDbEntity
  8
0
  6
Continuous
 62
     7
100
AcDbLine
 10
94.11925789360001
 20
46.73469311029999
 30
0.0
 11
94.1143038871
 21
46.735195631
 31
0.0
  0
LINE
  5
181C
330
20A
100
AcDbEntity
  8
DEFAULT_2
  6
HIDDEN
 62
     8
100
AcDbLine
 10
120.6136573258
 20
24.2299599335
 30
0.0
 11
120.8474378632
 21
22.5665249758
 31
0.0
  0
LINE
  5
181D
330
20A
100
AcDbEntity
  8
DEFAULT_2
  6
HIDDEN
 62
     8
100
AcDbLine
 10
121.4414712441
 20
21.8974427043
 30
0.0
 11
121.3739327747
 21
22.3780038849
 31
0.0
  0
LWPOLYLINE
  5
181E
330
20A
100
AcDbEntity
  8
0
  6
Continuous
 62
     7
100
AcDbPolyline
 90
        3
 70
     0
 43
0.0
 10
127.8242635615
 20
46.73560724729999
 10
127.8230015365
 20
46.73560087649999
 10
127.8168186713
 20
46.7353853517
  0
LINE
  5
181F
330
20A
100
AcDbEntity
  8
0
  6
Continuous
 62
     7
100
AcDbLine
 10
128.3222202829
 20
46.73560724729999
 30
0.0
 11
127.824263433
 21
46.73560724729999
 31
0.0
  0
LINE
  5
1820
330
20A
100
AcDbEntity
  8
0
  6
Continuous
 62
     7
100
AcDbLine
 10
94.10416803569999
 20
46.73560724729999
 30
0.0
 11
93.60621118579999
 21
46.73560724729999
 31
0.0
  0
LWPOLYLINE
  5
1821
330
20A
100
AcDbEntity
  8
0
  6
Continuous
 62
     7
100
AcDbPolyline
 90
        3
 70
     0
 43
0.0
 10
94.1143038871
 20
46.735195631
 10
94.10887383370001
 20
46.7355186355
 10
94.1041679095
 20
46.73560724729999
  0
LINE
  5
1822
330
20A
100
AcDbEntity
  8
DEFAULT_2
  6
HIDDEN
 62
     8
100
AcDbLine
 10
123.4736307911
 20
30.1640579022
 30
0.0
 11
123.4674906837
 21
30.1218546864
 31
0.0
  0
LWPOLYLINE
  5
1823
330
20A
100
AcDbEntity
  8
DEFAULT_2
  6
HIDDEN
 62
     8
100
AcDbPolyline
 90
        5
 70
     0
 43
0.0
 10
122.9631999769
 20
26.9412339138
 10
123.0930998449
 20
27.712852611
 10
123.2627066806
 20
28.7669054394
 10
123.4314780688
 20
29.8762877248
 10
123.4674906837
 20
30.1218546864
  0
LWPOLYLINE
  5
1824
330
20A
100
AcDbEntity
  8
0
  6
Continuous
 62
     7
100
AcDbPolyline
 90
        3
 70
     0
 43
0.0
 10
122.5052849689
 20
22.1089741057
 10
122.5615876143
 20
22.1820884754
 10
122.6250271437
 20
22.2639030619
  0
LWPOLYLINE
  5
1825
330
20A
100
AcDbEntity
  8
0
  6
Continuous
 62
     7
100
AcDbPolyline
 90
        5
 70
     0
 43
0.0
 10
122.2715817332
 20
21.8067647032
 10
122.2995709423
 20
21.8422533007
 10
122.3513671737
 20
21.9087644505
 10
122.4015007179
 20
21.9737790628
 10
122.5052849689
 20
22.1089741057
  0
ARC
  5
184B
330
20A
100
AcDbEntity
  8
0
  6
Continuous
 62
     7
100
AcDbCircle
 10
99.69783327360001
 20
22.5711908821
 30
0.0
 40
0.5
100
AcDbArc
 50
199.3969091514
 51
217.9210921063
  0
ARC
  5
184C
330
20A
100
AcDbEntity
  8
0
  6
Continuous
 62
     7
100
AcDbCircle
 10
99.61484027590001
 20
22.6152358853
 30
0.0
 40
0.4350888075000001
100
AcDbArc
 50
199.5772363646
 51
221.0564879115
  0
ARC
  5
184D
330
20A
100
AcDbEntity
  8
DEFAULT_2
  6
HIDDEN
 62
     8
100
AcDbCircle
 10
109.6057633291
 20
24.8606072473
 30
0.0
 40
0.25
100
AcDbArc
 50
210.9637565321
 51
270.0
  0
ARC
  5
184E
330
20A
100
AcDbEntity
  8
DEFAULT_2
  6
HIDDEN
 62
     8
100
AcDbCircle
 10
108.478597213
 20
23.8298921249
 30
0.0
 40
0.25
100
AcDbArc
 50
32.4635382185
 51
86.9769762059
  0
ARC
  5
184F
330
20A
100
AcDbEntity
  8
DEFAULT_2
  6
HIDDEN
 62
     8
100
AcDbCircle
 10
109.4182633291
 20
23.2356072473
 30
0.0
 40
0.25
100
AcDbArc
 50
210.9637565321
 51
270.0
  0
ARC
  5
1850
330
20A
100
AcDbEntity
  8
DEFAULT_2
  6
HIDDEN
 62
     8
100
AcDbCircle
 10
100.3007898276
 20
21.9236072473
 30
0.0
 40
0.188
100
AcDbArc
 50
270.0
 51
352.0
  0
ARC
  5
1851
330
20A
100
AcDbEntity
  8
0
  6
Continuous
 62
     7
100
AcDbCircle
 10
99.8041308702
 20
21.9236072473
 30
0.0
 40
0.188
100
AcDbArc
 50
218.4259730153
 51
270.0
  0
ARC
  5
1852
330
20A
100
AcDbEntity
  8
0
  6
Continuous
 62
     7
100
AcDbCircle
 10
99.80538323659999
 20
21.9234623661
 30
0.0
 40
0.1878551193
100
AcDbArc
 50
218.3950436534
 51
269.99608345
  0
ARC
  5
1853
330
20A
100
AcDbEntity
  8
DEFAULT_2
  6
HIDDEN
 62
     8
100
AcDbCircle
 10
97.69110809930001
 20
35.0378953481
 30
0.0
 40
0.15
100
AcDbArc
 50
6.058456567899999
 51
88.00000001799999
  0
ARC
  5
1854
330
20A
100
AcDbEntity
  8
DEFAULT_2
  6
HIDDEN
 62
     8
100
AcDbCircle
 10
96.42678229399999
 20
35.3572233768
 30
0.0
 40
0.1250101185
100
AcDbArc
 50
193.5271958993
 51
267.9964643563
  0
ARC
  5
1855
330
20A
100
AcDbEntity
  8
DEFAULT_2
  6
HIDDEN
 62
     8
100
AcDbCircle
 10
100.987908407
 20
22.5796072473
 30
0.0
 40
0.094
100
AcDbArc
 50
270.0
 51
352.0
  0
ARC
  5
1856
330
20A
100
AcDbEntity
  8
DEFAULT_2
  6
HIDDEN
 62
     8
100
AcDbCircle
 10
-2.999351488
 20
48.5427267542
 30
0.0
 40
127.8013660985
100
AcDbArc
 50
351.7318272652
 51
353.8478366162999
  0
ARC
  5
1857
330
20A
100
AcDbEntity
  8
DEFAULT_2
  6
HIDDEN
 62
     8
100
AcDbCircle
 10
-2.9770165562
 20
48.53943180319999
 30
0.0
 40
127.7787894561
100
AcDbArc
 50
350.2686852126
 51
351.7127260666001
  0
ARC
  5
1858
330
20A
100
AcDbEntity
  8
0
  6
Continuous
 62
     7
100
AcDbCircle
 10
11.2488890855
 20
61.6472855222
 30
0.0
 40
118.1600226466
100
AcDbArc
 50
340.6030932928
 51
352.6811074176
  0
ARC
  5
1859
330
20A
100
AcDbEntity
  8
DEFAULT_2
  6
HIDDEN
 62
     8
100
AcDbCircle
 10
22.5714586114
 20
60.1129041581
 30
0.0
 40
105.990338056
100
AcDbArc
 50
346.4766671936
 51
352.6897689892
  0
ARC
  5
185A
330
20A
100
AcDbEntity
  8
DEFAULT_2
  6
HIDDEN
 62
     8
100
AcDbCircle
 10
94.10416791260001
 20
46.61060724729999
 30
0.0
 40
0.125
100
AcDbArc
 50
7.309468662200001
 51
90.0000000001
  0
ARC
  5
185B
330
20A
100
AcDbEntity
  8
0
  6
Continuous
 62
     7
100
AcDbCircle
 10
93.60621118579999
 20
46.61060724729999
 30
0.0
 40
0.125
100
AcDbArc
 50
90.0
 51
187.318890096
  0
ARC
  5
185C
330
20A
100
AcDbEntity
  8
0
  6
Continuous
 62
     7
100
AcDbCircle
 10
122.2305981951
 20
22.5711908821
 30
0.0
 40
0.5
100
AcDbArc
 50
322.0789078937
 51
340.6030908486
  0
ARC
  5
185D
330
20A
100
AcDbEntity
  8
0
  6
Continuous
 62
     7
100
AcDbCircle
 10
122.3135911928
 20
22.6152358853
 30
0.0
 40
0.4350888075000001
100
AcDbArc
 50
318.9435120885
 51
340.4227636354
  0
ARC
  5
185E
330
20A
100
AcDbEntity
  8
DEFAULT_2
  6
HIDDEN
 62
     8
100
AcDbCircle
 10
112.3226681396
 20
24.8606072473
 30
0.0
 40
0.25
100
AcDbArc
 50
270.0
 51
329.0362434679
  0
ARC
  5
185F
330
20A
100
AcDbEntity
  8
DEFAULT_2
  6
HIDDEN
 62
     8
100
AcDbCircle
 10
113.4498337292
 20
23.8298912475
 30
0.0
 40
0.25
100
AcDbArc
 50
93.02294027379998
 51
147.3332868612
  0
ARC
  5
1860
330
20A
100
AcDbEntity
  8
DEFAULT_2
  6
HIDDEN
 62
     8
100
AcDbCircle
 10
112.5101681396
 20
23.2356072473
 30
0.0
 40
0.25
100
AcDbArc
 50
270.0
 51
329.0362434679
  0
ARC
  5
1861
330
20A
100
AcDbEntity
  8
DEFAULT_2
  6
HIDDEN
 62
     8
100
AcDbCircle
 10
121.627641641
 20
21.9236072473
 30
0.0
 40
0.188
100
AcDbArc
 50
188.0
 51
270.0
  0
ARC
  5
1862
330
20A
100
AcDbEntity
  8
0
  6
Continuous
 62
     7
100
AcDbCircle
 10
122.1243005985
 20
21.9236072473
 30
0.0
 40
0.188
100
AcDbArc
 50
270.0
 51
321.5740269847
  0
ARC
  5
1863
330
20A
100
AcDbEntity
  8
0
  6
Continuous
 62
     7
100
AcDbCircle
 10
122.1230482253
 20
21.9234623491
 30
0.0
 40
0.1878549845
100
AcDbArc
 50
270.0039186166
 51
321.605151721
  0
ARC
  5
1864
330
20A
100
AcDbEntity
  8
DEFAULT_2
  6
HIDDEN
 62
     8
100
AcDbCircle
 10
124.2373233694
 20
35.0378953481
 30
0.0
 40
0.15
100
AcDbArc
 50
91.999999982
 51
173.9415434321
  0
ARC
  5
1865
330
20A
100
AcDbEntity
  8
DEFAULT_2
  6
HIDDEN
 62
     8
100
AcDbCircle
 10
121.2492684435
 20
22.3598940132
 30
0.0
 40
0.1259757776
100
AcDbArc
 50
35.828065779
 51
55.7563811587
  0
ARC
  5
1866
330
20A
100
AcDbEntity
  8
DEFAULT_2
  6
HIDDEN
 62
     8
100
AcDbCircle
 10
121.249534473
 20
22.3604893183
 30
0.0
 40
0.125436465
100
AcDbArc
 50
11.2644446878
 51
15.0371005361
  0
ARC
  5
1867
330
20A
100
AcDbEntity
  8
DEFAULT_2
  6
HIDDEN
 62
     8
100
AcDbCircle
 10
121.2499220112
 20
22.3602994558
 30
0.0
 40
0.1253074552
100
AcDbArc
 50
76.35099269
 51
83.2524897985
  0
ARC
  5
1868
330
20A
100
AcDbEntity
  8
DEFAULT_2
  6
HIDDEN
 62
     8
100
AcDbCircle
 10
121.2496816368
 20
22.360537781
 30
0.0
 40
0.1252817673
100
AcDbArc
 50
15.0331571877
 51
21.649703808
  0
ARC
  5
1869
330
20A
100
AcDbEntity
  8
DEFAULT_2
  6
HIDDEN
 62
     8
100
AcDbCircle
 10
121.2498445192
 20
22.3605434371
 30
0.0
 40
0.1251294321
100
AcDbArc
 50
27.3406567879
 51
29.02035087929999
  0
ARC
  5
186A
330
20A
100
AcDbEntity
  8
DEFAULT_2
  6
HIDDEN
 62
     8
100
AcDbCircle
 10
121.2498933106
 20
22.3605707697
 30
0.0
 40
0.125073507
100
AcDbArc
 50
29.0202449608
 51
33.9292132716
  0
ARC
  5
186B
330
20A
100
AcDbEntity
  8
DEFAULT_2
  6
HIDDEN
 62
     8
100
AcDbCircle
 10
121.2499336947
 20
22.3605463459
 30
0.0
 40
0.1250609036
100
AcDbArc
 50
83.24451555359999
 51
89.9890843564
  0
ARC
  5
186C
330
20A
100
AcDbEntity
  8
DEFAULT_2
  6
HIDDEN
 62
     8
100
AcDbCircle
 10
125.5016491746
 20
35.3572233768
 30
0.0
 40
0.1250101185
100
AcDbArc
 50
272.0035356437
 51
346.4728041007
  0
ARC
  5
186D
330
20A
100
AcDbEntity
  8
DEFAULT_2
  6
HIDDEN
 62
     8
100
AcDbCircle
 10
121.2501492661
 20
22.3606072473
 30
0.0
 40
0.125
100
AcDbArc
 50
8.0
 51
87.26141066969999
  0
ARC
  5
186E
330
20A
100
AcDbEntity
  8
DEFAULT_2
  6
HIDDEN
 62
     8
100
AcDbCircle
 10
121.2499575031
 20
22.3606074733
 30
0.0
 40
0.124999774
100
AcDbArc
 50
7.999909874400001
 51
89.99994368120001
  0
ARC
  5
186F
330
20A
100
AcDbEntity
  8
DEFAULT_2
  6
HIDDEN
 62
     8
100
AcDbCircle
 10
121.2500990625
 20
22.3606720338
 30
0.0
 40
0.1248442615
100
AcDbArc
 50
21.663113565
 51
27.3418846027
  0
ARC
  5
1870
330
20A
100
AcDbEntity
  8
DEFAULT_2
  6
HIDDEN
 62
     8
100
AcDbCircle
 10
121.2502554984
 20
22.3608088027
 30
0.0
 40
0.1246401273
100
AcDbArc
 50
33.931355044
 51
35.752716643
  0
ARC
  5
1871
330
20A
100
AcDbEntity
  8
DEFAULT_2
  6
HIDDEN
 62
     8
100
AcDbCircle
 10
121.2504378371
 20
22.360668259
 30
0.0
 40
0.1245155495
100
AcDbArc
 50
8.0029789399
 51
11.2648898086
  0
ARC
  5
1872
330
20A
100
AcDbEntity
  8
DEFAULT_2
  6
HIDDEN
 62
     8
100
AcDbCircle
 10
120.9405230617
 20
22.5796072473
 30
0.0
 40
0.094
100
AcDbArc
 50
188.0
 51
270.0
  0
ARC
  5
1873
330
20A
100
AcDbEntity
  8
DEFAULT_2
  6
HIDDEN
 62
     8
100
AcDbCircle
 10
224.9268948416
 20
48.54259778399999
 30
0.0
 40
127.8004686679
100
AcDbArc
 50
186.0586441162
 51
188.2681727739
  0
ARC
  5
1874
330
20A
100
AcDbEntity
  8
DEFAULT_2
  6
HIDDEN
 62
     8
100
AcDbCircle
 10
224.9054480248
 20
48.53943180319999
 30
0.0
 40
127.7787894561
100
AcDbArc
 50
188.2872739334
 51
189.7313147874
  0
ARC
  5
1875
330
20A
100
AcDbEntity
  8
0
  6
Continuous
 62
     7
100
AcDbCircle
 10
210.6795423831
 20
61.6472855222
 30
0.0
 40
118.1600226466
100
AcDbArc
 50
187.3188925824
 51
199.3969067072
  0
ARC
  5
1876
330
20A
100
AcDbEntity
  8
DEFAULT_2
  6
HIDDEN
 62
     8
100
AcDbCircle
 10
199.3569728573
 20
60.1129041581
 30
0.0
 40
105.990338056
100
AcDbArc
 50
187.3102310108
 51
193.5233328064
  0
ARC
  5
1877
330
20A
100
AcDbEntity
  8
DEFAULT_2
  6
HIDDEN
 62
     8
100
AcDbCircle
 10
127.8242635561
 20
46.61060724729999
 30
0.0
 40
0.125
100
AcDbArc
 50
89.9999999999
 51
172.6905313378
  0
ARC
  5
1878
330
20A
100
AcDbEntity
  8
0
  6
Continuous
 62
     7
100
AcDbCircle
 10
128.3222202829
 20
46.61060724729999
 30
0.0
 40
0.125
100
AcDbArc
 50
352.6811099392
 51
90.0
  0
SPLINE
  5
18E2
330
20A
100
AcDbEntity
  8
DEFAULT_2
  6
HIDDEN
 62
     8
100
AcDbSpline
210
0.0
220
0.0
230
1.0
 70
     8
 71
     3
 72
    36
 73
    32
 74
     0
 42
0.0000001
 43
0.0000000001
 40
0.0
 40
0.0
 40
0.0
 40
0.0
 40
0.0977656828
 40
0.1945908668
 40
0.2895444221
 40
0.3817131203
 40
0.4702107014
 40
0.5541864460000001
 40
0.6328334500000001
 40
0.7053965274
 40
0.7711796995999999
 40
0.8295532770999999
 40
0.8799606173
 40
0.9020248255
 40
0.9219253885999998
 40
0.9396165304
 40
0.9550587267
 40
0.9682194562999999
 40
0.9739365279999999
 40
0.9790750564999999
 40
0.9836339212
 40
0.9876132089
 40
0.9910147737999999
 40
0.9938434890999999
 40
0.9961097249999999
 40
0.9970387961
 40
0.9978377791999999
 40
0.9985148033999999
 40
0.9990833820999998
 40
0.9995662751999999
 40
1.0
 40
1.0
 40
1.0
 40
1.0
 10
109.4017157343
 20
42.7225743636
 30
0.0
 10
109.3874215379
 20
42.7225743636
 30
0.0
 10
109.3589706296
 20
42.7225258184
 30
0.0
 10
109.3166371869
 20
42.722307735
 30
0.0
 10
109.2751230704
 20
42.72194666699999
 30
0.0
 10
109.234828053
 20
42.7214462031
 30
0.0
 10
109.1961401751
 20
42.72081133919999
 30
0.0
 10
109.1594319874
 20
42.7200484442
 30
0.0
 10
109.1250569505
 20
42.7191652662
 30
0.0
 10
109.0933460381
 20
42.7181708262
 30
0.0
 10
109.0646044538
 20
42.71707577629999
 30
0.0
 10
109.0391088343
 20
42.7158914829
 30
0.0
 10
109.0200087035
 20
42.71479968349999
 30
0.0
 10
109.0065348866
 20
42.7138713238
 30
0.0
 10
108.9978390584
 20
42.7131915104
 30
0.0
 10
108.990115785
 20
42.7124991352
 30
0.0
 10
108.9833835361
 20
42.71179610489999
 30
0.0
 10
108.9784032517
 20
42.7111785694
 30
0.0
 10
108.9749286056
 20
42.7106709199
 30
0.0
 10
108.9727043694
 20
42.71030668019999
 30
0.0
 10
108.9707381825
 20
42.70994127739999
 30
0.0
 10
108.9690310732
 20
42.7095750836
 30
0.0
 10
108.9675834354
 20
42.7092087864
 30
0.0
 10
108.9663957833
 20
42.70884278679999
 30
0.0
 10
108.9655739102
 20
42.7085213626
 30
0.0
 10
108.9650530397
 20
42.70825615429999
 30
0.0
 10
108.9647537904
 20
42.7080704373
 30
0.0
 10
108.96451881
 20
42.7078842176
 30
0.0
 10
108.9643476382
 20
42.7076961873
 30
0.0
 10
108.9642409286
 20
42.7075040753
 30
0.0
 10
108.9642157343
 20
42.7073692482
 30
0.0
 10
108.9642157343
 20
42.70730583379999
 30
0.0
  0
SPLINE
  5
18E3
330
20A
100
AcDbEntity
  8
DEFAULT_2
  6
HIDDEN
 62
     8
100
AcDbSpline
210
0.0
220
0.0
230
1.0
 70
     8
 71
     3
 72
    28
 73
    24
 74
     0
 42
0.0000001
 43
0.0000000001
 40
0.0
 40
0.0
 40
0.0
 40
0.0
 40
0.0050960757
 40
0.0074852216
 40
0.0103417481
 40
0.0175702796
 40
0.0270330714
 40
0.0390218007
 40
0.0538468243
 40
0.0718260939
 40
0.093242415
 40
0.1182918545
 40
0.1470248063
 40
0.1793103029
 40
0.2531639232
 40
0.336346369
 40
0.4254529397
 40
0.5180839844000001
 40
0.6128091987
 40
0.708786363
 40
0.8055124579000001
 40
0.9026583368999999
 40
1.0
 40
1.0
 40
1.0
 40
1.0
 10
109.4433528933
 20
42.7991264358
 30
0.0
 10
109.4432902826
 20
42.7991387209
 30
0.0
 10
109.4435322047
 20
42.7990849082
 30
0.0
 10
109.4436262419
 20
42.79906025959999
 30
0.0
 10
109.4437875446
 20
42.7990189799
 30
0.0
 10
109.4440170825
 20
42.79895601209999
 30
0.0
 10
109.4443647078
 20
42.79885459409999
 30
0.0
 10
109.4447968315
 20
42.7987183613
 30
0.0
 10
109.4453280554
 20
42.7985370931
 30
0.0
 10
109.4459644232
 20
42.79830085639999
 30
0.0
 10
109.4467121935
 20
42.79799722579999
 30
0.0
 10
109.4475721372
 20
42.7976134469
 30
0.0
 10
109.4485390674
 20
42.7971370735
 30
0.0
 10
109.4500216101
 20
42.7963277163
 30
0.0
 10
109.4520192221
 20
42.7950440845
 30
0.0
 10
109.4544317293
 20
42.7931170031
 30
0.0
 10
109.4567828568
 20
42.7907670244
 30
0.0
 10
109.4589355362
 20
42.78804614619999
 30
0.0
 10
109.4607945968
 20
42.78501478559999
 30
0.0
 10
109.4622955262
 20
42.7817342807
 30
0.0
 10
109.4633952449
 20
42.77826627159999
 30
0.0
 10
109.4640656451
 20
42.77467345309999
 30
0.0
 10
109.4642157343
 20
42.7722357482
 30
0.0
 10
109.4642157343
 20
42.771016999
 30
0.0
  0
SPLINE
  5
18E4
330
20A
100
AcDbEntity
  8
DEFAULT_2
  6
HIDDEN
 62
     8
100
AcDbSpline
210
0.0
220
0.0
230
1.0
 70
     8
 71
     3
 72
    30
 73
    26
 74
     0
 42
0.0000001
 43
0.0000000001
 40
0.0
 40
0.0
 40
0.0
 40
0.0
 40
0.1946051854
 40
0.2895658621
 40
0.3817415111
 40
0.4702457189000001
 40
0.5542277924
 40
0.6328806705
 40
0.7054492266
 40
0.7712373065000002
 40
0.8296153121999999
 40
0.8800264031999999
 40
0.9219939146999999
 40
0.9396863606
 40
0.9551296949999999
 40
0.96829143
 40
0.9791474554
 40
0.9837066233999999
 40
0.9876862195000001
 40
0.9910880648999999
 40
0.9939169448000001
 40
0.9961833997999999
 40
0.9971125359
 40
0.9979115541
 40
1.0
 40
1.0
 40
1.0
 40
1.0
 10
109.6517157343
 20
42.7644733434
 30
0.0
 10
109.6395225172
 20
42.7644733434
 30
0.0
 10
109.6213793363
 20
42.7645344033
 30
0.0
 10
109.5974617391
 20
42.7647423441
 30
0.0
 10
109.5801924433
 20
42.7649568433
 30
0.0
 10
109.5636119235
 20
42.7652289256
 30
0.0
 10
109.5478798446
 20
42.7655558782
 30
0.0
 10
109.5331476868
 20
42.7659343919
 30
0.0
 10
109.5195572928
 20
42.7663605533
 30
0.0
 10
109.5072394862
 20
42.7668299452
 30
0.0
 10
109.4963127391
 20
42.767337238
 30
0.0
 10
109.4868821633
 20
42.76787709559999
 30
0.0
 10
109.4800027926
 20
42.7683713265
 30
0.0
 10
109.4753157676
 20
42.7687912949
 30
0.0
 10
109.4724304697
 20
42.7690925106
 30
0.0
 10
109.4699766721
 20
42.7693971511
 30
0.0
 10
109.4682059511
 20
42.76966558459999
 30
0.0
 10
109.467011079
 20
42.7698874984
 30
0.0
 10
109.4662794231
 20
42.7700444954
 30
0.0
 10
109.4656591295
 20
42.770201364
 30
0.0
 10
109.4651497853
 20
42.7703585331
 30
0.0
 10
109.4647983858
 20
42.7704955605
 30
0.0
 10
109.4645738188
 20
42.7706103738
 30
0.0
 10
109.4643751867
 20
42.77073247519999
 30
0.0
 10
109.4642157343
 20
42.770886145
 30
0.0
 10
109.4642157343
 20
42.771016999
 30
0.0
  0
SPLINE
  5
18E5
330
20A
100
AcDbEntity
  8
DEFAULT_2
  6
HIDDEN
 62
     8
100
AcDbSpline
210
0.0
220
0.0
230
1.0
 70
     8
 71
     3
 72
    28
 73
    24
 74
     0
 42
0.0000001
 43
0.0000000001
 40
0.0
 40
0.0
 40
0.0
 40
0.0
 40
0.0050960757
 40
0.0074852216
 40
0.0103417481
 40
0.0175702796
 40
0.0270330714
 40
0.0390218007
 40
0.0538468243
 40
0.0718260939
 40
0.093242415
 40
0.1182918545
 40
0.1470248063
 40
0.1793103029
 40
0.2531639232
 40
0.336346369
 40
0.4254529397
 40
0.5180839844000001
 40
0.6128091987
 40
0.708786363
 40
0.8055124579000001
 40
0.9026583368999999
 40
1.0
 40
1.0
 40
1.0
 40
1.0
 10
112.4850785754
 20
42.7991264358
 30
0.0
 10
112.485141186
 20
42.7991387209
 30
0.0
 10
112.4848992639
 20
42.7990849082
 30
0.0
 10
112.4848052268
 20
42.79906025959999
 30
0.0
 10
112.4846439241
 20
42.7990189799
 30
0.0
 10
112.4844143862
 20
42.79895601209999
 30
0.0
 10
112.4840667609
 20
42.79885459409999
 30
0.0
 10
112.4836346371
 20
42.7987183613
 30
0.0
 10
112.4831034132
 20
42.7985370931
 30
0.0
 10
112.4824670455
 20
42.79830085639999
 30
0.0
 10
112.4817192751
 20
42.79799722579999
 30
0.0
 10
112.4808593315
 20
42.7976134469
 30
0.0
 10
112.4798924013
 20
42.7971370735
 30
0.0
 10
112.4784098586
 20
42.7963277163
 30
0.0
 10
112.4764122466
 20
42.7950440845
 30
0.0
 10
112.4739997394
 20
42.7931170031
 30
0.0
 10
112.4716486119
 20
42.7907670244
 30
0.0
 10
112.4694959324
 20
42.78804614619999
 30
0.0
 10
112.4676368718
 20
42.78501478559999
 30
0.0
 10
112.4661359425
 20
42.7817342807
 30
0.0
 10
112.4650362238
 20
42.77826627159999
 30
0.0
 10
112.4643658236
 20
42.77467345309999
 30
0.0
 10
112.4642157343
 20
42.7722357482
 30
0.0
 10
112.4642157343
 20
42.771016999
 30
0.0
  0
SPLINE
  5
18E6
330
20A
100
AcDbEntity
  8
DEFAULT_2
  6
HIDDEN
 62
     8
100
AcDbSpline
210
0.0
220
0.0
230
1.0
 70
     8
 71
     3
 72
    35
 73
    31
 74
     0
 42
0.0000001
 43
0.0000000001
 40
0.0
 40
0.0
 40
0.0
 40
0.0
 40
0.0977658208
 40
0.1945911776
 40
0.2895448892
 40
0.3817137358
 40
0.4702114575
 40
0.5541873339
 40
0.6328344609000001
 40
0.7053976546
 40
0.7711809387000001
 40
0.8295546195
 40
0.8799620476000001
 40
0.9020262922
 40
0.9219268864
 40
0.9396180541999999
 40
0.9550602714
 40
0.9682210170999999
 40
0.9739380954999999
 40
0.9790766292
 40
0.9836355104
 40
0.9876147896999999
 40
0.9910163800999999
 40
0.9938450754000001
 40
0.9961113428
 40
0.9978377616999999
 40
0.9985148042
 40
0.9990833929999999
 40
0.9995662774999999
 40
1.0
 40
1.0
 40
1.0
 40
1.0
 10
109.6517157343
 20
42.69312791329999
 30
0.0
 10
109.6384425545
 20
42.69312791329999
 30
0.0
 10
109.6120238543
 20
42.69317299099999
 30
0.0
 10
109.5727142287
 20
42.6933754969
 30
0.0
 10
109.5341654035
 20
42.6937107743
 30
0.0
 10
109.4967486013
 20
42.69417549079999
 30
0.0
 10
109.4608241439
 20
42.69476500729999
 30
0.0
 10
109.4267379708
 20
42.69547340999999
 30
0.0
 10
109.3948182947
 20
42.69629350379999
 30
0.0
 10
109.3653724472
 20
42.6972169125
 30
0.0
 10
109.3386838311
 20
42.6982337444
 30
0.0
 10
109.3150093242
 20
42.6993334452
 30
0.0
 10
109.2972734862
 20
42.70034725889999
 30
0.0
 10
109.2847620839
 20
42.7012093072
 30
0.0
 10
109.2766873866
 20
42.7018405625
 30
0.0
 10
109.2695157764
 20
42.70248348239999
 30
0.0
 10
109.2632644046
 20
42.70313629639999
 30
0.0
 10
109.2586398547
 20
42.7037097219
 30
0.0
 10
109.255413402
 20
42.70418111139999
 30
0.0
 10
109.2533480322
 20
42.70451933239999
 30
0.0
 10
109.2515223108
 20
42.7048586412
 30
0.0
 10
109.249937067
 20
42.70519865519999
 30
0.0
 10
109.2485930395
 20
42.7055388643
 30
0.0
 10
109.2474896324
 20
42.7058784936
 30
0.0
 10
109.2466270249
 20
42.7062170935
 30
0.0
 10
109.2460645667
 20
42.7065176853
 30
0.0
 10
109.245747131
 20
42.7067687265
 30
0.0
 10
109.245588214
 20
42.7069433663
 30
0.0
 10
109.2454891265
 20
42.70712175209999
 30
0.0
 10
109.2454657418
 20
42.7072469494
 30
0.0
 10
109.2454657418
 20
42.70730583379999
 30
0.0
  0
SPLINE
  5
18E7
330
20A
100
AcDbEntity
  8
DEFAULT_2
  6
HIDDEN
 62
     8
100
AcDbSpline
210
0.0
220
0.0
230
1.0
 70
     8
 71
     3
 72
    35
 73
    31
 74
     0
 42
0.0000001
 43
0.0000000001
 40
0.0
 40
0.0
 40
0.0
 40
0.0
 40
0.0977657772
 40
0.1945910918
 40
0.2895447637
 40
0.3817135745
 40
0.4702112654
 40
0.5541871171000001
 40
0.6328342266
 40
0.7053974107
 40
0.7711806940000001
 40
0.8295543832999999
 40
0.8799618295999998
 40
0.9020260870999999
 40
0.9219266967000001
 40
0.9396178824999999
 40
0.9550601201
 40
0.9682208886999999
 40
0.9739379793999999
 40
0.9790765259999998
 40
0.9836354205999999
 40
0.9876147139
 40
0.9910163186
 40
0.9938450287
 40
0.9961113109000001
 40
0.9978377442000001
 40
0.9985147931999998
 40
0.9990833875999999
 40
0.9995662761
 40
1.0
 40
1.0
 40
1.0
 40
1.0
 10
109.6517157343
 20
42.7243588766
 30
0.0
 10
109.6384425608
 20
42.7243588766
 30
0.0
 10
109.6120238728
 20
42.7244039543
 30
0.0
 10
109.5727142654
 20
42.72460645999999
 30
0.0
 10
109.5341654571
 20
42.7249417371
 30
0.0
 10
109.4967486702
 20
42.7254064532
 30
0.0
 10
109.4608242262
 20
42.7259959692
 30
0.0
 10
109.4267380638
 20
42.7267043712
 30
0.0
 10
109.3948183955
 20
42.7275244643
 30
0.0
 10
109.3653725526
 20
42.7284478722
 30
0.0
 10
109.3386839375
 20
42.72946470329999
 30
0.0
 10
109.3150094276
 20
42.7305644033
 30
0.0
 10
109.2972735845
 20
42.73157821619999
 30
0.0
 10
109.2847621762
 20
42.7324402638
 30
0.0
 10
109.2766874729
 20
42.7330715187
 30
0.0
 10
109.2695158554
 20
42.7337144381
 30
0.0
 10
109.2632644754
 20
42.73436725169999
 30
0.0
 10
109.258639918
 20
42.7349406768
 30
0.0
 10
109.2554134587
 20
42.735412066
 30
0.0
 10
109.2533480836
 20
42.73575028679999
 30
0.0
 10
109.2515223567
 20
42.7360895954
 30
0.0
 10
109.249937107
 20
42.7364296092
 30
0.0
 10
109.2485930735
 20
42.7367698182
 30
0.0
 10
109.2474896602
 20
42.7371094473
 30
0.0
 10
109.2466270462
 20
42.73744804719999
 30
0.0
 10
109.2460645826
 20
42.73774863869999
 30
0.0
 10
109.2457471422
 20
42.7379996796
 30
0.0
 10
109.2455882217
 20
42.73817431909999
 30
0.0
 10
109.2454891306
 20
42.73835270449999
 30
0.0
 10
109.245465743
 20
42.7384779021
 30
0.0
 10
109.2454657418
 20
42.7385367866
 30
0.0
  0
SPLINE
  5
18E8
330
20A
100
AcDbEntity
  8
DEFAULT_2
  6
HIDDEN
 62
     8
100
AcDbSpline
210
0.0
220
0.0
230
1.0
 70
     8
 71
     3
 72
    33
 73
    29
 74
     0
 42
0.0000001
 43
0.0000000001
 40
0.0
 40
0.0
 40
0.0
 40
0.0
 40
0.0004337262
 40
0.0009166221
 40
0.0014852033
 40
0.0021622264
 40
0.0038886733
 40
0.0061549237
 40
0.0089836295
 40
0.0123852233
 40
0.0163644946
 40
0.0209233951
 40
0.0260619143
 40
0.0317790145
 40
0.0449397646
 40
0.0603819869
 40
0.0780731658
 40
0.120037595
 40
0.1704450686
 40
0.2288187797
 40
0.294602099
 40
0.3671653546
 40
0.4458125453
 40
0.5297884784
 40
0.6182862628
 40
0.7104551853
 40
0.8054089559999999
 40
1.0
 40
1.0
 40
1.0
 40
1.0
 10
112.5579657343
 20
42.70730583379999
 30
0.0
 10
112.5579657343
 20
42.70734660019999
 30
0.0
 10
112.5579495385
 20
42.70743327619999
 30
0.0
 10
112.5578809329
 20
42.70755676999999
 30
0.0
 10
112.557770919
 20
42.70767767659999
 30
0.0
 10
112.5575511603
 20
42.7078514808
 30
0.0
 10
112.5571617605
 20
42.7080595713
 30
0.0
 10
112.5565645737
 20
42.7082939958
 30
0.0
 10
112.5558006753
 20
42.7085291191
 30
0.0
 10
112.5548701956
 20
42.70876464959999
 30
0.0
 10
112.5537727186
 20
42.7090000451
 30
0.0
 10
112.5525087586
 20
42.70923494889999
 30
0.0
 10
112.5510788861
 20
42.7094691042
 30
0.0
 10
112.5488451884
 20
42.7097954495
 30
0.0
 10
112.5456435757
 20
42.7101924259
 30
0.0
 10
112.5413157092
 20
42.7106444358
 30
0.0
 10
112.5342851372
 20
42.7112743083
 30
0.0
 10
112.5239660979
 20
42.71201570499999
 30
0.0
 10
112.5098202281
 20
42.7128254688
 30
0.0
 10
112.4934301077
 20
42.7135864174
 30
0.0
 10
112.4749534008
 20
42.7142905012
 30
0.0
 10
112.4545678064
 20
42.7149297457
 30
0.0
 10
112.4324695711
 20
42.7154975141
 30
0.0
 10
112.4088714507
 20
42.7159879449
 30
0.0
 10
112.3840006742
 20
42.7163960669
 30
0.0
 10
112.3580967307
 20
42.7167178169
 30
0.0
 10
112.322220335
 20
42.71702972639999
 30
0.0
 10
112.2950055617
 20
42.7171213172
 30
0.0
 10
112.2767157343
 20
42.7171213172
 30
0.0
  0
SPLINE
  5
18E9
330
20A
100
AcDbEntity
  8
DEFAULT_2
  6
HIDDEN
 62
     8
100
AcDbSpline
210
0.0
220
0.0
230
1.0
 70
     8
 71
     3
 72
    34
 73
    30
 74
     0
 42
0.0000001
 43
0.0000000001
 40
0.0
 40
0.0
 40
0.0
 40
0.0
 40
0.0004337258
 40
0.0009166206
 40
0.0014852009
 40
0.002162225
 40
0.003888673
 40
0.0061549168
 40
0.008983631
 40
0.0123852116
 40
0.0163644944
 40
0.0209233814
 40
0.0260619044
 40
0.0317790013
 40
0.0449397527
 40
0.0603819733
 40
0.0780731431
 40
0.097973739
 40
0.1200379867
 40
0.1704454316
 40
0.2288191356
 40
0.2946024385
 40
0.3671656457
 40
0.4458127874000001
 40
0.5297886884000001
 40
0.6182864430000001
 40
0.71045532
 40
0.8054090499999999
 40
1.0
 40
1.0
 40
1.0
 40
1.0
 10
112.6204657343
 20
42.7385367971
 30
0.0
 10
112.6204657343
 20
42.7385866227
 30
0.0
 10
112.6204459398
 20
42.73869256
 30
0.0
 10
112.6203620893
 20
42.738843497
 30
0.0
 10
112.620227628
 20
42.73899127199999
 30
0.0
 10
112.6199590332
 20
42.73920369889999
 30
0.0
 10
112.6194831004
 20
42.7394580312
 30
0.0
 10
112.6187532054
 20
42.739744552
 30
0.0
 10
112.6178195517
 20
42.7400319219
 30
0.0
 10
112.6166822983
 20
42.740319796
 30
0.0
 10
112.615340938
 20
42.7406074983
 30
0.0
 10
112.6137960975
 20
42.7408946055
 30
0.0
 10
112.612048476
 20
42.74118079409999
 30
0.0
 10
112.6093183996
 20
42.74157965989999
 30
0.0
 10
112.6054053171
 20
42.74206486749999
 30
0.0
 10
112.600115695
 20
42.74261724809999
 30
0.0
 10
112.5940474104
 20
42.74316125739999
 30
0.0
 10
112.5872149755
 20
42.74369539659999
 30
0.0
 10
112.576628405
 20
42.74442482219999
 30
0.0
 10
112.5616211568
 20
42.74528266439999
 30
0.0
 10
112.5415888809
 20
42.7462131803
 30
0.0
 10
112.519006206
 20
42.7470735765
 30
0.0
 10
112.4940904908
 20
42.7478549226
 30
0.0
 10
112.4670815361
 20
42.74854884789999
 30
0.0
 10
112.4382393894
 20
42.74914826739999
 30
0.0
 10
112.4078417718
 20
42.7496470815
 30
0.0
 10
112.3761813952
 20
42.750040332
 30
0.0
 10
112.3323324677
 20
42.7504215549
 30
0.0
 10
112.2990699672
 20
42.7505334991
 30
0.0
 10
112.2767157343
 20
42.7505334991
 30
0.0
  0
SPLINE
  5
18EA
330
20A
100
AcDbEntity
  8
DEFAULT_2
  6
HIDDEN
 62
     8
100
AcDbSpline
210
0.0
220
0.0
230
1.0
 70
     8
 71
     3
 72
    34
 73
    30
 74
     0
 42
0.0000001
 43
0.0000000001
 40
0.0
 40
0.0
 40
0.0
 40
0.0
 40
0.0004337258
 40
0.0009166206
 40
0.0014852009
 40
0.002162225
 40
0.003888673
 40
0.0061549168
 40
0.008983631
 40
0.0123852116
 40
0.0163644944
 40
0.0209233814
 40
0.0260619044
 40
0.0317790013
 40
0.0449397527
 40
0.0603819733
 40
0.0780731431
 40
0.097973739
 40
0.1200379867
 40
0.1704454316
 40
0.2288191356
 40
0.2946024385
 40
0.3671656457
 40
0.4458127874000001
 40
0.5297886884000001
 40
0.6182864430000001
 40
0.71045532
 40
0.8054090499999999
 40
1.0
 40
1.0
 40
1.0
 40
1.0
 10
112.6204657343
 20
42.70730583379999
 30
0.0
 10
112.6204657343
 20
42.70735565939999
 30
0.0
 10
112.6204459398
 20
42.70746159659999
 30
0.0
 10
112.6203620893
 20
42.70761253369999
 30
0.0
 10
112.620227628
 20
42.7077603086
 30
0.0
 10
112.6199590332
 20
42.7079727355
 30
0.0
 10
112.6194831004
 20
42.70822706789999
 30
0.0
 10
112.6187532054
 20
42.70851358859999
 30
0.0
 10
112.6178195517
 20
42.70880095859999
 30
0.0
 10
112.6166822983
 20
42.7090888326
 30
0.0
 10
112.615340938
 20
42.70937653499999
 30
0.0
 10
112.6137960975
 20
42.70966364209999
 30
0.0
 10
112.612048476
 20
42.7099498308
 30
0.0
 10
112.6093183996
 20
42.7103486965
 30
0.0
 10
112.6054053171
 20
42.7108339042
 30
0.0
 10
112.600115695
 20
42.7113862848
 30
0.0
 10
112.5940474104
 20
42.7119302941
 30
0.0
 10
112.5872149755
 20
42.7124644332
 30
0.0
 10
112.576628405
 20
42.7131938588
 30
0.0
 10
112.5616211568
 20
42.714051701
 30
0.0
 10
112.5415888809
 20
42.71498221699999
 30
0.0
 10
112.519006206
 20
42.7158426132
 30
0.0
 10
112.4940904908
 20
42.71662395919999
 30
0.0
 10
112.4670815361
 20
42.7173178846
 30
0.0
 10
112.4382393894
 20
42.717917304
 30
0.0
 10
112.4078417718
 20
42.7184161181
 30
0.0
 10
112.3761813952
 20
42.7188093687
 30
0.0
 10
112.3323324677
 20
42.7191905916
 30
0.0
 10
112.2990699672
 20
42.71930253579999
 30
0.0
 10
112.2767157343
 20
42.71930253579999
 30
0.0
  0
SPLINE
  5
18EB
330
20A
100
AcDbEntity
  8
DEFAULT_2
  6
HIDDEN
 62
     8
100
AcDbSpline
210
0.0
220
0.0
230
1.0
 70
     8
 71
     3
 72
    33
 73
    29
 74
     0
 42
0.0000001
 43
0.0000000001
 40
0.0
 40
0.0
 40
0.0
 40
0.0
 40
0.194591044
 40
0.2895448147
 40
0.3817137372
 40
0.4702115216
 40
0.5541874547
 40
0.6328346454
 40
0.705397901
 40
0.7711812203
 40
0.8295549314
 40
0.879962405
 40
0.9219268341999999
 40
0.9396180131000001
 40
0.9550602354
 40
0.9682209854999999
 40
0.9739380857
 40
0.9790766048999998
 40
0.9836355054000001
 40
0.9876147766999999
 40
0.9910163705
 40
0.9938450762999998
 40
0.9961113266999999
 40
0.9978377736
 40
0.9985147966999999
 40
0.9990833779
 40
0.9995662738
 40
1.0
 40
1.0
 40
1.0
 40
1.0
 10
109.6517157343
 20
42.6974903504
 30
0.0
 10
109.633425907
 20
42.6974903504
 30
0.0
 10
109.6062111337
 20
42.6975819412
 30
0.0
 10
109.570334738
 20
42.69789385070001
 30
0.0
 10
109.5444307944
 20
42.6982156007
 30
0.0
 10
109.519560018
 20
42.6986237227
 30
0.0
 10
109.4959618976
 20
42.6991141535
 30
0.0
 10
109.4738636623
 20
42.6996819219
 30
0.0
 10
109.4534780679
 20
42.7003211664
 30
0.0
 10
109.435001361
 20
42.70102525019999
 30
0.0
 10
109.4186112405
 20
42.7017861988
 30
0.0
 10
109.4044653708
 20
42.70259596259999
 30
0.0
 10
109.3941463315
 20
42.7033373593
 30
0.0
 10
109.3871157595
 20
42.7039672318
 30
0.0
 10
109.3827878929999
 20
42.7044192417
 30
0.0
 10
109.3795862803
 20
42.7048162181
 30
0.0
 10
109.3773525825
 20
42.7051425634
 30
0.0
 10
109.3759227101
 20
42.7053767187
 30
0.0
 10
109.3746587501
 20
42.70561162249999
 30
0.0
 10
109.3735612731
 20
42.70584701799999
 30
0.0
 10
109.3726307934
 20
42.70608254849999
 30
0.0
 10
109.371866895
 20
42.7063176719
 30
0.0
 10
109.3712697081
 20
42.7065520963
 30
0.0
 10
109.3708803084
 20
42.70676018679999
 30
0.0
 10
109.3706605497
 20
42.70693399099999
 30
0.0
 10
109.3705505358
 20
42.7070548976
 30
0.0
 10
109.3704819302
 20
42.7071783914
 30
0.0
 10
109.3704657343
 20
42.70726506739999
 30
0.0
 10
109.3704657343
 20
42.70730583379999
 30
0.0
  0
SPLINE
  5
18EC
330
20A
100
AcDbEntity
  8
DEFAULT_2
  6
HIDDEN
 62
     8
100
AcDbSpline
210
0.0
220
0.0
230
1.0
 70
     8
 71
     3
 72
    28
 73
    24
 74
     0
 42
0.0000001
 43
0.0000000001
 40
0.0
 40
0.0
 40
0.0
 40
0.0
 40
0.1816606719
 40
0.3575616894
 40
0.4415943449000001
 40
0.5221125637
 40
0.5984695739000001
 40
0.6700470839000001
 40
0.7362577547
 40
0.7965456716000001
 40
0.8503826890999999
 40
0.8747221545
 40
0.8972567665000001
 40
0.9179197543999999
 40
0.9366386581
 40
0.9533300695999999
 40
0.9678899881999999
 40
0.9801746194999999
 40
0.9899594537999998
 40
0.9938015262
 40
0.9968450293
 40
0.9989720643
 40
1.0
 40
1.0
 40
1.0
 40
1.0
 10
112.2767157343
 20
42.7566994859
 30
0.0
 10
112.2987635129
 20
42.7566994859
 30
0.0
 10
112.3421601431
 20
42.7568324957
 30
0.0
 10
112.3957535992
 20
42.7573347775
 30
0.0
 10
112.4370691638
 20
42.7579416804
 30
0.0
 10
112.4663027386
 20
42.7584819876
 30
0.0
 10
112.4940225582
 20
42.75910958699999
 30
0.0
 10
112.5200033359
 20
42.759819051
 30
0.0
 10
112.5440307456
 20
42.7606038577
 30
0.0
 10
112.5659012446
 20
42.76145656199999
 30
0.0
 10
112.5826883615
 20
42.76223986409999
 30
0.0
 10
112.5948935495
 20
42.7629022698
 30
0.0
 10
112.6030757293
 20
42.7633930434
 30
0.0
 10
112.6105738529
 20
42.763892512
 30
0.0
 10
112.6173606449
 20
42.7643979228
 30
0.0
 10
112.6234042636
 20
42.7649053946
 30
0.0
 10
112.6286642741
 20
42.7654086872
 30
0.0
 10
112.6330830895
 20
42.76589773949999
 30
0.0
 10
112.6362020179
 20
42.7663032407
 30
0.0
 10
112.6382022659
 20
42.7666079167
 30
0.0
 10
112.6392808538
 20
42.7667904246
 30
0.0
 10
112.6400199012
 20
42.7669311605
 30
0.0
 10
112.6403945118
 20
42.7670107965
 30
0.0
 10
112.6405158786
 20
42.7670396888
 30
0.0
  0
SPLINE
  5
18ED
330
20A
100
AcDbEntity
  8
DEFAULT_2
  6
HIDDEN
 62
     8
100
AcDbSpline
210
0.0
220
0.0
230
1.0
 70
     8
 71
     3
 72
    34
 73
    30
 74
     0
 42
0.0000001
 43
0.0000000001
 40
0.0
 40
0.0
 40
0.0
 40
0.0
 40
0.010402927
 40
0.0207454799
 40
0.0309559563
 40
0.0409387455
 40
0.0505562939
 40
0.0596284406
 40
0.0753193626
 40
0.0872177203
 40
0.0961176405
 40
0.109610824
 40
0.1216023018
 40
0.1341600703
 40
0.1480620898
 40
0.163640896
 40
0.181047376
 40
0.2003453429
 40
0.244653779
 40
0.2964123977
 40
0.3552333602
 40
0.4205888412
 40
0.4918505770000001
 40
0.5683113756
 40
0.6491998245000001
 40
0.7336922944
 40
0.8209238069999999
 40
0.909998445
 40
1.0
 40
1.0
 40
1.0
 40
1.0
 10
112.6829657096
 20
42.7385366818
 30
0.0
 10
112.6829657261
 20
42.7400104857
 30
0.0
 10
112.6827601335
 20
42.74295367219999
 30
0.0
 10
112.6818477974
 20
42.7472570111
 30
0.0
 10
112.6803738527
 20
42.7513387957
 30
0.0
 10
112.6784126773
 20
42.7550931401
 30
0.0
 10
112.676073165
 20
42.7584278348
 30
0.0
 10
112.6728000765
 20
42.7620482964
 30
0.0
 10
112.6687096786
 20
42.76531328989999
 30
0.0
 10
112.6641588557
 20
42.7678003828
 30
0.0
 10
112.6596431701
 20
42.7696112344
 30
0.0
 10
112.6549397152
 20
42.7709196006
 30
0.0
 10
112.6496483502
 20
42.77195360719999
 30
0.0
 10
112.6442608021
 20
42.7727671998
 30
0.0
 10
112.638348871
 20
42.77349168579999
 30
0.0
 10
112.631740668
 20
42.7741701567
 30
0.0
 10
112.6243618496
 20
42.774818787
 30
0.0
 10
112.6129177387
 20
42.7756930036
 30
0.0
 10
112.596604568
 20
42.7767082103
 30
0.0
 10
112.5746881841
 20
42.7778015519
 30
0.0
 10
112.5497832298
 20
42.7788105025
 30
0.0
 10
112.5221100702
 20
42.7797267278
 30
0.0
 10
112.4919336933
 20
42.780540924
 30
0.0
 10
112.45955343
 20
42.78124482379999
 30
0.0
 10
112.4252961265
 20
42.7818310867
 30
0.0
 10
112.3895109002
 20
42.78229358359999
 30
0.0
 10
112.352564447
 20
42.7826274569
 30
0.0
 10
112.3148365516
 20
42.7828291971
 30
0.0
 10
112.2894664383
 20
42.78287410839999
 30
0.0
 10
112.2767157343
 20
42.78287410839999
 30
0.0
  0
SPLINE
  5
18EE
330
20A
100
AcDbEntity
  8
DEFAULT_2
  6
HIDDEN
 62
     8
100
AcDbSpline
210
0.0
220
0.0
230
1.0
 70
     8
 71
     3
 72
    30
 73
    26
 74
     0
 42
0.0000001
 43
0.0000000001
 40
0.0
 40
0.0
 40
0.0
 40
0.0
 40
0.0020884459
 40
0.0028874641
 40
0.0038166002
 40
0.0060830552
 40
0.0089119351
 40
0.0123137805
 40
0.0162933766
 40
0.0208525446
 40
0.03170857
 40
0.044870305
 40
0.0603136394
 40
0.0780060853
 40
0.1199735968
 40
0.1703846878
 40
0.2287626935
 40
0.2945507734
 40
0.3671193295
 40
0.4457722076
 40
0.5297542811
 40
0.6182584889000001
 40
0.7104341379000001
 40
0.8053948145999999
 40
1.0
 40
1.0
 40
1.0
 40
1.0
 10
112.4642157343
 20
42.771016999
 30
0.0
 10
112.4642157343
 20
42.770886145
 30
0.0
 10
112.4640562819
 20
42.77073247519999
 30
0.0
 10
112.4638576499
 20
42.7706103738
 30
0.0
 10
112.4636330829
 20
42.7704955605
 30
0.0
 10
112.4632816833
 20
42.7703585331
 30
0.0
 10
112.4627723392
 20
42.770201364
 30
0.0
 10
112.4621520456
 20
42.7700444954
 30
0.0
 10
112.4614203896
 20
42.7698874984
 30
0.0
 10
112.4602255176
 20
42.76966558459999
 30
0.0
 10
112.4584547965
 20
42.7693971511
 30
0.0
 10
112.4560009989
 20
42.7690925106
 30
0.0
 10
112.4531157011
 20
42.7687912949
 30
0.0
 10
112.4484286761
 20
42.7683713265
 30
0.0
 10
112.4415493053
 20
42.76787709559999
 30
0.0
 10
112.4321187295
 20
42.767337238
 30
0.0
 10
112.4211919824
 20
42.7668299452
 30
0.0
 10
112.4088741759
 20
42.7663605533
 30
0.0
 10
112.3952837819
 20
42.7659343919
 30
0.0
 10
112.3805516241
 20
42.7655558782
 30
0.0
 10
112.3648195451
 20
42.7652289256
 30
0.0
 10
112.3482390253
 20
42.7649568433
 30
0.0
 10
112.3309697295
 20
42.7647423441
 30
0.0
 10
112.3070521324
 20
42.7645344033
 30
0.0
 10
112.2889089515
 20
42.7644733434
 30
0.0
 10
112.2767157343
 20
42.7644733434
 30
0.0
  0
SPLINE
  5
18EF
330
20A
100
AcDbEntity
  8
DEFAULT_2
  6
HIDDEN
 62
     8
100
AcDbSpline
210
0.0
220
0.0
230
1.0
 70
     8
 71
     3
 72
    33
 73
    29
 74
     0
 42
0.0000001
 43
0.0000000001
 40
0.0
 40
0.0
 40
0.0
 40
0.0
 40
0.0004337262
 40
0.0009166221
 40
0.0014852033
 40
0.0021622264
 40
0.0038886733
 40
0.0061549237
 40
0.0089836295
 40
0.0123852233
 40
0.0163644946
 40
0.0209233951
 40
0.0260619143
 40
0.0317790145
 40
0.0449397646
 40
0.0603819869
 40
0.0780731658
 40
0.120037595
 40
0.1704450686
 40
0.2288187797
 40
0.294602099
 40
0.3671653546
 40
0.4458125453
 40
0.5297884784
 40
0.6182862628
 40
0.7104551853
 40
0.8054089559999999
 40
1.0
 40
1.0
 40
1.0
 40
1.0
 10
109.3704657343
 20
42.70730583379999
 30
0.0
 10
109.3704657343
 20
42.70734660019999
 30
0.0
 10
109.3704819302
 20
42.70743327619999
 30
0.0
 10
109.3705505358
 20
42.70755676999999
 30
0.0
 10
109.3706605497
 20
42.70767767659999
 30
0.0
 10
109.3708803084
 20
42.7078514808
 30
0.0
 10
109.3712697081
 20
42.7080595713
 30
0.0
 10
109.371866895
 20
42.7082939958
 30
0.0
 10
109.3726307934
 20
42.7085291191
 30
0.0
 10
109.3735612731
 20
42.70876464959999
 30
0.0
 10
109.3746587501
 20
42.7090000451
 30
0.0
 10
109.3759227101
 20
42.70923494889999
 30
0.0
 10
109.3773525825
 20
42.7094691042
 30
0.0
 10
109.3795862803
 20
42.7097954495
 30
0.0
 10
109.3827878929999
 20
42.7101924259
 30
0.0
 10
109.3871157595
 20
42.7106444358
 30
0.0
 10
109.3941463315
 20
42.7112743083
 30
0.0
 10
109.4044653708
 20
42.71201570499999
 30
0.0
 10
109.4186112405
 20
42.7128254688
 30
0.0
 10
109.435001361
 20
42.7135864174
 30
0.0
 10
109.4534780679
 20
42.7142905012
 30
0.0
 10
109.4738636623
 20
42.7149297457
 30
0.0
 10
109.4959618976
 20
42.7154975141
 30
0.0
 10
109.519560018
 20
42.7159879449
 30
0.0
 10
109.5444307944
 20
42.7163960669
 30
0.0
 10
109.570334738
 20
42.7167178169
 30
0.0
 10
109.6062111337
 20
42.71702972639999
 30
0.0
 10
109.633425907
 20
42.7171213172
 30
0.0
 10
109.6517157343
 20
42.7171213172
 30
0.0
  0
SPLINE
  5
18F0
330
20A
100
AcDbEntity
  8
DEFAULT_2
  6
HIDDEN
 62
     8
100
AcDbSpline
210
0.0
220
0.0
230
1.0
 70
     8
 71
     3
 72
    34
 73
    30
 74
     0
 42
0.0000001
 43
0.0000000001
 40
0.0
 40
0.0
 40
0.0
 40
0.0
 40
0.0004337258
 40
0.0009166206
 40
0.0014852009
 40
0.002162225
 40
0.003888673
 40
0.0061549168
 40
0.008983631
 40
0.0123852116
 40
0.0163644944
 40
0.0209233814
 40
0.0260619044
 40
0.0317790013
 40
0.0449397527
 40
0.0603819733
 40
0.0780731431
 40
0.097973739
 40
0.1200379867
 40
0.1704454316
 40
0.2288191356
 40
0.2946024385
 40
0.3671656457
 40
0.4458127874000001
 40
0.5297886884000001
 40
0.6182864430000001
 40
0.71045532
 40
0.8054090499999999
 40
1.0
 40
1.0
 40
1.0
 40
1.0
 10
109.3079657343
 20
42.70730583379999
 30
0.0
 10
109.3079657343
 20
42.70735565939999
 30
0.0
 10
109.3079855289
 20
42.70746159659999
 30
0.0
 10
109.3080693794
 20
42.70761253369999
 30
0.0
 10
109.3082038407
 20
42.7077603086
 30
0.0
 10
109.3084724354
 20
42.7079727355
 30
0.0
 10
109.3089483682
 20
42.70822706789999
 30
0.0
 10
109.3096782633
 20
42.70851358859999
 30
0.0
 10
109.3106119169
 20
42.70880095859999
 30
0.0
 10
109.3117491704
 20
42.7090888326
 30
0.0
 10
109.3130905307
 20
42.70937653499999
 30
0.0
 10
109.3146353712
 20
42.70966364209999
 30
0.0
 10
109.3163829926
 20
42.7099498308
 30
0.0
 10
109.3191130691
 20
42.7103486965
 30
0.0
 10
109.3230261516
 20
42.7108339042
 30
0.0
 10
109.3283157737
 20
42.7113862848
 30
0.0
 10
109.3343840583
 20
42.7119302941
 30
0.0
 10
109.3412164931
 20
42.7124644332
 30
0.0
 10
109.3518030637
 20
42.7131938588
 30
0.0
 10
109.3668103118
 20
42.714051701
 30
0.0
 10
109.3868425878
 20
42.71498221699999
 30
0.0
 10
109.4094252626
 20
42.7158426132
 30
0.0
 10
109.4343409778
 20
42.71662395919999
 30
0.0
 10
109.4613499326
 20
42.7173178846
 30
0.0
 10
109.4901920793
 20
42.717917304
 30
0.0
 10
109.5205896969
 20
42.7184161181
 30
0.0
 10
109.5522500734
 20
42.7188093687
 30
0.0
 10
109.596099001
 20
42.7191905916
 30
0.0
 10
109.6293615014
 20
42.71930253579999
 30
0.0
 10
109.6517157343
 20
42.71930253579999
 30
0.0
  0
SPLINE
  5
18F1
330
20A
100
AcDbEntity
  8
DEFAULT_2
  6
HIDDEN
 62
     8
100
AcDbSpline
210
0.0
220
0.0
230
1.0
 70
     8
 71
     3
 72
    34
 73
    30
 74
     0
 42
0.0000001
 43
0.0000000001
 40
0.0
 40
0.0
 40
0.0
 40
0.0
 40
0.0004337258
 40
0.0009166206
 40
0.0014852009
 40
0.002162225
 40
0.003888673
 40
0.0061549168
 40
0.008983631
 40
0.0123852116
 40
0.0163644944
 40
0.0209233814
 40
0.0260619044
 40
0.0317790013
 40
0.0449397527
 40
0.0603819733
 40
0.0780731431
 40
0.097973739
 40
0.1200379867
 40
0.1704454316
 40
0.2288191356
 40
0.2946024385
 40
0.3671656457
 40
0.4458127874000001
 40
0.5297886884000001
 40
0.6182864430000001
 40
0.71045532
 40
0.8054090499999999
 40
1.0
 40
1.0
 40
1.0
 40
1.0
 10
109.3079657343
 20
42.7385367971
 30
0.0
 10
109.3079657343
 20
42.7385866227
 30
0.0
 10
109.3079855289
 20
42.73869256
 30
0.0
 10
109.3080693794
 20
42.738843497
 30
0.0
 10
109.3082038407
 20
42.73899127199999
 30
0.0
 10
109.3084724354
 20
42.73920369889999
 30
0.0
 10
109.3089483682
 20
42.7394580312
 30
0.0
 10
109.3096782633
 20
42.739744552
 30
0.0
 10
109.3106119169
 20
42.7400319219
 30
0.0
 10
109.3117491704
 20
42.740319796
 30
0.0
 10
109.3130905307
 20
42.7406074983
 30
0.0
 10
109.3146353712
 20
42.7408946055
 30
0.0
 10
109.3163829926
 20
42.74118079409999
 30
0.0
 10
109.3191130691
 20
42.74157965989999
 30
0.0
 10
109.3230261516
 20
42.74206486749999
 30
0.0
 10
109.3283157737
 20
42.74261724809999
 30
0.0
 10
109.3343840583
 20
42.74316125739999
 30
0.0
 10
109.3412164931
 20
42.74369539659999
 30
0.0
 10
109.3518030637
 20
42.74442482219999
 30
0.0
 10
109.3668103118
 20
42.74528266439999
 30
0.0
 10
109.3868425878
 20
42.7462131803
 30
0.0
 10
109.4094252626
 20
42.7470735765
 30
0.0
 10
109.4343409778
 20
42.7478549226
 30
0.0
 10
109.4613499326
 20
42.74854884789999
 30
0.0
 10
109.4901920793
 20
42.74914826739999
 30
0.0
 10
109.5205896969
 20
42.7496470815
 30
0.0
 10
109.5522500734
 20
42.750040332
 30
0.0
 10
109.596099001
 20
42.7504215549
 30
0.0
 10
109.6293615014
 20
42.7505334991
 30
0.0
 10
109.6517157343
 20
42.7505334991
 30
0.0
  0
SPLINE
  5
18F2
330
20A
100
AcDbEntity
  8
DEFAULT_2
  6
HIDDEN
 62
     8
100
AcDbSpline
210
0.0
220
0.0
230
1.0
 70
     8
 71
     3
 72
    34
 73
    30
 74
     0
 42
0.0000001
 43
0.0000000001
 40
0.0
 40
0.0
 40
0.0
 40
0.0
 40
0.010402927
 40
0.0207454799
 40
0.0309559563
 40
0.0409387455
 40
0.0505562939
 40
0.0596284406
 40
0.0753193626
 40
0.0872177203
 40
0.0961176405
 40
0.109610824
 40
0.1216023018
 40
0.1341600703
 40
0.1480620898
 40
0.163640896
 40
0.181047376
 40
0.2003453429
 40
0.244653779
 40
0.2964123977
 40
0.3552333602
 40
0.4205888412
 40
0.4918505770000001
 40
0.5683113756
 40
0.6491998245000001
 40
0.7336922944
 40
0.8209238069999999
 40
0.909998445
 40
1.0
 40
1.0
 40
1.0
 40
1.0
 10
109.2454657591
 20
42.7385366818
 30
0.0
 10
109.2454657426
 20
42.7400104857
 30
0.0
 10
109.2456713352
 20
42.74295367219999
 30
0.0
 10
109.2465836713
 20
42.7472570111
 30
0.0
 10
109.248057616
 20
42.7513387957
 30
0.0
 10
109.2500187913
 20
42.7550931401
 30
0.0
 10
109.2523583037
 20
42.7584278348
 30
0.0
 10
109.2556313922
 20
42.7620482964
 30
0.0
 10
109.2597217901
 20
42.76531328989999
 30
0.0
 10
109.264272613
 20
42.7678003828
 30
0.0
 10
109.2687882986
 20
42.7696112344
 30
0.0
 10
109.2734917535
 20
42.7709196006
 30
0.0
 10
109.2787831185
 20
42.77195360719999
 30
0.0
 10
109.2841706666
 20
42.7727671998
 30
0.0
 10
109.2900825976
 20
42.77349168579999
 30
0.0
 10
109.2966908007
 20
42.7741701567
 30
0.0
 10
109.3040696191
 20
42.774818787
 30
0.0
 10
109.31551373
 20
42.7756930036
 30
0.0
 10
109.3318269007
 20
42.7767082103
 30
0.0
 10
109.3537432846
 20
42.7778015519
 30
0.0
 10
109.3786482388
 20
42.7788105025
 30
0.0
 10
109.4063213984
 20
42.7797267278
 30
0.0
 10
109.4364977754
 20
42.780540924
 30
0.0
 10
109.4688780387
 20
42.78124482379999
 30
0.0
 10
109.5031353422
 20
42.7818310867
 30
0.0
 10
109.5389205685
 20
42.78229358359999
 30
0.0
 10
109.5758670217
 20
42.7826274569
 30
0.0
 10
109.6135949171
 20
42.7828291971
 30
0.0
 10
109.6389650304
 20
42.78287410839999
 30
0.0
 10
109.6517157343
 20
42.78287410839999
 30
0.0
  0
SPLINE
  5
18F3
330
20A
100
AcDbEntity
  8
DEFAULT_2
  6
HIDDEN
 62
     8
100
AcDbSpline
210
0.0
220
0.0
230
1.0
 70
     8
 71
     3
 72
    28
 73
    24
 74
     0
 42
0.0000001
 43
0.0000000001
 40
0.0
 40
0.0
 40
0.0
 40
0.0
 40
0.1816606719
 40
0.3575616894
 40
0.4415943449000001
 40
0.5221125637
 40
0.5984695739000001
 40
0.6700470839000001
 40
0.7362577547
 40
0.7965456716000001
 40
0.8503826890999999
 40
0.8747221545
 40
0.8972567665000001
 40
0.9179197543999999
 40
0.9366386581
 40
0.9533300695999999
 40
0.9678899881999999
 40
0.9801746194999999
 40
0.9899594537999998
 40
0.9938015262
 40
0.9968450293
 40
0.9989720643
 40
1.0
 40
1.0
 40
1.0
 40
1.0
 10
109.6517157343
 20
42.7566994859
 30
0.0
 10
109.6296679558
 20
42.7566994859
 30
0.0
 10
109.5862713256
 20
42.7568324957
 30
0.0
 10
109.5326778694
 20
42.7573347775
 30
0.0
 10
109.4913623049
 20
42.7579416804
 30
0.0
 10
109.4621287301
 20
42.7584819876
 30
0.0
 10
109.4344089104
 20
42.75910958699999
 30
0.0
 10
109.4084281327
 20
42.759819051
 30
0.0
 10
109.384400723
 20
42.7606038577
 30
0.0
 10
109.3625302241
 20
42.76145656199999
 30
0.0
 10
109.3457431072
 20
42.76223986409999
 30
0.0
 10
109.3335379191
 20
42.7629022698
 30
0.0
 10
109.3253557394
 20
42.7633930434
 30
0.0
 10
109.3178576158
 20
42.763892512
 30
0.0
 10
109.3110708238
 20
42.7643979228
 30
0.0
 10
109.3050272051
 20
42.7649053946
 30
0.0
 10
109.2997671945
 20
42.7654086872
 30
0.0
 10
109.2953483792
 20
42.76589773949999
 30
0.0
 10
109.2922294508
 20
42.7663032407
 30
0.0
 10
109.2902292028
 20
42.7666079167
 30
0.0
 10
109.2891506149
 20
42.7667904246
 30
0.0
 10
109.2884115675
 20
42.7669311605
 30
0.0
 10
109.2880369569
 20
42.7670107965
 30
0.0
 10
109.2879155901
 20
42.7670396888
 30
0.0
  0
SPLINE
  5
18F4
330
20A
100
AcDbEntity
  8
DEFAULT_2
  6
HIDDEN
 62
     8
100
AcDbSpline
210
0.0
220
0.0
230
1.0
 70
     8
 71
     3
 72
    36
 73
    32
 74
     0
 42
0.0000001
 43
0.0000000001
 40
0.0
 40
0.0
 40
0.0
 40
0.0
 40
0.0004337217
 40
0.0009166046
 40
0.0014851921
 40
0.0021622353
 40
0.0029612117
 40
0.0038902602
 40
0.0061565217
 40
0.0089852174
 40
0.0123867947
 40
0.0163660777
 40
0.0209249386
 40
0.0260634784
 40
0.0317805311
 40
0.0449412556
 40
0.060383451
 40
0.0780745958
 40
0.0979751641
 40
0.1200393785
 40
0.1704467295
 40
0.2288203114
 40
0.2946034796
 40
0.3671665478
 40
0.4458135475000001
 40
0.5297892945
 40
0.6182868789000001
 40
0.7104555783
 40
0.8054091306
 40
0.9022342952999998
 40
1.0
 40
1.0
 40
1.0
 40
1.0
 10
108.9642157435
 20
42.7310413659
 30
0.0
 10
108.9642157435
 20
42.7311047798
 30
0.0
 10
108.9642409284
 20
42.7312396057
 30
0.0
 10
108.9643476288
 20
42.7314317238
 30
0.0
 10
108.9645188094
 20
42.73161975059999
 30
0.0
 10
108.9647537968
 20
42.7318059654
 30
0.0
 10
108.9650530424
 20
42.73199168509999
 30
0.0
 10
108.9655739083
 20
42.7322569019
 30
0.0
 10
108.9663957847
 20
42.7325783121
 30
0.0
 10
108.9675834355
 20
42.7329443228
 30
0.0
 10
108.9690310736
 20
42.7333106135
 30
0.0
 10
108.9707381827
 20
42.73367681009999
 30
0.0
 10
108.9727043701
 20
42.73404221289999
 30
0.0
 10
108.9749286049
 20
42.73440645069999
 30
0.0
 10
108.9784032486
 20
42.73491410320001
 30
0.0
 10
108.9833835296
 20
42.7355316367
 30
0.0
 10
108.990115778
 20
42.7362346677
 30
0.0
 10
108.9978390525
 20
42.7369270426
 30
0.0
 10
109.0065348828
 20
42.7376068561
 30
0.0
 10
109.0200087029
 20
42.7385352156
 30
0.0
 10
109.0391088368
 20
42.73962701489999
 30
0.0
 10
109.064604458
 20
42.74081130819999
 30
0.0
 10
109.0933460409
 20
42.7419063581
 30
0.0
 10
109.1250569507
 20
42.7429007985
 30
0.0
 10
109.1594319859
 20
42.74378397649999
 30
0.0
 10
109.1961401738
 20
42.7445468715
 30
0.0
 10
109.2348280526
 20
42.74518173519999
 30
0.0
 10
109.2751230702
 20
42.74568219899999
 30
0.0
 10
109.3166371835
 20
42.74604326699999
 30
0.0
 10
109.3589706261
 20
42.7462613506
 30
0.0
 10
109.3874215347
 20
42.74630989579999
 30
0.0
 10
109.4017157343
 20
42.74630989579999
 30
0.0
  0
SPLINE
  5
18F5
330
20A
100
AcDbEntity
  8
DEFAULT_2
  6
HIDDEN
 62
     8
100
AcDbSpline
210
0.0
220
0.0
230
1.0
 70
     8
 71
     3
 72
    36
 73
    32
 74
     0
 42
0.0000001
 43
0.0000000001
 40
0.0
 40
0.0
 40
0.0
 40
0.0
 40
0.0977657047
 40
0.1945908694
 40
0.2895444217
 40
0.3817131211
 40
0.4702107055
 40
0.5541864525
 40
0.6328334522
 40
0.7053965204000001
 40
0.7711796886000001
 40
0.8295532704999999
 40
0.8799606215
 40
0.9020248358999999
 40
0.9219254041999999
 40
0.9396165489999999
 40
0.9550587443999999
 40
0.9682194688999999
 40
0.9739365215999999
 40
0.9790750614
 40
0.9836339222999999
 40
0.9876132052999999
 40
0.9910147826000001
 40
0.9938434782999999
 40
0.9961097397999999
 40
0.9970387883
 40
0.9978377647
 40
0.9985148079
 40
0.9990833953999999
 40
0.9995662783
 40
1.0
 40
1.0
 40
1.0
 40
1.0
 10
112.5267157343
 20
42.74630989579999
 30
0.0
 10
112.541009934
 20
42.74630989579999
 30
0.0
 10
112.5694608426
 20
42.7462613506
 30
0.0
 10
112.6117942851
 20
42.74604326699999
 30
0.0
 10
112.6533083985
 20
42.74568219899999
 30
0.0
 10
112.6936034161
 20
42.74518173519999
 30
0.0
 10
112.7322912949
 20
42.7445468715
 30
0.0
 10
112.7689994828
 20
42.74378397649999
 30
0.0
 10
112.803374518
 20
42.7429007985
 30
0.0
 10
112.8350854277
 20
42.7419063581
 30
0.0
 10
112.8638270107
 20
42.74081130819999
 30
0.0
 10
112.8893226318
 20
42.73962701489999
 30
0.0
 10
112.9084227658
 20
42.7385352156
 30
0.0
 10
112.9218965859
 20
42.7376068561
 30
0.0
 10
112.9305924161
 20
42.7369270426
 30
0.0
 10
112.9383156907
 20
42.7362346677
 30
0.0
 10
112.945047939
 20
42.7355316367
 30
0.0
 10
112.95002822
 20
42.73491410320001
 30
0.0
 10
112.9535028637
 20
42.73440645069999
 30
0.0
 10
112.9557270986
 20
42.73404221289999
 30
0.0
 10
112.957693286
 20
42.73367681009999
 30
0.0
 10
112.959400395
 20
42.7333106135
 30
0.0
 10
112.9608480332
 20
42.7329443228
 30
0.0
 10
112.962035684
 20
42.7325783121
 30
0.0
 10
112.9628575604
 20
42.7322569019
 30
0.0
 10
112.9633784263
 20
42.73199168509999
 30
0.0
 10
112.9636776719
 20
42.7318059654
 30
0.0
 10
112.9639126592
 20
42.73161975059999
 30
0.0
 10
112.9640838399
 20
42.7314317238
 30
0.0
 10
112.9641905403
 20
42.7312396057
 30
0.0
 10
112.9642157252
 20
42.7311047798
 30
0.0
 10
112.9642157252
 20
42.7310413659
 30
0.0
  0
SPLINE
  5
18F6
330
20A
100
AcDbEntity
  8
DEFAULT_2
  6
HIDDEN
 62
     8
100
AcDbSpline
210
0.0
220
0.0
230
1.0
 70
     8
 71
     3
 72
    36
 73
    32
 74
     0
 42
0.0000001
 43
0.0000000001
 40
0.0
 40
0.0
 40
0.0
 40
0.0
 40
0.0977656828
 40
0.1945908668
 40
0.2895444221
 40
0.3817131203
 40
0.4702107014
 40
0.5541864460000001
 40
0.6328334500000001
 40
0.7053965274
 40
0.7711796995999999
 40
0.8295532770999999
 40
0.8799606173
 40
0.9020248255
 40
0.9219253885999998
 40
0.9396165304
 40
0.9550587267
 40
0.9682194562999999
 40
0.9739365279999999
 40
0.9790750564999999
 40
0.9836339212
 40
0.9876132089
 40
0.9910147737999999
 40
0.9938434890999999
 40
0.9961097249999999
 40
0.9970387961
 40
0.9978377791999999
 40
0.9985148033999999
 40
0.9990833820999998
 40
0.9995662751999999
 40
1.0
 40
1.0
 40
1.0
 40
1.0
 10
112.5267157343
 20
42.7225743636
 30
0.0
 10
112.5410099308
 20
42.7225743636
 30
0.0
 10
112.5694608391
 20
42.7225258184
 30
0.0
 10
112.6117942818
 20
42.722307735
 30
0.0
 10
112.6533083982
 20
42.72194666699999
 30
0.0
 10
112.6936034157
 20
42.7214462031
 30
0.0
 10
112.7322912936
 20
42.72081133919999
 30
0.0
 10
112.7689994813
 20
42.7200484442
 30
0.0
 10
112.8033745182
 20
42.7191652662
 30
0.0
 10
112.8350854305
 20
42.7181708262
 30
0.0
 10
112.8638270148
 20
42.71707577629999
 30
0.0
 10
112.8893226344
 20
42.7158914829
 30
0.0
 10
112.9084227652
 20
42.71479968349999
 30
0.0
 10
112.921896582
 20
42.7138713238
 30
0.0
 10
112.9305924102
 20
42.7131915104
 30
0.0
 10
112.9383156837
 20
42.7124991352
 30
0.0
 10
112.9450479326
 20
42.71179610489999
 30
0.0
 10
112.950028217
 20
42.7111785694
 30
0.0
 10
112.953502863
 20
42.7106709199
 30
0.0
 10
112.9557270993
 20
42.71030668019999
 30
0.0
 10
112.9576932862
 20
42.70994127739999
 30
0.0
 10
112.9594003955
 20
42.7095750836
 30
0.0
 10
112.9608480333
 20
42.7092087864
 30
0.0
 10
112.9620356854
 20
42.70884278679999
 30
0.0
 10
112.9628575584
 20
42.7085213626
 30
0.0
 10
112.963378429
 20
42.70825615429999
 30
0.0
 10
112.9636776783
 20
42.7080704373
 30
0.0
 10
112.9639126587
 20
42.7078842176
 30
0.0
 10
112.9640838304
 20
42.7076961873
 30
0.0
 10
112.9641905401
 20
42.7075040753
 30
0.0
 10
112.9642157343
 20
42.7073692482
 30
0.0
 10
112.9642157343
 20
42.70730583379999
 30
0.0
  0
SPLINE
  5
18F7
330
20A
100
AcDbEntity
  8
DEFAULT_2
  6
HIDDEN
 62
     8
100
AcDbSpline
210
0.0
220
0.0
230
1.0
 70
     8
 71
     3
 72
    35
 73
    31
 74
     0
 42
0.0000001
 43
0.0000000001
 40
0.0
 40
0.0
 40
0.0
 40
0.0
 40
0.0977658208
 40
0.1945911776
 40
0.2895448892
 40
0.3817137358
 40
0.4702114575
 40
0.5541873339
 40
0.6328344609000001
 40
0.7053976546
 40
0.7711809387000001
 40
0.8295546195
 40
0.8799620476000001
 40
0.9020262922
 40
0.9219268864
 40
0.9396180541999999
 40
0.9550602714
 40
0.9682210170999999
 40
0.9739380954999999
 40
0.9790766292
 40
0.9836355104
 40
0.9876147896999999
 40
0.9910163800999999
 40
0.9938450754000001
 40
0.9961113428
 40
0.9978377616999999
 40
0.9985148042
 40
0.9990833929999999
 40
0.9995662774999999
 40
1.0
 40
1.0
 40
1.0
 40
1.0
 10
112.2767157343
 20
42.69312791329999
 30
0.0
 10
112.2899889142
 20
42.69312791329999
 30
0.0
 10
112.3164076144
 20
42.69317299099999
 30
0.0
 10
112.3557172399
 20
42.6933754969
 30
0.0
 10
112.3942660652
 20
42.6937107743
 30
0.0
 10
112.4316828674
 20
42.69417549079999
 30
0.0
 10
112.4676073247
 20
42.69476500729999
 30
0.0
 10
112.5016934979
 20
42.69547340999999
 30
0.0
 10
112.533613174
 20
42.69629350379999
 30
0.0
 10
112.5630590215
 20
42.6972169125
 30
0.0
 10
112.5897476375
 20
42.6982337444
 30
0.0
 10
112.6134221444
 20
42.6993334452
 30
0.0
 10
112.6311579825
 20
42.70034725889999
 30
0.0
 10
112.6436693848
 20
42.7012093072
 30
0.0
 10
112.651744082
 20
42.7018405625
 30
0.0
 10
112.6589156923
 20
42.70248348239999
 30
0.0
 10
112.6651670641
 20
42.70313629639999
 30
0.0
 10
112.669791614
 20
42.7037097219
 30
0.0
 10
112.6730180667
 20
42.70418111139999
 30
0.0
 10
112.6750834365
 20
42.70451933239999
 30
0.0
 10
112.6769091579
 20
42.7048586412
 30
0.0
 10
112.6784944017
 20
42.70519865519999
 30
0.0
 10
112.6798384292
 20
42.7055388643
 30
0.0
 10
112.6809418363
 20
42.7058784936
 30
0.0
 10
112.6818044438
 20
42.7062170935
 30
0.0
 10
112.682366902
 20
42.7065176853
 30
0.0
 10
112.6826843376
 20
42.7067687265
 30
0.0
 10
112.6828432547
 20
42.7069433663
 30
0.0
 10
112.6829423422
 20
42.70712175209999
 30
0.0
 10
112.6829657269
 20
42.7072469494
 30
0.0
 10
112.6829657269
 20
42.70730583379999
 30
0.0
  0
SPLINE
  5
18F8
330
20A
100
AcDbEntity
  8
DEFAULT_2
  6
HIDDEN
 62
     8
100
AcDbSpline
210
0.0
220
0.0
230
1.0
 70
     8
 71
     3
 72
    35
 73
    31
 74
     0
 42
0.0000001
 43
0.0000000001
 40
0.0
 40
0.0
 40
0.0
 40
0.0
 40
0.0977657772
 40
0.1945910918
 40
0.2895447637
 40
0.3817135745
 40
0.4702112654
 40
0.5541871171000001
 40
0.6328342266
 40
0.7053974107
 40
0.7711806940000001
 40
0.8295543832999999
 40
0.8799618295999998
 40
0.9020260870999999
 40
0.9219266967000001
 40
0.9396178824999999
 40
0.9550601201
 40
0.9682208886999999
 40
0.9739379793999999
 40
0.9790765259999998
 40
0.9836354205999999
 40
0.9876147139
 40
0.9910163186
 40
0.9938450287
 40
0.9961113109000001
 40
0.9978377442000001
 40
0.9985147931999998
 40
0.9990833875999999
 40
0.9995662761
 40
1.0
 40
1.0
 40
1.0
 40
1.0
 10
112.2767157343
 20
42.7243588766
 30
0.0
 10
112.2899889079
 20
42.7243588766
 30
0.0
 10
112.3164075958
 20
42.7244039543
 30
0.0
 10
112.3557172033
 20
42.72460645999999
 30
0.0
 10
112.3942660116
 20
42.7249417371
 30
0.0
 10
112.4316827984
 20
42.7254064532
 30
0.0
 10
112.4676072425
 20
42.7259959692
 30
0.0
 10
112.5016934049
 20
42.7267043712
 30
0.0
 10
112.5336130731
 20
42.7275244643
 30
0.0
 10
112.5630589161
 20
42.7284478722
 30
0.0
 10
112.5897475312
 20
42.72946470329999
 30
0.0
 10
112.6134220411
 20
42.7305644033
 30
0.0
 10
112.6311578841
 20
42.73157821619999
 30
0.0
 10
112.6436692925
 20
42.7324402638
 30
0.0
 10
112.6517439958
 20
42.7330715187
 30
0.0
 10
112.6589156133
 20
42.7337144381
 30
0.0
 10
112.6651669933
 20
42.73436725169999
 30
0.0
 10
112.6697915507
 20
42.7349406768
 30
0.0
 10
112.67301801
 20
42.735412066
 30
0.0
 10
112.6750833851
 20
42.73575028679999
 30
0.0
 10
112.676909112
 20
42.7360895954
 30
0.0
 10
112.6784943616
 20
42.7364296092
 30
0.0
 10
112.6798383951
 20
42.7367698182
 30
0.0
 10
112.6809418085
 20
42.7371094473
 30
0.0
 10
112.6818044224
 20
42.73744804719999
 30
0.0
 10
112.6823668861
 20
42.73774863869999
 30
0.0
 10
112.6826843265
 20
42.7379996796
 30
0.0
 10
112.682843247
 20
42.73817431909999
 30
0.0
 10
112.6829423381
 20
42.73835270449999
 30
0.0
 10
112.6829657256
 20
42.7384779021
 30
0.0
 10
112.6829657269
 20
42.7385367866
 30
0.0
  0
SPLINE
  5
18F9
330
20A
100
AcDbEntity
  8
DEFAULT_2
  6
HIDDEN
 62
     8
100
AcDbSpline
210
0.0
220
0.0
230
1.0
 70
     8
 71
     3
 72
    33
 73
    29
 74
     0
 42
0.0000001
 43
0.0000000001
 40
0.0
 40
0.0
 40
0.0
 40
0.0
 40
0.194591044
 40
0.2895448147
 40
0.3817137372
 40
0.4702115216
 40
0.5541874547
 40
0.6328346454
 40
0.705397901
 40
0.7711812203
 40
0.8295549314
 40
0.879962405
 40
0.9219268341999999
 40
0.9396180131000001
 40
0.9550602354
 40
0.9682209854999999
 40
0.9739380857
 40
0.9790766048999998
 40
0.9836355054000001
 40
0.9876147766999999
 40
0.9910163705
 40
0.9938450762999998
 40
0.9961113266999999
 40
0.9978377736
 40
0.9985147966999999
 40
0.9990833779
 40
0.9995662738
 40
1.0
 40
1.0
 40
1.0
 40
1.0
 10
112.2767157343
 20
42.6974903504
 30
0.0
 10
112.2950055617
 20
42.6974903504
 30
0.0
 10
112.322220335
 20
42.6975819412
 30
0.0
 10
112.3580967307
 20
42.69789385070001
 30
0.0
 10
112.3840006742
 20
42.6982156007
 30
0.0
 10
112.4088714507
 20
42.6986237227
 30
0.0
 10
112.4324695711
 20
42.6991141535
 30
0.0
 10
112.4545678064
 20
42.6996819219
 30
0.0
 10
112.4749534008
 20
42.7003211664
 30
0.0
 10
112.4934301077
 20
42.70102525019999
 30
0.0
 10
112.5098202281
 20
42.7017861988
 30
0.0
 10
112.5239660979
 20
42.70259596259999
 30
0.0
 10
112.5342851372
 20
42.7033373593
 30
0.0
 10
112.5413157092
 20
42.7039672318
 30
0.0
 10
112.5456435757
 20
42.7044192417
 30
0.0
 10
112.5488451884
 20
42.7048162181
 30
0.0
 10
112.5510788861
 20
42.7051425634
 30
0.0
 10
112.5525087586
 20
42.7053767187
 30
0.0
 10
112.5537727186
 20
42.70561162249999
 30
0.0
 10
112.5548701956
 20
42.70584701799999
 30
0.0
 10
112.5558006753
 20
42.70608254849999
 30
0.0
 10
112.5565645737
 20
42.7063176719
 30
0.0
 10
112.5571617605
 20
42.7065520963
 30
0.0
 10
112.5575511603
 20
42.70676018679999
 30
0.0
 10
112.557770919
 20
42.70693399099999
 30
0.0
 10
112.5578809329
 20
42.7070548976
 30
0.0
 10
112.5579495385
 20
42.7071783914
 30
0.0
 10
112.5579657343
 20
42.70726506739999
 30
0.0
 10
112.5579657343
 20
42.70730583379999
 30
0.0
  0
SPLINE
  5
18FA
330
20A
100
AcDbEntity
  8
DEFAULT_2
  6
HIDDEN
 62
     8
100
AcDbSpline
210
0.0
220
0.0
230
1.0
 70
     8
 71
     3
 72
    23
 73
    19
 74
     0
 42
0.0000001
 43
0.0000000001
 40
0.0
 40
0.0
 40
0.0
 40
0.0
 40
0.1795105872
 40
0.3535614163
 40
0.5168372967
 40
0.5928461287
 40
0.664298461
 40
0.7306218498
 40
0.7912668536
 40
0.8457003751
 40
0.8933886359999998
 40
0.9337556387999999
 40
0.9509780385999999
 40
0.9660736224999999
 40
0.9788769184999999
 40
0.9891385329
 40
0.9964405829999998
 40
1.0
 40
1.0
 40
1.0
 40
1.0
 10
109.6517157343
 20
42.79342635849999
 30
0.0
 10
109.6392387562
 20
42.79342635849999
 30
0.0
 10
109.6146642113
 20
42.7934999338
 30
0.0
 10
109.578742453
 20
42.79382920839999
 30
0.0
 10
109.550016684
 20
42.79428586939999
 30
0.0
 10
109.5284239091
 20
42.79476095409999
 30
0.0
 10
109.5135698531
 20
42.7951543676
 30
0.0
 10
109.4997853204
 20
42.7955897558
 30
0.0
 10
109.4871856809
 20
42.7960629257
 30
0.0
 10
109.4758836633
 20
42.7965684852
 30
0.0
 10
109.4659940221
 20
42.7970996855
 30
0.0
 10
109.4586919048
 20
42.79757638689999
 30
0.0
 10
109.4536551991
 20
42.7979700996
 30
0.0
 10
109.4505310926
 20
42.79824587639999
 30
0.0
 10
109.4478920808
 20
42.79851223309999
 30
0.0
 10
109.4457954074
 20
42.7987565264
 30
0.0
 10
109.4443411563
 20
42.7989582959
 30
0.0
 10
109.4435956633
 20
42.799078801
 30
0.0
 10
109.4433528933
 20
42.7991264358
 30
0.0
  0
SPLINE
  5
18FB
330
20A
100
AcDbEntity
  8
DEFAULT_2
  6
HIDDEN
 62
     8
100
AcDbSpline
210
0.0
220
0.0
230
1.0
 70
     8
 71
     3
 72
    23
 73
    19
 74
     0
 42
0.0000001
 43
0.0000000001
 40
0.0
 40
0.0
 40
0.0
 40
0.0
 40
0.1795105872
 40
0.3535614163
 40
0.5168372967
 40
0.5928461287
 40
0.664298461
 40
0.7306218498
 40
0.7912668536
 40
0.8457003751
 40
0.8933886359999998
 40
0.9337556387999999
 40
0.9509780385999999
 40
0.9660736224999999
 40
0.9788769184999999
 40
0.9891385329
 40
0.9964405829999998
 40
1.0
 40
1.0
 40
1.0
 40
1.0
 10
112.2767157343
 20
42.79342635849999
 30
0.0
 10
112.2891927124
 20
42.79342635849999
 30
0.0
 10
112.3137672574
 20
42.7934999338
 30
0.0
 10
112.3496890156
 20
42.79382920839999
 30
0.0
 10
112.3784147847
 20
42.79428586939999
 30
0.0
 10
112.4000075595
 20
42.79476095409999
 30
0.0
 10
112.4148616156
 20
42.7951543676
 30
0.0
 10
112.4286461483
 20
42.7955897558
 30
0.0
 10
112.4412457877
 20
42.7960629257
 30
0.0
 10
112.4525478054
 20
42.7965684852
 30
0.0
 10
112.4624374466
 20
42.7970996855
 30
0.0
 10
112.4697395639
 20
42.79757638689999
 30
0.0
 10
112.4747762695
 20
42.7979700996
 30
0.0
 10
112.477900376
 20
42.79824587639999
 30
0.0
 10
112.4805393879
 20
42.79851223309999
 30
0.0
 10
112.4826360613
 20
42.7987565264
 30
0.0
 10
112.4840903123
 20
42.7989582959
 30
0.0
 10
112.4848358054
 20
42.799078801
 30
0.0
 10
112.4850785754
 20
42.7991264358
 30
0.0
  0
SPLINE
  5
18FC
330
20A
100
AcDbEntity
  8
DEFAULT_2
  6
HIDDEN
 62
     8
100
AcDbSpline
210
0.0
220
0.0
230
1.0
 70
     8
 71
     3
 72
    37
 73
    33
 74
     0
 42
0.0000001
 43
0.0000000001
 40
0.0
 40
0.0
 40
0.0
 40
0.0
 40
0.1681749354
 40
0.2497768523
 40
0.3284349997
 40
0.4032338633000001
 40
0.4733159933
 40
0.5379000118000001
 40
0.5963041837
 40
0.6479833639
 40
0.6711844236
 40
0.6926013187000001
 40
0.7122523948000001
 40
0.7302062453
 40
0.7466175363
 40
0.7618007502
 40
0.7764029067
 40
0.7918360338000001
 40
0.8007510414
 40
0.8112714539
 40
0.8241186294
 40
0.8396407024
 40
0.8574155704
 40
0.8766213214
 40
0.8966063226000001
 40
0.9067726534
 40
0.9170124337999999
 40
0.9376257290000001
 40
0.9583605334999999
 40
0.9687609119000001
 40
0.9791723479000001
 40
1.0
 40
1.0
 40
1.0
 40
1.0
 10
112.5267157343
 20
42.81386693099999
 30
0.0
 10
112.5535312787
 20
42.81386693099999
 30
0.0
 10
112.5933585276
 20
42.8137179572
 30
0.0
 10
112.6457252085
 20
42.8132078876
 30
0.0
 10
112.6832018895
 20
42.81268371719999
 30
0.0
 10
112.7188392433
 20
42.8120205448
 30
0.0
 10
112.7522292162
 20
42.81122589079999
 30
0.0
 10
112.7830008996
 20
42.8103086587
 30
0.0
 10
112.810832837
 20
42.8092776744
 30
0.0
 10
112.8320630071
 20
42.8082993823
 30
0.0
 10
112.8473940945
 20
42.8074478823
 30
0.0
 10
112.8576217178
 20
42.8068047094
 30
0.0
 10
112.8670087651
 20
42.80613095929999
 30
0.0
 10
112.8755924659
 20
42.8054196081
 30
0.0
 10
112.8834562312
 20
42.8046552389
 30
0.0
 10
112.8907734159
 20
42.8038022685
 30
0.0
 10
112.8979105468
 20
42.8027716051
 30
0.0
 10
112.9040172284
 20
42.8016206121
 30
0.0
 10
112.9094212514
 20
42.8003073219
 30
0.0
 10
112.9143603711
 20
42.7988480609
 30
0.0
 10
112.9201830626
 20
42.796698057
 30
0.0
 10
112.9268469665
 20
42.79355124179999
 30
0.0
 10
112.9340057349
 20
42.78917440789999
 30
0.0
 10
112.9411381561
 20
42.78351095229999
 30
0.0
 10
112.9466253232
 20
42.7778332425
 30
0.0
 10
112.9506106597
 20
42.7727684779
 30
0.0
 10
112.9542947036
 20
42.76735863039999
 30
0.0
 10
112.9582047794
 20
42.7600893519
 30
0.0
 10
112.9610685592
 20
42.75232011089999
 30
0.0
 10
112.9626925657
 20
42.7458924415
 30
0.0
 10
112.9638619197
 20
42.73935280639999
 30
0.0
 10
112.9642157343
 20
42.7343623414
 30
0.0
 10
112.9642157343
 20
42.7310413659
 30
0.0
  0
SPLINE
  5
18FD
330
20A
100
AcDbEntity
  8
DEFAULT_2
  6
HIDDEN
 62
     8
100
AcDbSpline
210
0.0
220
0.0
230
1.0
 70
     8
 71
     3
 72
    37
 73
    33
 74
     0
 42
0.0000001
 43
0.0000000001
 40
0.0
 40
0.0
 40
0.0
 40
0.0
 40
0.1681749354
 40
0.2497768523
 40
0.3284349997
 40
0.4032338633000001
 40
0.4733159933
 40
0.5379000118000001
 40
0.5963041837
 40
0.6479833639
 40
0.6711844236
 40
0.6926013187000001
 40
0.7122523948000001
 40
0.7302062453
 40
0.7466175363
 40
0.7618007502
 40
0.7764029067
 40
0.7918360338000001
 40
0.8007510414
 40
0.8112714539
 40
0.8241186294
 40
0.8396407024
 40
0.8574155704
 40
0.8766213214
 40
0.8966063226000001
 40
0.9067726534
 40
0.9170124337999999
 40
0.9376257290000001
 40
0.9583605334999999
 40
0.9687609119000001
 40
0.9791723479000001
 40
1.0
 40
1.0
 40
1.0
 40
1.0
 10
109.4017157343
 20
42.81386693099999
 30
0.0
 10
109.37490019
 20
42.81386693099999
 30
0.0
 10
109.3350729411
 20
42.8137179572
 30
0.0
 10
109.2827062601
 20
42.8132078876
 30
0.0
 10
109.2452295792
 20
42.81268371719999
 30
0.0
 10
109.2095922254
 20
42.8120205448
 30
0.0
 10
109.1762022524
 20
42.81122589079999
 30
0.0
 10
109.145430569
 20
42.8103086587
 30
0.0
 10
109.1175986317
 20
42.8092776744
 30
0.0
 10
109.0963684616
 20
42.8082993823
 30
0.0
 10
109.0810373742
 20
42.8074478823
 30
0.0
 10
109.0708097509
 20
42.8068047094
 30
0.0
 10
109.0614227035
 20
42.80613095929999
 30
0.0
 10
109.0528390028
 20
42.8054196081
 30
0.0
 10
109.0449752375
 20
42.8046552389
 30
0.0
 10
109.0376580528
 20
42.8038022685
 30
0.0
 10
109.0305209219
 20
42.8027716051
 30
0.0
 10
109.0244142402
 20
42.8016206121
 30
0.0
 10
109.0190102173
 20
42.8003073219
 30
0.0
 10
109.0140710976
 20
42.7988480609
 30
0.0
 10
109.0082484061
 20
42.796698057
 30
0.0
 10
109.0015845021
 20
42.79355124179999
 30
0.0
 10
108.9944257338
 20
42.78917440789999
 30
0.0
 10
108.9872933125
 20
42.78351095229999
 30
0.0
 10
108.9818061455
 20
42.7778332425
 30
0.0
 10
108.9778208089
 20
42.7727684779
 30
0.0
 10
108.974136765
 20
42.76735863039999
 30
0.0
 10
108.9702266893
 20
42.7600893519
 30
0.0
 10
108.9673629095
 20
42.75232011089999
 30
0.0
 10
108.965738903
 20
42.7458924415
 30
0.0
 10
108.9645695489
 20
42.73935280639999
 30
0.0
 10
108.9642157343
 20
42.7343623414
 30
0.0
 10
108.9642157343
 20
42.7310413659
 30
0.0
  0
SPLINE
  5
18FE
330
20A
100
AcDbEntity
  8
DEFAULT_2
  6
HIDDEN
 62
     8
100
AcDbSpline
210
0.0
220
0.0
230
1.0
 70
     8
 71
     3
 72
    30
 73
    26
 74
     0
 42
0.0000001
 43
0.0000000001
 40
0.0
 40
0.0
 40
0.0
 40
0.0
 40
0.0005323573
 40
0.0010655691
 40
0.0027592833
 40
0.0057135095
 40
0.0100448042
 40
0.0158962097
 40
0.0234192324
 40
0.0327997018
 40
0.0442406283
 40
0.0579699768
 40
0.0742383676
 40
0.0933009471
 40
0.1154150152
 40
0.1408036425
 40
0.2019684529
 40
0.2768887683
 40
0.3638551122
 40
0.4600010406
 40
0.5624842970000001
 40
0.6690722638000001
 40
0.7781882372
 40
0.8887634618999999
 40
1.0
 40
1.0
 40
1.0
 40
1.0
 10
112.6405158786
 20
42.7670396888
 30
0.0
 10
112.6405223077
 20
42.76704121929999
 30
0.0
 10
112.6405465774
 20
42.7670471804
 30
0.0
 10
112.6404910829
 20
42.7670332165
 30
0.0
 10
112.6404472187
 20
42.7670208777
 30
0.0
 10
112.640328933
 20
42.7669880042
 30
0.0
 10
112.640177698
 20
42.7669430402
 30
0.0
 10
112.6399657344
 20
42.7668769576
 30
0.0
 10
112.6396982285
 20
42.76678887
 30
0.0
 10
112.6393657622
 20
42.76667259429999
 30
0.0
 10
112.6389637701
 20
42.76652325869999
 30
0.0
 10
112.6384855477
 20
42.7663334517
 30
0.0
 10
112.6379249828
 20
42.7660951987
 30
0.0
 10
112.6372764129
 20
42.76579845439999
 30
0.0
 10
112.6365354455
 20
42.765432308
 30
0.0
 10
112.6353465202
 20
42.7647944066
 30
0.0
 10
112.6336367952
 20
42.7637434035
 30
0.0
 10
112.6314117561
 20
42.76208818149999
 30
0.0
 10
112.6290454817
 20
42.7599196694
 30
0.0
 10
112.6267146606
 20
42.75723703229999
 30
0.0
 10
112.6245904085
 20
42.7540874489
 30
0.0
 10
112.6228112461
 20
42.7505483905
 30
0.0
 10
112.6214765737
 20
42.74671139489999
 30
0.0
 10
112.6206515119
 20
42.7426749455
 30
0.0
 10
112.6204657565
 20
42.7399177296
 30
0.0
 10
112.620465759
 20
42.7385368203
 30
0.0
  0
SPLINE
  5
18FF
330
20A
100
AcDbEntity
  8
DEFAULT_2
  6
HIDDEN
 62
     8
100
AcDbSpline
210
0.0
220
0.0
230
1.0
 70
     8
 71
     3
 72
    35
 73
    31
 74
     0
 42
0.0000001
 43
0.0000000001
 40
0.0
 40
0.0
 40
0.0
 40
0.0
 40
0.0004337225
 40
0.000916607
 40
0.0014851958
 40
0.0021622383
 40
0.0038886572
 40
0.0061549246
 40
0.0089836199
 40
0.0123852103
 40
0.0163644896
 40
0.0209233708
 40
0.0260619045
 40
0.0317789829
 40
0.0449397286
 40
0.0603819458
 40
0.0780731136
 40
0.0979737078
 40
0.1200379524
 40
0.1704453805
 40
0.2288190613
 40
0.2946023454
 40
0.3671655390999999
 40
0.4458126661
 40
0.5297885425
 40
0.6182862642
 40
0.7104551108
 40
0.8054088224
 40
0.9022341792
 40
1.0
 40
1.0
 40
1.0
 40
1.0
 10
112.6829657269
 20
42.70730583379999
 30
0.0
 10
112.6829657269
 20
42.7073647182
 30
0.0
 10
112.6829423422
 20
42.7074899155
 30
0.0
 10
112.6828432547
 20
42.7076683013
 30
0.0
 10
112.6826843376
 20
42.7078429411
 30
0.0
 10
112.682366902
 20
42.70809398229999
 30
0.0
 10
112.6818044438
 20
42.7083945741
 30
0.0
 10
112.6809418363
 20
42.708733174
 30
0.0
 10
112.6798384292
 20
42.70907280329999
 30
0.0
 10
112.6784944017
 20
42.70941301239999
 30
0.0
 10
112.6769091579
 20
42.7097530264
 30
0.0
 10
112.6750834365
 20
42.7100923352
 30
0.0
 10
112.6730180667
 20
42.7104305562
 30
0.0
 10
112.669791614
 20
42.7109019458
 30
0.0
 10
112.6651670641
 20
42.7114753712
 30
0.0
 10
112.6589156923
 20
42.7121281852
 30
0.0
 10
112.651744082
 20
42.7127711051
 30
0.0
 10
112.6436693848
 20
42.71340236039999
 30
0.0
 10
112.6311579825
 20
42.7142644087
 30
0.0
 10
112.6134221444
 20
42.71527822239999
 30
0.0
 10
112.5897476375
 20
42.71637792319999
 30
0.0
 10
112.5630590215
 20
42.7173947551
 30
0.0
 10
112.533613174
 20
42.71831816379999
 30
0.0
 10
112.5016934979
 20
42.7191382576
 30
0.0
 10
112.4676073247
 20
42.71984666029999
 30
0.0
 10
112.4316828674
 20
42.7204361768
 30
0.0
 10
112.3942660652
 20
42.72090089329999
 30
0.0
 10
112.3557172399
 20
42.7212361707
 30
0.0
 10
112.3164076144
 20
42.7214386766
 30
0.0
 10
112.2899889142
 20
42.72148375429999
 30
0.0
 10
112.2767157343
 20
42.72148375429999
 30
0.0
  0
SPLINE
  5
1900
330
20A
100
AcDbEntity
  8
DEFAULT_2
  6
HIDDEN
 62
     8
100
AcDbSpline
210
0.0
220
0.0
230
1.0
 70
     8
 71
     3
 72
    36
 73
    32
 74
     0
 42
0.0000001
 43
0.0000000001
 40
0.0
 40
0.0
 40
0.0
 40
0.0
 40
0.0004337248
 40
0.0009166179
 40
0.0014851966
 40
0.0021622208
 40
0.0029612039
 40
0.003890275
 40
0.0061565109
 40
0.0089852262
 40
0.0123867911
 40
0.0163660788
 40
0.0209249435
 40
0.026063472
 40
0.0317805437
 40
0.0449412733
 40
0.0603834696
 40
0.0780746114
 40
0.0979751745
 40
0.1200393827
 40
0.1704467229
 40
0.2288203004
 40
0.2946034726
 40
0.36716655
 40
0.445813554
 40
0.5297892986
 40
0.6182868797
 40
0.7104555779
 40
0.8054091331999998
 40
0.9022343171999999
 40
1.0
 40
1.0
 40
1.0
 40
1.0
 10
112.9642157343
 20
42.70730583379999
 30
0.0
 10
112.9642157343
 20
42.7072424194
 30
0.0
 10
112.9641905401
 20
42.70710759229999
 30
0.0
 10
112.9640838304
 20
42.7069154803
 30
0.0
 10
112.9639126587
 20
42.70672745
 30
0.0
 10
112.9636776783
 20
42.7065412303
 30
0.0
 10
112.963378429
 20
42.70635551329999
 30
0.0
 10
112.9628575584
 20
42.706090305
 30
0.0
 10
112.9620356854
 20
42.70576888079999
 30
0.0
 10
112.9608480333
 20
42.7054028812
 30
0.0
 10
112.9594003955
 20
42.705036584
 30
0.0
 10
112.9576932862
 20
42.7046703902
 30
0.0
 10
112.9557270993
 20
42.7043049874
 30
0.0
 10
112.953502863
 20
42.7039407477
 30
0.0
 10
112.950028217
 20
42.7034330982
 30
0.0
 10
112.9450479326
 20
42.7028155627
 30
0.0
 10
112.9383156837
 20
42.7021125324
 30
0.0
 10
112.9305924102
 20
42.7014201572
 30
0.0
 10
112.921896582
 20
42.7007403438
 30
0.0
 10
112.9084227652
 20
42.6998119841
 30
0.0
 10
112.8893226344
 20
42.6987201847
 30
0.0
 10
112.8638270148
 20
42.6975358913
 30
0.0
 10
112.8350854305
 20
42.6964408414
 30
0.0
 10
112.8033745182
 20
42.6954464014
 30
0.0
 10
112.7689994813
 20
42.6945632234
 30
0.0
 10
112.7322912936
 20
42.6938003284
 30
0.0
 10
112.6936034157
 20
42.69316546449999
 30
0.0
 10
112.6533083982
 20
42.6926650006
 30
0.0
 10
112.6117942818
 20
42.6923039326
 30
0.0
 10
112.5694608391
 20
42.6920858492
 30
0.0
 10
112.5410099308
 20
42.692037304
 30
0.0
 10
112.5267157343
 20
42.692037304
 30
0.0
  0
SPLINE
  5
1901
330
20A
100
AcDbEntity
  8
DEFAULT_2
  6
HIDDEN
 62
     8
100
AcDbSpline
210
0.0
220
0.0
230
1.0
 70
     8
 71
     3
 72
    34
 73
    30
 74
     0
 42
0.0000001
 43
0.0000000001
 40
0.0
 40
0.0
 40
0.0
 40
0.0
 40
0.19459095
 40
0.28954468
 40
0.3817135570000001
 40
0.4702113116
 40
0.5541872126000001
 40
0.6328343543
 40
0.7053975615000001
 40
0.7711808644
 40
0.8295545684
 40
0.8799620132999999
 40
0.9020262609999999
 40
0.9219268569
 40
0.9396180267
 40
0.9550602473000001
 40
0.9682209987
 40
0.9739380955999999
 40
0.9790766185999999
 40
0.9836355056
 40
0.9876147883999999
 40
0.991016369
 40
0.9938450831999999
 40
0.996111327
 40
0.9978377749999999
 40
0.9985147990999999
 40
0.9990833794
 40
0.9995662742
 40
1.0
 40
1.0
 40
1.0
 40
1.0
 10
112.2767157343
 20
42.69530913179999
 30
0.0
 10
112.2990699672
 20
42.69530913179999
 30
0.0
 10
112.3323324677
 20
42.695421076
 30
0.0
 10
112.3761813952
 20
42.69580229889999
 30
0.0
 10
112.4078417718
 20
42.6961955495
 30
0.0
 10
112.4382393894
 20
42.6966943636
 30
0.0
 10
112.4670815361
 20
42.697293783
 30
0.0
 10
112.4940904908
 20
42.6979877084
 30
0.0
 10
112.519006206
 20
42.6987690544
 30
0.0
 10
112.5415888809
 20
42.6996294506
 30
0.0
 10
112.5616211568
 20
42.7005599666
 30
0.0
 10
112.576628405
 20
42.7014178088
 30
0.0
 10
112.5872149755
 20
42.7021472344
 30
0.0
 10
112.5940474104
 20
42.7026813735
 30
0.0
 10
112.600115695
 20
42.7032253828
 30
0.0
 10
112.6054053171
 20
42.7037777634
 30
0.0
 10
112.6093183996
 20
42.7042629711
 30
0.0
 10
112.612048476
 20
42.70466183679999
 30
0.0
 10
112.6137960975
 20
42.7049480255
 30
0.0
 10
112.615340938
 20
42.7052351326
 30
0.0
 10
112.6166822983
 20
42.70552283499999
 30
0.0
 10
112.6178195517
 20
42.70581070899999
 30
0.0
 10
112.6187532054
 20
42.706098079
 30
0.0
 10
112.6194831004
 20
42.70638459969999
 30
0.0
 10
112.6199590332
 20
42.7066389321
 30
0.0
 10
112.620227628
 20
42.70685135899999
 30
0.0
 10
112.6203620893
 20
42.70699913389999
 30
0.0
 10
112.6204459398
 20
42.707150071
 30
0.0
 10
112.6204657343
 20
42.7072560082
 30
0.0
 10
112.6204657343
 20
42.70730583379999
 30
0.0
  0
SPLINE
  5
1902
330
20A
100
AcDbEntity
  8
DEFAULT_2
  6
HIDDEN
 62
     8
100
AcDbSpline
210
0.0
220
0.0
230
1.0
 70
     8
 71
     3
 72
    34
 73
    30
 74
     0
 42
0.0000001
 43
0.0000000001
 40
0.0
 40
0.0
 40
0.0
 40
0.0
 40
0.19459095
 40
0.28954468
 40
0.3817135570000001
 40
0.4702113116
 40
0.5541872126000001
 40
0.6328343543
 40
0.7053975615000001
 40
0.7711808644
 40
0.8295545684
 40
0.8799620132999999
 40
0.9020262609999999
 40
0.9219268569
 40
0.9396180267
 40
0.9550602473000001
 40
0.9682209987
 40
0.9739380955999999
 40
0.9790766185999999
 40
0.9836355056
 40
0.9876147883999999
 40
0.991016369
 40
0.9938450831999999
 40
0.996111327
 40
0.9978377749999999
 40
0.9985147990999999
 40
0.9990833794
 40
0.9995662742
 40
1.0
 40
1.0
 40
1.0
 40
1.0
 10
109.6517157343
 20
42.69530913179999
 30
0.0
 10
109.6293615014
 20
42.69530913179999
 30
0.0
 10
109.596099001
 20
42.695421076
 30
0.0
 10
109.5522500734
 20
42.69580229889999
 30
0.0
 10
109.5205896969
 20
42.6961955495
 30
0.0
 10
109.4901920793
 20
42.6966943636
 30
0.0
 10
109.4613499326
 20
42.697293783
 30
0.0
 10
109.4343409778
 20
42.6979877084
 30
0.0
 10
109.4094252626
 20
42.6987690544
 30
0.0
 10
109.3868425878
 20
42.6996294506
 30
0.0
 10
109.3668103118
 20
42.7005599666
 30
0.0
 10
109.3518030637
 20
42.7014178088
 30
0.0
 10
109.3412164931
 20
42.7021472344
 30
0.0
 10
109.3343840583
 20
42.7026813735
 30
0.0
 10
109.3283157737
 20
42.7032253828
 30
0.0
 10
109.3230261516
 20
42.7037777634
 30
0.0
 10
109.3191130691
 20
42.7042629711
 30
0.0
 10
109.3163829926
 20
42.70466183679999
 30
0.0
 10
109.3146353712
 20
42.7049480255
 30
0.0
 10
109.3130905307
 20
42.7052351326
 30
0.0
 10
109.3117491704
 20
42.70552283499999
 30
0.0
 10
109.3106119169
 20
42.70581070899999
 30
0.0
 10
109.3096782633
 20
42.706098079
 30
0.0
 10
109.3089483682
 20
42.70638459969999
 30
0.0
 10
109.3084724354
 20
42.7066389321
 30
0.0
 10
109.3082038407
 20
42.70685135899999
 30
0.0
 10
109.3080693794
 20
42.70699913389999
 30
0.0
 10
109.3079855289
 20
42.707150071
 30
0.0
 10
109.3079657343
 20
42.7072560082
 30
0.0
 10
109.3079657343
 20
42.70730583379999
 30
0.0
  0
SPLINE
  5
1903
330
20A
100
AcDbEntity
  8
DEFAULT_2
  6
HIDDEN
 62
     8
100
AcDbSpline
210
0.0
220
0.0
230
1.0
 70
     8
 71
     3
 72
    30
 73
    26
 74
     0
 42
0.0000001
 43
0.0000000001
 40
0.0
 40
0.0
 40
0.0
 40
0.0
 40
0.0005323573
 40
0.0010655691
 40
0.0027592833
 40
0.0057135095
 40
0.0100448042
 40
0.0158962097
 40
0.0234192324
 40
0.0327997018
 40
0.0442406283
 40
0.0579699768
 40
0.0742383676
 40
0.0933009471
 40
0.1154150152
 40
0.1408036425
 40
0.2019684529
 40
0.2768887683
 40
0.3638551122
 40
0.4600010406
 40
0.5624842970000001
 40
0.6690722638000001
 40
0.7781882372
 40
0.8887634618999999
 40
1.0
 40
1.0
 40
1.0
 40
1.0
 10
109.2879155901
 20
42.7670396888
 30
0.0
 10
109.287909161
 20
42.76704121929999
 30
0.0
 10
109.2878848912
 20
42.7670471804
 30
0.0
 10
109.2879403858
 20
42.7670332165
 30
0.0
 10
109.28798425
 20
42.7670208777
 30
0.0
 10
109.2881025357
 20
42.7669880042
 30
0.0
 10
109.2882537707
 20
42.7669430402
 30
0.0
 10
109.2884657343
 20
42.7668769576
 30
0.0
 10
109.2887332402
 20
42.76678887
 30
0.0
 10
109.2890657065
 20
42.76667259429999
 30
0.0
 10
109.2894676985
 20
42.76652325869999
 30
0.0
 10
109.2899459209
 20
42.7663334517
 30
0.0
 10
109.2905064859
 20
42.7660951987
 30
0.0
 10
109.2911550558
 20
42.76579845439999
 30
0.0
 10
109.2918960232
 20
42.765432308
 30
0.0
 10
109.2930849484
 20
42.7647944066
 30
0.0
 10
109.2947946735
 20
42.7637434035
 30
0.0
 10
109.2970197126
 20
42.76208818149999
 30
0.0
 10
109.299385987
 20
42.7599196694
 30
0.0
 10
109.3017168081
 20
42.75723703229999
 30
0.0
 10
109.3038410602
 20
42.7540874489
 30
0.0
 10
109.3056202226
 20
42.7505483905
 30
0.0
 10
109.306954895
 20
42.74671139489999
 30
0.0
 10
109.3077799568
 20
42.7426749455
 30
0.0
 10
109.3079657122
 20
42.7399177296
 30
0.0
 10
109.3079657096
 20
42.7385368203
 30
0.0
  0
SPLINE
  5
1904
330
20A
100
AcDbEntity
  8
DEFAULT_2
  6
HIDDEN
 62
     8
100
AcDbSpline
210
0.0
220
0.0
230
1.0
 70
     8
 71
     3
 72
    35
 73
    31
 74
     0
 42
0.0000001
 43
0.0000000001
 40
0.0
 40
0.0
 40
0.0
 40
0.0
 40
0.0004337225
 40
0.000916607
 40
0.0014851958
 40
0.0021622383
 40
0.0038886572
 40
0.0061549246
 40
0.0089836199
 40
0.0123852103
 40
0.0163644896
 40
0.0209233708
 40
0.0260619045
 40
0.0317789829
 40
0.0449397286
 40
0.0603819458
 40
0.0780731136
 40
0.0979737078
 40
0.1200379524
 40
0.1704453805
 40
0.2288190613
 40
0.2946023454
 40
0.3671655390999999
 40
0.4458126661
 40
0.5297885425
 40
0.6182862642
 40
0.7104551108
 40
0.8054088224
 40
0.9022341792
 40
1.0
 40
1.0
 40
1.0
 40
1.0
 10
109.2454657418
 20
42.70730583379999
 30
0.0
 10
109.2454657418
 20
42.7073647182
 30
0.0
 10
109.2454891265
 20
42.7074899155
 30
0.0
 10
109.245588214
 20
42.7076683013
 30
0.0
 10
109.245747131
 20
42.7078429411
 30
0.0
 10
109.2460645667
 20
42.70809398229999
 30
0.0
 10
109.2466270249
 20
42.7083945741
 30
0.0
 10
109.2474896324
 20
42.708733174
 30
0.0
 10
109.2485930395
 20
42.70907280329999
 30
0.0
 10
109.249937067
 20
42.70941301239999
 30
0.0
 10
109.2515223108
 20
42.7097530264
 30
0.0
 10
109.2533480322
 20
42.7100923352
 30
0.0
 10
109.255413402
 20
42.7104305562
 30
0.0
 10
109.2586398547
 20
42.7109019458
 30
0.0
 10
109.2632644046
 20
42.7114753712
 30
0.0
 10
109.2695157764
 20
42.7121281852
 30
0.0
 10
109.2766873866
 20
42.7127711051
 30
0.0
 10
109.2847620839
 20
42.71340236039999
 30
0.0
 10
109.2972734862
 20
42.7142644087
 30
0.0
 10
109.3150093242
 20
42.71527822239999
 30
0.0
 10
109.3386838311
 20
42.71637792319999
 30
0.0
 10
109.3653724472
 20
42.7173947551
 30
0.0
 10
109.3948182947
 20
42.71831816379999
 30
0.0
 10
109.4267379708
 20
42.7191382576
 30
0.0
 10
109.4608241439
 20
42.71984666029999
 30
0.0
 10
109.4967486013
 20
42.7204361768
 30
0.0
 10
109.5341654035
 20
42.72090089329999
 30
0.0
 10
109.5727142287
 20
42.7212361707
 30
0.0
 10
109.6120238543
 20
42.7214386766
 30
0.0
 10
109.6384425545
 20
42.72148375429999
 30
0.0
 10
109.6517157343
 20
42.72148375429999
 30
0.0
  0
SPLINE
  5
1905
330
20A
100
AcDbEntity
  8
DEFAULT_2
  6
HIDDEN
 62
     8
100
AcDbSpline
210
0.0
220
0.0
230
1.0
 70
     8
 71
     3
 72
    36
 73
    32
 74
     0
 42
0.0000001
 43
0.0000000001
 40
0.0
 40
0.0
 40
0.0
 40
0.0
 40
0.0004337248
 40
0.0009166179
 40
0.0014851966
 40
0.0021622208
 40
0.0029612039
 40
0.003890275
 40
0.0061565109
 40
0.0089852262
 40
0.0123867911
 40
0.0163660788
 40
0.0209249435
 40
0.026063472
 40
0.0317805437
 40
0.0449412733
 40
0.0603834696
 40
0.0780746114
 40
0.0979751745
 40
0.1200393827
 40
0.1704467229
 40
0.2288203004
 40
0.2946034726
 40
0.36716655
 40
0.445813554
 40
0.5297892986
 40
0.6182868797
 40
0.7104555779
 40
0.8054091331999998
 40
0.9022343171999999
 40
1.0
 40
1.0
 40
1.0
 40
1.0
 10
108.9642157343
 20
42.70730583379999
 30
0.0
 10
108.9642157343
 20
42.7072424194
 30
0.0
 10
108.9642409286
 20
42.70710759229999
 30
0.0
 10
108.9643476382
 20
42.7069154803
 30
0.0
 10
108.96451881
 20
42.70672745
 30
0.0
 10
108.9647537904
 20
42.7065412303
 30
0.0
 10
108.9650530397
 20
42.70635551329999
 30
0.0
 10
108.9655739102
 20
42.706090305
 30
0.0
 10
108.9663957833
 20
42.70576888079999
 30
0.0
 10
108.9675834354
 20
42.7054028812
 30
0.0
 10
108.9690310732
 20
42.705036584
 30
0.0
 10
108.9707381825
 20
42.7046703902
 30
0.0
 10
108.9727043694
 20
42.7043049874
 30
0.0
 10
108.9749286056
 20
42.7039407477
 30
0.0
 10
108.9784032517
 20
42.7034330982
 30
0.0
 10
108.9833835361
 20
42.7028155627
 30
0.0
 10
108.990115785
 20
42.7021125324
 30
0.0
 10
108.9978390584
 20
42.7014201572
 30
0.0
 10
109.0065348866
 20
42.7007403438
 30
0.0
 10
109.0200087035
 20
42.6998119841
 30
0.0
 10
109.0391088343
 20
42.6987201847
 30
0.0
 10
109.0646044538
 20
42.6975358913
 30
0.0
 10
109.0933460381
 20
42.6964408414
 30
0.0
 10
109.1250569505
 20
42.6954464014
 30
0.0
 10
109.1594319874
 20
42.6945632234
 30
0.0
 10
109.1961401751
 20
42.6938003284
 30
0.0
 10
109.234828053
 20
42.69316546449999
 30
0.0
 10
109.2751230704
 20
42.6926650006
 30
0.0
 10
109.3166371869
 20
42.6923039326
 30
0.0
 10
109.3589706296
 20
42.6920858492
 30
0.0
 10
109.3874215379
 20
42.692037304
 30
0.0
 10
109.4017157343
 20
42.692037304
 30
0.0
  0
SPLINE
  5
1906
330
20A
100
AcDbEntity
  8
DEFAULT_2
  6
HIDDEN
 62
     8
100
AcDbSpline
210
0.0
220
0.0
230
1.0
 70
     8
 71
     3
 72
    34
 73
    30
 74
     0
 42
0.0000001
 43
0.0000000001
 40
0.0
 40
0.0
 40
0.0
 40
0.0
 40
0.1945909265
 40
0.2895446456
 40
0.3817135127
 40
0.4702112589
 40
0.5541871531
 40
0.63283429
 40
0.7053974945999999
 40
0.7711807972
 40
0.8295545036
 40
0.8799619534999999
 40
0.9020262046999999
 40
0.9219268047999999
 40
0.9396179795
 40
0.9550602057999999
 40
0.9682209634999999
 40
0.9739380638
 40
0.9790765903
 40
0.9836354809000001
 40
0.9876147676
 40
0.9910163521999999
 40
0.9938450704
 40
0.9961113181999998
 40
0.9978377701999999
 40
0.9985147961
 40
0.9990833779
 40
0.9995662738
 40
1.0
 40
1.0
 40
1.0
 40
1.0
 10
109.6517157343
 20
42.7265400952
 30
0.0
 10
109.6293615043
 20
42.7265400952
 30
0.0
 10
109.596099008
 20
42.72665203939999
 30
0.0
 10
109.5522500859
 20
42.7270332621
 30
0.0
 10
109.5205897129
 20
42.7274265126
 30
0.0
 10
109.4901920984
 20
42.7279253266
 30
0.0
 10
109.4613499542
 20
42.7285247459
 30
0.0
 10
109.4343410013
 20
42.72921867109999
 30
0.0
 10
109.4094252871
 20
42.73000001689999
 30
0.0
 10
109.3868426125
 20
42.7308604129
 30
0.0
 10
109.3668103358
 20
42.7317909287
 30
0.0
 10
109.3518030865
 20
42.7326487707
 30
0.0
 10
109.3412165146
 20
42.7333781962
 30
0.0
 10
109.3343840783
 20
42.7339123352
 30
0.0
 10
109.328315792
 20
42.7344563444
 30
0.0
 10
109.323026168
 20
42.73500872489999
 30
0.0
 10
109.3191130838
 20
42.73549393249999
 30
0.0
 10
109.3163830058
 20
42.7358927982
 30
0.0
 10
109.3146353831
 20
42.7361789868
 30
0.0
 10
109.3130905414
 20
42.7364660938
 30
0.0
 10
109.3117491797
 20
42.7367537962
 30
0.0
 10
109.3106119248
 20
42.73704167019999
 30
0.0
 10
109.3096782697
 20
42.7373290401
 30
0.0
 10
109.3089483732
 20
42.7376155608
 30
0.0
 10
109.3084724391
 20
42.73786989309999
 30
0.0
 10
109.3082038433
 20
42.73808231999999
 30
0.0
 10
109.3080693812
 20
42.7382300948
 30
0.0
 10
109.3079855299
 20
42.7383810318
 30
0.0
 10
109.3079657346
 20
42.7384869691
 30
0.0
 10
109.3079657343
 20
42.7385367947
 30
0.0
  0
SPLINE
  5
1907
330
20A
100
AcDbEntity
  8
DEFAULT_2
  6
HIDDEN
 62
     8
100
AcDbSpline
210
0.0
220
0.0
230
1.0
 70
     8
 71
     3
 72
    36
 73
    32
 74
     0
 42
0.0000001
 43
0.0000000001
 40
0.0
 40
0.0
 40
0.0
 40
0.0
 40
0.0004337217
 40
0.0009166046
 40
0.0014851921
 40
0.0021622353
 40
0.0029612117
 40
0.0038902602
 40
0.0061565217
 40
0.0089852174
 40
0.0123867947
 40
0.0163660777
 40
0.0209249386
 40
0.0260634784
 40
0.0317805311
 40
0.0449412556
 40
0.060383451
 40
0.0780745958
 40
0.0979751641
 40
0.1200393785
 40
0.1704467295
 40
0.2288203114
 40
0.2946034796
 40
0.3671665478
 40
0.4458135475000001
 40
0.5297892945
 40
0.6182868789000001
 40
0.7104555783
 40
0.8054091306
 40
0.9022342952999998
 40
1.0
 40
1.0
 40
1.0
 40
1.0
 10
112.9642157252
 20
42.7310413659
 30
0.0
 10
112.9642157252
 20
42.73097795199999
 30
0.0
 10
112.9641905403
 20
42.73084312619999
 30
0.0
 10
112.9640838399
 20
42.7306510081
 30
0.0
 10
112.9639126592
 20
42.7304629813
 30
0.0
 10
112.9636776719
 20
42.73027676639999
 30
0.0
 10
112.9633784263
 20
42.73009104679999
 30
0.0
 10
112.9628575604
 20
42.72982583
 30
0.0
 10
112.962035684
 20
42.72950441979999
 30
0.0
 10
112.9608480332
 20
42.729138409
 30
0.0
 10
112.959400395
 20
42.7287721184
 30
0.0
 10
112.957693286
 20
42.72840592179999
 30
0.0
 10
112.9557270986
 20
42.7280405189
 30
0.0
 10
112.9535028637
 20
42.72767628119999
 30
0.0
 10
112.95002822
 20
42.7271686287
 30
0.0
 10
112.945047939
 20
42.7265510952
 30
0.0
 10
112.9383156907
 20
42.7258480642
 30
0.0
 10
112.9305924161
 20
42.7251556892
 30
0.0
 10
112.9218965859
 20
42.72447587579999
 30
0.0
 10
112.9084227658
 20
42.7235475162
 30
0.0
 10
112.8893226318
 20
42.722455717
 30
0.0
 10
112.8638270107
 20
42.72127142369999
 30
0.0
 10
112.8350854277
 20
42.7201763738
 30
0.0
 10
112.803374518
 20
42.7191819334
 30
0.0
 10
112.7689994828
 20
42.71829875539999
 30
0.0
 10
112.7322912949
 20
42.71753586039999
 30
0.0
 10
112.6936034161
 20
42.71690099669999
 30
0.0
 10
112.6533083985
 20
42.7164005328
 30
0.0
 10
112.6117942851
 20
42.71603946489999
 30
0.0
 10
112.5694608426
 20
42.7158213813
 30
0.0
 10
112.541009934
 20
42.7157728361
 30
0.0
 10
112.5267157343
 20
42.7157728361
 30
0.0
  0
SPLINE
  5
1908
330
20A
100
AcDbEntity
  8
DEFAULT_2
  6
HIDDEN
 62
     8
100
AcDbSpline
210
0.0
220
0.0
230
1.0
 70
     8
 71
     3
 72
    36
 73
    32
 74
     0
 42
0.0000001
 43
0.0000000001
 40
0.0
 40
0.0
 40
0.0
 40
0.0
 40
0.0977657047
 40
0.1945908694
 40
0.2895444217
 40
0.3817131211
 40
0.4702107055
 40
0.5541864525
 40
0.6328334522
 40
0.7053965204000001
 40
0.7711796886000001
 40
0.8295532704999999
 40
0.8799606215
 40
0.9020248358999999
 40
0.9219254041999999
 40
0.9396165489999999
 40
0.9550587443999999
 40
0.9682194688999999
 40
0.9739365215999999
 40
0.9790750614
 40
0.9836339222999999
 40
0.9876132052999999
 40
0.9910147826000001
 40
0.9938434782999999
 40
0.9961097397999999
 40
0.9970387883
 40
0.9978377647
 40
0.9985148079
 40
0.9990833953999999
 40
0.9995662783
 40
1.0
 40
1.0
 40
1.0
 40
1.0
 10
109.4017157343
 20
42.7157728361
 30
0.0
 10
109.3874215347
 20
42.7157728361
 30
0.0
 10
109.3589706261
 20
42.7158213813
 30
0.0
 10
109.3166371835
 20
42.71603946489999
 30
0.0
 10
109.2751230702
 20
42.7164005328
 30
0.0
 10
109.2348280526
 20
42.71690099669999
 30
0.0
 10
109.1961401738
 20
42.71753586039999
 30
0.0
 10
109.1594319859
 20
42.71829875539999
 30
0.0
 10
109.1250569507
 20
42.7191819334
 30
0.0
 10
109.0933460409
 20
42.7201763738
 30
0.0
 10
109.064604458
 20
42.72127142369999
 30
0.0
 10
109.0391088368
 20
42.722455717
 30
0.0
 10
109.0200087029
 20
42.7235475162
 30
0.0
 10
109.0065348828
 20
42.72447587579999
 30
0.0
 10
108.9978390525
 20
42.7251556892
 30
0.0
 10
108.990115778
 20
42.7258480642
 30
0.0
 10
108.9833835296
 20
42.7265510952
 30
0.0
 10
108.9784032486
 20
42.7271686287
 30
0.0
 10
108.9749286049
 20
42.72767628119999
 30
0.0
 10
108.9727043701
 20
42.7280405189
 30
0.0
 10
108.9707381827
 20
42.72840592179999
 30
0.0
 10
108.9690310736
 20
42.7287721184
 30
0.0
 10
108.9675834355
 20
42.729138409
 30
0.0
 10
108.9663957847
 20
42.72950441979999
 30
0.0
 10
108.9655739083
 20
42.72982583
 30
0.0
 10
108.9650530424
 20
42.73009104679999
 30
0.0
 10
108.9647537968
 20
42.73027676639999
 30
0.0
 10
108.9645188094
 20
42.7304629813
 30
0.0
 10
108.9643476288
 20
42.7306510081
 30
0.0
 10
108.9642409284
 20
42.73084312619999
 30
0.0
 10
108.9642157435
 20
42.73097795199999
 30
0.0
 10
108.9642157435
 20
42.7310413659
 30
0.0
  0
SPLINE
  5
1909
330
20A
100
AcDbEntity
  8
DEFAULT_2
  6
HIDDEN
 62
     8
100
AcDbSpline
210
0.0
220
0.0
230
1.0
 70
     8
 71
     3
 72
    69
 73
    65
 74
     0
 42
0.0000001
 43
0.0000000001
 40
0.0
 40
0.0
 40
0.0
 40
0.0
 40
0.0488829351
 40
0.0972955269
 40
0.1447723455
 40
0.1908567419
 40
0.235105572
 40
0.2770934795
 40
0.3164170196
 40
0.3526985964
 40
0.3855902099000001
 40
0.4006650446
 40
0.4147771092000001
 40
0.4278927842000001
 40
0.4399809424
 40
0.4510130623000001
 40
0.4609633561
 40
0.4698089331000001
 40
0.4775300334000001
 40
0.4809637266
 40
0.4841105151
 40
0.4869690612000001
 40
0.4895383171
 40
0.4918177642
 40
0.4938073971
 40
0.4955081916000001
 40
0.4969225425000001
 40
0.4980556661000001
 40
0.4989188883
 40
0.4992573994
 40
0.4995416896
 40
0.4997831372000001
 40
0.5
 40
0.5002168628
 40
0.5004583104
 40
0.5007426006
 40
0.5010811117000001
 40
0.5019443339000001
 40
0.5030774575
 40
0.5044918084000001
 40
0.5061926029000001
 40
0.5081822358000001
 40
0.5104616829
 40
0.5130309388000001
 40
0.5158894849
 40
0.5190362734000001
 40
0.5224699666000001
 40
0.5301910669
 40
0.5390366439000001
 40
0.5489869377000001
 40
0.5600190576
 40
0.5721072158000001
 40
0.5852228908
 40
0.5993349554
 40
0.6144097901
 40
0.6473014036000001
 40
0.6835829804000002
 40
0.7229065205
 40
0.764894428
 40
0.8091432580999999
 40
0.8552276544999999
 40
0.9027044731
 40
0.9511170648999998
 40
1.0
 40
1.0
 40
1.0
 40
1.0
 10
109.4017157343
 20
42.7881731588
 30
0.0
 10
109.3897085977
 20
42.7881731588
 30
0.0
 10
109.3658098344
 20
42.7882139367
 30
0.0
 10
109.3302497432
 20
42.78839712729999
 30
0.0
 10
109.2953778967
 20
42.78870042389999
 30
0.0
 10
109.2615300828
 20
42.7891208136
 30
0.0
 10
109.229032266
 20
42.789654098
 30
0.0
 10
109.1981973907
 20
42.7902949354
 30
0.0
 10
109.1693223566
 20
42.7910367872
 30
0.0
 10
109.1426852003
 20
42.79187217439999
 30
0.0
 10
109.122006094
 20
42.79265988489999
 30
0.0
 10
109.1067727978
 20
42.79333885249999
 30
0.0
 10
109.0963945961
 20
42.7938513003
 30
0.0
 10
109.086751871
 20
42.79438052169999
 30
0.0
 10
109.0778678251
 20
42.7949251612
 30
0.0
 10
109.0697638244
 20
42.7954837618
 30
0.0
 10
109.0624593094
 20
42.7960547149
 30
0.0
 10
109.0559718089
 20
42.7966364496
 30
0.0
 10
109.051085366
 20
42.79714637499999
 30
0.0
 10
109.0475973637
 20
42.7975644531
 30
0.0
 10
109.0452986736
 20
42.7978674724
 30
0.0
 10
109.0432145519
 20
42.7981720697
 30
0.0
 10
109.0413461822
 20
42.7984780091
 30
0.0
 10
109.0396946084
 20
42.7987849554
 30
0.0
 10
109.0382605717
 20
42.7990925374
 30
0.0
 10
109.0370447448
 20
42.7994002984
 30
0.0
 10
109.0360465842
 20
42.79970752399999
 30
0.0
 10
109.0352662601
 20
42.8000138443
 30
0.0
 10
109.0347574444
 20
42.8002857364
 30
0.0
 10
109.0344702931
 20
42.80051286009999
 30
0.0
 10
109.0343265415
 20
42.8006708016
 30
0.0
 10
109.034236897
 20
42.8008322959
 30
0.0
 10
109.0342057206
 20
42.8009987238
 30
0.0
 10
109.034236897
 20
42.80116515169999
 30
0.0
 10
109.0343265415
 20
42.80132664609999
 30
0.0
 10
109.0344702931
 20
42.8014845875
 30
0.0
 10
109.0347574444
 20
42.8017117113
 30
0.0
 10
109.0352662601
 20
42.8019836033
 30
0.0
 10
109.0360465842
 20
42.8022899237
 30
0.0
 10
109.0370447448
 20
42.80259714929999
 30
0.0
 10
109.0382605717
 20
42.80290491019999
 30
0.0
 10
109.0396946084
 20
42.8032124922
 30
0.0
 10
109.0413461822
 20
42.8035194386
 30
0.0
 10
109.0432145519
 20
42.803825378
 30
0.0
 10
109.0452986736
 20
42.8041299753
 30
0.0
 10
109.0475973637
 20
42.80443299459999
 30
0.0
 10
109.051085366
 20
42.80485107269999
 30
0.0
 10
109.0559718089
 20
42.805360998
 30
0.0
 10
109.0624593094
 20
42.80594273280001
 30
0.0
 10
109.0697638244
 20
42.8065136859
 30
0.0
 10
109.0778678251
 20
42.8070722865
 30
0.0
 10
109.086751871
 20
42.8076169259
 30
0.0
 10
109.0963945961
 20
42.80814614739999
 30
0.0
 10
109.1067727978
 20
42.8086585952
 30
0.0
 10
109.122006094
 20
42.8093375628
 30
0.0
 10
109.1426852003
 20
42.8101252733
 30
0.0
 10
109.1693223566
 20
42.81096066039999
 30
0.0
 10
109.1981973907
 20
42.8117025123
 30
0.0
 10
109.229032266
 20
42.81234334959999
 30
0.0
 10
109.2615300828
 20
42.8128766341
 30
0.0
 10
109.2953778967
 20
42.8132970238
 30
0.0
 10
109.3302497432
 20
42.8136003204
 30
0.0
 10
109.3658098344
 20
42.8137835109
 30
0.0
 10
109.3897085977
 20
42.8138242889
 30
0.0
 10
109.4017157343
 20
42.8138242889
 30
0.0
  0
SPLINE
  5
190A
330
20A
100
AcDbEntity
  8
DEFAULT_2
  6
HIDDEN
 62
     8
100
AcDbSpline
210
0.0
220
0.0
230
1.0
 70
     8
 71
     3
 72
    69
 73
    65
 74
     0
 42
0.0000001
 43
0.0000000001
 40
0.0
 40
0.0
 40
0.0
 40
0.0
 40
0.0488829351
 40
0.0972955269
 40
0.1447723455
 40
0.1908567419
 40
0.235105572
 40
0.2770934795
 40
0.3164170196
 40
0.3526985964
 40
0.3855902099000001
 40
0.4006650446
 40
0.4147771092000001
 40
0.4278927842000001
 40
0.4399809424
 40
0.4510130623000001
 40
0.4609633561
 40
0.4698089331000001
 40
0.4775300334000001
 40
0.4809637266
 40
0.4841105151
 40
0.4869690612000001
 40
0.4895383171
 40
0.4918177642
 40
0.4938073971
 40
0.4955081916000001
 40
0.4969225425000001
 40
0.4980556661000001
 40
0.4989188883
 40
0.4992573994
 40
0.4995416896
 40
0.4997831372000001
 40
0.5
 40
0.5002168628
 40
0.5004583104
 40
0.5007426006
 40
0.5010811117000001
 40
0.5019443339000001
 40
0.5030774575
 40
0.5044918084000001
 40
0.5061926029000001
 40
0.5081822358000001
 40
0.5104616829
 40
0.5130309388000001
 40
0.5158894849
 40
0.5190362734000001
 40
0.5224699666000001
 40
0.5301910669
 40
0.5390366439000001
 40
0.5489869377000001
 40
0.5600190576
 40
0.5721072158000001
 40
0.5852228908
 40
0.5993349554
 40
0.6144097901
 40
0.6473014036000001
 40
0.6835829804000002
 40
0.7229065205
 40
0.764894428
 40
0.8091432580999999
 40
0.8552276544999999
 40
0.9027044731
 40
0.9511170648999998
 40
1.0
 40
1.0
 40
1.0
 40
1.0
 10
112.5267157343
 20
42.8138242889
 30
0.0
 10
112.538722871
 20
42.8138242889
 30
0.0
 10
112.5626216343
 20
42.8137835109
 30
0.0
 10
112.5981817255
 20
42.8136003204
 30
0.0
 10
112.6330535719
 20
42.8132970238
 30
0.0
 10
112.6669013859
 20
42.8128766341
 30
0.0
 10
112.6993992027
 20
42.81234334959999
 30
0.0
 10
112.730234078
 20
42.8117025123
 30
0.0
 10
112.7591091121
 20
42.81096066039999
 30
0.0
 10
112.7857462684
 20
42.8101252733
 30
0.0
 10
112.8064253747
 20
42.8093375628
 30
0.0
 10
112.8216586709
 20
42.8086585952
 30
0.0
 10
112.8320368726
 20
42.80814614739999
 30
0.0
 10
112.8416795977
 20
42.8076169259
 30
0.0
 10
112.8505636436
 20
42.8070722865
 30
0.0
 10
112.8586676443
 20
42.8065136859
 30
0.0
 10
112.8659721592
 20
42.80594273280001
 30
0.0
 10
112.8724596598
 20
42.805360998
 30
0.0
 10
112.8773461027
 20
42.80485107269999
 30
0.0
 10
112.880834105
 20
42.80443299459999
 30
0.0
 10
112.8831327951
 20
42.8041299753
 30
0.0
 10
112.8852169168
 20
42.803825378
 30
0.0
 10
112.8870852865
 20
42.8035194386
 30
0.0
 10
112.8887368603
 20
42.8032124922
 30
0.0
 10
112.890170897
 20
42.80290491019999
 30
0.0
 10
112.8913867238
 20
42.80259714929999
 30
0.0
 10
112.8923848844
 20
42.8022899237
 30
0.0
 10
112.8931652086
 20
42.8019836033
 30
0.0
 10
112.8936740242
 20
42.8017117113
 30
0.0
 10
112.8939611756
 20
42.8014845875
 30
0.0
 10
112.8941049272
 20
42.80132664609999
 30
0.0
 10
112.8941945717
 20
42.80116515169999
 30
0.0
 10
112.894225748
 20
42.8009987238
 30
0.0
 10
112.8941945717
 20
42.8008322959
 30
0.0
 10
112.8941049272
 20
42.8006708016
 30
0.0
 10
112.8939611756
 20
42.80051286009999
 30
0.0
 10
112.8936740242
 20
42.8002857364
 30
0.0
 10
112.8931652086
 20
42.8000138443
 30
0.0
 10
112.8923848844
 20
42.79970752399999
 30
0.0
 10
112.8913867238
 20
42.7994002984
 30
0.0
 10
112.890170897
 20
42.7990925374
 30
0.0
 10
112.8887368603
 20
42.7987849554
 30
0.0
 10
112.8870852865
 20
42.7984780091
 30
0.0
 10
112.8852169168
 20
42.7981720697
 30
0.0
 10
112.8831327951
 20
42.7978674724
 30
0.0
 10
112.880834105
 20
42.7975644531
 30
0.0
 10
112.8773461027
 20
42.79714637499999
 30
0.0
 10
112.8724596598
 20
42.7966364496
 30
0.0
 10
112.8659721592
 20
42.7960547149
 30
0.0
 10
112.8586676443
 20
42.7954837618
 30
0.0
 10
112.8505636436
 20
42.7949251612
 30
0.0
 10
112.8416795977
 20
42.79438052169999
 30
0.0
 10
112.8320368726
 20
42.7938513003
 30
0.0
 10
112.8216586709
 20
42.79333885249999
 30
0.0
 10
112.8064253747
 20
42.79265988489999
 30
0.0
 10
112.7857462684
 20
42.79187217439999
 30
0.0
 10
112.7591091121
 20
42.7910367872
 30
0.0
 10
112.730234078
 20
42.7902949354
 30
0.0
 10
112.6993992027
 20
42.789654098
 30
0.0
 10
112.6669013859
 20
42.7891208136
 30
0.0
 10
112.6330535719
 20
42.78870042389999
 30
0.0
 10
112.5981817255
 20
42.78839712729999
 30
0.0
 10
112.5626216343
 20
42.7882139367
 30
0.0
 10
112.538722871
 20
42.7881731588
 30
0.0
 10
112.5267157343
 20
42.7881731588
 30
0.0
  0
SPLINE
  5
190B
330
20A
100
AcDbEntity
  8
DEFAULT_2
  6
HIDDEN
 62
     8
100
AcDbSpline
210
0.0
220
0.0
230
1.0
 70
     8
 71
     3
 72
    35
 73
    31
 74
     0
 42
0.0000001
 43
0.0000000001
 40
0.0
 40
0.0
 40
0.0
 40
0.0
 40
0.0004337225
 40
0.000916607
 40
0.0014851958
 40
0.0021622383
 40
0.0038886572
 40
0.0061549246
 40
0.0089836199
 40
0.0123852103
 40
0.0163644896
 40
0.0209233708
 40
0.0260619045
 40
0.0317789829
 40
0.0449397286
 40
0.0603819458
 40
0.0780731136
 40
0.0979737078
 40
0.1200379524
 40
0.1704453805
 40
0.2288190613
 40
0.2946023454
 40
0.3671655390999999
 40
0.4458126661
 40
0.5297885425
 40
0.6182862642
 40
0.7104551108
 40
0.8054088224
 40
0.9022341792
 40
1.0
 40
1.0
 40
1.0
 40
1.0
 10
109.2454657418
 20
42.7385367971
 30
0.0
 10
109.2454657418
 20
42.7385956815
 30
0.0
 10
109.2454891265
 20
42.7387208789
 30
0.0
 10
109.245588214
 20
42.73889926469999
 30
0.0
 10
109.245747131
 20
42.73907390449999
 30
0.0
 10
109.2460645667
 20
42.7393249457
 30
0.0
 10
109.2466270249
 20
42.73962553749999
 30
0.0
 10
109.2474896324
 20
42.73996413739999
 30
0.0
 10
109.2485930395
 20
42.74030376659999
 30
0.0
 10
109.249937067
 20
42.7406439758
 30
0.0
 10
109.2515223108
 20
42.7409839898
 30
0.0
 10
109.2533480322
 20
42.7413232986
 30
0.0
 10
109.255413402
 20
42.7416615196
 30
0.0
 10
109.2586398547
 20
42.7421329091
 30
0.0
 10
109.2632644046
 20
42.7427063345
 30
0.0
 10
109.2695157764
 20
42.74335914859999
 30
0.0
 10
109.2766873866
 20
42.7440020684
 30
0.0
 10
109.2847620839
 20
42.74463332369999
 30
0.0
 10
109.2972734862
 20
42.7454953721
 30
0.0
 10
109.3150093242
 20
42.74650918569999
 30
0.0
 10
109.3386838311
 20
42.7476088865
 30
0.0
 10
109.3653724472
 20
42.74862571849999
 30
0.0
 10
109.3948182947
 20
42.7495491271
 30
0.0
 10
109.4267379708
 20
42.75036922099999
 30
0.0
 10
109.4608241439
 20
42.7510776236
 30
0.0
 10
109.4967486013
 20
42.7516671401
 30
0.0
 10
109.5341654035
 20
42.7521318566
 30
0.0
 10
109.5727142287
 20
42.752467134
 30
0.0
 10
109.6120238543
 20
42.75266964
 30
0.0
 10
109.6384425545
 20
42.75271471769999
 30
0.0
 10
109.6517157343
 20
42.75271471769999
 30
0.0
  0
SPLINE
  5
190C
330
20A
100
AcDbEntity
  8
DEFAULT_2
  6
HIDDEN
 62
     8
100
AcDbSpline
210
0.0
220
0.0
230
1.0
 70
     8
 71
     3
 72
    65
 73
    61
 74
     0
 42
0.0000001
 43
0.0000000001
 40
0.0
 40
0.0
 40
0.0
 40
0.0
 40
0.0972954293
 40
0.1447722681
 40
0.1908566896
 40
0.2351055485
 40
0.2770934756
 40
0.3164170441
 40
0.352698622
 40
0.385590272
 40
0.4006651151
 40
0.4147771787
 40
0.4278928582
 40
0.4399810291
 40
0.4510131573
 40
0.4609634441
 40
0.4698090197
 40
0.4775301332
 40
0.4841105186
 40
0.4869690389
 40
0.4895383238
 40
0.4918177520000001
 40
0.4938073923000001
 40
0.4955081965
 40
0.4969225326
 40
0.498055671
 40
0.498918885
 40
0.499257395
 40
0.4995416872
 40
0.4997831368
 40
0.5
 40
0.5002168632
 40
0.5004583128000001
 40
0.5007426050000001
 40
0.501081115
 40
0.501944329
 40
0.5030774674
 40
0.5044918035000001
 40
0.5061926077000001
 40
0.508182248
 40
0.5104616762
 40
0.5130309611000001
 40
0.5158894814
 40
0.5224698668
 40
0.5301909803
 40
0.5390365559000001
 40
0.5489868427
 40
0.5600189709000001
 40
0.5721071418000001
 40
0.5852228213
 40
0.5993348849000001
 40
0.614409728
 40
0.647301378
 40
0.6835829559000001
 40
0.7229065243
 40
0.7648944515000001
 40
0.8091433104
 40
0.8552277318999999
 40
0.9027045706999999
 40
1.0
 40
1.0
 40
1.0
 40
1.0
 10
112.2767157343
 20
42.8085893644
 30
0.0
 10
112.2908598665
 20
42.8085893644
 30
0.0
 10
112.3119059562
 20
42.8085185344
 30
0.0
 10
112.3396503674
 20
42.808277324
 30
0.0
 10
112.3596827506
 20
42.80802850349999
 30
0.0
 10
112.378916152
 20
42.80771289119999
 30
0.0
 10
112.3971653656
 20
42.80733361849999
 30
0.0
 10
112.4142546695
 20
42.8068945645
 30
0.0
 10
112.4300195183
 20
42.8064001502
 30
0.0
 10
112.4422581733
 20
42.8059339553
 30
0.0
 10
112.4512737992
 20
42.8055321173
 30
0.0
 10
112.4574159986
 20
42.8052288314
 30
0.0
 10
112.4631229171
 20
42.80491561929999
 30
0.0
 10
112.4683808219
 20
42.8045932796
 30
0.0
 10
112.4731770695
 20
42.8042626872
 30
0.0
 10
112.4775001384
 20
42.8039247512
 30
0.0
 10
112.4813397064
 20
42.8035805353
 30
0.0
 10
112.4846865964
 20
42.80323102919999
 30
0.0
 10
112.4871625098
 20
42.80292402919999
 30
0.0
 10
112.4888899043
 20
42.80267165019999
 30
0.0
 10
112.4899956703
 20
42.8024905755
 30
0.0
 10
112.4909731341
 20
42.8023089125
 30
0.0
 10
112.4918218489
 20
42.80212687409999
 30
0.0
 10
112.4925414209
 20
42.80194473349999
 30
0.0
 10
112.493132168
 20
42.8017628998
 30
0.0
 10
112.4935939936
 20
42.8015816147
 30
0.0
 10
112.4938951284
 20
42.8014206955
 30
0.0
 10
112.4940650735
 20
42.80128627529999
 30
0.0
 10
112.4941501518
 20
42.8011928002
 30
0.0
 10
112.4942032086
 20
42.8010972223
 30
0.0
 10
112.4942216612
 20
42.8009987238
 30
0.0
 10
112.4942032086
 20
42.8009002253
 30
0.0
 10
112.4941501518
 20
42.8008046475
 30
0.0
 10
112.4940650735
 20
42.8007111724
 30
0.0
 10
112.4938951284
 20
42.8005767521
 30
0.0
 10
112.4935939936
 20
42.800415833
 30
0.0
 10
112.493132168
 20
42.8002345479
 30
0.0
 10
112.4925414209
 20
42.8000527142
 30
0.0
 10
112.4918218489
 20
42.7998705735
 30
0.0
 10
112.4909731341
 20
42.79968853519999
 30
0.0
 10
112.4899956703
 20
42.7995068722
 30
0.0
 10
112.4888899043
 20
42.79932579739999
 30
0.0
 10
112.4871625098
 20
42.7990734185
 30
0.0
 10
112.4846865964
 20
42.7987664185
 30
0.0
 10
112.4813397064
 20
42.7984169124
 30
0.0
 10
112.4775001384
 20
42.7980726965
 30
0.0
 10
112.4731770695
 20
42.79773476049999
 30
0.0
 10
112.4683808219
 20
42.7974041681
 30
0.0
 10
112.4631229171
 20
42.7970818284
 30
0.0
 10
112.4574159986
 20
42.7967686163
 30
0.0
 10
112.4512737992
 20
42.7964653303
 30
0.0
 10
112.4422581733
 20
42.79606349239999
 30
0.0
 10
112.4300195183
 20
42.79559729739999
 30
0.0
 10
112.4142546695
 20
42.7951028832
 30
0.0
 10
112.3971653656
 20
42.79466382909999
 30
0.0
 10
112.378916152
 20
42.7942845564
 30
0.0
 10
112.3596827506
 20
42.7939689442
 30
0.0
 10
112.3396503674
 20
42.7937201236
 30
0.0
 10
112.3119059562
 20
42.7934789132
 30
0.0
 10
112.2908598665
 20
42.7934080833
 30
0.0
 10
112.2767157343
 20
42.7934080833
 30
0.0
  0
SPLINE
  5
190D
330
20A
100
AcDbEntity
  8
DEFAULT_2
  6
HIDDEN
 62
     8
100
AcDbSpline
210
0.0
220
0.0
230
1.0
 70
     8
 71
     3
 72
    65
 73
    61
 74
     0
 42
0.0000001
 43
0.0000000001
 40
0.0
 40
0.0
 40
0.0
 40
0.0
 40
0.0972954293
 40
0.1447722681
 40
0.1908566896
 40
0.2351055485
 40
0.2770934757
 40
0.3164170441
 40
0.352698622
 40
0.385590272
 40
0.4006651151
 40
0.4147771787
 40
0.4278928582
 40
0.4399810291
 40
0.4510131573
 40
0.4609634441
 40
0.4698090197
 40
0.4775301332
 40
0.4841105186
 40
0.4869690389
 40
0.4895383238
 40
0.4918177520000001
 40
0.4938073923000001
 40
0.4955081965
 40
0.4969225326
 40
0.498055671
 40
0.498918885
 40
0.499257395
 40
0.4995416872
 40
0.4997831368
 40
0.5
 40
0.5002168632
 40
0.5004583128000001
 40
0.5007426050000001
 40
0.501081115
 40
0.501944329
 40
0.5030774674
 40
0.5044918035000001
 40
0.5061926077000001
 40
0.508182248
 40
0.5104616762
 40
0.5130309611000001
 40
0.5158894814
 40
0.5224698668
 40
0.5301909803
 40
0.5390365559000001
 40
0.5489868427
 40
0.5600189709000001
 40
0.5721071418000001
 40
0.5852228213
 40
0.5993348849000001
 40
0.614409728
 40
0.647301378
 40
0.6835829559000001
 40
0.7229065244
 40
0.7648944515000001
 40
0.8091433104
 40
0.8552277318999999
 40
0.9027045706999999
 40
1.0
 40
1.0
 40
1.0
 40
1.0
 10
109.6517157343
 20
42.7934080833
 30
0.0
 10
109.6375716022
 20
42.7934080833
 30
0.0
 10
109.6165255125
 20
42.7934789132
 30
0.0
 10
109.5887811013
 20
42.7937201236
 30
0.0
 10
109.5687487181
 20
42.7939689442
 30
0.0
 10
109.5495153167
 20
42.7942845564
 30
0.0
 10
109.5312661031
 20
42.79466382909999
 30
0.0
 10
109.5141767991
 20
42.7951028832
 30
0.0
 10
109.4984119504
 20
42.79559729739999
 30
0.0
 10
109.4861732954
 20
42.79606349239999
 30
0.0
 10
109.4771576695
 20
42.7964653303
 30
0.0
 10
109.4710154701
 20
42.7967686163
 30
0.0
 10
109.4653085516
 20
42.7970818284
 30
0.0
 10
109.4600506468
 20
42.7974041681
 30
0.0
 10
109.4552543992
 20
42.79773476049999
 30
0.0
 10
109.4509313303
 20
42.7980726965
 30
0.0
 10
109.4470917623
 20
42.7984169124
 30
0.0
 10
109.4437448723
 20
42.7987664185
 30
0.0
 10
109.4412689588
 20
42.7990734185
 30
0.0
 10
109.4395415644
 20
42.79932579739999
 30
0.0
 10
109.4384357984
 20
42.7995068722
 30
0.0
 10
109.4374583346
 20
42.79968853519999
 30
0.0
 10
109.4366096198
 20
42.7998705735
 30
0.0
 10
109.4358900478
 20
42.8000527142
 30
0.0
 10
109.4352993007
 20
42.8002345479
 30
0.0
 10
109.4348374751
 20
42.800415833
 30
0.0
 10
109.4345363402
 20
42.8005767521
 30
0.0
 10
109.4343663952
 20
42.8007111724
 30
0.0
 10
109.4342813169
 20
42.8008046475
 30
0.0
 10
109.4342282601
 20
42.8009002253
 30
0.0
 10
109.4342098074
 20
42.8009987238
 30
0.0
 10
109.4342282601
 20
42.8010972223
 30
0.0
 10
109.4342813169
 20
42.8011928002
 30
0.0
 10
109.4343663952
 20
42.80128627529999
 30
0.0
 10
109.4345363402
 20
42.8014206955
 30
0.0
 10
109.4348374751
 20
42.8015816147
 30
0.0
 10
109.4352993007
 20
42.8017628998
 30
0.0
 10
109.4358900478
 20
42.80194473349999
 30
0.0
 10
109.4366096198
 20
42.80212687409999
 30
0.0
 10
109.4374583346
 20
42.8023089125
 30
0.0
 10
109.4384357984
 20
42.8024905755
 30
0.0
 10
109.4395415644
 20
42.80267165019999
 30
0.0
 10
109.4412689588
 20
42.80292402919999
 30
0.0
 10
109.4437448723
 20
42.80323102919999
 30
0.0
 10
109.4470917623
 20
42.8035805353
 30
0.0
 10
109.4509313303
 20
42.8039247512
 30
0.0
 10
109.4552543992
 20
42.8042626872
 30
0.0
 10
109.4600506468
 20
42.8045932796
 30
0.0
 10
109.4653085516
 20
42.80491561929999
 30
0.0
 10
109.4710154701
 20
42.8052288314
 30
0.0
 10
109.4771576695
 20
42.8055321173
 30
0.0
 10
109.4861732954
 20
42.8059339553
 30
0.0
 10
109.4984119504
 20
42.8064001502
 30
0.0
 10
109.5141767992
 20
42.8068945645
 30
0.0
 10
109.5312661031
 20
42.80733361849999
 30
0.0
 10
109.5495153167
 20
42.80771289119999
 30
0.0
 10
109.5687487181
 20
42.80802850349999
 30
0.0
 10
109.5887811013
 20
42.808277324
 30
0.0
 10
109.6165255125
 20
42.8085185344
 30
0.0
 10
109.6375716022
 20
42.8085893644
 30
0.0
 10
109.6517157343
 20
42.8085893644
 30
0.0
  0
SPLINE
  5
190E
330
20A
100
AcDbEntity
  8
DEFAULT_2
  6
HIDDEN
 62
     8
100
AcDbSpline
210
0.0
220
0.0
230
1.0
 70
     8
 71
     3
 72
    30
 73
    26
 74
     0
 42
0.0000001
 43
0.0000000001
 40
0.0
 40
0.0
 40
0.0
 40
0.0
 40
0.0020884459
 40
0.0028874641
 40
0.0038166002
 40
0.0060830552
 40
0.0089119351
 40
0.0123137805
 40
0.0162933766
 40
0.0208525446
 40
0.03170857
 40
0.044870305
 40
0.0603136394
 40
0.0780060853
 40
0.1199735968
 40
0.1703846878
 40
0.2287626935
 40
0.2945507734
 40
0.3671193295
 40
0.4457722076
 40
0.5297542811
 40
0.6182584889000001
 40
0.7104341379000001
 40
0.8053948145999999
 40
1.0
 40
1.0
 40
1.0
 40
1.0
 10
109.4642157343
 20
42.771016999
 30
0.0
 10
109.4642157343
 20
42.7711478531
 30
0.0
 10
109.4643751867
 20
42.7713015228
 30
0.0
 10
109.4645738188
 20
42.7714236242
 30
0.0
 10
109.4647983858
 20
42.77153843759999
 30
0.0
 10
109.4651497853
 20
42.7716754649
 30
0.0
 10
109.4656591295
 20
42.771832634
 30
0.0
 10
109.4662794231
 20
42.77198950259999
 30
0.0
 10
109.467011079
 20
42.7721464996
 30
0.0
 10
109.4682059511
 20
42.7723684134
 30
0.0
 10
109.4699766721
 20
42.772636847
 30
0.0
 10
109.4724304697
 20
42.7729414874
 30
0.0
 10
109.4753157676
 20
42.7732427031
 30
0.0
 10
109.4800027926
 20
42.7736626716
 30
0.0
 10
109.4868821633
 20
42.7741569025
 30
0.0
 10
109.4963127391
 20
42.77469675999999
 30
0.0
 10
109.5072394862
 20
42.77520405279999
 30
0.0
 10
109.5195572928
 20
42.7756734448
 30
0.0
 10
109.5331476868
 20
42.7760996062
 30
0.0
 10
109.5478798446
 20
42.77647811989999
 30
0.0
 10
109.5636119235
 20
42.77680507249999
 30
0.0
 10
109.5801924433
 20
42.7770771547
 30
0.0
 10
109.5974617391
 20
42.7772916539
 30
0.0
 10
109.6213793363
 20
42.77749959469999
 30
0.0
 10
109.6395225172
 20
42.7775606547
 30
0.0
 10
109.6517157343
 20
42.7775606547
 30
0.0
  0
SPLINE
  5
190F
330
20A
100
AcDbEntity
  8
DEFAULT_2
  6
HIDDEN
 62
     8
100
AcDbSpline
210
0.0
220
0.0
230
1.0
 70
     8
 71
     3
 72
    35
 73
    31
 74
     0
 42
0.0000001
 43
0.0000000001
 40
0.0
 40
0.0
 40
0.0
 40
0.0
 40
0.0004337225
 40
0.000916607
 40
0.0014851958
 40
0.0021622383
 40
0.0038886572
 40
0.0061549246
 40
0.0089836199
 40
0.0123852103
 40
0.0163644896
 40
0.0209233708
 40
0.0260619045
 40
0.0317789829
 40
0.0449397286
 40
0.0603819458
 40
0.0780731136
 40
0.0979737078
 40
0.1200379524
 40
0.1704453805
 40
0.2288190613
 40
0.2946023454
 40
0.3671655390999999
 40
0.4458126661
 40
0.5297885425
 40
0.6182862642
 40
0.7104551108
 40
0.8054088224
 40
0.9022341792
 40
1.0
 40
1.0
 40
1.0
 40
1.0
 10
112.6829657269
 20
42.7385367971
 30
0.0
 10
112.6829657269
 20
42.7385956815
 30
0.0
 10
112.6829423422
 20
42.7387208789
 30
0.0
 10
112.6828432547
 20
42.73889926469999
 30
0.0
 10
112.6826843376
 20
42.73907390449999
 30
0.0
 10
112.682366902
 20
42.7393249457
 30
0.0
 10
112.6818044438
 20
42.73962553749999
 30
0.0
 10
112.6809418363
 20
42.73996413739999
 30
0.0
 10
112.6798384292
 20
42.74030376659999
 30
0.0
 10
112.6784944017
 20
42.7406439758
 30
0.0
 10
112.6769091579
 20
42.7409839898
 30
0.0
 10
112.6750834365
 20
42.7413232986
 30
0.0
 10
112.6730180667
 20
42.7416615196
 30
0.0
 10
112.669791614
 20
42.7421329091
 30
0.0
 10
112.6651670641
 20
42.7427063345
 30
0.0
 10
112.6589156923
 20
42.74335914859999
 30
0.0
 10
112.651744082
 20
42.7440020684
 30
0.0
 10
112.6436693848
 20
42.74463332369999
 30
0.0
 10
112.6311579825
 20
42.7454953721
 30
0.0
 10
112.6134221444
 20
42.74650918569999
 30
0.0
 10
112.5897476375
 20
42.7476088865
 30
0.0
 10
112.5630590215
 20
42.74862571849999
 30
0.0
 10
112.533613174
 20
42.7495491271
 30
0.0
 10
112.5016934979
 20
42.75036922099999
 30
0.0
 10
112.4676073247
 20
42.7510776236
 30
0.0
 10
112.4316828674
 20
42.7516671401
 30
0.0
 10
112.3942660652
 20
42.7521318566
 30
0.0
 10
112.3557172399
 20
42.752467134
 30
0.0
 10
112.3164076144
 20
42.75266964
 30
0.0
 10
112.2899889142
 20
42.75271471769999
 30
0.0
 10
112.2767157343
 20
42.75271471769999
 30
0.0
  0
SPLINE
  5
1910
330
20A
100
AcDbEntity
  8
DEFAULT_2
  6
HIDDEN
 62
     8
100
AcDbSpline
210
0.0
220
0.0
230
1.0
 70
     8
 71
     3
 72
    30
 73
    26
 74
     0
 42
0.0000001
 43
0.0000000001
 40
0.0
 40
0.0
 40
0.0
 40
0.0
 40
0.1946051854
 40
0.2895658621
 40
0.3817415111
 40
0.4702457189000001
 40
0.5542277924
 40
0.6328806705
 40
0.7054492266
 40
0.7712373065000002
 40
0.8296153121999999
 40
0.8800264031999999
 40
0.9219939146999999
 40
0.9396863606
 40
0.9551296949999999
 40
0.96829143
 40
0.9791474554
 40
0.9837066233999999
 40
0.9876862195000001
 40
0.9910880648999999
 40
0.9939169448000001
 40
0.9961833997999999
 40
0.9971125359
 40
0.9979115541
 40
1.0
 40
1.0
 40
1.0
 40
1.0
 10
112.2767157343
 20
42.7775606547
 30
0.0
 10
112.2889089515
 20
42.7775606547
 30
0.0
 10
112.3070521324
 20
42.77749959469999
 30
0.0
 10
112.3309697295
 20
42.7772916539
 30
0.0
 10
112.3482390253
 20
42.7770771547
 30
0.0
 10
112.3648195451
 20
42.77680507249999
 30
0.0
 10
112.3805516241
 20
42.77647811989999
 30
0.0
 10
112.3952837819
 20
42.7760996062
 30
0.0
 10
112.4088741759
 20
42.7756734448
 30
0.0
 10
112.4211919824
 20
42.77520405279999
 30
0.0
 10
112.4321187295
 20
42.77469675999999
 30
0.0
 10
112.4415493053
 20
42.7741569025
 30
0.0
 10
112.4484286761
 20
42.7736626716
 30
0.0
 10
112.4531157011
 20
42.7732427031
 30
0.0
 10
112.4560009989
 20
42.7729414874
 30
0.0
 10
112.4584547965
 20
42.772636847
 30
0.0
 10
112.4602255176
 20
42.7723684134
 30
0.0
 10
112.4614203896
 20
42.7721464996
 30
0.0
 10
112.4621520456
 20
42.77198950259999
 30
0.0
 10
112.4627723392
 20
42.771832634
 30
0.0
 10
112.4632816833
 20
42.7716754649
 30
0.0
 10
112.4636330829
 20
42.77153843759999
 30
0.0
 10
112.4638576499
 20
42.7714236242
 30
0.0
 10
112.4640562819
 20
42.7713015228
 30
0.0
 10
112.4642157343
 20
42.7711478531
 30
0.0
 10
112.4642157343
 20
42.771016999
 30
0.0
  0
SPLINE
  5
1911
330
20A
100
AcDbEntity
  8
DEFAULT_2
  6
HIDDEN
 62
     8
100
AcDbSpline
210
0.0
220
0.0
230
1.0
 70
     8
 71
     3
 72
    34
 73
    30
 74
     0
 42
0.0000001
 43
0.0000000001
 40
0.0
 40
0.0
 40
0.0
 40
0.0
 40
0.1945909265
 40
0.2895446456
 40
0.3817135127
 40
0.4702112589
 40
0.5541871531
 40
0.63283429
 40
0.7053974945999999
 40
0.7711807972
 40
0.8295545036
 40
0.8799619534999999
 40
0.9020262046999999
 40
0.9219268047999999
 40
0.9396179795
 40
0.9550602057999999
 40
0.9682209634999999
 40
0.9739380638
 40
0.9790765903
 40
0.9836354809000001
 40
0.9876147676
 40
0.9910163521999999
 40
0.9938450704
 40
0.9961113181999998
 40
0.9978377701999999
 40
0.9985147961
 40
0.9990833779
 40
0.9995662738
 40
1.0
 40
1.0
 40
1.0
 40
1.0
 10
112.2767157343
 20
42.7265400952
 30
0.0
 10
112.2990699644
 20
42.7265400952
 30
0.0
 10
112.3323324606
 20
42.72665203939999
 30
0.0
 10
112.3761813828
 20
42.7270332621
 30
0.0
 10
112.4078417558
 20
42.7274265126
 30
0.0
 10
112.4382393703
 20
42.7279253266
 30
0.0
 10
112.4670815145
 20
42.7285247459
 30
0.0
 10
112.4940904674
 20
42.72921867109999
 30
0.0
 10
112.5190061816
 20
42.73000001689999
 30
0.0
 10
112.5415888562
 20
42.7308604129
 30
0.0
 10
112.5616211328
 20
42.7317909287
 30
0.0
 10
112.5766283822
 20
42.7326487707
 30
0.0
 10
112.5872149541
 20
42.7333781962
 30
0.0
 10
112.5940473904
 20
42.7339123352
 30
0.0
 10
112.6001156767
 20
42.7344563444
 30
0.0
 10
112.6054053006
 20
42.73500872489999
 30
0.0
 10
112.6093183849
 20
42.73549393249999
 30
0.0
 10
112.6120484629
 20
42.7358927982
 30
0.0
 10
112.6137960855
 20
42.7361789868
 30
0.0
 10
112.6153409273
 20
42.7364660938
 30
0.0
 10
112.616682289
 20
42.7367537962
 30
0.0
 10
112.6178195438
 20
42.73704167019999
 30
0.0
 10
112.6187531989
 20
42.7373290401
 30
0.0
 10
112.6194830955
 20
42.7376155608
 30
0.0
 10
112.6199590295
 20
42.73786989309999
 30
0.0
 10
112.6202276254
 20
42.73808231999999
 30
0.0
 10
112.6203620875
 20
42.7382300948
 30
0.0
 10
112.6204459388
 20
42.7383810318
 30
0.0
 10
112.620465734
 20
42.7384869691
 30
0.0
 10
112.6204657343
 20
42.7385367947
 30
0.0
  0
LINE
  5
1912
330
20A
100
AcDbEntity
  8
DEFAULT_2
  6
HIDDEN
 62
     8
100
AcDbLine
 10
109.2129982453
 20
23.0918030622
 30
0.0
 11
109.2099883093
 21
23.0968299204
 31
0.0
  0
LINE
  5
1913
330
20A
100
AcDbEntity
  8
DEFAULT_2
  6
HIDDEN
 62
     8
100
AcDbLine
 10
112.7245367057
 20
23.1069755329
 30
0.0
 11
112.7234218635
 21
23.105107183
 31
0.0
  0
LINE
  5
1914
330
20A
100
AcDbEntity
  8
DEFAULT_2
  6
HIDDEN
 62
     8
100
AcDbLine
 10
113.2658302606
 20
24.00913145760001
 30
0.0
 11
113.2597649056
 21
23.9990328373
 31
0.0
  0
SPLINE
  5
1915
330
20A
100
AcDbEntity
  8
DEFAULT_2
  6
HIDDEN
 62
     8
100
AcDbSpline
210
0.0
220
0.0
230
1.0
 70
     8
 71
     3
 72
     8
 73
     4
 74
     0
 42
0.0000001
 43
0.0000000001
 40
0.0
 40
0.0
 40
0.0
 40
0.0
 40
1.0
 40
1.0
 40
1.0
 40
1.0
 10
121.2794912353
 20
22.4820681682
 30
0.0
 10
121.2939004516
 20
22.4785667183
 30
0.0
 10
121.3078872389
 20
22.4723597161
 30
0.0
 10
121.3201566342
 20
22.4640321953
 30
0.0
  0
LINE
  5
1916
330
20A
100
AcDbEntity
  8
DEFAULT_2
  6
HIDDEN
 62
     8
100
AcDbLine
 10
112.7184435745
 20
23.096830505
 30
0.0
 11
112.7164359238
 21
23.0934777602
 31
0.0
  0
LINE
  5
1917
330
20A
100
AcDbEntity
  8
DEFAULT_2
  6
HIDDEN
 62
     8
100
AcDbLine
 10
112.7164359238
 20
23.0934777602
 30
0.0
 11
112.7154330913
 21
23.0918028421
 31
0.0
  0
LINE
  5
1918
330
20A
100
AcDbEntity
  8
DEFAULT_2
  6
HIDDEN
 62
     8
100
AcDbLine
 10
113.2597649056
 20
23.9990328373
 30
0.0
 11
113.2506277085
 21
23.983783543
 31
0.0
  0
LINE
  5
1919
330
20A
100
AcDbEntity
  8
DEFAULT_2
  6
HIDDEN
 62
     8
100
AcDbLine
 10
113.2506277085
 20
23.983783543
 30
0.0
 11
113.2455241995
 21
23.9752880225
 31
0.0
  0
LINE
  5
191A
330
20A
100
AcDbEntity
  8
DEFAULT_2
  6
HIDDEN
 62
     8
100
AcDbLine
 10
112.7234218635
 20
23.105107183
 30
0.0
 11
112.7184435745
 21
23.096830505
 31
0.0
  0
LINE
  5
191B
330
20A
100
AcDbEntity
  8
DEFAULT_2
  6
HIDDEN
 62
     8
100
AcDbLine
 10
109.2099883093
 20
23.0968299204
 30
0.0
 11
109.205009425
 21
23.1051074868
 31
0.0
  0
LINE
  5
191C
330
20A
100
AcDbEntity
  8
DEFAULT_2
  6
HIDDEN
 62
     8
100
AcDbLine
 10
109.205009425
 20
23.1051074868
 30
0.0
 11
109.2038946795
 21
23.106975672
 31
0.0
  0
LINE
  5
191D
330
20A
100
AcDbEntity
  8
DEFAULT_2
  6
HIDDEN
 62
     8
100
AcDbLine
 10
124.0881612238
 20
35.0537268032
 30
0.0
 11
124.0659792991
 21
34.8463444364
 31
0.0
  0
SPLINE
  5
191E
330
20A
100
AcDbEntity
  8
DEFAULT_2
  6
HIDDEN
 62
     8
100
AcDbSpline
210
0.0
220
0.0
230
1.0
 70
     8
 71
     3
 72
    16
 73
    12
 74
     0
 42
0.0000001
 43
0.0000000001
 40
0.0
 40
0.0
 40
0.0
 40
0.0
 40
0.1173543828
 40
0.2391805261
 40
0.3670256616
 40
0.4992161476
 40
0.6316106550000001
 40
0.7599572254000001
 40
0.8823235948999998
 40
0.9415504179
 40
1.0
 40
1.0
 40
1.0
 40
1.0
 10
98.9652375868
 20
26.9412274872
 30
0.0
 10
98.9786907913
 20
26.8627819347
 30
0.0
 10
99.0071567816
 20
26.7028399228
 30
0.0
 10
99.08847955799998
 20
26.4660451523
 30
0.0
 10
99.22062746260001
 20
26.2411881803
 30
0.0
 10
99.4000309667
 20
26.0421732276
 30
0.0
 10
99.6155083148
 20
25.8823483398
 30
0.0
 10
99.85272269559999
 20
25.771873952
 30
0.0
 10
100.0585207787
 20
25.7230820254
 30
0.0
 10
100.2204015278
 20
25.7051826738
 30
0.0
 10
100.3000837591
 20
25.7003530548
 30
0.0
 10
100.3396658714
 20
25.6981926379
 30
0.0
  0
SPLINE
  5
191F
330
20A
100
AcDbEntity
  8
DEFAULT_2
  6
HIDDEN
 62
     8
100
AcDbSpline
210
0.0
220
0.0
230
1.0
 70
     8
 71
     3
 72
    16
 73
    12
 74
     0
 42
0.0000001
 43
0.0000000001
 40
0.0
 40
0.0
 40
0.0
 40
0.0
 40
0.1173548272
 40
0.2391817306
 40
0.3670278805
 40
0.4992191424000001
 40
0.6316136077000002
 40
0.7599592071
 40
0.8823242672999999
 40
0.9415505745
 40
1.0
 40
1.0
 40
1.0
 40
1.0
 10
122.9631938819
 20
26.9412274872
 30
0.0
 10
122.9497400707
 20
26.8627783973
 30
0.0
 10
122.9212726301
 20
26.7028289529
 30
0.0
 10
122.8399430195
 20
26.466023796
 30
0.0
 10
122.7077835317
 20
26.2411589212
 30
0.0
 10
122.5283655059
 20
26.0421403564
 30
0.0
 10
122.3128728889
 20
25.88231743530001
 30
0.0
 10
122.0756444501
 20
25.771850951
 30
0.0
 10
121.8698370528
 20
25.7230689511
 30
0.0
 10
121.7079502093
 20
25.7051763062
 30
0.0
 10
121.6282650652
 20
25.7003482037
 30
0.0
 10
121.5886814054
 20
25.698188043
 30
0.0
  0
SPLINE
  5
1920
330
20A
100
AcDbEntity
  8
DEFAULT_2
  6
HIDDEN
 62
     8
100
AcDbSpline
210
0.0
220
0.0
230
1.0
 70
     8
 71
     3
 72
    12
 73
     8
 74
     0
 42
0.0000001
 43
0.0000000001
 40
0.0
 40
0.0
 40
0.0
 40
0.0
 40
0.1052282179
 40
0.2193743852
 40
0.4667336422
 40
0.7297968503
 40
1.0
 40
1.0
 40
1.0
 40
1.0
 10
120.0549664317
 20
42.5732335921
 30
0.0
 10
119.7362259944
 20
42.58343447929999
 30
0.0
 10
119.0716466505
 20
42.60205364449999
 30
0.0
 10
117.6575095685
 20
42.63336809280001
 30
0.0
 10
115.7648901318
 20
42.66191292659999
 30
0.0
 10
113.399207004
 20
42.68197750419999
 30
0.0
 10
111.7830908108
 20
42.6864184434
 30
0.0
 10
110.9642157343
 20
42.6864184502
 30
0.0
  0
SPLINE
  5
1921
330
20A
100
AcDbEntity
  8
DEFAULT_2
  6
HIDDEN
 62
     8
100
AcDbSpline
210
0.0
220
0.0
230
1.0
 70
     8
 71
     3
 72
    12
 73
     8
 74
     0
 42
0.0000001
 43
0.0000000001
 40
0.0
 40
0.0
 40
0.0
 40
0.0
 40
0.1052282179
 40
0.2193743852
 40
0.4667336422
 40
0.7297968503
 40
1.0
 40
1.0
 40
1.0
 40
1.0
 10
101.873465037
 20
42.5732335921
 30
0.0
 10
102.1922054743
 20
42.58343447929999
 30
0.0
 10
102.8567848182
 20
42.60205364449999
 30
0.0
 10
104.2709219001
 20
42.63336809280001
 30
0.0
 10
106.1635413369
 20
42.66191292659999
 30
0.0
 10
108.5292244647
 20
42.68197750419999
 30
0.0
 10
110.1453406579
 20
42.6864184434
 30
0.0
 10
110.9642157343
 20
42.6864184502
 30
0.0
  0
LINE
  5
1922
330
20A
100
AcDbEntity
  8
0
  6
Continuous
 62
     7
100
AcDbLine
 10
94.10416791260001
 20
46.73560724729999
 30
0.0
 11
94.1595030194
 21
46.717872681
 31
0.0
  0
LINE
  5
1923
330
20A
100
AcDbEntity
  8
0
  6
Continuous
 62
     7
100
AcDbLine
 10
94.1595030194
 20
46.717872681
 30
0.0
 11
94.18866088299999
 21
46.7087587084
 31
0.0
  0
LINE
  5
1924
330
20A
100
AcDbEntity
  8
0
  6
Continuous
 62
     7
100
AcDbLine
 10
94.18866088299999
 20
46.7087587084
 30
0.0
 11
94.246538261
 21
46.6909981118
 31
0.0
  0
SPLINE
  5
1925
330
20A
100
AcDbEntity
  8
0
  6
Continuous
 62
     7
100
AcDbSpline
210
0.0
220
0.0
230
1.0
 70
     8
 71
     3
 72
    15
 73
    11
 74
     0
 42
0.0000001
 43
0.0000000001
 40
0.0
 40
0.0
 40
0.0
 40
0.0
 40
0.0244827042
 40
0.067223971
 40
0.1319254592
 40
0.2238802329
 40
0.3508250886
 40
0.5225215327
 40
0.7442242956000001
 40
1.0
 40
1.0
 40
1.0
 40
1.0
 10
94.246538261
 20
46.6909981118
 30
0.0
 10
94.37829544919999
 20
46.6509902846
 30
0.0
 10
94.74179900320001
 20
46.54685291829999
 30
0.0
 10
95.4596277044
 20
46.3587787449
 30
0.0
 10
96.55228239700001
 20
46.1054258628
 30
0.0
 10
98.1171535716
 20
45.7950047178
 30
0.0
 10
100.2871165294
 20
45.44876315529999
 30
0.0
 10
103.1953316411
 20
45.1124817347
 30
0.0
 10
106.8396542683
 20
44.8669821533
 30
0.0
 10
109.5256631333
 20
44.8137552529
 30
0.0
 10
110.9642157343
 20
44.8137110925
 30
0.0
  0
SPLINE
  5
1926
330
20A
100
AcDbEntity
  8
0
  6
Continuous
 62
     7
100
AcDbSpline
210
0.0
220
0.0
230
1.0
 70
     8
 71
     3
 72
    42
 73
    38
 74
     0
 42
0.0000001
 43
0.0000000001
 40
0.0
 40
0.0
 40
0.0
 40
0.0
 40
0.0000085831
 40
0.0000343827
 40
0.0000774737
 40
0.000137931
 40
0.0003112447
 40
0.0005549242
 40
0.0008695701
 40
0.0012557835
 40
0.0017141873
 40
0.0022454495
 40
0.0035292457
 40
0.0051125722
 40
0.0070009522
 40
0.0092004699
 40
0.0117173853
 40
0.0145579794
 40
0.0177290256
 40
0.0212379708
 40
0.0292996049
 40
0.0388064549
 40
0.0498307051
 40
0.0624484116
 40
0.0767477889
 40
0.0928225073
 40
0.1107803234
 40
0.1307392932
 40
0.1772071267
 40
0.2334660341
 40
0.3010037838
 40
0.3815706547
 40
0.4769887566
 40
0.588463393
 40
0.7154862191
 40
0.85464345
 40
1.0
 40
1.0
 40
1.0
 40
1.0
 10
128.3222202829
 20
46.73560724729999
 30
0.0
 10
128.3222620795
 20
46.7355795454
 30
0.0
 10
128.3218532689
 20
46.7355460781
 30
0.0
 10
128.3216341152
 20
46.7353766126
 30
0.0
 10
128.3207962502
 20
46.7351575558
 30
0.0
 10
128.3193318855
 20
46.73464551459999
 30
0.0
 10
128.3166247887
 20
46.7337898856
 30
0.0
 10
128.3125848745
 20
46.7324695387
 30
0.0
 10
128.3073224124
 20
46.73077830689999
 30
0.0
 10
128.300877293
 20
46.72870930699999
 30
0.0
 10
128.2932186535
 20
46.7262651527
 30
0.0
 10
128.2805606213
 20
46.7222444725
 30
0.0
 10
128.2616241555
 20
46.71627858459999
 30
0.0
 10
128.235101752
 20
46.7080081866
 30
0.0
 10
128.203443049
 20
46.69823845369999
 30
0.0
 10
128.1665379685
 20
46.6869739431
 30
0.0
 10
128.1242720002
 20
46.67421809899999
 30
0.0
 10
128.0765272655
 20
46.6599725884
 30
0.0
 10
128.0231781842
 20
46.64424108739999
 30
0.0
 10
127.9404918645
 20
46.6201585463
 30
0.0
 10
127.8220864422
 20
46.58635135779999
 30
0.0
 10
127.6611497076
 20
46.5416009931
 30
0.0
 10
127.4741925871
 20
46.4910914789
 30
0.0
 10
127.2597826879
 20
46.43486898239999
 30
0.0
 10
127.0163355818
 20
46.3730862395
 30
0.0
 10
126.7420990848
 20
46.30583422319999
 30
0.0
 10
126.4351227611
 20
46.2333098666
 30
0.0
 10
125.9543680629
 20
46.12416817729999
 30
0.0
 10
125.2531473397
 20
45.97559313549999
 30
0.0
 10
124.2760853412
 20
45.78874075549999
 30
0.0
 10
123.0987971647
 20
45.58962147179999
 30
0.0
 10
121.6907684706
 20
45.38499877229999
 30
0.0
 10
120.0231191128
 20
45.1853864602
 30
0.0
 10
118.0804457381
 20
45.0052614801
 30
0.0
 10
115.8784900652
 20
44.86244839729999
 30
0.0
 10
113.4756407899
 20
44.7729669635
 30
0.0
 10
111.8134011792
 20
44.75390541359999
 30
0.0
 10
110.9642157343
 20
44.75390531499999
 30
0.0
  0
SPLINE
  5
1927
330
20A
100
AcDbEntity
  8
0
  6
Continuous
 62
     7
100
AcDbSpline
210
0.0
220
0.0
230
1.0
 70
     8
 71
     3
 72
    41
 73
    37
 74
     0
 42
0.0000001
 43
0.0000000001
 40
0.0
 40
0.0
 40
0.0
 40
0.0
 40
0.1453516094
 40
0.2845074379
 40
0.411532932
 40
0.5230111939000001
 40
0.6184304797
 40
0.6989979302
 40
0.7665359248
 40
0.8227945329999998
 40
0.8692621029000001
 40
0.8892217274
 40
0.9071786692999999
 40
0.9232541273999999
 40
0.937552709
 40
0.9501705228
 40
0.9611945044
 40
0.9707010415
 40
0.9787626110999999
 40
0.9854423275
 40
0.9882829315999998
 40
0.9907997731999998
 40
0.9929992015000001
 40
0.9948875515000001
 40
0.9964708531000001
 40
0.9977546047
 40
0.9982858486999999
 40
0.9987442433
 40
0.9991304535999999
 40
0.9994450942
 40
0.9996887674999999
 40
0.9998620753
 40
0.9999225301
 40
0.9999656190999999
 40
0.9999914174
 40
1.0
 40
1.0
 40
1.0
 40
1.0
 10
110.9642157343
 20
44.75390531499999
 30
0.0
 10
110.1150591594
 20
44.7539053902
 30
0.0
 10
108.4528566316
 20
44.7729660877
 30
0.0
 10
106.0500287319
 20
44.8624437314
 30
0.0
 10
103.8480443993
 20
45.0052565042
 30
0.0
 10
101.9053274528
 20
45.18538452439999
 30
0.0
 10
100.2376466707
 20
45.3849993872
 30
0.0
 10
98.82960682700002
 20
45.589626878
 30
0.0
 10
97.6523152432
 20
45.7887439752
 30
0.0
 10
96.6752552374
 20
45.9755978984
 30
0.0
 10
95.9740366866
 20
46.1241846508
 30
0.0
 10
95.49328058829999
 20
46.2333077358
 30
0.0
 10
95.1863051627
 20
46.3058489767
 30
0.0
 10
94.91207008069999
 20
46.37308394469999
 30
0.0
 10
94.66862576830001
 20
46.4348789815
 30
0.0
 10
94.45421980869999
 20
46.491094358
 30
0.0
 10
94.26726572600001
 20
46.5416045205
 30
0.0
 10
94.10633320909999
 20
46.5863560837
 30
0.0
 10
93.9701169745
 20
46.6252455613
 30
0.0
 10
93.87154153190001
 20
46.6541143296
 30
0.0
 10
93.80415449290001
 20
46.6742191419
 30
0.0
 10
93.7618894428
 20
46.68697493979999
 30
0.0
 10
93.7249855708
 20
46.69823953899999
 30
0.0
 10
93.6933276156
 20
46.70800883520001
 30
0.0
 10
93.66680572139999
 20
46.71627891009999
 30
0.0
 10
93.6478697829
 20
46.7222447805
 30
0.0
 10
93.63521217819998
 20
46.7262653975
 30
0.0
 10
93.62755369590001
 20
46.7287095037
 30
0.0
 10
93.6211086842
 20
46.7307783679
 30
0.0
 10
93.61584621979998
 20
46.7324696821
 30
0.0
 10
93.611806604
 20
46.73378968739999
 30
0.0
 10
93.60909917879999
 20
46.7346459475
 30
0.0
 10
93.60763542959999
 20
46.7351571187
 30
0.0
 10
93.6067966945
 20
46.73537758609999
 30
0.0
 10
93.6065791562
 20
46.73554455979999
 30
0.0
 10
93.6061687117
 20
46.7355806013
 30
0.0
 10
93.60621118579999
 20
46.73560724729999
 30
0.0
  0
SPLINE
  5
1928
330
20A
100
AcDbEntity
  8
0
  6
Continuous
 62
     7
100
AcDbSpline
210
0.0
220
0.0
230
1.0
 70
     8
 71
     3
 72
    30
 73
    26
 74
     0
 42
0.0000001
 43
0.0000000001
 40
0.0
 40
0.0
 40
0.0
 40
0.0
 40
0.2854801957
 40
0.4175377426
 40
0.5355105856
 40
0.6362530415
 40
0.7195708465
 40
0.7872315427
 40
0.8416051003999999
 40
0.8849198526
 40
0.9190657714
 40
0.9331878695
 40
0.9455605835
 40
0.9563252030000001
 40
0.9656084758
 40
0.9735243338
 40
0.98017578
 40
0.9856572583
 40
0.9900577159
 40
0.9934668273999999
 40
0.9948328545
 40
0.9959980865
 40
0.9978774775999999
 40
0.9988022640999998
 40
1.0
 40
1.0
 40
1.0
 40
1.0
 10
110.9642157343
 20
21.8393252
 30
0.0
 10
109.8862488689
 20
21.8393189448
 30
0.0
 10
108.3096324466
 20
21.8410892275
 30
0.0
 10
106.2875740625
 20
21.8499041634
 30
0.0
 10
104.9630904849
 20
21.8584790071
 30
0.0
 10
103.822656721
 20
21.867607029
 30
0.0
 10
102.8721928524
 20
21.8750387219
 30
0.0
 10
102.0967983306
 20
21.8792690744
 30
0.0
 10
101.4724440926
 20
21.8805045127
 30
0.0
 10
100.9746404801
 20
21.8797535944
 30
0.0
 10
100.6288303449
 20
21.8776862822
 30
0.0
 10
100.3998649091
 20
21.8752472083
 30
0.0
 10
100.2591878299
 20
21.8732596936
 30
0.0
 10
100.1367884407
 20
21.8710170089
 30
0.0
 10
100.0312270237
 20
21.8685101652
 30
0.0
 10
99.94121015240001
 20
21.8657133264
 30
0.0
 10
99.8655697438
 20
21.8625664412
 30
0.0
 10
99.803239243
 20
21.8589871356
 30
0.0
 10
99.75322021860002
 20
21.8547512916
 30
0.0
 10
99.7188534014
 20
21.8502312981
 30
0.0
 10
99.6968916974
 20
21.8453823799
 30
0.0
 10
99.68108724190001
 20
21.8404238615
 30
0.0
 10
99.66727499900001
 20
21.8328147598
 30
0.0
 10
99.65954374440002
 20
21.8194026509
 30
0.0
 10
99.65833814760001
 20
21.811308663
 30
0.0
 10
99.6581520299
 20
21.8067898702
 30
0.0
  0
SPLINE
  5
1929
330
20A
100
AcDbEntity
  8
0
  6
Continuous
 62
     7
100
AcDbSpline
210
0.0
220
0.0
230
1.0
 70
     8
 71
     3
 72
    10
 73
     6
 74
     0
 42
0.0000001
 43
0.0000000001
 40
0.0
 40
0.0
 40
0.0
 40
0.0
 40
0.517548508
 40
0.7659802519
 40
1.0
 40
1.0
 40
1.0
 40
1.0
 10
99.28675618159999
 20
22.3294683379
 30
0.0
 10
99.35047844320001
 20
22.2390443468
 30
0.0
 10
99.44384171750002
 20
22.1045493296
 30
0.0
 10
99.5670596256
 20
21.9299023974
 30
0.0
 10
99.627858873
 20
21.8465928256
 30
0.0
 10
99.6581520299
 20
21.8067898702
 30
0.0
  0
SPLINE
  5
192A
330
20A
100
AcDbEntity
  8
0
  6
Continuous
 62
     7
100
AcDbSpline
210
0.0
220
0.0
230
1.0
 70
     8
 71
     3
 72
    41
 73
    37
 74
     0
 42
0.0000001
 43
0.0000000001
 40
0.0
 40
0.0
 40
0.0
 40
0.0
 40
0.0627680946
 40
0.1248265077
 40
0.1853866673
 40
0.2148628578
 40
0.2436820338
 40
0.2717611194
 40
0.2990396808
 40
0.3254759087
 40
0.3510270691
 40
0.3993777821
 40
0.4440477899000001
 40
0.4850842936000001
 40
0.5043123974000001
 40
0.5227165792
 40
0.5571319988
 40
0.5885516518000001
 40
0.6172676776000001
 40
0.6435433592000001
 40
0.6676333914
 40
0.6898118576000001
 40
0.7103553036
 40
0.7295469168000001
 40
0.7476814911
 40
0.7650529326000001
 40
0.7819505614
 40
0.7986600589
 40
0.8154495297
 40
0.8325505326
 40
0.8684080931999998
 40
0.9076039806
 40
0.9287790221999999
 40
0.9511310364999999
 40
0.9747895987999999
 40
1.0
 40
1.0
 40
1.0
 40
1.0
 10
110.9642157343
 20
27.1818372293
 30
0.0
 10
110.6421830428
 20
27.1816141529
 30
0.0
 10
110.0017584148
 20
27.1814559301
 30
0.0
 10
109.0506291877
 20
27.1823597201
 30
0.0
 10
108.2703043697
 20
27.1816151073
 30
0.0
 10
107.6605150296
 20
27.1805730098
 30
0.0
 10
107.2173708965
 20
27.1793027419
 30
0.0
 10
106.7855072802
 20
27.1766824841
 30
0.0
 10
106.3658807963
 20
27.1726956762
 30
0.0
 10
105.959233401
 20
27.1679059578
 30
0.0
 10
105.4445079747
 20
27.1597940285
 30
0.0
 10
104.8363568716
 20
27.1443874686
 30
0.0
 10
104.149015253
 20
27.1186492138
 30
0.0
 10
103.6116155942
 20
27.08542936260001
 30
0.0
 10
103.2092315833
 20
27.0538798586
 30
0.0
 10
102.8410828382
 20
27.02064383110001
 30
0.0
 10
102.4115128161
 20
26.9721299476
 30
0.0
 10
101.9321397018
 20
26.8967834883
 30
0.0
 10
101.4975694263
 20
26.8082595168
 30
0.0
 10
101.1044999662
 20
26.7067685833
 30
0.0
 10
100.7507191386
 20
26.5901528087
 30
0.0
 10
100.4339147159
 20
26.4583066233
 30
0.0
 10
100.1516621977
 20
26.3116516543
 30
0.0
 10
99.9021886899
 20
26.1497215385
 30
0.0
 10
99.6841208815
 20
25.9721672108
 30
0.0
 10
99.49602472870001
 20
25.7792013724
 30
0.0
 10
99.33664950020002
 20
25.571024305
 30
0.0
 10
99.2050875474
 20
25.3477139777
 30
0.0
 10
99.1005069142
 20
25.1094617212
 30
0.0
 10
98.9941023219
 20
24.7671258676
 30
0.0
 10
98.92641042000001
 20
24.2959665133
 30
0.0
 10
98.9417404353
 20
23.8005066971
 30
0.0
 10
98.9984639136
 20
23.3796821772
 30
0.0
 10
99.06668454730001
 20
23.0415406487
 30
0.0
 10
99.1609624508
 20
22.6883161225
 30
0.0
 10
99.24071861500001
 20
22.4503401545
 30
0.0
 10
99.28675618159999
 20
22.3294683379
 30
0.0
  0
SPLINE
  5
192B
330
20A
100
AcDbEntity
  8
0
  6
Continuous
 62
     7
100
AcDbSpline
210
0.0
220
0.0
230
1.0
 70
     8
 71
     3
 72
    43
 73
    39
 74
     0
 42
0.0000001
 43
0.0000000001
 40
0.0
 40
0.0
 40
0.0
 40
0.0
 40
0.0632603038
 40
0.1257832104
 40
0.1565149046
 40
0.1867567207
 40
0.216414551
 40
0.2453992847
 40
0.2736281284
 40
0.3010383546
 40
0.3275908129
 40
0.3532508898
 40
0.3779875486999999
 40
0.401796698
 40
0.4466510371
 40
0.4677015211000001
 40
0.4878623777000001
 40
0.5071693017
 40
0.5256528417000001
 40
0.5602370033000001
 40
0.5918271981000001
 40
0.620713195
 40
0.6471658562
 40
0.6714363761
 40
0.6937929306
 40
0.7145086902
 40
0.7338623728
 40
0.7521439776000002
 40
0.7696427621
 40
0.7866421518000001
 40
0.8034217914
 40
0.8202450387
 40
0.837338669
 40
0.8730250053
 40
0.9117372631999998
 40
0.9541365590999999
 40
0.9767210687
 40
1.0
 40
1.0
 40
1.0
 40
1.0
 10
110.9642157343
 20
27.3095660878
 30
0.0
 10
110.6408195224
 20
27.3093450388
 30
0.0
 10
109.9977970319
 20
27.3087324492
 30
0.0
 10
109.1976691155
 20
27.3078224388
 30
0.0
 10
108.5663398389
 20
27.3057207982
 30
0.0
 10
108.1030242017
 20
27.3034220028
 30
0.0
 10
107.6486422067
 20
27.300636071
 30
0.0
 10
107.2045555011
 20
27.297157507
 30
0.0
 10
106.7719727423
 20
27.2922077066
 30
0.0
 10
106.3518484074
 20
27.2855795726
 30
0.0
 10
105.9448771781
 20
27.2778722222
 30
0.0
 10
105.5516016496
 20
27.2689038041
 30
0.0
 10
105.1724132512
 20
27.257630244
 30
0.0
 10
104.6952549999
 20
27.2402505189
 30
0.0
 10
104.237060562
 20
27.2195221086
 30
0.0
 10
103.7979553089
 20
27.1915875345
 30
0.0
 10
103.4894609143
 20
27.168125331
 30
0.0
 10
103.1943245471
 20
27.1423042352
 30
0.0
 10
102.8261446608
 20
27.1057226233
 30
0.0
 10
102.3963927095
 20
27.0536970331
 30
0.0
 10
101.9167777968
 20
26.9743725027
 30
0.0
 10
101.4819471105
 20
26.881913877
 30
0.0
 10
101.0884281983
 20
26.7772836973
 30
0.0
 10
100.7339813123
 20
26.6582474799
 30
0.0
 10
100.4164275095
 20
26.5243625609
 30
0.0
 10
100.1333428017
 20
26.3761285459
 30
0.0
 10
99.88291680430002
 20
26.2131295354
 30
0.0
 10
99.6638020696
 20
26.0349440309
 30
0.0
 10
99.47458037450001
 20
25.8417591252
 30
0.0
 10
99.31395775250001
 20
25.63381509780001
 30
0.0
 10
99.18099440430001
 20
25.4112078427
 30
0.0
 10
99.0748566855
 20
25.1741337685
 30
0.0
 10
98.96627371340001
 20
24.8346236143
 30
0.0
 10
98.89490912239999
 20
24.3691786449
 30
0.0
 10
98.9071866181
 20
23.7700072154
 30
0.0
 10
98.9912055407
 20
23.2451010642
 30
0.0
 10
99.09936619900001
 20
22.8069074889
 30
0.0
 10
99.1674999569
 20
22.582422099
 30
0.0
 10
99.20490366799999
 20
22.4694475183
 30
0.0
  0
LINE
  5
192C
330
20A
100
AcDbEntity
  8
0
  6
Continuous
 62
     7
100
AcDbLine
 10
99.65815221660001
 20
21.8067892371
 30
0.0
 11
99.65684957729999
 21
21.8067645718
 31
0.0
  0
LINE
  5
192D
330
20A
100
AcDbEntity
  8
0
  6
Continuous
 62
     7
100
AcDbLine
 10
99.20490366799999
 20
22.4694475183
 30
0.0
 11
99.22621298600001
 21
22.4051357577
 31
0.0
  0
LINE
  5
192E
330
20A
100
AcDbEntity
  8
0
  6
Continuous
 62
     7
100
AcDbLine
 10
99.28675615629998
 20
22.3294683451
 30
0.0
 11
99.3034043255
 21
22.2639030613
 31
0.0
  0
SPLINE
  5
192F
330
20A
100
AcDbEntity
  8
0
  6
Continuous
 62
     7
100
AcDbSpline
210
0.0
220
0.0
230
1.0
 70
     8
 71
     3
 72
    43
 73
    39
 74
     0
 42
0.0000001
 43
0.0000000001
 40
0.0
 40
0.0
 40
0.0
 40
0.0
 40
0.1449430254
 40
0.2837846905
 40
0.4106621505
 40
0.5221457823
 40
0.6176606818
 40
0.6983565401999999
 40
0.7660229238
 40
0.8223976278
 40
0.8689648530999999
 40
0.8889679127999999
 40
0.9069643215999999
 40
0.9230752777999999
 40
0.9374058385999999
 40
0.9500520651
 40
0.9611012291999999
 40
0.9706297592
 40
0.9787102588999999
 40
0.9822273795
 40
0.985405948
 40
0.9882534277999999
 40
0.9907764308
 40
0.9929813019
 40
0.9948743717000001
 40
0.9964616775999999
 40
0.9977487172
 40
0.9982813347
 40
0.9987409212999999
 40
0.9991281422
 40
0.9994436118000001
 40
0.9996879315999999
 40
0.9997835981000001
 40
0.9998617026000001
 40
0.9999223199999999
 40
0.9999655253
 40
0.9999913937
 40
1.0
 40
1.0
 40
1.0
 40
1.0
 10
110.9642157343
 20
44.5910964408
 30
0.0
 10
110.1113164754
 20
44.59109622079999
 30
0.0
 10
108.4413351168
 20
44.610169504
 30
0.0
 10
106.0262253051
 20
44.6998316306
 30
0.0
 10
103.8109651471
 20
44.8432180639
 30
0.0
 10
101.8544434875
 20
45.0244509967
 30
0.0
 10
100.1733494928
 20
45.2256813967
 30
0.0
 10
98.75309504770001
 20
45.4323118158
 30
0.0
 10
97.5651867734
 20
45.6336571379
 30
0.0
 10
96.57917339950001
 20
45.822819771
 30
0.0
 10
95.8715123228
 20
45.9733969555
 30
0.0
 10
95.38634741879999
 20
46.08407130779999
 30
0.0
 10
95.07656161440001
 20
46.1576776301
 30
0.0
 10
94.7998247642
 20
46.2259343367
 30
0.0
 10
94.55416780049999
 20
46.28869504549999
 30
0.0
 10
94.33782059030001
 20
46.34581753129999
 30
0.0
 10
94.14918020440001
 20
46.3971653224
 30
0.0
 10
93.9868015703
 20
46.44268049419999
 30
0.0
 10
93.86733953610001
 20
46.4770770616
 30
0.0
 10
93.7839181022
 20
46.50159152869999
 30
0.0
 10
93.7300950094
 20
46.5176083177
 30
0.0
 10
93.6819260138
 20
46.5321146453
 30
0.0
 10
93.63928541579999
 20
46.54510798039999
 30
0.0
 10
93.6020540516
 20
46.5565850045
 30
0.0
 10
93.57011564629999
 20
46.56654092260001
 30
0.0
 10
93.5433588799
 20
46.57497088369999
 30
0.0
 10
93.52425606670001
 20
46.5810535555
 30
0.0
 10
93.51148609719999
 20
46.58515346689999
 30
0.0
 10
93.50376149549999
 20
46.58764647569999
 30
0.0
 10
93.49725524330001
 20
46.5897558484
 30
0.0
 10
93.49195835419999
 20
46.5914836127
 30
0.0
 10
93.48828969680001
 20
46.59268144399999
 30
0.0
 10
93.48595751780001
 20
46.5934537093
 30
0.0
 10
93.4846372984
 20
46.5938774549
 30
0.0
 10
93.48364736090001
 20
46.59423395149999
 30
0.0
 10
93.48286306010001
 20
46.59442739359999
 30
0.0
 10
93.48253396270001
 20
46.5946528199
 30
0.0
 10
93.48223328739999
 20
46.59463278439999
 30
0.0
 10
93.48222962379999
 20
46.5946832944
 30
0.0
  0
SPLINE
  5
1930
330
20A
100
AcDbEntity
  8
0
  6
Continuous
 62
     7
100
AcDbSpline
210
0.0
220
0.0
230
1.0
 70
     8
 71
     3
 72
    30
 73
    26
 74
     0
 42
0.0000001
 43
0.0000000001
 40
0.0
 40
0.0
 40
0.0
 40
0.0
 40
0.0011977367
 40
0.0021225388
 40
0.0040019574
 40
0.0051672036
 40
0.006533252
 40
0.0099424238
 40
0.0143429624
 40
0.0198245493
 40
0.0264761365
 40
0.0343921596
 40
0.0436756396
 40
0.0544405463
 40
0.0668136747
 40
0.0809362982
 40
0.1150837761
 40
0.1584011293
 40
0.2127756299
 40
0.2804367724
 40
0.3637550672
 40
0.4644986837
 40
0.5824742942
 40
0.7145375023999999
 40
1.0
 40
1.0
 40
1.0
 40
1.0
 10
122.2702794389
 20
21.8067898691
 30
0.0
 10
122.2700932944
 20
21.8113086639
 30
0.0
 10
122.2688875759
 20
21.8194026739
 30
0.0
 10
122.2611564434
 20
21.8328150328
 30
0.0
 10
122.2473439257
 20
21.8404242796
 30
0.0
 10
122.2315391352
 20
21.8453824948
 30
0.0
 10
122.2095770577
 20
21.8502313721
 30
0.0
 10
122.1752096338
 20
21.8547514547
 30
0.0
 10
122.1251896662
 20
21.8589873651
 30
0.0
 10
122.0628579131
 20
21.8625666367
 30
0.0
 10
121.9872159357
 20
21.8657134768
 30
0.0
 10
121.8971971271
 20
21.8685103865
 30
0.0
 10
121.7916332183
 20
21.87101721
 30
0.0
 10
121.6692304005
 20
21.8732601319
 30
0.0
 10
121.5285486801
 20
21.8752471529
 30
0.0
 10
121.2995738138
 20
21.8776867692
 30
0.0
 10
120.9537459797
 20
21.879753461
 30
0.0
 10
120.4559230987999
 20
21.8805049495
 30
0.0
 10
119.8315537934
 20
21.8792679422
 30
0.0
 10
119.0561521726
 20
21.8750382969
 30
0.0
 10
118.105680381
 20
21.8676067464
 30
0.0
 10
116.9652299327
 20
21.8584786266
 30
0.0
 10
115.6407101449
 20
21.849903159
 30
0.0
 10
113.6186867509
 20
21.8410889958
 30
0.0
 10
112.0421157758
 20
21.8393197769
 30
0.0
 10
110.9642157343
 20
21.8393252
 30
0.0
  0
SPLINE
  5
1931
330
20A
100
AcDbEntity
  8
0
  6
Continuous
 62
     7
100
AcDbSpline
210
0.0
220
0.0
230
1.0
 70
     8
 71
     3
 72
    41
 73
    37
 74
     0
 42
0.0000001
 43
0.0000000001
 40
0.0
 40
0.0
 40
0.0
 40
0.0
 40
0.0627680597
 40
0.1248263426
 40
0.1853863085
 40
0.2148623963
 40
0.2436815537
 40
0.2717606037
 40
0.2990391278
 40
0.3254753674
 40
0.35102655
 40
0.3993773089
 40
0.4440473896000001
 40
0.4850839063000001
 40
0.5043120472
 40
0.5227162632
 40
0.5571317190000001
 40
0.5885514019000001
 40
0.6172674714000001
 40
0.6435431914000001
 40
0.66763323
 40
0.6898117272
 40
0.7103551654000002
 40
0.7295467687999999
 40
0.7476813584000001
 40
0.7650527947
 40
0.7819503993000002
 40
0.7986599223000001
 40
0.8154494074999998
 40
0.8325504059
 40
0.8684079935999999
 40
0.9076039048
 40
0.9287789611
 40
0.9511309934999999
 40
0.9747895762
 40
1.0
 40
1.0
 40
1.0
 40
1.0
 10
110.9642157343
 20
27.181837409
 30
0.0
 10
111.2862482476
 20
27.1816143327
 30
0.0
 10
111.92667203
 20
27.1814558779
 30
0.0
 10
112.8777994193
 20
27.182359486
 30
0.0
 10
113.6581220496
 20
27.1816133706
 30
0.0
 10
114.2679097755
 20
27.1805721487
 30
0.0
 10
114.7110531145
 20
27.1793047012
 30
0.0
 10
115.1429162583
 20
27.1766831718
 30
0.0
 10
115.5625424162
 20
27.1726951979
 30
0.0
 10
115.9691898042
 20
27.1679062694
 30
0.0
 10
116.4839156408
 20
27.15979405360001
 30
0.0
 10
117.0920674354
 20
27.1443868522
 30
0.0
 10
117.7794098433
 20
27.1186507247
 30
0.0
 10
118.3168099474
 20
27.085427965
 30
0.0
 10
118.7191945439
 20
27.0538804688
 30
0.0
 10
119.087343882
 20
27.0206447803
 30
0.0
 10
119.5169143694
 20
26.9721304052
 30
0.0
 10
119.9962880216
 20
26.8967837582
 30
0.0
 10
120.4308589184
 20
26.808260062
 30
0.0
 10
120.8239290869
 20
26.7067699086
 30
0.0
 10
121.1777099373
 20
26.5901529992
 30
0.0
 10
121.4945149086
 20
26.4583077979
 30
0.0
 10
121.7767679516
 20
26.3116537904
 30
0.0
 10
122.0262421306
 20
26.1497243758
 30
0.0
 10
122.2443069873
 20
25.9721665671
 30
0.0
 10
122.4324054369
 20
25.7792032674
 30
0.0
 10
122.5917809851
 20
25.5710262894
 30
0.0
 10
122.7233428403
 20
25.3477158437
 30
0.0
 10
122.8279237996
 20
25.1094635481
 30
0.0
 10
122.9343292021
 20
24.7671277314
 30
0.0
 10
123.0020207924
 20
24.2959680428
 30
0.0
 10
122.9866911738
 20
23.8005079169
 30
0.0
 10
122.9299677149
 20
23.3796830886
 30
0.0
 10
122.8617470733
 20
23.0415412844
 30
0.0
 10
122.7674691276
 20
22.6883164425
 30
0.0
 10
122.6877128951
 20
22.4503402632
 30
0.0
 10
122.641675287
 20
22.3294683379
 30
0.0
  0
SPLINE
  5
1932
330
20A
100
AcDbEntity
  8
0
  6
Continuous
 62
     7
100
AcDbSpline
210
0.0
220
0.0
230
1.0
 70
     8
 71
     3
 72
    10
 73
     6
 74
     0
 42
0.0000001
 43
0.0000000001
 40
0.0
 40
0.0
 40
0.0
 40
0.0
 40
0.5175485195000001
 40
0.7659802683
 40
1.0
 40
1.0
 40
1.0
 40
1.0
 10
122.641675287
 20
22.3294683379
 30
0.0
 10
122.577953024
 20
22.2390443447
 30
0.0
 10
122.4845897478
 20
22.1045493242
 30
0.0
 10
122.3613718388
 20
21.9299023923
 30
0.0
 10
122.300572594
 20
21.8465928215
 30
0.0
 10
122.2702794389
 20
21.8067898691
 30
0.0
  0
SPLINE
  5
1933
330
20A
100
AcDbEntity
  8
0
  6
Continuous
 62
     7
100
AcDbSpline
210
0.0
220
0.0
230
1.0
 70
     8
 71
     3
 72
    43
 73
    39
 74
     0
 42
0.0000001
 43
0.0000000001
 40
0.0
 40
0.0
 40
0.0
 40
0.0
 40
0.0000086068
 40
0.0000344764
 40
0.0000776838
 40
0.0001383037
 40
0.000216411
 40
0.0003120806
 40
0.0005564066
 40
0.0008718814
 40
0.0012591055
 40
0.0017187016
 40
0.0022513374
 40
0.0035384215
 40
0.0051257517
 40
0.0070188531
 40
0.0092238138
 40
0.0117468889
 40
0.0145943581
 40
0.0177730182
 40
0.0212903183
 40
0.0293708703
 40
0.0388997327
 40
0.0499491353
 40
0.0625952966
 40
0.0769266186
 40
0.0930368532
 40
0.1110341332
 40
0.1310365369
 40
0.177604042
 40
0.233979037
 40
0.3016451196999999
 40
0.3823404365
 40
0.4778540999
 40
0.5893340976000001
 40
0.7162089404000001
 40
0.8550520309999999
 40
1.0
 40
1.0
 40
1.0
 40
1.0
 10
128.4462018449
 20
46.5946832944
 30
0.0
 10
128.4461960709
 20
46.5946329792
 30
0.0
 10
128.4459005224
 20
46.59465254039999
 30
0.0
 10
128.4455664294
 20
46.5944275721
 30
0.0
 10
128.444784937
 20
46.5942338642
 30
0.0
 10
128.4437936952
 20
46.593877479
 30
0.0
 10
128.442473916
 20
46.5934536805
 30
0.0
 10
128.4401414314
 20
46.592681424
 30
0.0
 10
128.4364728467
 20
46.5914835536
 30
0.0
 10
128.4311758125
 20
46.5897557543
 30
0.0
 10
128.4246695042
 20
46.5876462855
 30
0.0
 10
128.4169447226
 20
46.58515321449999
 30
0.0
 10
128.4041743287
 20
46.5810532447
 30
0.0
 10
128.3850709828
 20
46.57497055149999
 30
0.0
 10
128.3583137059
 20
46.56654025069999
 30
0.0
 10
128.3263745353
 20
46.5565839071
 30
0.0
 10
128.2891419539
 20
46.5451069692
 30
0.0
 10
128.2465004439
 20
46.5321135795
 30
0.0
 10
128.1983308639
 20
46.51760606979999
 30
0.0
 10
128.1445062207
 20
46.5015891104
 30
0.0
 10
128.0610825123
 20
46.4770756413
 30
0.0
 10
127.9416180392
 20
46.44267555869999
 30
0.0
 10
127.7792351317
 20
46.397161992
 30
0.0
 10
127.5905916887
 20
46.34581419859999
 30
0.0
 10
127.374240436
 20
46.2886853647
 30
0.0
 10
127.1285806671
 20
46.22593634060001
 30
0.0
 10
126.851842421
 20
46.15766291329999
 30
0.0
 10
126.5420556542
 20
46.0840734188
 30
0.0
 10
126.0568920985
 20
45.9733803956
 30
0.0
 10
125.3492287361
 20
45.82281523609999
 30
0.0
 10
124.36321362
 20
45.63365437829999
 30
0.0
 10
123.1753091520999
 20
45.43230561229999
 30
0.0
 10
121.7550661973
 20
45.2256811306
 30
0.0
 10
120.0740040565
 20
45.02445298659999
 30
0.0
 10
118.1175263493
 20
44.8432231751
 30
0.0
 10
115.9022947035
 20
44.69983630409999
 30
0.0
 10
113.4871629282
 20
44.61017041569999
 30
0.0
 10
111.8171440815
 20
44.5910962105
 30
0.0
 10
110.9642157343
 20
44.5910964408
 30
0.0
  0
LINE
  5
1934
330
20A
100
AcDbEntity
  8
0
  6
Continuous
 62
     7
100
AcDbLine
 10
122.7235278007
 20
22.4694475183
 30
0.0
 11
122.7022184826
 21
22.4051357577
 31
0.0
  0
SPLINE
  5
1935
330
20A
100
AcDbEntity
  8
0
  6
Continuous
 62
     7
100
AcDbSpline
210
0.0
220
0.0
230
1.0
 70
     8
 71
     3
 72
    43
 73
    39
 74
     0
 42
0.0000001
 43
0.0000000001
 40
0.0
 40
0.0
 40
0.0
 40
0.0
 40
0.0632603043
 40
0.1257832108
 40
0.156514905
 40
0.1867567211
 40
0.2164145514
 40
0.245399285
 40
0.2736281287
 40
0.3010383549
 40
0.3275908132
 40
0.35325089
 40
0.377987549
 40
0.4017966982
 40
0.4466510373
 40
0.4677015213000001
 40
0.4878623779
 40
0.5071693018
 40
0.5256528418000001
 40
0.5602370035000001
 40
0.5918271982
 40
0.6207131951
 40
0.6471658563
 40
0.6714363762000001
 40
0.6937929306
 40
0.7145086902
 40
0.7338623728
 40
0.7521439776000002
 40
0.7696427621
 40
0.7866421519
 40
0.8034217915000001
 40
0.8202450387999999
 40
0.8373386691
 40
0.8730250053
 40
0.9117372631999998
 40
0.9541365592
 40
0.9767210687
 40
1.0
 40
1.0
 40
1.0
 40
1.0
 10
110.9642157343
 20
27.30956545550001
 30
0.0
 10
111.2876119483
 20
27.3093444066
 30
0.0
 10
111.9306344417
 20
27.3087327164
 30
0.0
 10
112.7307623598
 20
27.3078224038
 30
0.0
 10
113.3620916362
 20
27.3057208056
 30
0.0
 10
113.8254072732
 20
27.3034220005
 30
0.0
 10
114.279789268
 20
27.3006360717
 30
0.0
 10
114.7238759733
 20
27.2971575067
 30
0.0
 10
115.1564587318
 20
27.2922077066
 30
0.0
 10
115.5765830665
 20
27.2855795725
 30
0.0
 10
115.9835542956
 20
27.2778722221
 30
0.0
 10
116.3768298237
 20
27.268903804
 30
0.0
 10
116.7560182219
 20
27.2576302438
 30
0.0
 10
117.2331764729
 20
27.2402505188
 30
0.0
 10
117.6913709105
 20
27.2195221083
 30
0.0
 10
118.1304761632
 20
27.1915875342
 30
0.0
 10
118.4389705577
 20
27.1681253307
 30
0.0
 10
118.7341069246
 20
27.1423042349
 30
0.0
 10
119.1022868107
 20
27.105722623
 30
0.0
 10
119.5320387617
 20
27.0536970327
 30
0.0
 10
120.0116536741
 20
26.9743725023
 30
0.0
 10
120.4464843601
 20
26.8819138765
 30
0.0
 10
120.8400032719
 20
26.7772836968
 30
0.0
 10
121.1944501577
 20
26.6582474794
 30
0.0
 10
121.5120039603
 20
26.5243625604
 30
0.0
 10
121.7950886679
 20
26.3761285454
 30
0.0
 10
122.0455146652
 20
26.2131295349
 30
0.0
 10
122.2646293997
 20
26.0349440304
 30
0.0
 10
122.4538510947
 20
25.8417591247
 30
0.0
 10
122.6144737165
 20
25.6338150972
 30
0.0
 10
122.7474370646
 20
25.4112078421
 30
0.0
 10
122.8535747834
 20
25.174133768
 30
0.0
 10
122.9621577554
 20
24.8346236138
 30
0.0
 10
123.0335223462
 20
24.3691786445
 30
0.0
 10
123.0212448505
 20
23.7700072152
 30
0.0
 10
122.9372259279
 20
23.245101064
 30
0.0
 10
122.8290652696
 20
22.8069074888
 30
0.0
 10
122.7609315118
 20
22.582422099
 30
0.0
 10
122.7235278007
 20
22.4694475183
 30
0.0
  0
LINE
  5
1936
330
20A
100
AcDbEntity
  8
0
  6
Continuous
 62
     7
100
AcDbLine
 10
127.8242635561
 20
46.73560724729999
 30
0.0
 11
127.7689284493
 21
46.717872681
 31
0.0
  0
LINE
  5
1937
330
20A
100
AcDbEntity
  8
0
  6
Continuous
 62
     7
100
AcDbLine
 10
127.7689284493
 20
46.717872681
 30
0.0
 11
127.7397705856
 21
46.7087587084
 31
0.0
  0
LINE
  5
1938
330
20A
100
AcDbEntity
  8
0
  6
Continuous
 62
     7
100
AcDbLine
 10
127.7397705856
 20
46.7087587084
 30
0.0
 11
127.6818932077
 21
46.6909981118
 31
0.0
  0
SPLINE
  5
1939
330
20A
100
AcDbEntity
  8
0
  6
Continuous
 62
     7
100
AcDbSpline
210
0.0
220
0.0
230
1.0
 70
     8
 71
     3
 72
    15
 73
    11
 74
     0
 42
0.0000001
 43
0.0000000001
 40
0.0
 40
0.0
 40
0.0
 40
0.0
 40
0.0244827042
 40
0.067223971
 40
0.1319254592
 40
0.2238802329
 40
0.3508250886
 40
0.5225215327
 40
0.7442242956000001
 40
1.0
 40
1.0
 40
1.0
 40
1.0
 10
127.6818932077
 20
46.6909981118
 30
0.0
 10
127.5501360195
 20
46.6509902846
 30
0.0
 10
127.1866324655
 20
46.54685291829999
 30
0.0
 10
126.4688037643
 20
46.3587787449
 30
0.0
 10
125.3761490717
 20
46.1054258628
 30
0.0
 10
123.8112778971
 20
45.7950047178
 30
0.0
 10
121.6413149393
 20
45.44876315529999
 30
0.0
 10
118.7330998276
 20
45.1124817347
 30
0.0
 10
115.0887772004
 20
44.8669821533
 30
0.0
 10
112.4027683354
 20
44.8137552529
 30
0.0
 10
110.9642157343
 20
44.8137110925
 30
0.0
  0
LINE
  5
193A
330
20A
100
AcDbEntity
  8
0
  6
Continuous
 62
     7
100
AcDbLine
 10
122.6416753123
 20
22.3294683451
 30
0.0
 11
122.6250271431
 21
22.2639030613
 31
0.0
  0
LINE
  5
193B
330
20A
100
AcDbEntity
  8
0
  6
Continuous
 62
     7
100
AcDbLine
 10
122.271581631
 20
21.8067645769
 30
0.0
 11
122.2702792529
 21
21.8067892369
 31
0.0
  0
ENDSEC
  0
SECTION
  2
OBJECTS
  0
DICTIONARY
  5
C
330
0
100
AcDbDictionary
281
     1
  3
ACAD_CIP_PREVIOUS_PRODUCT_INFO
350
19DC
  3
ACAD_COLOR
350
1972
  3
ACAD_DETAILVIEWSTYLE
350
198B
  3
ACAD_GROUP
350
D
  3
ACAD_LAYOUT
350
1A
  3
ACAD_MATERIAL
350
1940
  3
ACAD_MLEADERSTYLE
350
1987
  3
ACAD_MLINESTYLE
350
17
  3
ACAD_PLOTSETTINGS
350
19
  3
ACAD_PLOTSTYLENAME
350
E
  3
ACAD_SCALELIST
350
1975
  3
ACAD_SECTIONVIEWSTYLE
350
1989
  3
ACAD_TABLESTYLE
350
1973
  3
ACAD_VISUALSTYLE
350
1959
  3
ACDB_RECOMPOSE_DATA
350
1AC3
  3
AcDbVariableDictionary
350
19CF
  3
DWGPROPS
350
1AC4
  0
DICTIONARY
  5
1990
330
8
100
AcDbDictionary
280
     1
281
     1
  0
DICTIONARY
  5
19DF
330
10
100
AcDbDictionary
280
     1
281
     1
  3
ADSK_XREC_LAYER_RECONCILED
360
19E0
  0
DICTIONARY
  5
19E1
330
1FA
100
AcDbDictionary
280
     1
281
     1
  3
ADSK_XREC_LAYER_RECONCILED
360
19E2
  0
DICTIONARY
  5
19E3
330
1FB
100
AcDbDictionary
280
     1
281
     1
  3
ADSK_XREC_LAYER_RECONCILED
360
19E4
  0
DICTIONARY
  5
19E5
330
1FC
100
AcDbDictionary
280
     1
281
     1
  3
ADSK_XREC_LAYER_RECONCILED
360
19E6
  0
DICTIONARY
  5
19E7
330
1FD
100
AcDbDictionary
280
     1
281
     1
  3
ADSK_XREC_LAYER_RECONCILED
360
19E8
  0
DICTIONARY
  5
19E9
330
1FE
100
AcDbDictionary
280
     1
281
     1
  3
ADSK_XREC_LAYER_RECONCILED
360
19EA
  0
DICTIONARY
  5
19EB
330
1FF
100
AcDbDictionary
280
     1
281
     1
  3
ADSK_XREC_LAYER_RECONCILED
360
19EC
  0
DICTIONARY
  5
19ED
330
200
100
AcDbDictionary
280
     1
281
     1
  3
ADSK_XREC_LAYER_RECONCILED
360
19EE
  0
DICTIONARY
  5
19EF
330
201
100
AcDbDictionary
280
     1
281
     1
  3
ADSK_XREC_LAYER_RECONCILED
360
19F0
  0
DICTIONARY
  5
19F1
330
202
100
AcDbDictionary
280
     1
281
     1
  3
ADSK_XREC_LAYER_RECONCILED
360
19F2
  0
DICTIONARY
  5
19F3
330
203
100
AcDbDictionary
280
     1
281
     1
  3
ADSK_XREC_LAYER_RECONCILED
360
19F4
  0
DICTIONARY
  5
19F5
330
204
100
AcDbDictionary
280
     1
281
     1
  3
ADSK_XREC_LAYER_RECONCILED
360
19F6
  0
DICTIONARY
  5
19F7
330
205
100
AcDbDictionary
280
     1
281
     1
  3
ADSK_XREC_LAYER_RECONCILED
360
19F8
  0
DICTIONARY
  5
19F9
330
206
100
AcDbDictionary
280
     1
281
     1
  3
ADSK_XREC_LAYER_RECONCILED
360
19FA
  0
DICTIONARY
  5
19FB
330
207
100
AcDbDictionary
280
     1
281
     1
  3
ADSK_XREC_LAYER_RECONCILED
360
19FC
  0
XRECORD
  5
19DC
102
{ACAD_REACTORS
330
C
102
}
330
C
100
AcDbXrecord
280
     1
300
ACDLT
300
2018
300

  0
DICTIONARY
  5
1972
102
{ACAD_REACTORS
330
C
102
}
330
C
100
AcDbDictionary
281
     1
  0
DICTIONARY
  5
198B
102
{ACAD_REACTORS
330
C
102
}
330
C
100
AcDbDictionary
281
     1
  3
Imperial24
350
198C
  0
DICTIONARY
  5
D
102
{ACAD_REACTORS
330
C
102
}
330
C
100
AcDbDictionary
281
     1
  0
DICTIONARY
  5
1A
102
{ACAD_REACTORS
330
C
102
}
330
C
100
AcDbDictionary
281
     1
  3
Layout1
350
193D
  3
Model
350
193C
  0
DICTIONARY
  5
1940
102
{ACAD_REACTORS
330
C
102
}
330
C
100
AcDbDictionary
281
     1
  3
ByBlock
350
1949
  3
ByLayer
350
1941
  3
Global
350
1951
  0
DICTIONARY
  5
1987
102
{ACAD_REACTORS
330
C
102
}
330
C
100
AcDbDictionary
281
     1
  3
Standard
350
1988
  0
DICTIONARY
  5
17
102
{ACAD_REACTORS
330
C
102
}
330
C
100
AcDbDictionary
281
     1
  3
Standard
350
18
  0
DICTIONARY
  5
19
102
{ACAD_REACTORS
330
C
102
}
330
C
100
AcDbDictionary
281
     1
  0
ACDBDICTIONARYWDFLT
  5
E
102
{ACAD_REACTORS
330
C
102
}
330
C
100
AcDbDictionary
281
     1
  3
Normal
350
F
100
AcDbDictionaryWithDefault
340
F
  0
DICTIONARY
  5
1975
102
{ACAD_REACTORS
330
C
102
}
330
C
100
AcDbDictionary
281
     1
  3
A0
350
1976
  3
A1
350
1977
  3
A2
350
1978
  3
A3
350
1979
  3
A4
350
197A
  3
A5
350
197B
  3
A6
350
197C
  3
A7
350
197D
  3
A8
350
197E
  3
A9
350
197F
  3
B0
350
1980
  3
B1
350
1981
  3
B2
350
1982
  3
B3
350
1983
  3
B4
350
1984
  3
B5
350
1985
  3
B6
350
1986
  0
DICTIONARY
  5
1989
102
{ACAD_REACTORS
330
C
102
}
330
C
100
AcDbDictionary
281
     1
  3
Imperial24
350
198A
  0
DICTIONARY
  5
1973
102
{ACAD_REACTORS
330
C
102
}
330
C
100
AcDbDictionary
281
     1
  3
Standard
350
1974
  0
DICTIONARY
  5
1959
102
{ACAD_REACTORS
330
C
102
}
330
C
100
AcDbDictionary
281
     1
  3
2dWireframe
350
195F
  3
Basic
350
195E
  3
Brighten
350
1965
  3
ColorChange
350
1969
  3
Conceptual
350
1962
  3
Dim
350
1964
  3
EdgeColorOff
350
1971
  3
Facepattern
350
1968
  3
Flat
350
195A
  3
FlatWithEdges
350
195B
  3
Gouraud
350
195C
  3
GouraudWithEdges
350
195D
  3
Hidden
350
1961
  3
JitterOff
350
196F
  3
Linepattern
350
1967
  3
OverhangOff
350
1970
  3
Realistic
350
1963
  3
Shaded
350
196E
  3
Shaded with edges
350
196D
  3
Shades of Gray
350
196A
  3
Sketchy
350
196B
  3
Thicken
350
1966
  3
Wireframe
350
1960
  3
X-Ray
350
196C
  0
XRECORD
  5
1AC3
102
{ACAD_REACTORS
330
C
102
}
330
C
100
AcDbXrecord
280
     1
 90
        1
330
1974
  0
DICTIONARY
  5
19CF
102
{ACAD_REACTORS
330
C
102
}
330
C
100
AcDbDictionary
281
     1
  3
CANNOSCALE
350
19D4
  3
CMLEADERSTYLE
350
19D1
  3
CTABLESTYLE
350
19D0
  3
CVIEWDETAILSTYLE
350
19D2
  3
CVIEWSECTIONSTYLE
350
19D3
  3
DIMASSOC
350
19D7
  3
INDEXCTL
350
19D6
  3
SORTENTS
350
19D5
  3
XCLIPFRAME
350
1AC1
  0
XRECORD
  5
1AC4
102
{ACAD_REACTORS
330
C
102
}
330
C
100
AcDbXrecord
280
     1
  1
DWGPROPS COOKIE
  2

  3

  4

  6

  7

  8
guillaumes
  9

300
=
301
=
302
=
303
=
304
=
305
=
306
=
307
=
308
=
309
=
 40
0.0009027777777778
 41
2459138.421157408
 42
2459138.426006944
  1

 90
        0
  0
XRECORD
  5
19E0
102
{ACAD_REACTORS
330
19DF
102
}
330
19DF
100
AcDbXrecord
280
     1
290
     1
  0
XRECORD
  5
19E2
102
{ACAD_REACTORS
330
19E1
102
}
330
19E1
100
AcDbXrecord
280
     1
290
     1
  0
XRECORD
  5
19E4
102
{ACAD_REACTORS
330
19E3
102
}
330
19E3
100
AcDbXrecord
280
     1
290
     1
  0
XRECORD
  5
19E6
102
{ACAD_REACTORS
330
19E5
102
}
330
19E5
100
AcDbXrecord
280
     1
290
     1
  0
XRECORD
  5
19E8
102
{ACAD_REACTORS
330
19E7
102
}
330
19E7
100
AcDbXrecord
280
     1
290
     1
  0
XRECORD
  5
19EA
102
{ACAD_REACTORS
330
19E9
102
}
330
19E9
100
AcDbXrecord
280
     1
290
     1
  0
XRECORD
  5
19EC
102
{ACAD_REACTORS
330
19EB
102
}
330
19EB
100
AcDbXrecord
280
     1
290
     1
  0
XRECORD
  5
19EE
102
{ACAD_REACTORS
330
19ED
102
}
330
19ED
100
AcDbXrecord
280
     1
290
     1
  0
XRECORD
  5
19F0
102
{ACAD_REACTORS
330
19EF
102
}
330
19EF
100
AcDbXrecord
280
     1
290
     1
  0
XRECORD
  5
19F2
102
{ACAD_REACTORS
330
19F1
102
}
330
19F1
100
AcDbXrecord
280
     1
290
     1
  0
XRECORD
  5
19F4
102
{ACAD_REACTORS
330
19F3
102
}
330
19F3
100
AcDbXrecord
280
     1
290
     1
  0
XRECORD
  5
19F6
102
{ACAD_REACTORS
330
19F5
102
}
330
19F5
100
AcDbXrecord
280
     1
290
     1
  0
XRECORD
  5
19F8
102
{ACAD_REACTORS
330
19F7
102
}
330
19F7
100
AcDbXrecord
280
     1
290
     1
  0
XRECORD
  5
19FA
102
{ACAD_REACTORS
330
19F9
102
}
330
19F9
100
AcDbXrecord
280
     1
290
     1
  0
XRECORD
  5
19FC
102
{ACAD_REACTORS
330
19FB
102
}
330
19FB
100
AcDbXrecord
280
     1
290
     1
  0
ACDBDETAILVIEWSTYLE
  5
198C
102
{ACAD_XDICTIONARY
360
1AFF
102
}
102
{ACAD_REACTORS
330
198B
102
}
330
198B
100
AcDbModelDocViewStyle
 70
     0
  3
Imperial24
290
     0
100
AcDbDetailViewStyle
 70
     0
 71
     0
 90
        3
 71
     1
340
11
 40
0.24
340
0
 40
0.24
300

 40
0.36
280
     3
 71
     2
340
16
 90
       25
 71
     3
340
11
 40
0.24
 90
        1
 40
0.75
 90
        1
300
%<\AcVar ViewType \f "%tc1">% %<\AcVar ViewDetailId>%\PSCALE %<\AcVar ViewScale \f "%sn">%
 71
     4
340
16
 90
       25
340
16
 90
       25
280
     0
  0
LAYOUT
  5
193D
102
{ACAD_XDICTIONARY
360
1AC7
102
}
102
{ACAD_REACTORS
330
1A
102
}
330
1A
100
AcDbPlotSettings
  1

  2
none_device
  4
ANSI_B_(17.00_x_11.00_Inches)
  6

 40
0.0
 41
0.0
 42
0.0
 43
0.0
 44
431.8
 45
279.4
 46
0.0
 47
0.0
 48
0.0
 49
0.0
140
0.0
141
0.0
142
1.0
143
1.0
 70
     0
 72
     0
 73
     0
 74
     0
  7

 75
     0
147
1.0
148
0.0
149
0.0
100
AcDbLayout
  1
Layout1
 70
     1
 71
     1
 10
0.0
 20
0.0
 11
12.0
 21
9.0
 12
0.0
 22
0.0
 32
0.0
 14
1.000000000000000E+20
 24
1.000000000000000E+20
 34
1.000000000000000E+20
 15
-1.000000000000000E+20
 25
-1.000000000000000E+20
 35
-1.000000000000000E+20
146
0.0
 13
0.0
 23
0.0
 33
0.0
 16
1.0
 26
0.0
 36
0.0
 17
0.0
 27
1.0
 37
0.0
 76
     0
330
20B
  0
LAYOUT
  5
193C
102
{ACAD_XDICTIONARY
360
1AC5
102
}
102
{ACAD_REACTORS
330
1A
102
}
330
1A
100
AcDbPlotSettings
  1

  2
none_device
  4
ANSI_B_(17.00_x_11.00_Inches)
  6

 40
0.0
 41
0.0
 42
0.0
 43
0.0
 44
431.8
 45
279.4
 46
0.0
 47
0.0
 48
0.0
 49
0.0
140
0.0
141
0.0
142
1.0
143
1.0
 70
  1024
 72
     0
 73
     0
 74
     0
  7

 75
     0
147
1.0
148
0.0
149
0.0
100
AcDbLayout
  1
Model
 70
     0
 71
     0
 10
0.0
 20
0.0
 11
17.0
 21
11.0
 12
0.0
 22
0.0
 32
0.0
 14
0.0
 24
0.0
 34
0.0
 15
0.0
 25
0.0
 35
0.0
146
0.0
 13
0.0
 23
0.0
 33
0.0
 16
1.0
 26
0.0
 36
0.0
 17
0.0
 27
1.0
 37
0.0
 76
     0
330
20A
331
1F4
  0
MATERIAL
  5
1949
102
{ACAD_XDICTIONARY
360
194A
102
}
102
{ACAD_REACTORS
330
1940
102
}
330
1940
100
AcDbMaterial
  1
ByBlock
 72
     0
 43
0.0208333333333333
 43
0.0
 43
0.0
 43
0.0
 43
0.0
 43
0.0208333333333333
 43
0.0
 43
0.0
 43
0.0
 43
0.0
 43
1.0
 43
0.0
 43
0.0
 43
0.0
 43
0.0
 43
1.0
 77
     0
 47
0.0208333333333333
 47
0.0
 47
0.0
 47
0.0
 47
0.0
 47
0.0208333333333333
 47
0.0
 47
0.0
 47
0.0
 47
0.0
 47
1.0
 47
0.0
 47
0.0
 47
0.0
 47
0.0
 47
1.0
171
     0
 49
0.0208333333333333
 49
0.0
 49
0.0
 49
0.0
 49
0.0
 49
0.0208333333333333
 49
0.0
 49
0.0
 49
0.0
 49
0.0
 49
1.0
 49
0.0
 49
0.0
 49
0.0
 49
0.0
 49
1.0
175
     0
142
0.0208333333333333
142
0.0
142
0.0
142
0.0
142
0.0
142
0.0208333333333333
142
0.0
142
0.0
142
0.0
142
0.0
142
1.0
142
0.0
142
0.0
142
0.0
142
0.0
142
1.0
179
     0
144
0.0208333333333333
144
0.0
144
0.0
144
0.0
144
0.0
144
0.0208333333333333
144
0.0
144
0.0
144
0.0
144
0.0
144
1.0
144
0.0
144
0.0
144
0.0
144
0.0
144
1.0
147
0.0208333333333333
147
0.0
147
0.0
147
0.0
147
0.0
147
0.0208333333333333
147
0.0
147
0.0
147
0.0
147
0.0
147
1.0
147
0.0
147
0.0
147
0.0
147
0.0
147
1.0
  0
MATERIAL
  5
1941
102
{ACAD_XDICTIONARY
360
1942
102
}
102
{ACAD_REACTORS
330
1940
102
}
330
1940
100
AcDbMaterial
  1
ByLayer
 72
     0
 43
0.0208333333333333
 43
0.0
 43
0.0
 43
0.0
 43
0.0
 43
0.0208333333333333
 43
0.0
 43
0.0
 43
0.0
 43
0.0
 43
1.0
 43
0.0
 43
0.0
 43
0.0
 43
0.0
 43
1.0
 77
     0
 47
0.0208333333333333
 47
0.0
 47
0.0
 47
0.0
 47
0.0
 47
0.0208333333333333
 47
0.0
 47
0.0
 47
0.0
 47
0.0
 47
1.0
 47
0.0
 47
0.0
 47
0.0
 47
0.0
 47
1.0
171
     0
 49
0.0208333333333333
 49
0.0
 49
0.0
 49
0.0
 49
0.0
 49
0.0208333333333333
 49
0.0
 49
0.0
 49
0.0
 49
0.0
 49
1.0
 49
0.0
 49
0.0
 49
0.0
 49
0.0
 49
1.0
175
     0
142
0.0208333333333333
142
0.0
142
0.0
142
0.0
142
0.0
142
0.0208333333333333
142
0.0
142
0.0
142
0.0
142
0.0
142
1.0
142
0.0
142
0.0
142
0.0
142
0.0
142
1.0
179
     0
144
0.0208333333333333
144
0.0
144
0.0
144
0.0
144
0.0
144
0.0208333333333333
144
0.0
144
0.0
144
0.0
144
0.0
144
1.0
144
0.0
144
0.0
144
0.0
144
0.0
144
1.0
147
0.0208333333333333
147
0.0
147
0.0
147
0.0
147
0.0
147
0.0208333333333333
147
0.0
147
0.0
147
0.0
147
0.0
147
1.0
147
0.0
147
0.0
147
0.0
147
0.0
147
1.0
  0
MATERIAL
  5
1951
102
{ACAD_XDICTIONARY
360
1952
102
}
102
{ACAD_REACTORS
330
1940
102
}
330
1940
100
AcDbMaterial
  1
Global
 72
     0
 43
0.0208333333333333
 43
0.0
 43
0.0
 43
0.0
 43
0.0
 43
0.0208333333333333
 43
0.0
 43
0.0
 43
0.0
 43
0.0
 43
1.0
 43
0.0
 43
0.0
 43
0.0
 43
0.0
 43
1.0
 77
     0
 47
0.0208333333333333
 47
0.0
 47
0.0
 47
0.0
 47
0.0
 47
0.0208333333333333
 47
0.0
 47
0.0
 47
0.0
 47
0.0
 47
1.0
 47
0.0
 47
0.0
 47
0.0
 47
0.0
 47
1.0
171
     0
 49
0.0208333333333333
 49
0.0
 49
0.0
 49
0.0
 49
0.0
 49
0.0208333333333333
 49
0.0
 49
0.0
 49
0.0
 49
0.0
 49
1.0
 49
0.0
 49
0.0
 49
0.0
 49
0.0
 49
1.0
175
     0
142
0.0208333333333333
142
0.0
142
0.0
142
0.0
142
0.0
142
0.0208333333333333
142
0.0
142
0.0
142
0.0
142
0.0
142
1.0
142
0.0
142
0.0
142
0.0
142
0.0
142
1.0
179
     0
144
0.0208333333333333
144
0.0
144
0.0
144
0.0
144
0.0
144
0.0208333333333333
144
0.0
144
0.0
144
0.0
144
0.0
144
1.0
144
0.0
144
0.0
144
0.0
144
0.0
144
1.0
147
0.0208333333333333
147
0.0
147
0.0
147
0.0
147
0.0
147
0.0208333333333333
147
0.0
147
0.0
147
0.0
147
0.0
147
1.0
147
0.0
147
0.0
147
0.0
147
0.0
147
1.0
  0
MLEADERSTYLE
  5
1988
102
{ACAD_REACTORS
330
1987
102
}
330
1987
100
AcDbMLeaderStyle
170
     2
171
     1
172
     0
 90
        2
 40
0.0
 41
0.0
173
     1
 91
-1056964608
340
14
 92
       -2
290
     1
 42
0.09
291
     1
 43
0.36
  3
Standard
 44
0.18
300

342
11
174
     1
178
     6
175
     1
176
     0
 93
-1056964608
 45
0.18
292
     0
297
     0
 46
0.18
 94
-1056964608
 47
1.0
 49
1.0
140
1.0
293
     1
141
0.0
294
     1
177
     0
142
1.0
295
     0
296
     0
143
0.125
1001
ACAD_MLEADERVER
1070
     2
  0
MLINESTYLE
  5
18
102
{ACAD_REACTORS
330
17
102
}
330
17
100
AcDbMlineStyle
  2
STANDARD
 70
     0
  3

 62
   256
 51
90.0
 52
90.0
 71
     2
 49
0.5
 62
   256
  6
BYLAYER
 49
-0.5
 62
   256
  6
BYLAYER
  0
ACDBPLACEHOLDER
  5
F
102
{ACAD_REACTORS
330
E
102
}
330
E
  0
SCALE
  5
1976
102
{ACAD_REACTORS
330
1975
102
}
330
1975
100
AcDbScale
 70
     0
300
1:1
140
1.0
141
1.0
290
     1
  0
SCALE
  5
1977
102
{ACAD_REACTORS
330
1975
102
}
330
1975
100
AcDbScale
 70
     0
300
1/128" = 1'-0"
140
0.0078125
141
12.0
290
     0
  0
SCALE
  5
1978
102
{ACAD_REACTORS
330
1975
102
}
330
1975
100
AcDbScale
 70
     0
300
1/64" = 1'-0"
140
0.015625
141
12.0
290
     0
  0
SCALE
  5
1979
102
{ACAD_REACTORS
330
1975
102
}
330
1975
100
AcDbScale
 70
     0
300
1/32" = 1'-0"
140
0.03125
141
12.0
290
     0
  0
SCALE
  5
197A
102
{ACAD_REACTORS
330
1975
102
}
330
1975
100
AcDbScale
 70
     0
300
1/16" = 1'-0"
140
0.0625
141
12.0
290
     0
  0
SCALE
  5
197B
102
{ACAD_REACTORS
330
1975
102
}
330
1975
100
AcDbScale
 70
     0
300
3/32" = 1'-0"
140
0.09375
141
12.0
290
     0
  0
SCALE
  5
197C
102
{ACAD_REACTORS
330
1975
102
}
330
1975
100
AcDbScale
 70
     0
300
1/8" = 1'-0"
140
0.125
141
12.0
290
     0
  0
SCALE
  5
197D
102
{ACAD_REACTORS
330
1975
102
}
330
1975
100
AcDbScale
 70
     0
300
3/16" = 1'-0"
140
0.1875
141
12.0
290
     0
  0
SCALE
  5
197E
102
{ACAD_REACTORS
330
1975
102
}
330
1975
100
AcDbScale
 70
     0
300
1/4" = 1'-0"
140
0.25
141
12.0
290
     0
  0
SCALE
  5
197F
102
{ACAD_REACTORS
330
1975
102
}
330
1975
100
AcDbScale
 70
     0
300
3/8" = 1'-0"
140
0.375
141
12.0
290
     0
  0
SCALE
  5
1980
102
{ACAD_REACTORS
330
1975
102
}
330
1975
100
AcDbScale
 70
     0
300
1/2" = 1'-0"
140
0.5
141
12.0
290
     0
  0
SCALE
  5
1981
102
{ACAD_REACTORS
330
1975
102
}
330
1975
100
AcDbScale
 70
     0
300
3/4" = 1'-0"
140
0.75
141
12.0
290
     0
  0
SCALE
  5
1982
102
{ACAD_REACTORS
330
1975
102
}
330
1975
100
AcDbScale
 70
     0
300
1" = 1'-0"
140
1.0
141
12.0
290
     0
  0
SCALE
  5
1983
102
{ACAD_REACTORS
330
1975
102
}
330
1975
100
AcDbScale
 70
     0
300
1-1/2" = 1'-0"
140
1.5
141
12.0
290
     0
  0
SCALE
  5
1984
102
{ACAD_REACTORS
330
1975
102
}
330
1975
100
AcDbScale
 70
     0
300
3" = 1'-0"
140
3.0
141
12.0
290
     0
  0
SCALE
  5
1985
102
{ACAD_REACTORS
330
1975
102
}
330
1975
100
AcDbScale
 70
     0
300
6" = 1'-0"
140
6.0
141
12.0
290
     0
  0
SCALE
  5
1986
102
{ACAD_REACTORS
330
1975
102
}
330
1975
100
AcDbScale
 70
     0
300
1'-0" = 1'-0"
140
12.0
141
12.0
290
     0
  0
ACDBSECTIONVIEWSTYLE
  5
198A
102
{ACAD_XDICTIONARY
360
1AFD
102
}
102
{ACAD_REACTORS
330
1989
102
}
330
1989
100
AcDbModelDocViewStyle
 70
     0
  3
Imperial24
290
     0
100
AcDbSectionViewStyle
 70
     0
 71
     0
 90
       78
 71
     1
340
11
 40
0.24
340
0
340
0
 40
0.24
300
I, O, Q, S, X, Z
 40
0.48
 90
        3
 40
0.18
 90
        1
 71
     2
340
16
 90
       25
340
16
 90
       50
 40
0.24
 40
0.0
 40
0.24
 71
     3
340
11
 40
0.24
 90
        1
 40
0.75
 90
        1
300
%<\AcVar ViewType \f "%tc1">% %<\AcVar ViewSectionStartId>%-%<\AcVar ViewSectionEndId>%\PSCALE %<\AcVar ViewScale \f "%sn">%
 71
     4
300
ANSI31
 40
1.0
 90
        0
290
     0
290
     0
 90
        6
 40
0.0
 40
1.570796326794896
 40
0.2617993877991494
 40
1.308996938995747
 40
-0.2617993877991494
 40
1.832595714594046
  0
TABLESTYLE
  5
1974
102
{ACAD_XDICTIONARY
360
198D
102
}
102
{ACAD_REACTORS
330
1973
102
}
330
1973
100
AcDbTableStyle
  3
Standard
 70
     0
 71
     0
 40
0.06
 41
0.06
280
     0
281
     0
  7
STANDARD
140
0.18
170
     2
 62
     0
 63
     7
283
     0
274
    -2
284
     1
 64
     0
275
    -2
285
     1
 65
     0
276
    -2
286
     1
 66
     0
277
    -2
287
     1
 67
     0
278
    -2
288
     1
 68
     0
279
    -2
289
     1
 69
     0
  7
STANDARD
140
0.25
170
     5
 62
     0
 63
     7
283
     0
274
    -2
284
     1
 64
     0
275
    -2
285
     1
 65
     0
276
    -2
286
     1
 66
     0
277
    -2
287
     1
 67
     0
278
    -2
288
     1
 68
     0
279
    -2
289
     1
 69
     0
  7
STANDARD
140
0.18
170
     5
 62
     0
 63
     7
283
     0
274
    -2
284
     1
 64
     0
275
    -2
285
     1
 65
     0
276
    -2
286
     1
 66
     0
277
    -2
287
     1
 67
     0
278
    -2
288
     1
 68
     0
279
    -2
289
     1
 69
     0
  0
VISUALSTYLE
  5
195F
102
{ACAD_XDICTIONARY
360
1AD6
102
}
102
{ACAD_REACTORS
330
1959
102
}
330
1959
100
AcDbVisualStyle
  2
2dWireframe
 70
     4
 71
     0
 72
     2
 73
     0
 90
        0
 40
-0.6
 41
-30.0
 62
     5
 63
     7
 74
     1
 91
        4
 64
     7
 65
   257
 75
     1
175
     1
 42
1.0
 92
        0
 66
   257
 43
1.0
 76
     1
 77
     6
 78
     2
 67
     7
 79
     5
170
     0
171
     0
290
     0
174
     0
 93
        1
 44
0.0
173
     0
291
     0
 45
0.0
1001
ACAD
1000
AcDbSavedByObjectVersion
1070
     0
  0
VISUALSTYLE
  5
195E
102
{ACAD_XDICTIONARY
360
1AD4
102
}
102
{ACAD_REACTORS
330
1959
102
}
330
1959
100
AcDbVisualStyle
  2
Basic
 70
     7
 71
     1
 72
     0
 73
     1
 90
        0
 40
-0.6
 41
-30.0
 62
     5
 63
     7
 74
     0
 91
        4
 64
     7
 65
   257
 75
     1
175
     1
 42
1.0
 92
        8
 66
     7
 43
1.0
 76
     1
 77
     6
 78
     2
 67
     7
 79
     5
170
     0
171
     0
290
     0
174
     0
 93
        1
 44
0.0
173
     0
291
     1
 45
0.0
1001
ACAD
1000
AcDbSavedByObjectVersion
1070
     0
  0
VISUALSTYLE
  5
1965
102
{ACAD_XDICTIONARY
360
1AE2
102
}
102
{ACAD_REACTORS
330
1959
102
}
330
1959
100
AcDbVisualStyle
  2
Brighten
 70
    12
 71
     2
 72
     2
 73
     0
 90
        0
 40
-0.6
 41
-30.0
 62
     5
 63
     7
 74
     1
 91
        4
 64
     7
 65
   257
 75
     1
175
     1
 42
1.0
 92
        8
 66
     7
 43
1.0
 76
     1
 77
     6
 78
     2
 67
     7
 79
     5
170
     0
171
     0
290
     0
174
     0
 93
        1
 44
50.0
173
     0
291
     1
 45
0.0
1001
ACAD
1000
AcDbSavedByObjectVersion
1070
     0
  0
VISUALSTYLE
  5
1969
102
{ACAD_XDICTIONARY
360
1AEA
102
}
102
{ACAD_REACTORS
330
1959
102
}
330
1959
100
AcDbVisualStyle
  2
ColorChange
 70
    16
 71
     2
 72
     2
 73
     3
 90
        0
 40
-0.6
 41
-30.0
 62
     5
 63
     8
 74
     1
 91
        4
 64
     7
 65
   257
 75
     1
175
     1
 42
1.0
 92
        8
 66
     8
 43
1.0
 76
     1
 77
     6
 78
     2
 67
     7
 79
     5
170
     0
171
     0
290
     0
174
     0
 93
        1
 44
0.0
173
     0
291
     1
 45
0.0
1001
ACAD
1000
AcDbSavedByObjectVersion
1070
     0
  0
VISUALSTYLE
  5
1962
102
{ACAD_XDICTIONARY
360
1ADC
102
}
102
{ACAD_REACTORS
330
1959
102
}
330
1959
100
AcDbVisualStyle
  2
Conceptual
 70
     9
 71
     3
 72
     2
 73
     0
 90
        0
 40
-0.6
 41
-30.0
 62
     5
 63
     7
 74
     2
 91
        2
 64
     7
 65
   257
 75
     1
175
     1
 42
179.0
 92
        8
 66
     7
 43
1.0
 76
     1
 77
     6
 78
     2
 67
     7
 79
     3
170
     0
171
     0
290
     0
174
     0
 93
        1
 44
0.0
173
     0
291
     0
 45
0.0
1001
ACAD
1000
AcDbSavedByObjectVersion
1070
     0
  0
VISUALSTYLE
  5
1964
102
{ACAD_XDICTIONARY
360
1AE0
102
}
102
{ACAD_REACTORS
330
1959
102
}
330
1959
100
AcDbVisualStyle
  2
Dim
 70
    11
 71
     2
 72
     2
 73
     0
 90
        0
 40
-0.6
 41
-30.0
 62
     5
 63
     7
 74
     1
 91
        4
 64
     7
 65
   257
 75
     1
175
     1
 42
1.0
 92
        8
 66
     7
 43
1.0
 76
     1
 77
     6
 78
     2
 67
     7
 79
     5
170
     0
171
     0
290
     0
174
     0
 93
        1
 44
-50.0
173
     0
291
     1
 45
0.0
1001
ACAD
1000
AcDbSavedByObjectVersion
1070
     0
  0
VISUALSTYLE
  5
1971
102
{ACAD_XDICTIONARY
360
1AFA
102
}
102
{ACAD_REACTORS
330
1959
102
}
330
1959
100
AcDbVisualStyle
  2
EdgeColorOff
 70
    22
 71
     2
 72
     2
 73
     0
 90
        0
 40
-0.6
 41
-30.0
 62
     5
 63
     7
 74
     1
 91
        4
 64
     7
 65
   257
 75
     1
175
     1
 42
1.0
 92
        8
 66
     7
 43
1.0
 76
     1
 77
     6
 78
     2
 67
     7
 79
     5
170
     0
171
     0
290
     0
174
     0
 93
        1
 44
0.0
173
     0
291
     1
 45
0.0
1001
ACAD
1000
AcDbSavedByObjectVersion
1070
     0
  0
VISUALSTYLE
  5
1968
102
{ACAD_XDICTIONARY
360
1AE8
102
}
102
{ACAD_REACTORS
330
1959
102
}
330
1959
100
AcDbVisualStyle
  2
Facepattern
 70
    15
 71
     2
 72
     2
 73
     0
 90
        0
 40
-0.6
 41
-30.0
 62
     5
 63
     7
 74
     1
 91
        4
 64
     7
 65
   257
 75
     1
175
     1
 42
1.0
 92
        8
 66
     7
 43
1.0
 76
     1
 77
     6
 78
     2
 67
     7
 79
     5
170
     0
171
     0
290
     0
174
     0
 93
        1
 44
0.0
173
     0
291
     1
 45
0.0
1001
ACAD
1000
AcDbSavedByObjectVersion
1070
     0
  0
VISUALSTYLE
  5
195A
102
{ACAD_XDICTIONARY
360
1ACC
102
}
102
{ACAD_REACTORS
330
1959
102
}
330
1959
100
AcDbVisualStyle
  2
Flat
 70
     0
 71
     2
 72
     1
 73
     1
 90
        2
 40
-0.6
 41
30.0
 62
     5
 63
     7
 74
     0
 91
        0
 64
     7
 65
   257
 75
     1
175
     1
 42
1.0
 92
        8
 66
     7
 43
1.0
 76
     1
 77
     6
 78
     2
 67
     7
 79
     5
170
     0
171
     0
290
     0
174
     0
 93
       13
 44
0.0
173
     0
291
     1
 45
0.0
1001
ACAD
1000
AcDbSavedByObjectVersion
1070
     0
  0
VISUALSTYLE
  5
195B
102
{ACAD_XDICTIONARY
360
1ACE
102
}
102
{ACAD_REACTORS
330
1959
102
}
330
1959
100
AcDbVisualStyle
  2
FlatWithEdges
 70
     1
 71
     2
 72
     1
 73
     1
 90
        2
 40
-0.6
 41
30.0
 62
     5
 63
     7
 74
     1
 91
        0
 64
     7
 65
   257
 75
     1
175
     1
 42
1.0
 92
        0
 66
   257
 43
1.0
 76
     1
 77
     6
 78
     2
 67
     7
 79
     5
170
     0
171
     0
290
     0
174
     0
 93
       13
 44
0.0
173
     0
291
     1
 45
0.0
1001
ACAD
1000
AcDbSavedByObjectVersion
1070
     0
  0
VISUALSTYLE
  5
195C
102
{ACAD_XDICTIONARY
360
1AD0
102
}
102
{ACAD_REACTORS
330
1959
102
}
330
1959
100
AcDbVisualStyle
  2
Gouraud
 70
     2
 71
     2
 72
     2
 73
     1
 90
        2
 40
-0.6
 41
30.0
 62
     5
 63
     7
 74
     0
 91
        0
 64
     7
 65
   257
 75
     1
175
     1
 42
1.0
 92
        0
 66
     7
 43
1.0
 76
     1
 77
     6
 78
     2
 67
     7
 79
     5
170
     0
171
     0
290
     0
174
     0
 93
       13
 44
0.0
173
     0
291
     1
 45
0.0
1001
ACAD
1000
AcDbSavedByObjectVersion
1070
     0
  0
VISUALSTYLE
  5
195D
102
{ACAD_XDICTIONARY
360
1AD2
102
}
102
{ACAD_REACTORS
330
1959
102
}
330
1959
100
AcDbVisualStyle
  2
GouraudWithEdges
 70
     3
 71
     2
 72
     2
 73
     1
 90
        2
 40
-0.6
 41
30.0
 62
     5
 63
     7
 74
     1
 91
        0
 64
     7
 65
   257
 75
     1
175
     1
 42
1.0
 92
        0
 66
   257
 43
1.0
 76
     1
 77
     6
 78
     2
 67
     7
 79
     5
170
     0
171
     0
290
     0
174
     0
 93
       13
 44
0.0
173
     0
291
     1
 45
0.0
1001
ACAD
1000
AcDbSavedByObjectVersion
1070
     0
  0
VISUALSTYLE
  5
1961
102
{ACAD_XDICTIONARY
360
1ADA
102
}
102
{ACAD_REACTORS
330
1959
102
}
330
1959
100
AcDbVisualStyle
  2
Hidden
 70
     6
 71
     1
 72
     2
 73
     2
 90
        0
 40
-0.6
 41
-30.0
 62
     5
 63
     7
 74
     2
 91
        2
 64
     7
 65
   257
 75
     2
175
     1
 42
40.0
 92
        0
 66
   257
 43
1.0
 76
     1
 77
     6
 78
     2
 67
     7
 79
     3
170
     0
171
     0
290
     0
174
     0
 93
        1
 44
0.0
173
     0
291
     0
 45
0.0
1001
ACAD
1000
AcDbSavedByObjectVersion
1070
     0
  0
VISUALSTYLE
  5
196F
102
{ACAD_XDICTIONARY
360
1AF6
102
}
102
{ACAD_REACTORS
330
1959
102
}
330
1959
100
AcDbVisualStyle
  2
JitterOff
 70
    20
 71
     2
 72
     2
 73
     0
 90
        0
 40
-0.6
 41
-30.0
 62
     5
 63
     7
 74
     1
 91
        4
 64
     7
 65
   257
 75
     1
175
     1
 42
1.0
 92
       10
 66
     7
 43
1.0
 76
     1
 77
     6
 78
     2
 67
     7
 79
     5
170
     0
171
     0
290
     0
174
     0
 93
        1
 44
0.0
173
     0
291
     1
 45
0.0
1001
ACAD
1000
AcDbSavedByObjectVersion
1070
     0
  0
VISUALSTYLE
  5
1967
102
{ACAD_XDICTIONARY
360
1AE6
102
}
102
{ACAD_REACTORS
330
1959
102
}
330
1959
100
AcDbVisualStyle
  2
Linepattern
 70
    14
 71
     2
 72
     2
 73
     0
 90
        0
 40
-0.6
 41
-30.0
 62
     5
 63
     7
 74
     1
 91
        4
 64
     7
 65
   257
 75
     7
175
     7
 42
1.0
 92
        8
 66
     7
 43
1.0
 76
     1
 77
     6
 78
     2
 67
     7
 79
     5
170
     0
171
     0
290
     0
174
     0
 93
        1
 44
0.0
173
     0
291
     1
 45
0.0
1001
ACAD
1000
AcDbSavedByObjectVersion
1070
     0
  0
VISUALSTYLE
  5
1970
102
{ACAD_XDICTIONARY
360
1AF8
102
}
102
{ACAD_REACTORS
330
1959
102
}
330
1959
100
AcDbVisualStyle
  2
OverhangOff
 70
    21
 71
     2
 72
     2
 73
     0
 90
        0
 40
-0.6
 41
-30.0
 62
     5
 63
     7
 74
     1
 91
        4
 64
     7
 65
   257
 75
     1
175
     1
 42
1.0
 92
        9
 66
     7
 43
1.0
 76
     1
 77
     6
 78
     2
 67
     7
 79
     5
170
     0
171
     0
290
     0
174
     0
 93
        1
 44
0.0
173
     0
291
     1
 45
0.0
1001
ACAD
1000
AcDbSavedByObjectVersion
1070
     0
  0
VISUALSTYLE
  5
1963
102
{ACAD_XDICTIONARY
360
1ADE
102
}
102
{ACAD_REACTORS
330
1959
102
}
330
1959
100
AcDbVisualStyle
  2
Realistic
 70
     8
 71
     2
 72
     2
 73
     0
 90
        2
 40
-0.6
 41
30.0
 62
     5
 63
     7
 74
     0
 91
        0
 64
     7
 65
   257
 75
     1
175
     1
 42
1.0
 92
        8
 66
   257
 43
1.0
 76
     1
 77
     6
 78
     2
 67
     7
 79
     3
170
     0
171
     0
290
     0
174
     0
 93
       13
 44
0.0
173
     0
291
     0
 45
0.0
1001
ACAD
1000
AcDbSavedByObjectVersion
1070
     0
  0
VISUALSTYLE
  5
196E
102
{ACAD_XDICTIONARY
360
1AF4
102
}
102
{ACAD_REACTORS
330
1959
102
}
330
1959
100
AcDbVisualStyle
  2
Shaded
 70
    27
 71
     2
 72
     2
 73
     1
 90
        2
 40
-0.6
 41
30.0
 62
     5
 63
     7
 74
     0
 91
        4
 64
     7
 65
   257
 75
     1
175
     1
 42
1.0
 92
        8
 66
   257
 43
1.0
 76
     1
 77
     6
 78
     2
 67
     8
 79
     3
170
     0
171
     0
290
     0
174
     0
 93
        5
 44
0.0
173
     0
291
     0
 45
0.0
1001
ACAD
1000
AcDbSavedByObjectVersion
1070
     0
  0
VISUALSTYLE
  5
196D
102
{ACAD_XDICTIONARY
360
1AF2
102
}
102
{ACAD_REACTORS
330
1959
102
}
330
1959
100
AcDbVisualStyle
  2
Shaded with edges
 70
    26
 71
     2
 72
     2
 73
     1
 90
        2
 40
-0.6
 41
30.0
 62
     5
 63
     7
 74
     1
 91
        2
 64
     7
 65
   257
 75
     2
175
     1
 42
1.0
 92
        8
 66
   257
 43
1.0
 76
     1
 77
     6
 78
     2
 67
     7
 79
     3
170
     0
171
     0
290
     0
174
     0
 93
        5
 44
0.0
173
     0
291
     0
 45
0.0
1001
ACAD
1000
AcDbSavedByObjectVersion
1070
     0
  0
VISUALSTYLE
  5
196A
102
{ACAD_XDICTIONARY
360
1AEC
102
}
102
{ACAD_REACTORS
330
1959
102
}
330
1959
100
AcDbVisualStyle
  2
Shades of Gray
 70
    23
 71
     2
 72
     2
 73
     3
 90
        0
 40
-0.6
 41
-30.0
 62
     5
 63
     7
 74
     2
 91
        2
 64
     7
 65
     7
 75
     1
175
     1
 42
40.0
 92
        8
 66
     7
 43
1.0
 76
     1
 77
     6
 78
     2
 67
     7
 79
     3
170
     0
171
     0
290
     0
174
     0
 93
        1
 44
0.0
173
     0
291
     0
 45
0.0
1001
ACAD
1000
AcDbSavedByObjectVersion
1070
     0
  0
VISUALSTYLE
  5
196B
102
{ACAD_XDICTIONARY
360
1AEE
102
}
102
{ACAD_REACTORS
330
1959
102
}
330
1959
100
AcDbVisualStyle
  2
Sketchy
 70
    24
 71
     1
 72
     2
 73
     2
 90
        0
 40
-0.6
 41
-30.0
 62
     5
 63
     7
 74
     2
 91
        2
 64
     7
 65
     7
 75
     1
175
     1
 42
40.0
 92
       11
 66
     7
 43
1.0
 76
     1
 77
     6
 78
     2
 67
     7
 79
     6
170
     0
171
     0
290
     0
174
     0
 93
        1
 44
0.0
173
     0
291
     0
 45
0.0
1001
ACAD
1000
AcDbSavedByObjectVersion
1070
     0
  0
VISUALSTYLE
  5
1966
102
{ACAD_XDICTIONARY
360
1AE4
102
}
102
{ACAD_REACTORS
330
1959
102
}
330
1959
100
AcDbVisualStyle
  2
Thicken
 70
    13
 71
     2
 72
     2
 73
     0
 90
        0
 40
-0.6
 41
-30.0
 62
     5
 63
     7
 74
     1
 91
        4
 64
     7
 65
   257
 75
     1
175
     1
 42
1.0
 92
       12
 66
     7
 43
1.0
 76
     1
 77
     6
 78
     2
 67
     7
 79
     5
170
     0
171
     0
290
     0
174
     0
 93
        1
 44
0.0
173
     0
291
     1
 45
0.0
1001
ACAD
1000
AcDbSavedByObjectVersion
1070
     0
  0
VISUALSTYLE
  5
1960
102
{ACAD_XDICTIONARY
360
1AD8
102
}
102
{ACAD_REACTORS
330
1959
102
}
330
1959
100
AcDbVisualStyle
  2
Wireframe
 70
     5
 71
     0
 72
     2
 73
     0
 90
        0
 40
-0.6
 41
-30.0
 62
     5
 63
     7
 74
     1
 91
        4
 64
     7
 65
   257
 75
     1
175
     1
 42
1.0
 92
        0
 66
   257
 43
1.0
 76
     1
 77
     6
 78
     2
 67
     7
 79
     3
170
     0
171
     0
290
     0
174
     0
 93
        1
 44
0.0
173
     0
291
     0
 45
0.0
1001
ACAD
1000
AcDbSavedByObjectVersion
1070
     0
  0
VISUALSTYLE
  5
196C
102
{ACAD_XDICTIONARY
360
1AF0
102
}
102
{ACAD_REACTORS
330
1959
102
}
330
1959
100
AcDbVisualStyle
  2
X-Ray
 70
    25
 71
     2
 72
     2
 73
     1
 90
        1
 40
0.5
 41
-30.0
 62
     5
 63
     7
 74
     1
 91
        0
 64
     7
 65
   257
 75
     1
175
     1
 42
1.0
 92
        8
 66
     7
 43
1.0
 76
     1
 77
     6
 78
     2
 67
     7
 79
     3
170
     0
171
     0
290
     0
174
     0
 93
       13
 44
0.0
173
     0
291
     0
 45
0.0
1001
ACAD
1000
AcDbSavedByObjectVersion
1070
     0
  0
DICTIONARYVAR
  5
19D4
102
{ACAD_REACTORS
330
19CF
102
}
330
19CF
100
DictionaryVariables
280
     0
  1
1:1
  0
DICTIONARYVAR
  5
19D1
102
{ACAD_REACTORS
330
19CF
102
}
330
19CF
100
DictionaryVariables
280
     0
  1
STANDARD
  0
DICTIONARYVAR
  5
19D0
102
{ACAD_REACTORS
330
19CF
102
}
330
19CF
100
DictionaryVariables
280
     0
  1
STANDARD
  0
DICTIONARYVAR
  5
19D2
102
{ACAD_REACTORS
330
19CF
102
}
330
19CF
100
DictionaryVariables
280
     0
  1
Imperial24
  0
DICTIONARYVAR
  5
19D3
102
{ACAD_REACTORS
330
19CF
102
}
330
19CF
100
DictionaryVariables
280
     0
  1
Imperial24
  0
DICTIONARYVAR
  5
19D7
102
{ACAD_REACTORS
330
19CF
102
}
330
19CF
100
DictionaryVariables
280
     0
  1
1
  0
DICTIONARYVAR
  5
19D6
102
{ACAD_REACTORS
330
19CF
102
}
330
19CF
100
DictionaryVariables
280
     0
  1
0
  0
DICTIONARYVAR
  5
19D5
102
{ACAD_REACTORS
330
19CF
102
}
330
19CF
100
DictionaryVariables
280
     0
  1
127
  0
DICTIONARYVAR
  5
1AC1
102
{ACAD_REACTORS
330
19CF
102
}
330
19CF
100
DictionaryVariables
280
     0
  1
2
  0
DICTIONARY
  5
1AFF
330
198C
100
AcDbDictionary
280
     1
281
     1
  3
ACAD_XREC_ROUNDTRIP
360
1B00
  0
DICTIONARY
  5
1AC7
330
193D
100
AcDbDictionary
280
     1
281
     1
  3
ACAD_XREC_ROUNDTRIP
360
1AC8
  0
DICTIONARY
  5
1AC5
330
193C
100
AcDbDictionary
280
     1
281
     1
  3
ACAD_XREC_ROUNDTRIP
360
1AC6
  0
DICTIONARY
  5
194A
330
1949
100
AcDbDictionary
280
     1
281
     1
  3
ACAD_XREC_ROUNDTRIP
360
1ACA
  3
BUMPTILE
360
194C
  3
DIFFUSETILE
360
194B
  3
OPACITYTILE
360
194F
  3
REFLECTIONTILE
360
194E
  3
REFRACTIONTILE
360
1950
  3
SPECULARTILE
360
194D
  0
DICTIONARY
  5
1942
330
1941
100
AcDbDictionary
280
     1
281
     1
  3
ACAD_XREC_ROUNDTRIP
360
1AC9
  3
BUMPTILE
360
1944
  3
DIFFUSETILE
360
1943
  3
OPACITYTILE
360
1947
  3
REFLECTIONTILE
360
1946
  3
REFRACTIONTILE
360
1948
  3
SPECULARTILE
360
1945
  0
DICTIONARY
  5
1952
330
1951
100
AcDbDictionary
280
     1
281
     1
  3
ACAD_XREC_ROUNDTRIP
360
1ACB
  3
BUMPTILE
360
1954
  3
DIFFUSETILE
360
1953
  3
OPACITYTILE
360
1957
  3
REFLECTIONTILE
360
1956
  3
REFRACTIONTILE
360
1958
  3
SPECULARTILE
360
1955
  0
DICTIONARY
  5
1AFD
330
198A
100
AcDbDictionary
280
     1
281
     1
  3
ACAD_XREC_ROUNDTRIP
360
1AFE
  0
DICTIONARY
  5
198D
330
1974
100
AcDbDictionary
280
     1
281
     1
  3
ACAD_ROUNDTRIP_2008_TABLESTYLE_CELLSTYLEMAP
360
1AC2
  3
ACAD_XREC_ROUNDTRIP
360
1AFC
  0
DICTIONARY
  5
1AD6
330
195F
100
AcDbDictionary
280
     1
281
     1
  3
ACAD_XREC_ROUNDTRIP
360
1AD7
  0
DICTIONARY
  5
1AD4
330
195E
100
AcDbDictionary
280
     1
281
     1
  3
ACAD_XREC_ROUNDTRIP
360
1AD5
  0
DICTIONARY
  5
1AE2
330
1965
100
AcDbDictionary
280
     1
281
     1
  3
ACAD_XREC_ROUNDTRIP
360
1AE3
  0
DICTIONARY
  5
1AEA
330
1969
100
AcDbDictionary
280
     1
281
     1
  3
ACAD_XREC_ROUNDTRIP
360
1AEB
  0
DICTIONARY
  5
1ADC
330
1962
100
AcDbDictionary
280
     1
281
     1
  3
ACAD_XREC_ROUNDTRIP
360
1ADD
  0
DICTIONARY
  5
1AE0
330
1964
100
AcDbDictionary
280
     1
281
     1
  3
ACAD_XREC_ROUNDTRIP
360
1AE1
  0
DICTIONARY
  5
1AFA
330
1971
100
AcDbDictionary
280
     1
281
     1
  3
ACAD_XREC_ROUNDTRIP
360
1AFB
  0
DICTIONARY
  5
1AE8
330
1968
100
AcDbDictionary
280
     1
281
     1
  3
ACAD_XREC_ROUNDTRIP
360
1AE9
  0
DICTIONARY
  5
1ACC
330
195A
100
AcDbDictionary
280
     1
281
     1
  3
ACAD_XREC_ROUNDTRIP
360
1ACD
  0
DICTIONARY
  5
1ACE
330
195B
100
AcDbDictionary
280
     1
281
     1
  3
ACAD_XREC_ROUNDTRIP
360
1ACF
  0
DICTIONARY
  5
1AD0
330
195C
100
AcDbDictionary
280
     1
281
     1
  3
ACAD_XREC_ROUNDTRIP
360
1AD1
  0
DICTIONARY
  5
1AD2
330
195D
100
AcDbDictionary
280
     1
281
     1
  3
ACAD_XREC_ROUNDTRIP
360
1AD3
  0
DICTIONARY
  5
1ADA
330
1961
100
AcDbDictionary
280
     1
281
     1
  3
ACAD_XREC_ROUNDTRIP
360
1ADB
  0
DICTIONARY
  5
1AF6
330
196F
100
AcDbDictionary
280
     1
281
     1
  3
ACAD_XREC_ROUNDTRIP
360
1AF7
  0
DICTIONARY
  5
1AE6
330
1967
100
AcDbDictionary
280
     1
281
     1
  3
ACAD_XREC_ROUNDTRIP
360
1AE7
  0
DICTIONARY
  5
1AF8
330
1970
100
AcDbDictionary
280
     1
281
     1
  3
ACAD_XREC_ROUNDTRIP
360
1AF9
  0
DICTIONARY
  5
1ADE
330
1963
100
AcDbDictionary
280
     1
281
     1
  3
ACAD_XREC_ROUNDTRIP
360
1ADF
  0
DICTIONARY
  5
1AF4
330
196E
100
AcDbDictionary
280
     1
281
     1
  3
ACAD_XREC_ROUNDTRIP
360
1AF5
  0
DICTIONARY
  5
1AF2
330
196D
100
AcDbDictionary
280
     1
281
     1
  3
ACAD_XREC_ROUNDTRIP
360
1AF3
  0
DICTIONARY
  5
1AEC
330
196A
100
AcDbDictionary
280
     1
281
     1
  3
ACAD_XREC_ROUNDTRIP
360
1AED
  0
DICTIONARY
  5
1AEE
330
196B
100
AcDbDictionary
280
     1
281
     1
  3
ACAD_XREC_ROUNDTRIP
360
1AEF
  0
DICTIONARY
  5
1AE4
330
1966
100
AcDbDictionary
280
     1
281
     1
  3
ACAD_XREC_ROUNDTRIP
360
1AE5
  0
DICTIONARY
  5
1AD8
330
1960
100
AcDbDictionary
280
     1
281
     1
  3
ACAD_XREC_ROUNDTRIP
360
1AD9
  0
DICTIONARY
  5
1AF0
330
196C
100
AcDbDictionary
280
     1
281
     1
  3
ACAD_XREC_ROUNDTRIP
360
1AF1
  0
XRECORD
  5
1B00
102
{ACAD_REACTORS
330
1AFF
102
}
330
1AFF
100
AcDbXrecord
280
     1
102
DISPLAYNAME
  1
Imperial24
102
FLAGS
 90
        0
  0
XRECORD
  5
1AC8
102
{ACAD_REACTORS
330
1AC7
102
}
330
1AC7
100
AcDbXrecord
280
     1
102
SHADEPLOT
 70
     0
102
SHADEPLOTRESLEVEL
 70
     2
102
SHADEPLOTCUSTOMDPI
 70
   300
  0
XRECORD
  5
1AC6
102
{ACAD_REACTORS
330
1AC5
102
}
330
1AC5
100
AcDbXrecord
280
     1
102
SHADEPLOT
 70
     0
102
SHADEPLOTRESLEVEL
 70
     2
102
SHADEPLOTCUSTOMDPI
 70
   300
  0
XRECORD
  5
1ACA
102
{ACAD_REACTORS
330
194A
102
}
330
194A
100
AcDbXrecord
280
     1
102
MATERIAL
148
0.0
149
0.0
149
0.0
 93
        0
 94
      127
282
     0
 72
     0
 77
     0
171
     0
175
     0
179
     0
273
     0
  0
XRECORD
  5
194C
102
{ACAD_REACTORS
330
194A
102
}
330
194A
100
AcDbXrecord
280
     1
270
     1
271
     1
  0
XRECORD
  5
194B
102
{ACAD_REACTORS
330
194A
102
}
330
194A
100
AcDbXrecord
280
     1
270
     1
271
     1
  0
XRECORD
  5
194F
102
{ACAD_REACTORS
330
194A
102
}
330
194A
100
AcDbXrecord
280
     1
270
     1
271
     1
  0
XRECORD
  5
194E
102
{ACAD_REACTORS
330
194A
102
}
330
194A
100
AcDbXrecord
280
     1
270
     1
271
     1
  0
XRECORD
  5
1950
102
{ACAD_REACTORS
330
194A
102
}
330
194A
100
AcDbXrecord
280
     1
270
     1
271
     1
  0
XRECORD
  5
194D
102
{ACAD_REACTORS
330
194A
102
}
330
194A
100
AcDbXrecord
280
     1
270
     1
271
     1
  0
XRECORD
  5
1AC9
102
{ACAD_REACTORS
330
1942
102
}
330
1942
100
AcDbXrecord
280
     1
102
MATERIAL
148
0.0
149
0.0
149
0.0
 93
        0
 94
      127
282
     0
 72
     0
 77
     0
171
     0
175
     0
179
     0
273
     0
  0
XRECORD
  5
1944
102
{ACAD_REACTORS
330
1942
102
}
330
1942
100
AcDbXrecord
280
     1
270
     1
271
     1
  0
XRECORD
  5
1943
102
{ACAD_REACTORS
330
1942
102
}
330
1942
100
AcDbXrecord
280
     1
270
     1
271
     1
  0
XRECORD
  5
1947
102
{ACAD_REACTORS
330
1942
102
}
330
1942
100
AcDbXrecord
280
     1
270
     1
271
     1
  0
XRECORD
  5
1946
102
{ACAD_REACTORS
330
1942
102
}
330
1942
100
AcDbXrecord
280
     1
270
     1
271
     1
  0
XRECORD
  5
1948
102
{ACAD_REACTORS
330
1942
102
}
330
1942
100
AcDbXrecord
280
     1
270
     1
271
     1
  0
XRECORD
  5
1945
102
{ACAD_REACTORS
330
1942
102
}
330
1942
100
AcDbXrecord
280
     1
270
     1
271
     1
  0
XRECORD
  5
1ACB
102
{ACAD_REACTORS
330
1952
102
}
330
1952
100
AcDbXrecord
280
     1
102
MATERIAL
148
0.0
149
0.0
149
0.0
 93
        0
 94
      127
282
     0
 72
     0
 77
     0
171
     0
175
     0
179
     0
273
     0
  0
XRECORD
  5
1954
102
{ACAD_REACTORS
330
1952
102
}
330
1952
100
AcDbXrecord
280
     1
270
     1
271
     1
  0
XRECORD
  5
1953
102
{ACAD_REACTORS
330
1952
102
}
330
1952
100
AcDbXrecord
280
     1
270
     1
271
     1
  0
XRECORD
  5
1957
102
{ACAD_REACTORS
330
1952
102
}
330
1952
100
AcDbXrecord
280
     1
270
     1
271
     1
  0
XRECORD
  5
1956
102
{ACAD_REACTORS
330
1952
102
}
330
1952
100
AcDbXrecord
280
     1
270
     1
271
     1
  0
XRECORD
  5
1958
102
{ACAD_REACTORS
330
1952
102
}
330
1952
100
AcDbXrecord
280
     1
270
     1
271
     1
  0
XRECORD
  5
1955
102
{ACAD_REACTORS
330
1952
102
}
330
1952
100
AcDbXrecord
280
     1
270
     1
271
     1
  0
XRECORD
  5
1AFE
102
{ACAD_REACTORS
330
1AFD
102
}
330
1AFD
100
AcDbXrecord
280
     1
102
DISPLAYNAME
  1
Imperial24
102
FLAGS
 90
        0
  0
CELLSTYLEMAP
  5
1AC2
102
{ACAD_REACTORS
330
198D
102
}
330
198D
100
AcDbCellStyleMap
 90
        3
300
CELLSTYLE
  1
TABLEFORMAT_BEGIN
 90
        5
170
     1
 91
        0
 92
    32768
 62
   257
 93
        1
300
CONTENTFORMAT
  1
CONTENTFORMAT_BEGIN
 90
        0
 91
        0
 92
      512
 93
        0
300

 40
0.0
140
1.0
 94
        5
 62
     0
340
11
144
0.25
309
CONTENTFORMAT_END
171
     0
 94
        0
309
TABLEFORMAT_END
  1
CELLSTYLE_BEGIN
 90
        1
 91
        1
300
_TITLE
309
CELLSTYLE_END
300
CELLSTYLE
  1
TABLEFORMAT_BEGIN
 90
        5
170
     1
 91
        0
 92
        0
 62
   257
 93
        1
300
CONTENTFORMAT
  1
CONTENTFORMAT_BEGIN
 90
        0
 91
        0
 92
      512
 93
        0
300

 40
0.0
140
1.0
 94
        5
 62
     0
340
11
144
0.18
309
CONTENTFORMAT_END
171
     0
 94
        0
309
TABLEFORMAT_END
  1
CELLSTYLE_BEGIN
 90
        2
 91
        1
300
_HEADER
309
CELLSTYLE_END
300
CELLSTYLE
  1
TABLEFORMAT_BEGIN
 90
        5
170
     1
 91
        0
 92
        0
 62
   257
 93
        1
300
CONTENTFORMAT
  1
CONTENTFORMAT_BEGIN
 90
        0
 91
        0
 92
      512
 93
        0
300

 40
0.0
140
1.0
 94
        2
 62
     0
340
11
144
0.18
309
CONTENTFORMAT_END
171
     0
 94
        0
309
TABLEFORMAT_END
  1
CELLSTYLE_BEGIN
 90
        3
 91
        2
300
_DATA
309
CELLSTYLE_END
  0
XRECORD
  5
1AFC
102
{ACAD_REACTORS
330
198D
102
}
330
198D
100
AcDbXrecord
280
     1
102
ACAD_ROUNDTRIP_PRE2007_TABLESTYLE
 90
      512
 91
        0
  1

 92
      512
 93
        0
  2

 94
      512
 95
        0
  3

  0
XRECORD
  5
1AD7
102
{ACAD_REACTORS
330
1AD6
102
}
330
1AD6
100
AcDbXrecord
280
     1
102
RTVSPost2010Prop28
280
     1
102
RTVSPost2010PropOp28
 70
     1
102
RTVSPost2010Prop29
280
     1
102
RTVSPost2010PropOp29
 70
     1
102
RTVSPost2010Prop30
280
     0
102
RTVSPost2010PropOp30
 70
     1
102
RTVSPost2010Prop31
280
     0
102
RTVSPost2010PropOp31
 70
     1
102
RTVSPost2010Prop32
280
     0
102
RTVSPost2010PropOp32
 70
     1
102
RTVSPost2010Prop33
280
     0
102
RTVSPost2010PropOp33
 70
     1
102
RTVSPost2010Prop34
280
     0
102
RTVSPost2010PropOp34
 70
     1
102
RTVSPost2010Prop35
280
     0
102
RTVSPost2010PropOp35
 70
     1
102
RTVSPost2010Prop36
280
     0
102
RTVSPost2010PropOp36
 70
     1
102
RTVSPost2010Prop37
 90
       50
102
RTVSPost2010PropOp37
 70
     1
102
RTVSPost2010Prop38
140
0.0
102
RTVSPost2010PropOp38
 70
     1
102
RTVSPost2010Prop39
140
1.0
102
RTVSPost2010PropOp39
 70
     1
102
RTVSPost2010Prop40
 90
        0
102
RTVSPost2010PropOp40
 70
     1
102
RTVSPost2010Prop41ColorIndex
 90
       18
102
RTVSPost2010Prop41ColorRGB
 90
        0
102
RTVSPost2010PropOp41
 70
     1
102
RTVSPost2010Prop42
 90
       50
102
RTVSPost2010PropOp42
 70
     1
102
RTVSPost2010Prop43
 90
        3
102
RTVSPost2010PropOp43
 70
     1
102
RTVSPost2010Prop44ColorIndex
 90
        5
102
RTVSPost2010Prop44ColorRGB
 90
      255
102
RTVSPost2010PropOp44
 70
     1
102
RTVSPost2010Prop45
280
     0
102
RTVSPost2010PropOp45
 70
     1
102
RTVSPost2010Prop46
 90
       50
102
RTVSPost2010PropOp46
 70
     1
102
RTVSPost2010Prop47
 90
       50
102
RTVSPost2010PropOp47
 70
     1
102
RTVSPost2010Prop48
 90
       50
102
RTVSPost2010PropOp48
 70
     1
102
RTVSPost2010Prop49
280
     0
102
RTVSPost2010PropOp49
 70
     1
102
RTVSPost2010Prop50
 90
       50
102
RTVSPost2010PropOp50
 70
     1
102
RTVSPost2010Prop51ColorIndex
 90
      256
102
RTVSPost2010Prop51ColorRGB
 90
-16777216
102
RTVSPost2010PropOp51
 70
     0
102
RTVSPost2010Prop52
140
1.0
102
RTVSPost2010PropOp52
 70
     0
102
RTVSPost2010Prop53
 90
        2
102
RTVSPost2010PropOp53
 70
     1
102
RTVSPost2010Prop54
  1
strokes_ogs.tif
102
RTVSPost2010PropOp54
 70
     1
102
RTVSPost2010Prop55
280
     0
102
RTVSPost2010PropOp55
 70
     1
102
RTVSPost2010Prop56
140
1.0
102
RTVSPost2010PropOp56
 70
     1
102
RTVSPost2010Prop57
140
1.0
102
RTVSPost2010PropOp57
 70
     1
102
RTVSPropertyOp0
 70
     1
102
RTVSPropertyOp1
 70
     1
102
RTVSPropertyOp2
 70
     1
102
RTVSPropertyOp3
 70
     1
102
RTVSPropertyOp4
 70
     1
102
RTVSPropertyOp5
 70
     1
102
RTVSPropertyOp6
 70
     1
102
RTVSPropertyOp7
 70
     1
102
RTVSPropertyOp8
 70
     1
102
RTVSPropertyOp9
 70
     1
102
RTVSPropertyOp10
 70
     1
102
RTVSPropertyOp11
 70
     1
102
RTVSPropertyOp12
 70
     1
102
RTVSPropertyOp13
 70
     1
102
RTVSPropertyOp14
 70
     1
102
RTVSPropertyOp15
 70
     1
102
RTVSPropertyOp16
 70
     1
102
RTVSPropertyOp17
 70
     1
102
RTVSPropertyOp18
 70
     1
102
RTVSPropertyOp19
 70
     1
102
RTVSPropertyOp20
 70
     1
102
RTVSPropertyOp21
 70
     1
102
RTVSPropertyOp22
 70
     1
102
RTVSPropertyOp23
 70
     1
102
RTVSPropertyOp24
 70
     1
102
RTVSPropertyOp25
 70
     1
102
RTVSPropertyOp26
 70
     1
102
RTVSPropertyOp27
 70
     1
102
RTVSPropertyOp28
 70
     1
102
RTVSPropertyOp29
 70
     1
102
RTVSPropertyOp30
 70
     1
102
RTVSPropertyOp31
 70
     1
102
RTVSPropertyOp32
 70
     1
102
RTVSPropertyOp33
 70
     1
102
RTVSPropertyOp34
 70
     1
102
RTVSPropertyOp35
 70
     1
102
RTVSPropertyOp36
 70
     1
102
RTVSPropertyOp37
 70
     1
102
RTVSPropertyOp38
 70
     1
102
RTVSPropertyOp39
 70
     1
102
RTVSPropertyOp40
 70
     1
102
RTVSPropertyOp41
 70
     1
102
RTVSPropertyOp42
 70
     1
102
RTVSPropertyOp43
 70
     1
102
RTVSPropertyOp44
 70
     1
102
RTVSPropertyOp45
 70
     1
102
RTVSPropertyOp46
 70
     1
102
RTVSPropertyOp47
 70
     1
102
RTVSPropertyOp48
 70
     1
102
RTVSPropertyOp49
 70
     1
102
RTVSPropertyOp50
 70
     1
102
RTVSPropertyOp51
 70
     0
102
RTVSPropertyOp52
 70
     0
102
RTVSPropertyOp53
 70
     1
102
RTVSPropertyOp54
 70
     1
102
RTVSPropertyOp55
 70
     1
102
RTVSPropertyOp56
 70
     1
102
RTVSPropertyOp57
 70
     1
102
RTVSPropertyOp58
 70
     1
102
RTVSPropertyOp59
 70
     1
102
RTVSPropertyOp60
 70
     1
102
RTVSPropertyOp61
 70
     1
102
RTVSPropertyOp62
 70
     1
  0
XRECORD
  5
1AD5
102
{ACAD_REACTORS
330
1AD4
102
}
330
1AD4
100
AcDbXrecord
280
     1
102
RTVSPost2010Prop28
280
     0
102
RTVSPost2010PropOp28
 70
     1
102
RTVSPost2010Prop29
280
     1
102
RTVSPost2010PropOp29
 70
     1
102
RTVSPost2010Prop30
280
     1
102
RTVSPost2010PropOp30
 70
     1
102
RTVSPost2010Prop31
280
     0
102
RTVSPost2010PropOp31
 70
     1
102
RTVSPost2010Prop32
280
     0
102
RTVSPost2010PropOp32
 70
     1
102
RTVSPost2010Prop33
280
     0
102
RTVSPost2010PropOp33
 70
     1
102
RTVSPost2010Prop34
280
     0
102
RTVSPost2010PropOp34
 70
     1
102
RTVSPost2010Prop35
280
     0
102
RTVSPost2010PropOp35
 70
     1
102
RTVSPost2010Prop36
280
     0
102
RTVSPost2010PropOp36
 70
     1
102
RTVSPost2010Prop37
 90
       50
102
RTVSPost2010PropOp37
 70
     1
102
RTVSPost2010Prop38
140
0.0
102
RTVSPost2010PropOp38
 70
     1
102
RTVSPost2010Prop39
140
1.0
102
RTVSPost2010PropOp39
 70
     1
102
RTVSPost2010Prop40
 90
        0
102
RTVSPost2010PropOp40
 70
     1
102
RTVSPost2010Prop41ColorIndex
 90
       18
102
RTVSPost2010Prop41ColorRGB
 90
        0
102
RTVSPost2010PropOp41
 70
     1
102
RTVSPost2010Prop42
 90
       50
102
RTVSPost2010PropOp42
 70
     1
102
RTVSPost2010Prop43
 90
        3
102
RTVSPost2010PropOp43
 70
     1
102
RTVSPost2010Prop44ColorIndex
 90
        5
102
RTVSPost2010Prop44ColorRGB
 90
      255
102
RTVSPost2010PropOp44
 70
     1
102
RTVSPost2010Prop45
280
     0
102
RTVSPost2010PropOp45
 70
     1
102
RTVSPost2010Prop46
 90
       50
102
RTVSPost2010PropOp46
 70
     1
102
RTVSPost2010Prop47
 90
       50
102
RTVSPost2010PropOp47
 70
     1
102
RTVSPost2010Prop48
 90
       50
102
RTVSPost2010PropOp48
 70
     1
102
RTVSPost2010Prop49
280
     0
102
RTVSPost2010PropOp49
 70
     1
102
RTVSPost2010Prop50
 90
       50
102
RTVSPost2010PropOp50
 70
     1
102
RTVSPost2010Prop51ColorIndex
 90
      256
102
RTVSPost2010Prop51ColorRGB
 90
-16777216
102
RTVSPost2010PropOp51
 70
     0
102
RTVSPost2010Prop52
140
1.0
102
RTVSPost2010PropOp52
 70
     0
102
RTVSPost2010Prop53
 90
        2
102
RTVSPost2010PropOp53
 70
     1
102
RTVSPost2010Prop54
  1
strokes_ogs.tif
102
RTVSPost2010PropOp54
 70
     1
102
RTVSPost2010Prop55
280
     0
102
RTVSPost2010PropOp55
 70
     1
102
RTVSPost2010Prop56
140
1.0
102
RTVSPost2010PropOp56
 70
     1
102
RTVSPost2010Prop57
140
1.0
102
RTVSPost2010PropOp57
 70
     1
102
RTVSPropertyOp0
 70
     1
102
RTVSPropertyOp1
 70
     1
102
RTVSPropertyOp2
 70
     1
102
RTVSPropertyOp3
 70
     1
102
RTVSPropertyOp4
 70
     1
102
RTVSPropertyOp5
 70
     1
102
RTVSPropertyOp6
 70
     1
102
RTVSPropertyOp7
 70
     1
102
RTVSPropertyOp8
 70
     1
102
RTVSPropertyOp9
 70
     1
102
RTVSPropertyOp10
 70
     1
102
RTVSPropertyOp11
 70
     1
102
RTVSPropertyOp12
 70
     1
102
RTVSPropertyOp13
 70
     1
102
RTVSPropertyOp14
 70
     1
102
RTVSPropertyOp15
 70
     1
102
RTVSPropertyOp16
 70
     1
102
RTVSPropertyOp17
 70
     1
102
RTVSPropertyOp18
 70
     1
102
RTVSPropertyOp19
 70
     1
102
RTVSPropertyOp20
 70
     1
102
RTVSPropertyOp21
 70
     1
102
RTVSPropertyOp22
 70
     1
102
RTVSPropertyOp23
 70
     1
102
RTVSPropertyOp24
 70
     1
102
RTVSPropertyOp25
 70
     1
102
RTVSPropertyOp26
 70
     1
102
RTVSPropertyOp27
 70
     1
102
RTVSPropertyOp28
 70
     1
102
RTVSPropertyOp29
 70
     1
102
RTVSPropertyOp30
 70
     1
102
RTVSPropertyOp31
 70
     1
102
RTVSPropertyOp32
 70
     1
102
RTVSPropertyOp33
 70
     1
102
RTVSPropertyOp34
 70
     1
102
RTVSPropertyOp35
 70
     1
102
RTVSPropertyOp36
 70
     1
102
RTVSPropertyOp37
 70
     1
102
RTVSPropertyOp38
 70
     1
102
RTVSPropertyOp39
 70
     1
102
RTVSPropertyOp40
 70
     1
102
RTVSPropertyOp41
 70
     1
102
RTVSPropertyOp42
 70
     1
102
RTVSPropertyOp43
 70
     1
102
RTVSPropertyOp44
 70
     1
102
RTVSPropertyOp45
 70
     1
102
RTVSPropertyOp46
 70
     1
102
RTVSPropertyOp47
 70
     1
102
RTVSPropertyOp48
 70
     1
102
RTVSPropertyOp49
 70
     1
102
RTVSPropertyOp50
 70
     1
102
RTVSPropertyOp51
 70
     0
102
RTVSPropertyOp52
 70
     0
102
RTVSPropertyOp53
 70
     1
102
RTVSPropertyOp54
 70
     1
102
RTVSPropertyOp55
 70
     1
102
RTVSPropertyOp56
 70
     1
102
RTVSPropertyOp57
 70
     1
102
RTVSPropertyOp58
 70
     1
102
RTVSPropertyOp59
 70
     1
102
RTVSPropertyOp60
 70
     1
102
RTVSPropertyOp61
 70
     1
102
RTVSPropertyOp62
 70
     1
  0
XRECORD
  5
1AE3
102
{ACAD_REACTORS
330
1AE2
102
}
330
1AE2
100
AcDbXrecord
280
     1
102
RTVSPost2010Prop28
280
     0
102
RTVSPost2010PropOp28
 70
     1
102
RTVSPost2010Prop29
280
     1
102
RTVSPost2010PropOp29
 70
     1
102
RTVSPost2010Prop30
280
     1
102
RTVSPost2010PropOp30
 70
     1
102
RTVSPost2010Prop31
280
     0
102
RTVSPost2010PropOp31
 70
     1
102
RTVSPost2010Prop32
280
     0
102
RTVSPost2010PropOp32
 70
     1
102
RTVSPost2010Prop33
280
     0
102
RTVSPost2010PropOp33
 70
     1
102
RTVSPost2010Prop34
280
     0
102
RTVSPost2010PropOp34
 70
     1
102
RTVSPost2010Prop35
280
     0
102
RTVSPost2010PropOp35
 70
     1
102
RTVSPost2010Prop36
280
     0
102
RTVSPost2010PropOp36
 70
     1
102
RTVSPost2010Prop37
 90
       50
102
RTVSPost2010PropOp37
 70
     1
102
RTVSPost2010Prop38
140
0.0
102
RTVSPost2010PropOp38
 70
     1
102
RTVSPost2010Prop39
140
1.0
102
RTVSPost2010PropOp39
 70
     1
102
RTVSPost2010Prop40
 90
        0
102
RTVSPost2010PropOp40
 70
     1
102
RTVSPost2010Prop41ColorIndex
 90
       18
102
RTVSPost2010Prop41ColorRGB
 90
        0
102
RTVSPost2010PropOp41
 70
     1
102
RTVSPost2010Prop42
 90
       50
102
RTVSPost2010PropOp42
 70
     1
102
RTVSPost2010Prop43
 90
        3
102
RTVSPost2010PropOp43
 70
     1
102
RTVSPost2010Prop44ColorIndex
 90
        5
102
RTVSPost2010Prop44ColorRGB
 90
      255
102
RTVSPost2010PropOp44
 70
     1
102
RTVSPost2010Prop45
280
     0
102
RTVSPost2010PropOp45
 70
     1
102
RTVSPost2010Prop46
 90
       50
102
RTVSPost2010PropOp46
 70
     1
102
RTVSPost2010Prop47
 90
       50
102
RTVSPost2010PropOp47
 70
     1
102
RTVSPost2010Prop48
 90
       50
102
RTVSPost2010PropOp48
 70
     1
102
RTVSPost2010Prop49
280
     0
102
RTVSPost2010PropOp49
 70
     1
102
RTVSPost2010Prop50
 90
       50
102
RTVSPost2010PropOp50
 70
     1
102
RTVSPost2010Prop51ColorIndex
 90
      256
102
RTVSPost2010Prop51ColorRGB
 90
-16777216
102
RTVSPost2010PropOp51
 70
     0
102
RTVSPost2010Prop52
140
1.0
102
RTVSPost2010PropOp52
 70
     0
102
RTVSPost2010Prop53
 90
        2
102
RTVSPost2010PropOp53
 70
     1
102
RTVSPost2010Prop54
  1
strokes_ogs.tif
102
RTVSPost2010PropOp54
 70
     1
102
RTVSPost2010Prop55
280
     0
102
RTVSPost2010PropOp55
 70
     1
102
RTVSPost2010Prop56
140
1.0
102
RTVSPost2010PropOp56
 70
     1
102
RTVSPost2010Prop57
140
1.0
102
RTVSPost2010PropOp57
 70
     1
102
RTVSPropertyOp0
 70
     1
102
RTVSPropertyOp1
 70
     1
102
RTVSPropertyOp2
 70
     1
102
RTVSPropertyOp3
 70
     1
102
RTVSPropertyOp4
 70
     1
102
RTVSPropertyOp5
 70
     1
102
RTVSPropertyOp6
 70
     1
102
RTVSPropertyOp7
 70
     1
102
RTVSPropertyOp8
 70
     1
102
RTVSPropertyOp9
 70
     1
102
RTVSPropertyOp10
 70
     1
102
RTVSPropertyOp11
 70
     1
102
RTVSPropertyOp12
 70
     1
102
RTVSPropertyOp13
 70
     1
102
RTVSPropertyOp14
 70
     1
102
RTVSPropertyOp15
 70
     1
102
RTVSPropertyOp16
 70
     1
102
RTVSPropertyOp17
 70
     1
102
RTVSPropertyOp18
 70
     1
102
RTVSPropertyOp19
 70
     1
102
RTVSPropertyOp20
 70
     1
102
RTVSPropertyOp21
 70
     1
102
RTVSPropertyOp22
 70
     1
102
RTVSPropertyOp23
 70
     1
102
RTVSPropertyOp24
 70
     1
102
RTVSPropertyOp25
 70
     1
102
RTVSPropertyOp26
 70
     1
102
RTVSPropertyOp27
 70
     1
102
RTVSPropertyOp28
 70
     1
102
RTVSPropertyOp29
 70
     1
102
RTVSPropertyOp30
 70
     1
102
RTVSPropertyOp31
 70
     1
102
RTVSPropertyOp32
 70
     1
102
RTVSPropertyOp33
 70
     1
102
RTVSPropertyOp34
 70
     1
102
RTVSPropertyOp35
 70
     1
102
RTVSPropertyOp36
 70
     1
102
RTVSPropertyOp37
 70
     1
102
RTVSPropertyOp38
 70
     1
102
RTVSPropertyOp39
 70
     1
102
RTVSPropertyOp40
 70
     1
102
RTVSPropertyOp41
 70
     1
102
RTVSPropertyOp42
 70
     1
102
RTVSPropertyOp43
 70
     1
102
RTVSPropertyOp44
 70
     1
102
RTVSPropertyOp45
 70
     1
102
RTVSPropertyOp46
 70
     1
102
RTVSPropertyOp47
 70
     1
102
RTVSPropertyOp48
 70
     1
102
RTVSPropertyOp49
 70
     1
102
RTVSPropertyOp50
 70
     1
102
RTVSPropertyOp51
 70
     0
102
RTVSPropertyOp52
 70
     0
102
RTVSPropertyOp53
 70
     1
102
RTVSPropertyOp54
 70
     1
102
RTVSPropertyOp55
 70
     1
102
RTVSPropertyOp56
 70
     1
102
RTVSPropertyOp57
 70
     1
102
RTVSPropertyOp58
 70
     1
102
RTVSPropertyOp59
 70
     1
102
RTVSPropertyOp60
 70
     1
102
RTVSPropertyOp61
 70
     1
102
RTVSPropertyOp62
 70
     1
  0
XRECORD
  5
1AEB
102
{ACAD_REACTORS
330
1AEA
102
}
330
1AEA
100
AcDbXrecord
280
     1
102
RTVSPost2010Prop28
280
     0
102
RTVSPost2010PropOp28
 70
     1
102
RTVSPost2010Prop29
280
     1
102
RTVSPost2010PropOp29
 70
     1
102
RTVSPost2010Prop30
280
     1
102
RTVSPost2010PropOp30
 70
     1
102
RTVSPost2010Prop31
280
     0
102
RTVSPost2010PropOp31
 70
     1
102
RTVSPost2010Prop32
280
     0
102
RTVSPost2010PropOp32
 70
     1
102
RTVSPost2010Prop33
280
     0
102
RTVSPost2010PropOp33
 70
     1
102
RTVSPost2010Prop34
280
     0
102
RTVSPost2010PropOp34
 70
     1
102
RTVSPost2010Prop35
280
     0
102
RTVSPost2010PropOp35
 70
     1
102
RTVSPost2010Prop36
280
     0
102
RTVSPost2010PropOp36
 70
     1
102
RTVSPost2010Prop37
 90
       50
102
RTVSPost2010PropOp37
 70
     1
102
RTVSPost2010Prop38
140
0.0
102
RTVSPost2010PropOp38
 70
     1
102
RTVSPost2010Prop39
140
1.0
102
RTVSPost2010PropOp39
 70
     1
102
RTVSPost2010Prop40
 90
        0
102
RTVSPost2010PropOp40
 70
     1
102
RTVSPost2010Prop41ColorIndex
 90
       18
102
RTVSPost2010Prop41ColorRGB
 90
        0
102
RTVSPost2010PropOp41
 70
     1
102
RTVSPost2010Prop42
 90
       50
102
RTVSPost2010PropOp42
 70
     1
102
RTVSPost2010Prop43
 90
        3
102
RTVSPost2010PropOp43
 70
     1
102
RTVSPost2010Prop44ColorIndex
 90
        5
102
RTVSPost2010Prop44ColorRGB
 90
      255
102
RTVSPost2010PropOp44
 70
     1
102
RTVSPost2010Prop45
280
     0
102
RTVSPost2010PropOp45
 70
     1
102
RTVSPost2010Prop46
 90
       50
102
RTVSPost2010PropOp46
 70
     1
102
RTVSPost2010Prop47
 90
       50
102
RTVSPost2010PropOp47
 70
     1
102
RTVSPost2010Prop48
 90
       50
102
RTVSPost2010PropOp48
 70
     1
102
RTVSPost2010Prop49
280
     0
102
RTVSPost2010PropOp49
 70
     1
102
RTVSPost2010Prop50
 90
       50
102
RTVSPost2010PropOp50
 70
     1
102
RTVSPost2010Prop51ColorIndex
 90
      256
102
RTVSPost2010Prop51ColorRGB
 90
-16777216
102
RTVSPost2010PropOp51
 70
     0
102
RTVSPost2010Prop52
140
1.0
102
RTVSPost2010PropOp52
 70
     0
102
RTVSPost2010Prop53
 90
        2
102
RTVSPost2010PropOp53
 70
     1
102
RTVSPost2010Prop54
  1
strokes_ogs.tif
102
RTVSPost2010PropOp54
 70
     1
102
RTVSPost2010Prop55
280
     0
102
RTVSPost2010PropOp55
 70
     1
102
RTVSPost2010Prop56
140
1.0
102
RTVSPost2010PropOp56
 70
     1
102
RTVSPost2010Prop57
140
1.0
102
RTVSPost2010PropOp57
 70
     1
102
RTVSPropertyOp0
 70
     1
102
RTVSPropertyOp1
 70
     1
102
RTVSPropertyOp2
 70
     1
102
RTVSPropertyOp3
 70
     1
102
RTVSPropertyOp4
 70
     1
102
RTVSPropertyOp5
 70
     1
102
RTVSPropertyOp6
 70
     1
102
RTVSPropertyOp7
 70
     1
102
RTVSPropertyOp8
 70
     1
102
RTVSPropertyOp9
 70
     1
102
RTVSPropertyOp10
 70
     1
102
RTVSPropertyOp11
 70
     1
102
RTVSPropertyOp12
 70
     1
102
RTVSPropertyOp13
 70
     1
102
RTVSPropertyOp14
 70
     1
102
RTVSPropertyOp15
 70
     1
102
RTVSPropertyOp16
 70
     1
102
RTVSPropertyOp17
 70
     1
102
RTVSPropertyOp18
 70
     1
102
RTVSPropertyOp19
 70
     1
102
RTVSPropertyOp20
 70
     1
102
RTVSPropertyOp21
 70
     1
102
RTVSPropertyOp22
 70
     1
102
RTVSPropertyOp23
 70
     1
102
RTVSPropertyOp24
 70
     1
102
RTVSPropertyOp25
 70
     1
102
RTVSPropertyOp26
 70
     1
102
RTVSPropertyOp27
 70
     1
102
RTVSPropertyOp28
 70
     1
102
RTVSPropertyOp29
 70
     1
102
RTVSPropertyOp30
 70
     1
102
RTVSPropertyOp31
 70
     1
102
RTVSPropertyOp32
 70
     1
102
RTVSPropertyOp33
 70
     1
102
RTVSPropertyOp34
 70
     1
102
RTVSPropertyOp35
 70
     1
102
RTVSPropertyOp36
 70
     1
102
RTVSPropertyOp37
 70
     1
102
RTVSPropertyOp38
 70
     1
102
RTVSPropertyOp39
 70
     1
102
RTVSPropertyOp40
 70
     1
102
RTVSPropertyOp41
 70
     1
102
RTVSPropertyOp42
 70
     1
102
RTVSPropertyOp43
 70
     1
102
RTVSPropertyOp44
 70
     1
102
RTVSPropertyOp45
 70
     1
102
RTVSPropertyOp46
 70
     1
102
RTVSPropertyOp47
 70
     1
102
RTVSPropertyOp48
 70
     1
102
RTVSPropertyOp49
 70
     1
102
RTVSPropertyOp50
 70
     1
102
RTVSPropertyOp51
 70
     0
102
RTVSPropertyOp52
 70
     0
102
RTVSPropertyOp53
 70
     1
102
RTVSPropertyOp54
 70
     1
102
RTVSPropertyOp55
 70
     1
102
RTVSPropertyOp56
 70
     1
102
RTVSPropertyOp57
 70
     1
102
RTVSPropertyOp58
 70
     1
102
RTVSPropertyOp59
 70
     1
102
RTVSPropertyOp60
 70
     1
102
RTVSPropertyOp61
 70
     1
102
RTVSPropertyOp62
 70
     1
  0
XRECORD
  5
1ADD
102
{ACAD_REACTORS
330
1ADC
102
}
330
1ADC
100
AcDbXrecord
280
     1
102
RTVSPost2010Prop28
280
     0
102
RTVSPost2010PropOp28
 70
     1
102
RTVSPost2010Prop29
280
     1
102
RTVSPost2010PropOp29
 70
     1
102
RTVSPost2010Prop30
280
     1
102
RTVSPost2010PropOp30
 70
     1
102
RTVSPost2010Prop31
280
     0
102
RTVSPost2010PropOp31
 70
     1
102
RTVSPost2010Prop32
280
     0
102
RTVSPost2010PropOp32
 70
     1
102
RTVSPost2010Prop33
280
     0
102
RTVSPost2010PropOp33
 70
     1
102
RTVSPost2010Prop34
280
     0
102
RTVSPost2010PropOp34
 70
     1
102
RTVSPost2010Prop35
280
     0
102
RTVSPost2010PropOp35
 70
     1
102
RTVSPost2010Prop36
280
     0
102
RTVSPost2010PropOp36
 70
     1
102
RTVSPost2010Prop37
 90
       50
102
RTVSPost2010PropOp37
 70
     1
102
RTVSPost2010Prop38
140
0.0
102
RTVSPost2010PropOp38
 70
     1
102
RTVSPost2010Prop39
140
1.0
102
RTVSPost2010PropOp39
 70
     1
102
RTVSPost2010Prop40
 90
        0
102
RTVSPost2010PropOp40
 70
     1
102
RTVSPost2010Prop41ColorIndex
 90
       18
102
RTVSPost2010Prop41ColorRGB
 90
        0
102
RTVSPost2010PropOp41
 70
     1
102
RTVSPost2010Prop42
 90
       50
102
RTVSPost2010PropOp42
 70
     1
102
RTVSPost2010Prop43
 90
        3
102
RTVSPost2010PropOp43
 70
     1
102
RTVSPost2010Prop44ColorIndex
 90
        5
102
RTVSPost2010Prop44ColorRGB
 90
      255
102
RTVSPost2010PropOp44
 70
     1
102
RTVSPost2010Prop45
280
     0
102
RTVSPost2010PropOp45
 70
     1
102
RTVSPost2010Prop46
 90
       50
102
RTVSPost2010PropOp46
 70
     1
102
RTVSPost2010Prop47
 90
       50
102
RTVSPost2010PropOp47
 70
     1
102
RTVSPost2010Prop48
 90
       50
102
RTVSPost2010PropOp48
 70
     1
102
RTVSPost2010Prop49
280
     0
102
RTVSPost2010PropOp49
 70
     1
102
RTVSPost2010Prop50
 90
       50
102
RTVSPost2010PropOp50
 70
     1
102
RTVSPost2010Prop51ColorIndex
 90
      256
102
RTVSPost2010Prop51ColorRGB
 90
-16777216
102
RTVSPost2010PropOp51
 70
     0
102
RTVSPost2010Prop52
140
1.0
102
RTVSPost2010PropOp52
 70
     0
102
RTVSPost2010Prop53
 90
        2
102
RTVSPost2010PropOp53
 70
     1
102
RTVSPost2010Prop54
  1
strokes_ogs.tif
102
RTVSPost2010PropOp54
 70
     1
102
RTVSPost2010Prop55
280
     0
102
RTVSPost2010PropOp55
 70
     1
102
RTVSPost2010Prop56
140
1.0
102
RTVSPost2010PropOp56
 70
     1
102
RTVSPost2010Prop57
140
1.0
102
RTVSPost2010PropOp57
 70
     1
102
RTVSPropertyOp0
 70
     1
102
RTVSPropertyOp1
 70
     1
102
RTVSPropertyOp2
 70
     1
102
RTVSPropertyOp3
 70
     1
102
RTVSPropertyOp4
 70
     1
102
RTVSPropertyOp5
 70
     1
102
RTVSPropertyOp6
 70
     1
102
RTVSPropertyOp7
 70
     1
102
RTVSPropertyOp8
 70
     1
102
RTVSPropertyOp9
 70
     1
102
RTVSPropertyOp10
 70
     1
102
RTVSPropertyOp11
 70
     1
102
RTVSPropertyOp12
 70
     1
102
RTVSPropertyOp13
 70
     1
102
RTVSPropertyOp14
 70
     1
102
RTVSPropertyOp15
 70
     1
102
RTVSPropertyOp16
 70
     1
102
RTVSPropertyOp17
 70
     1
102
RTVSPropertyOp18
 70
     1
102
RTVSPropertyOp19
 70
     1
102
RTVSPropertyOp20
 70
     1
102
RTVSPropertyOp21
 70
     1
102
RTVSPropertyOp22
 70
     1
102
RTVSPropertyOp23
 70
     1
102
RTVSPropertyOp24
 70
     1
102
RTVSPropertyOp25
 70
     1
102
RTVSPropertyOp26
 70
     1
102
RTVSPropertyOp27
 70
     1
102
RTVSPropertyOp28
 70
     1
102
RTVSPropertyOp29
 70
     1
102
RTVSPropertyOp30
 70
     1
102
RTVSPropertyOp31
 70
     1
102
RTVSPropertyOp32
 70
     1
102
RTVSPropertyOp33
 70
     1
102
RTVSPropertyOp34
 70
     1
102
RTVSPropertyOp35
 70
     1
102
RTVSPropertyOp36
 70
     1
102
RTVSPropertyOp37
 70
     1
102
RTVSPropertyOp38
 70
     1
102
RTVSPropertyOp39
 70
     1
102
RTVSPropertyOp40
 70
     1
102
RTVSPropertyOp41
 70
     1
102
RTVSPropertyOp42
 70
     1
102
RTVSPropertyOp43
 70
     1
102
RTVSPropertyOp44
 70
     1
102
RTVSPropertyOp45
 70
     1
102
RTVSPropertyOp46
 70
     1
102
RTVSPropertyOp47
 70
     1
102
RTVSPropertyOp48
 70
     1
102
RTVSPropertyOp49
 70
     1
102
RTVSPropertyOp50
 70
     1
102
RTVSPropertyOp51
 70
     0
102
RTVSPropertyOp52
 70
     0
102
RTVSPropertyOp53
 70
     1
102
RTVSPropertyOp54
 70
     1
102
RTVSPropertyOp55
 70
     1
102
RTVSPropertyOp56
 70
     1
102
RTVSPropertyOp57
 70
     1
102
RTVSPropertyOp58
 70
     1
102
RTVSPropertyOp59
 70
     1
102
RTVSPropertyOp60
 70
     1
102
RTVSPropertyOp61
 70
     1
102
RTVSPropertyOp62
 70
     1
  0
XRECORD
  5
1AE1
102
{ACAD_REACTORS
330
1AE0
102
}
330
1AE0
100
AcDbXrecord
280
     1
102
RTVSPost2010Prop28
280
     0
102
RTVSPost2010PropOp28
 70
     1
102
RTVSPost2010Prop29
280
     1
102
RTVSPost2010PropOp29
 70
     1
102
RTVSPost2010Prop30
280
     1
102
RTVSPost2010PropOp30
 70
     1
102
RTVSPost2010Prop31
280
     0
102
RTVSPost2010PropOp31
 70
     1
102
RTVSPost2010Prop32
280
     0
102
RTVSPost2010PropOp32
 70
     1
102
RTVSPost2010Prop33
280
     0
102
RTVSPost2010PropOp33
 70
     1
102
RTVSPost2010Prop34
280
     0
102
RTVSPost2010PropOp34
 70
     1
102
RTVSPost2010Prop35
280
     0
102
RTVSPost2010PropOp35
 70
     1
102
RTVSPost2010Prop36
280
     0
102
RTVSPost2010PropOp36
 70
     1
102
RTVSPost2010Prop37
 90
       50
102
RTVSPost2010PropOp37
 70
     1
102
RTVSPost2010Prop38
140
0.0
102
RTVSPost2010PropOp38
 70
     1
102
RTVSPost2010Prop39
140
1.0
102
RTVSPost2010PropOp39
 70
     1
102
RTVSPost2010Prop40
 90
        0
102
RTVSPost2010PropOp40
 70
     1
102
RTVSPost2010Prop41ColorIndex
 90
       18
102
RTVSPost2010Prop41ColorRGB
 90
        0
102
RTVSPost2010PropOp41
 70
     1
102
RTVSPost2010Prop42
 90
       50
102
RTVSPost2010PropOp42
 70
     1
102
RTVSPost2010Prop43
 90
        3
102
RTVSPost2010PropOp43
 70
     1
102
RTVSPost2010Prop44ColorIndex
 90
        5
102
RTVSPost2010Prop44ColorRGB
 90
      255
102
RTVSPost2010PropOp44
 70
     1
102
RTVSPost2010Prop45
280
     0
102
RTVSPost2010PropOp45
 70
     1
102
RTVSPost2010Prop46
 90
       50
102
RTVSPost2010PropOp46
 70
     1
102
RTVSPost2010Prop47
 90
       50
102
RTVSPost2010PropOp47
 70
     1
102
RTVSPost2010Prop48
 90
       50
102
RTVSPost2010PropOp48
 70
     1
102
RTVSPost2010Prop49
280
     0
102
RTVSPost2010PropOp49
 70
     1
102
RTVSPost2010Prop50
 90
       50
102
RTVSPost2010PropOp50
 70
     1
102
RTVSPost2010Prop51ColorIndex
 90
      256
102
RTVSPost2010Prop51ColorRGB
 90
-16777216
102
RTVSPost2010PropOp51
 70
     0
102
RTVSPost2010Prop52
140
1.0
102
RTVSPost2010PropOp52
 70
     0
102
RTVSPost2010Prop53
 90
        2
102
RTVSPost2010PropOp53
 70
     1
102
RTVSPost2010Prop54
  1
strokes_ogs.tif
102
RTVSPost2010PropOp54
 70
     1
102
RTVSPost2010Prop55
280
     0
102
RTVSPost2010PropOp55
 70
     1
102
RTVSPost2010Prop56
140
1.0
102
RTVSPost2010PropOp56
 70
     1
102
RTVSPost2010Prop57
140
1.0
102
RTVSPost2010PropOp57
 70
     1
102
RTVSPropertyOp0
 70
     1
102
RTVSPropertyOp1
 70
     1
102
RTVSPropertyOp2
 70
     1
102
RTVSPropertyOp3
 70
     1
102
RTVSPropertyOp4
 70
     1
102
RTVSPropertyOp5
 70
     1
102
RTVSPropertyOp6
 70
     1
102
RTVSPropertyOp7
 70
     1
102
RTVSPropertyOp8
 70
     1
102
RTVSPropertyOp9
 70
     1
102
RTVSPropertyOp10
 70
     1
102
RTVSPropertyOp11
 70
     1
102
RTVSPropertyOp12
 70
     1
102
RTVSPropertyOp13
 70
     1
102
RTVSPropertyOp14
 70
     1
102
RTVSPropertyOp15
 70
     1
102
RTVSPropertyOp16
 70
     1
102
RTVSPropertyOp17
 70
     1
102
RTVSPropertyOp18
 70
     1
102
RTVSPropertyOp19
 70
     1
102
RTVSPropertyOp20
 70
     1
102
RTVSPropertyOp21
 70
     1
102
RTVSPropertyOp22
 70
     1
102
RTVSPropertyOp23
 70
     1
102
RTVSPropertyOp24
 70
     1
102
RTVSPropertyOp25
 70
     1
102
RTVSPropertyOp26
 70
     1
102
RTVSPropertyOp27
 70
     1
102
RTVSPropertyOp28
 70
     1
102
RTVSPropertyOp29
 70
     1
102
RTVSPropertyOp30
 70
     1
102
RTVSPropertyOp31
 70
     1
102
RTVSPropertyOp32
 70
     1
102
RTVSPropertyOp33
 70
     1
102
RTVSPropertyOp34
 70
     1
102
RTVSPropertyOp35
 70
     1
102
RTVSPropertyOp36
 70
     1
102
RTVSPropertyOp37
 70
     1
102
RTVSPropertyOp38
 70
     1
102
RTVSPropertyOp39
 70
     1
102
RTVSPropertyOp40
 70
     1
102
RTVSPropertyOp41
 70
     1
102
RTVSPropertyOp42
 70
     1
102
RTVSPropertyOp43
 70
     1
102
RTVSPropertyOp44
 70
     1
102
RTVSPropertyOp45
 70
     1
102
RTVSPropertyOp46
 70
     1
102
RTVSPropertyOp47
 70
     1
102
RTVSPropertyOp48
 70
     1
102
RTVSPropertyOp49
 70
     1
102
RTVSPropertyOp50
 70
     1
102
RTVSPropertyOp51
 70
     0
102
RTVSPropertyOp52
 70
     0
102
RTVSPropertyOp53
 70
     1
102
RTVSPropertyOp54
 70
     1
102
RTVSPropertyOp55
 70
     1
102
RTVSPropertyOp56
 70
     1
102
RTVSPropertyOp57
 70
     1
102
RTVSPropertyOp58
 70
     1
102
RTVSPropertyOp59
 70
     1
102
RTVSPropertyOp60
 70
     1
102
RTVSPropertyOp61
 70
     1
102
RTVSPropertyOp62
 70
     1
  0
XRECORD
  5
1AFB
102
{ACAD_REACTORS
330
1AFA
102
}
330
1AFA
100
AcDbXrecord
280
     1
102
RTVSPost2010Prop28
280
     0
102
RTVSPost2010PropOp28
 70
     1
102
RTVSPost2010Prop29
280
     1
102
RTVSPost2010PropOp29
 70
     1
102
RTVSPost2010Prop30
280
     1
102
RTVSPost2010PropOp30
 70
     1
102
RTVSPost2010Prop31
280
     0
102
RTVSPost2010PropOp31
 70
     1
102
RTVSPost2010Prop32
280
     0
102
RTVSPost2010PropOp32
 70
     1
102
RTVSPost2010Prop33
280
     0
102
RTVSPost2010PropOp33
 70
     1
102
RTVSPost2010Prop34
280
     0
102
RTVSPost2010PropOp34
 70
     1
102
RTVSPost2010Prop35
280
     0
102
RTVSPost2010PropOp35
 70
     1
102
RTVSPost2010Prop36
280
     0
102
RTVSPost2010PropOp36
 70
     1
102
RTVSPost2010Prop37
 90
       50
102
RTVSPost2010PropOp37
 70
     0
102
RTVSPost2010Prop38
140
0.0
102
RTVSPost2010PropOp38
 70
     0
102
RTVSPost2010Prop39
140
1.0
102
RTVSPost2010PropOp39
 70
     0
102
RTVSPost2010Prop40
 90
        0
102
RTVSPost2010PropOp40
 70
     0
102
RTVSPost2010Prop41ColorIndex
 90
       18
102
RTVSPost2010Prop41ColorRGB
 90
        0
102
RTVSPost2010PropOp41
 70
     0
102
RTVSPost2010Prop42
 90
       50
102
RTVSPost2010PropOp42
 70
     0
102
RTVSPost2010Prop43
 90
        3
102
RTVSPost2010PropOp43
 70
     0
102
RTVSPost2010Prop44ColorIndex
 90
        5
102
RTVSPost2010Prop44ColorRGB
 90
      255
102
RTVSPost2010PropOp44
 70
     0
102
RTVSPost2010Prop45
280
     0
102
RTVSPost2010PropOp45
 70
     1
102
RTVSPost2010Prop46
 90
       50
102
RTVSPost2010PropOp46
 70
     0
102
RTVSPost2010Prop47
 90
       50
102
RTVSPost2010PropOp47
 70
     0
102
RTVSPost2010Prop48
 90
       50
102
RTVSPost2010PropOp48
 70
     0
102
RTVSPost2010Prop49
280
     0
102
RTVSPost2010PropOp49
 70
     1
102
RTVSPost2010Prop50
 90
       50
102
RTVSPost2010PropOp50
 70
     0
102
RTVSPost2010Prop51ColorIndex
 90
      256
102
RTVSPost2010Prop51ColorRGB
 90
-16777216
102
RTVSPost2010PropOp51
 70
     0
102
RTVSPost2010Prop52
140
1.0
102
RTVSPost2010PropOp52
 70
     0
102
RTVSPost2010Prop53
 90
        2
102
RTVSPost2010PropOp53
 70
     0
102
RTVSPost2010Prop54
  1
strokes_ogs.tif
102
RTVSPost2010PropOp54
 70
     0
102
RTVSPost2010Prop55
280
     0
102
RTVSPost2010PropOp55
 70
     1
102
RTVSPost2010Prop56
140
1.0
102
RTVSPost2010PropOp56
 70
     0
102
RTVSPost2010Prop57
140
1.0
102
RTVSPost2010PropOp57
 70
     0
102
RTVSPropertyOp0
 70
     0
102
RTVSPropertyOp1
 70
     0
102
RTVSPropertyOp2
 70
     0
102
RTVSPropertyOp3
 70
     0
102
RTVSPropertyOp4
 70
     0
102
RTVSPropertyOp5
 70
     0
102
RTVSPropertyOp6
 70
     0
102
RTVSPropertyOp7
 70
     0
102
RTVSPropertyOp8
 70
     0
102
RTVSPropertyOp9
 70
     0
102
RTVSPropertyOp10
 70
     0
102
RTVSPropertyOp11
 70
     0
102
RTVSPropertyOp12
 70
     0
102
RTVSPropertyOp13
 70
     0
102
RTVSPropertyOp14
 70
     2
102
RTVSPropertyOp15
 70
     0
102
RTVSPropertyOp16
 70
     0
102
RTVSPropertyOp17
 70
     0
102
RTVSPropertyOp18
 70
     0
102
RTVSPropertyOp19
 70
     0
102
RTVSPropertyOp20
 70
     0
102
RTVSPropertyOp21
 70
     0
102
RTVSPropertyOp22
 70
     0
102
RTVSPropertyOp23
 70
     0
102
RTVSPropertyOp24
 70
     0
102
RTVSPropertyOp25
 70
     0
102
RTVSPropertyOp26
 70
     0
102
RTVSPropertyOp27
 70
     0
102
RTVSPropertyOp28
 70
     1
102
RTVSPropertyOp29
 70
     1
102
RTVSPropertyOp30
 70
     1
102
RTVSPropertyOp31
 70
     1
102
RTVSPropertyOp32
 70
     1
102
RTVSPropertyOp33
 70
     1
102
RTVSPropertyOp34
 70
     1
102
RTVSPropertyOp35
 70
     1
102
RTVSPropertyOp36
 70
     1
102
RTVSPropertyOp37
 70
     0
102
RTVSPropertyOp38
 70
     0
102
RTVSPropertyOp39
 70
     0
102
RTVSPropertyOp40
 70
     0
102
RTVSPropertyOp41
 70
     0
102
RTVSPropertyOp42
 70
     0
102
RTVSPropertyOp43
 70
     0
102
RTVSPropertyOp44
 70
     0
102
RTVSPropertyOp45
 70
     1
102
RTVSPropertyOp46
 70
     0
102
RTVSPropertyOp47
 70
     0
102
RTVSPropertyOp48
 70
     0
102
RTVSPropertyOp49
 70
     1
102
RTVSPropertyOp50
 70
     0
102
RTVSPropertyOp51
 70
     0
102
RTVSPropertyOp52
 70
     0
102
RTVSPropertyOp53
 70
     0
102
RTVSPropertyOp54
 70
     0
102
RTVSPropertyOp55
 70
     1
102
RTVSPropertyOp56
 70
     0
102
RTVSPropertyOp57
 70
     0
102
RTVSPropertyOp58
 70
     0
102
RTVSPropertyOp59
 70
     0
102
RTVSPropertyOp60
 70
     0
102
RTVSPropertyOp61
 70
     0
102
RTVSPropertyOp62
 70
     0
  0
XRECORD
  5
1AE9
102
{ACAD_REACTORS
330
1AE8
102
}
330
1AE8
100
AcDbXrecord
280
     1
102
RTVSPost2010Prop28
280
     0
102
RTVSPost2010PropOp28
 70
     1
102
RTVSPost2010Prop29
280
     1
102
RTVSPost2010PropOp29
 70
     1
102
RTVSPost2010Prop30
280
     1
102
RTVSPost2010PropOp30
 70
     1
102
RTVSPost2010Prop31
280
     0
102
RTVSPost2010PropOp31
 70
     1
102
RTVSPost2010Prop32
280
     0
102
RTVSPost2010PropOp32
 70
     1
102
RTVSPost2010Prop33
280
     0
102
RTVSPost2010PropOp33
 70
     1
102
RTVSPost2010Prop34
280
     0
102
RTVSPost2010PropOp34
 70
     1
102
RTVSPost2010Prop35
280
     0
102
RTVSPost2010PropOp35
 70
     1
102
RTVSPost2010Prop36
280
     0
102
RTVSPost2010PropOp36
 70
     1
102
RTVSPost2010Prop37
 90
       50
102
RTVSPost2010PropOp37
 70
     1
102
RTVSPost2010Prop38
140
0.0
102
RTVSPost2010PropOp38
 70
     1
102
RTVSPost2010Prop39
140
1.0
102
RTVSPost2010PropOp39
 70
     1
102
RTVSPost2010Prop40
 90
        0
102
RTVSPost2010PropOp40
 70
     1
102
RTVSPost2010Prop41ColorIndex
 90
       18
102
RTVSPost2010Prop41ColorRGB
 90
        0
102
RTVSPost2010PropOp41
 70
     1
102
RTVSPost2010Prop42
 90
       50
102
RTVSPost2010PropOp42
 70
     1
102
RTVSPost2010Prop43
 90
        3
102
RTVSPost2010PropOp43
 70
     1
102
RTVSPost2010Prop44ColorIndex
 90
        5
102
RTVSPost2010Prop44ColorRGB
 90
      255
102
RTVSPost2010PropOp44
 70
     1
102
RTVSPost2010Prop45
280
     0
102
RTVSPost2010PropOp45
 70
     1
102
RTVSPost2010Prop46
 90
       50
102
RTVSPost2010PropOp46
 70
     1
102
RTVSPost2010Prop47
 90
       50
102
RTVSPost2010PropOp47
 70
     1
102
RTVSPost2010Prop48
 90
       50
102
RTVSPost2010PropOp48
 70
     1
102
RTVSPost2010Prop49
280
     0
102
RTVSPost2010PropOp49
 70
     1
102
RTVSPost2010Prop50
 90
       50
102
RTVSPost2010PropOp50
 70
     1
102
RTVSPost2010Prop51ColorIndex
 90
      256
102
RTVSPost2010Prop51ColorRGB
 90
-16777216
102
RTVSPost2010PropOp51
 70
     0
102
RTVSPost2010Prop52
140
1.0
102
RTVSPost2010PropOp52
 70
     0
102
RTVSPost2010Prop53
 90
        2
102
RTVSPost2010PropOp53
 70
     1
102
RTVSPost2010Prop54
  1
strokes_ogs.tif
102
RTVSPost2010PropOp54
 70
     1
102
RTVSPost2010Prop55
280
     0
102
RTVSPost2010PropOp55
 70
     1
102
RTVSPost2010Prop56
140
1.0
102
RTVSPost2010PropOp56
 70
     1
102
RTVSPost2010Prop57
140
1.0
102
RTVSPost2010PropOp57
 70
     1
102
RTVSPropertyOp0
 70
     1
102
RTVSPropertyOp1
 70
     1
102
RTVSPropertyOp2
 70
     1
102
RTVSPropertyOp3
 70
     1
102
RTVSPropertyOp4
 70
     1
102
RTVSPropertyOp5
 70
     1
102
RTVSPropertyOp6
 70
     1
102
RTVSPropertyOp7
 70
     1
102
RTVSPropertyOp8
 70
     1
102
RTVSPropertyOp9
 70
     1
102
RTVSPropertyOp10
 70
     1
102
RTVSPropertyOp11
 70
     1
102
RTVSPropertyOp12
 70
     1
102
RTVSPropertyOp13
 70
     1
102
RTVSPropertyOp14
 70
     1
102
RTVSPropertyOp15
 70
     1
102
RTVSPropertyOp16
 70
     1
102
RTVSPropertyOp17
 70
     1
102
RTVSPropertyOp18
 70
     1
102
RTVSPropertyOp19
 70
     1
102
RTVSPropertyOp20
 70
     1
102
RTVSPropertyOp21
 70
     1
102
RTVSPropertyOp22
 70
     1
102
RTVSPropertyOp23
 70
     1
102
RTVSPropertyOp24
 70
     1
102
RTVSPropertyOp25
 70
     1
102
RTVSPropertyOp26
 70
     1
102
RTVSPropertyOp27
 70
     1
102
RTVSPropertyOp28
 70
     1
102
RTVSPropertyOp29
 70
     1
102
RTVSPropertyOp30
 70
     1
102
RTVSPropertyOp31
 70
     1
102
RTVSPropertyOp32
 70
     1
102
RTVSPropertyOp33
 70
     1
102
RTVSPropertyOp34
 70
     1
102
RTVSPropertyOp35
 70
     1
102
RTVSPropertyOp36
 70
     1
102
RTVSPropertyOp37
 70
     1
102
RTVSPropertyOp38
 70
     1
102
RTVSPropertyOp39
 70
     1
102
RTVSPropertyOp40
 70
     1
102
RTVSPropertyOp41
 70
     1
102
RTVSPropertyOp42
 70
     1
102
RTVSPropertyOp43
 70
     1
102
RTVSPropertyOp44
 70
     1
102
RTVSPropertyOp45
 70
     1
102
RTVSPropertyOp46
 70
     1
102
RTVSPropertyOp47
 70
     1
102
RTVSPropertyOp48
 70
     1
102
RTVSPropertyOp49
 70
     1
102
RTVSPropertyOp50
 70
     1
102
RTVSPropertyOp51
 70
     0
102
RTVSPropertyOp52
 70
     0
102
RTVSPropertyOp53
 70
     1
102
RTVSPropertyOp54
 70
     1
102
RTVSPropertyOp55
 70
     1
102
RTVSPropertyOp56
 70
     1
102
RTVSPropertyOp57
 70
     1
102
RTVSPropertyOp58
 70
     1
102
RTVSPropertyOp59
 70
     1
102
RTVSPropertyOp60
 70
     1
102
RTVSPropertyOp61
 70
     1
102
RTVSPropertyOp62
 70
     1
  0
XRECORD
  5
1ACD
102
{ACAD_REACTORS
330
1ACC
102
}
330
1ACC
100
AcDbXrecord
280
     1
102
RTVSPost2010Prop28
280
     0
102
RTVSPost2010PropOp28
 70
     1
102
RTVSPost2010Prop29
280
     1
102
RTVSPost2010PropOp29
 70
     1
102
RTVSPost2010Prop30
280
     1
102
RTVSPost2010PropOp30
 70
     1
102
RTVSPost2010Prop31
280
     0
102
RTVSPost2010PropOp31
 70
     1
102
RTVSPost2010Prop32
280
     0
102
RTVSPost2010PropOp32
 70
     1
102
RTVSPost2010Prop33
280
     0
102
RTVSPost2010PropOp33
 70
     1
102
RTVSPost2010Prop34
280
     0
102
RTVSPost2010PropOp34
 70
     1
102
RTVSPost2010Prop35
280
     0
102
RTVSPost2010PropOp35
 70
     1
102
RTVSPost2010Prop36
280
     0
102
RTVSPost2010PropOp36
 70
     1
102
RTVSPost2010Prop37
 90
       50
102
RTVSPost2010PropOp37
 70
     1
102
RTVSPost2010Prop38
140
0.0
102
RTVSPost2010PropOp38
 70
     1
102
RTVSPost2010Prop39
140
1.0
102
RTVSPost2010PropOp39
 70
     1
102
RTVSPost2010Prop40
 90
        0
102
RTVSPost2010PropOp40
 70
     1
102
RTVSPost2010Prop41ColorIndex
 90
       18
102
RTVSPost2010Prop41ColorRGB
 90
        0
102
RTVSPost2010PropOp41
 70
     1
102
RTVSPost2010Prop42
 90
       50
102
RTVSPost2010PropOp42
 70
     1
102
RTVSPost2010Prop43
 90
        3
102
RTVSPost2010PropOp43
 70
     1
102
RTVSPost2010Prop44ColorIndex
 90
        5
102
RTVSPost2010Prop44ColorRGB
 90
      255
102
RTVSPost2010PropOp44
 70
     1
102
RTVSPost2010Prop45
280
     0
102
RTVSPost2010PropOp45
 70
     1
102
RTVSPost2010Prop46
 90
       50
102
RTVSPost2010PropOp46
 70
     1
102
RTVSPost2010Prop47
 90
       50
102
RTVSPost2010PropOp47
 70
     1
102
RTVSPost2010Prop48
 90
       50
102
RTVSPost2010PropOp48
 70
     1
102
RTVSPost2010Prop49
280
     0
102
RTVSPost2010PropOp49
 70
     1
102
RTVSPost2010Prop50
 90
       50
102
RTVSPost2010PropOp50
 70
     1
102
RTVSPost2010Prop51ColorIndex
 90
      256
102
RTVSPost2010Prop51ColorRGB
 90
-16777216
102
RTVSPost2010PropOp51
 70
     0
102
RTVSPost2010Prop52
140
1.0
102
RTVSPost2010PropOp52
 70
     0
102
RTVSPost2010Prop53
 90
        2
102
RTVSPost2010PropOp53
 70
     1
102
RTVSPost2010Prop54
  1
strokes_ogs.tif
102
RTVSPost2010PropOp54
 70
     1
102
RTVSPost2010Prop55
280
     0
102
RTVSPost2010PropOp55
 70
     1
102
RTVSPost2010Prop56
140
1.0
102
RTVSPost2010PropOp56
 70
     1
102
RTVSPost2010Prop57
140
1.0
102
RTVSPost2010PropOp57
 70
     1
102
RTVSPropertyOp0
 70
     1
102
RTVSPropertyOp1
 70
     1
102
RTVSPropertyOp2
 70
     1
102
RTVSPropertyOp3
 70
     1
102
RTVSPropertyOp4
 70
     1
102
RTVSPropertyOp5
 70
     1
102
RTVSPropertyOp6
 70
     1
102
RTVSPropertyOp7
 70
     1
102
RTVSPropertyOp8
 70
     1
102
RTVSPropertyOp9
 70
     1
102
RTVSPropertyOp10
 70
     1
102
RTVSPropertyOp11
 70
     1
102
RTVSPropertyOp12
 70
     1
102
RTVSPropertyOp13
 70
     1
102
RTVSPropertyOp14
 70
     1
102
RTVSPropertyOp15
 70
     1
102
RTVSPropertyOp16
 70
     1
102
RTVSPropertyOp17
 70
     1
102
RTVSPropertyOp18
 70
     1
102
RTVSPropertyOp19
 70
     1
102
RTVSPropertyOp20
 70
     1
102
RTVSPropertyOp21
 70
     1
102
RTVSPropertyOp22
 70
     1
102
RTVSPropertyOp23
 70
     1
102
RTVSPropertyOp24
 70
     1
102
RTVSPropertyOp25
 70
     1
102
RTVSPropertyOp26
 70
     1
102
RTVSPropertyOp27
 70
     1
102
RTVSPropertyOp28
 70
     1
102
RTVSPropertyOp29
 70
     1
102
RTVSPropertyOp30
 70
     1
102
RTVSPropertyOp31
 70
     1
102
RTVSPropertyOp32
 70
     1
102
RTVSPropertyOp33
 70
     1
102
RTVSPropertyOp34
 70
     1
102
RTVSPropertyOp35
 70
     1
102
RTVSPropertyOp36
 70
     1
102
RTVSPropertyOp37
 70
     1
102
RTVSPropertyOp38
 70
     1
102
RTVSPropertyOp39
 70
     1
102
RTVSPropertyOp40
 70
     1
102
RTVSPropertyOp41
 70
     1
102
RTVSPropertyOp42
 70
     1
102
RTVSPropertyOp43
 70
     1
102
RTVSPropertyOp44
 70
     1
102
RTVSPropertyOp45
 70
     1
102
RTVSPropertyOp46
 70
     1
102
RTVSPropertyOp47
 70
     1
102
RTVSPropertyOp48
 70
     1
102
RTVSPropertyOp49
 70
     1
102
RTVSPropertyOp50
 70
     1
102
RTVSPropertyOp51
 70
     0
102
RTVSPropertyOp52
 70
     0
102
RTVSPropertyOp53
 70
     1
102
RTVSPropertyOp54
 70
     1
102
RTVSPropertyOp55
 70
     1
102
RTVSPropertyOp56
 70
     1
102
RTVSPropertyOp57
 70
     1
102
RTVSPropertyOp58
 70
     1
102
RTVSPropertyOp59
 70
     1
102
RTVSPropertyOp60
 70
     1
102
RTVSPropertyOp61
 70
     1
102
RTVSPropertyOp62
 70
     1
  0
XRECORD
  5
1ACF
102
{ACAD_REACTORS
330
1ACE
102
}
330
1ACE
100
AcDbXrecord
280
     1
102
RTVSPost2010Prop28
280
     0
102
RTVSPost2010PropOp28
 70
     1
102
RTVSPost2010Prop29
280
     1
102
RTVSPost2010PropOp29
 70
     1
102
RTVSPost2010Prop30
280
     1
102
RTVSPost2010PropOp30
 70
     1
102
RTVSPost2010Prop31
280
     0
102
RTVSPost2010PropOp31
 70
     1
102
RTVSPost2010Prop32
280
     0
102
RTVSPost2010PropOp32
 70
     1
102
RTVSPost2010Prop33
280
     0
102
RTVSPost2010PropOp33
 70
     1
102
RTVSPost2010Prop34
280
     0
102
RTVSPost2010PropOp34
 70
     1
102
RTVSPost2010Prop35
280
     0
102
RTVSPost2010PropOp35
 70
     1
102
RTVSPost2010Prop36
280
     0
102
RTVSPost2010PropOp36
 70
     1
102
RTVSPost2010Prop37
 90
       50
102
RTVSPost2010PropOp37
 70
     1
102
RTVSPost2010Prop38
140
0.0
102
RTVSPost2010PropOp38
 70
     1
102
RTVSPost2010Prop39
140
1.0
102
RTVSPost2010PropOp39
 70
     1
102
RTVSPost2010Prop40
 90
        0
102
RTVSPost2010PropOp40
 70
     1
102
RTVSPost2010Prop41ColorIndex
 90
       18
102
RTVSPost2010Prop41ColorRGB
 90
        0
102
RTVSPost2010PropOp41
 70
     1
102
RTVSPost2010Prop42
 90
       50
102
RTVSPost2010PropOp42
 70
     1
102
RTVSPost2010Prop43
 90
        3
102
RTVSPost2010PropOp43
 70
     1
102
RTVSPost2010Prop44ColorIndex
 90
        5
102
RTVSPost2010Prop44ColorRGB
 90
      255
102
RTVSPost2010PropOp44
 70
     1
102
RTVSPost2010Prop45
280
     0
102
RTVSPost2010PropOp45
 70
     1
102
RTVSPost2010Prop46
 90
       50
102
RTVSPost2010PropOp46
 70
     1
102
RTVSPost2010Prop47
 90
       50
102
RTVSPost2010PropOp47
 70
     1
102
RTVSPost2010Prop48
 90
       50
102
RTVSPost2010PropOp48
 70
     1
102
RTVSPost2010Prop49
280
     0
102
RTVSPost2010PropOp49
 70
     1
102
RTVSPost2010Prop50
 90
       50
102
RTVSPost2010PropOp50
 70
     1
102
RTVSPost2010Prop51ColorIndex
 90
      256
102
RTVSPost2010Prop51ColorRGB
 90
-16777216
102
RTVSPost2010PropOp51
 70
     0
102
RTVSPost2010Prop52
140
1.0
102
RTVSPost2010PropOp52
 70
     0
102
RTVSPost2010Prop53
 90
        2
102
RTVSPost2010PropOp53
 70
     1
102
RTVSPost2010Prop54
  1
strokes_ogs.tif
102
RTVSPost2010PropOp54
 70
     1
102
RTVSPost2010Prop55
280
     0
102
RTVSPost2010PropOp55
 70
     1
102
RTVSPost2010Prop56
140
1.0
102
RTVSPost2010PropOp56
 70
     1
102
RTVSPost2010Prop57
140
1.0
102
RTVSPost2010PropOp57
 70
     1
102
RTVSPropertyOp0
 70
     1
102
RTVSPropertyOp1
 70
     1
102
RTVSPropertyOp2
 70
     1
102
RTVSPropertyOp3
 70
     1
102
RTVSPropertyOp4
 70
     1
102
RTVSPropertyOp5
 70
     1
102
RTVSPropertyOp6
 70
     1
102
RTVSPropertyOp7
 70
     1
102
RTVSPropertyOp8
 70
     1
102
RTVSPropertyOp9
 70
     1
102
RTVSPropertyOp10
 70
     1
102
RTVSPropertyOp11
 70
     1
102
RTVSPropertyOp12
 70
     1
102
RTVSPropertyOp13
 70
     1
102
RTVSPropertyOp14
 70
     1
102
RTVSPropertyOp15
 70
     1
102
RTVSPropertyOp16
 70
     1
102
RTVSPropertyOp17
 70
     1
102
RTVSPropertyOp18
 70
     1
102
RTVSPropertyOp19
 70
     1
102
RTVSPropertyOp20
 70
     1
102
RTVSPropertyOp21
 70
     1
102
RTVSPropertyOp22
 70
     1
102
RTVSPropertyOp23
 70
     1
102
RTVSPropertyOp24
 70
     1
102
RTVSPropertyOp25
 70
     1
102
RTVSPropertyOp26
 70
     1
102
RTVSPropertyOp27
 70
     1
102
RTVSPropertyOp28
 70
     1
102
RTVSPropertyOp29
 70
     1
102
RTVSPropertyOp30
 70
     1
102
RTVSPropertyOp31
 70
     1
102
RTVSPropertyOp32
 70
     1
102
RTVSPropertyOp33
 70
     1
102
RTVSPropertyOp34
 70
     1
102
RTVSPropertyOp35
 70
     1
102
RTVSPropertyOp36
 70
     1
102
RTVSPropertyOp37
 70
     1
102
RTVSPropertyOp38
 70
     1
102
RTVSPropertyOp39
 70
     1
102
RTVSPropertyOp40
 70
     1
102
RTVSPropertyOp41
 70
     1
102
RTVSPropertyOp42
 70
     1
102
RTVSPropertyOp43
 70
     1
102
RTVSPropertyOp44
 70
     1
102
RTVSPropertyOp45
 70
     1
102
RTVSPropertyOp46
 70
     1
102
RTVSPropertyOp47
 70
     1
102
RTVSPropertyOp48
 70
     1
102
RTVSPropertyOp49
 70
     1
102
RTVSPropertyOp50
 70
     1
102
RTVSPropertyOp51
 70
     0
102
RTVSPropertyOp52
 70
     0
102
RTVSPropertyOp53
 70
     1
102
RTVSPropertyOp54
 70
     1
102
RTVSPropertyOp55
 70
     1
102
RTVSPropertyOp56
 70
     1
102
RTVSPropertyOp57
 70
     1
102
RTVSPropertyOp58
 70
     1
102
RTVSPropertyOp59
 70
     1
102
RTVSPropertyOp60
 70
     1
102
RTVSPropertyOp61
 70
     1
102
RTVSPropertyOp62
 70
     1
  0
XRECORD
  5
1AD1
102
{ACAD_REACTORS
330
1AD0
102
}
330
1AD0
100
AcDbXrecord
280
     1
102
RTVSPost2010Prop28
280
     0
102
RTVSPost2010PropOp28
 70
     1
102
RTVSPost2010Prop29
280
     1
102
RTVSPost2010PropOp29
 70
     1
102
RTVSPost2010Prop30
280
     1
102
RTVSPost2010PropOp30
 70
     1
102
RTVSPost2010Prop31
280
     0
102
RTVSPost2010PropOp31
 70
     1
102
RTVSPost2010Prop32
280
     0
102
RTVSPost2010PropOp32
 70
     1
102
RTVSPost2010Prop33
280
     0
102
RTVSPost2010PropOp33
 70
     1
102
RTVSPost2010Prop34
280
     0
102
RTVSPost2010PropOp34
 70
     1
102
RTVSPost2010Prop35
280
     0
102
RTVSPost2010PropOp35
 70
     1
102
RTVSPost2010Prop36
280
     0
102
RTVSPost2010PropOp36
 70
     1
102
RTVSPost2010Prop37
 90
       50
102
RTVSPost2010PropOp37
 70
     1
102
RTVSPost2010Prop38
140
0.0
102
RTVSPost2010PropOp38
 70
     1
102
RTVSPost2010Prop39
140
1.0
102
RTVSPost2010PropOp39
 70
     1
102
RTVSPost2010Prop40
 90
        0
102
RTVSPost2010PropOp40
 70
     1
102
RTVSPost2010Prop41ColorIndex
 90
       18
102
RTVSPost2010Prop41ColorRGB
 90
        0
102
RTVSPost2010PropOp41
 70
     1
102
RTVSPost2010Prop42
 90
       50
102
RTVSPost2010PropOp42
 70
     1
102
RTVSPost2010Prop43
 90
        3
102
RTVSPost2010PropOp43
 70
     1
102
RTVSPost2010Prop44ColorIndex
 90
        5
102
RTVSPost2010Prop44ColorRGB
 90
      255
102
RTVSPost2010PropOp44
 70
     1
102
RTVSPost2010Prop45
280
     0
102
RTVSPost2010PropOp45
 70
     1
102
RTVSPost2010Prop46
 90
       50
102
RTVSPost2010PropOp46
 70
     1
102
RTVSPost2010Prop47
 90
       50
102
RTVSPost2010PropOp47
 70
     1
102
RTVSPost2010Prop48
 90
       50
102
RTVSPost2010PropOp48
 70
     1
102
RTVSPost2010Prop49
280
     0
102
RTVSPost2010PropOp49
 70
     1
102
RTVSPost2010Prop50
 90
       50
102
RTVSPost2010PropOp50
 70
     1
102
RTVSPost2010Prop51ColorIndex
 90
      256
102
RTVSPost2010Prop51ColorRGB
 90
-16777216
102
RTVSPost2010PropOp51
 70
     0
102
RTVSPost2010Prop52
140
1.0
102
RTVSPost2010PropOp52
 70
     0
102
RTVSPost2010Prop53
 90
        2
102
RTVSPost2010PropOp53
 70
     1
102
RTVSPost2010Prop54
  1
strokes_ogs.tif
102
RTVSPost2010PropOp54
 70
     1
102
RTVSPost2010Prop55
280
     0
102
RTVSPost2010PropOp55
 70
     1
102
RTVSPost2010Prop56
140
1.0
102
RTVSPost2010PropOp56
 70
     1
102
RTVSPost2010Prop57
140
1.0
102
RTVSPost2010PropOp57
 70
     1
102
RTVSPropertyOp0
 70
     1
102
RTVSPropertyOp1
 70
     1
102
RTVSPropertyOp2
 70
     1
102
RTVSPropertyOp3
 70
     1
102
RTVSPropertyOp4
 70
     1
102
RTVSPropertyOp5
 70
     1
102
RTVSPropertyOp6
 70
     1
102
RTVSPropertyOp7
 70
     1
102
RTVSPropertyOp8
 70
     1
102
RTVSPropertyOp9
 70
     1
102
RTVSPropertyOp10
 70
     1
102
RTVSPropertyOp11
 70
     1
102
RTVSPropertyOp12
 70
     1
102
RTVSPropertyOp13
 70
     1
102
RTVSPropertyOp14
 70
     1
102
RTVSPropertyOp15
 70
     1
102
RTVSPropertyOp16
 70
     1
102
RTVSPropertyOp17
 70
     1
102
RTVSPropertyOp18
 70
     1
102
RTVSPropertyOp19
 70
     1
102
RTVSPropertyOp20
 70
     1
102
RTVSPropertyOp21
 70
     1
102
RTVSPropertyOp22
 70
     1
102
RTVSPropertyOp23
 70
     1
102
RTVSPropertyOp24
 70
     1
102
RTVSPropertyOp25
 70
     1
102
RTVSPropertyOp26
 70
     1
102
RTVSPropertyOp27
 70
     1
102
RTVSPropertyOp28
 70
     1
102
RTVSPropertyOp29
 70
     1
102
RTVSPropertyOp30
 70
     1
102
RTVSPropertyOp31
 70
     1
102
RTVSPropertyOp32
 70
     1
102
RTVSPropertyOp33
 70
     1
102
RTVSPropertyOp34
 70
     1
102
RTVSPropertyOp35
 70
     1
102
RTVSPropertyOp36
 70
     1
102
RTVSPropertyOp37
 70
     1
102
RTVSPropertyOp38
 70
     1
102
RTVSPropertyOp39
 70
     1
102
RTVSPropertyOp40
 70
     1
102
RTVSPropertyOp41
 70
     1
102
RTVSPropertyOp42
 70
     1
102
RTVSPropertyOp43
 70
     1
102
RTVSPropertyOp44
 70
     1
102
RTVSPropertyOp45
 70
     1
102
RTVSPropertyOp46
 70
     1
102
RTVSPropertyOp47
 70
     1
102
RTVSPropertyOp48
 70
     1
102
RTVSPropertyOp49
 70
     1
102
RTVSPropertyOp50
 70
     1
102
RTVSPropertyOp51
 70
     0
102
RTVSPropertyOp52
 70
     0
102
RTVSPropertyOp53
 70
     1
102
RTVSPropertyOp54
 70
     1
102
RTVSPropertyOp55
 70
     1
102
RTVSPropertyOp56
 70
     1
102
RTVSPropertyOp57
 70
     1
102
RTVSPropertyOp58
 70
     1
102
RTVSPropertyOp59
 70
     1
102
RTVSPropertyOp60
 70
     1
102
RTVSPropertyOp61
 70
     1
102
RTVSPropertyOp62
 70
     1
  0
XRECORD
  5
1AD3
102
{ACAD_REACTORS
330
1AD2
102
}
330
1AD2
100
AcDbXrecord
280
     1
102
RTVSPost2010Prop28
280
     0
102
RTVSPost2010PropOp28
 70
     1
102
RTVSPost2010Prop29
280
     1
102
RTVSPost2010PropOp29
 70
     1
102
RTVSPost2010Prop30
280
     1
102
RTVSPost2010PropOp30
 70
     1
102
RTVSPost2010Prop31
280
     0
102
RTVSPost2010PropOp31
 70
     1
102
RTVSPost2010Prop32
280
     0
102
RTVSPost2010PropOp32
 70
     1
102
RTVSPost2010Prop33
280
     0
102
RTVSPost2010PropOp33
 70
     1
102
RTVSPost2010Prop34
280
     0
102
RTVSPost2010PropOp34
 70
     1
102
RTVSPost2010Prop35
280
     0
102
RTVSPost2010PropOp35
 70
     1
102
RTVSPost2010Prop36
280
     0
102
RTVSPost2010PropOp36
 70
     1
102
RTVSPost2010Prop37
 90
       50
102
RTVSPost2010PropOp37
 70
     1
102
RTVSPost2010Prop38
140
0.0
102
RTVSPost2010PropOp38
 70
     1
102
RTVSPost2010Prop39
140
1.0
102
RTVSPost2010PropOp39
 70
     1
102
RTVSPost2010Prop40
 90
        0
102
RTVSPost2010PropOp40
 70
     1
102
RTVSPost2010Prop41ColorIndex
 90
       18
102
RTVSPost2010Prop41ColorRGB
 90
        0
102
RTVSPost2010PropOp41
 70
     1
102
RTVSPost2010Prop42
 90
       50
102
RTVSPost2010PropOp42
 70
     1
102
RTVSPost2010Prop43
 90
        3
102
RTVSPost2010PropOp43
 70
     1
102
RTVSPost2010Prop44ColorIndex
 90
        5
102
RTVSPost2010Prop44ColorRGB
 90
      255
102
RTVSPost2010PropOp44
 70
     1
102
RTVSPost2010Prop45
280
     0
102
RTVSPost2010PropOp45
 70
     1
102
RTVSPost2010Prop46
 90
       50
102
RTVSPost2010PropOp46
 70
     1
102
RTVSPost2010Prop47
 90
       50
102
RTVSPost2010PropOp47
 70
     1
102
RTVSPost2010Prop48
 90
       50
102
RTVSPost2010PropOp48
 70
     1
102
RTVSPost2010Prop49
280
     0
102
RTVSPost2010PropOp49
 70
     1
102
RTVSPost2010Prop50
 90
       50
102
RTVSPost2010PropOp50
 70
     1
102
RTVSPost2010Prop51ColorIndex
 90
      256
102
RTVSPost2010Prop51ColorRGB
 90
-16777216
102
RTVSPost2010PropOp51
 70
     0
102
RTVSPost2010Prop52
140
1.0
102
RTVSPost2010PropOp52
 70
     0
102
RTVSPost2010Prop53
 90
        2
102
RTVSPost2010PropOp53
 70
     1
102
RTVSPost2010Prop54
  1
strokes_ogs.tif
102
RTVSPost2010PropOp54
 70
     1
102
RTVSPost2010Prop55
280
     0
102
RTVSPost2010PropOp55
 70
     1
102
RTVSPost2010Prop56
140
1.0
102
RTVSPost2010PropOp56
 70
     1
102
RTVSPost2010Prop57
140
1.0
102
RTVSPost2010PropOp57
 70
     1
102
RTVSPropertyOp0
 70
     1
102
RTVSPropertyOp1
 70
     1
102
RTVSPropertyOp2
 70
     1
102
RTVSPropertyOp3
 70
     1
102
RTVSPropertyOp4
 70
     1
102
RTVSPropertyOp5
 70
     1
102
RTVSPropertyOp6
 70
     1
102
RTVSPropertyOp7
 70
     1
102
RTVSPropertyOp8
 70
     1
102
RTVSPropertyOp9
 70
     1
102
RTVSPropertyOp10
 70
     1
102
RTVSPropertyOp11
 70
     1
102
RTVSPropertyOp12
 70
     1
102
RTVSPropertyOp13
 70
     1
102
RTVSPropertyOp14
 70
     1
102
RTVSPropertyOp15
 70
     1
102
RTVSPropertyOp16
 70
     1
102
RTVSPropertyOp17
 70
     1
102
RTVSPropertyOp18
 70
     1
102
RTVSPropertyOp19
 70
     1
102
RTVSPropertyOp20
 70
     1
102
RTVSPropertyOp21
 70
     1
102
RTVSPropertyOp22
 70
     1
102
RTVSPropertyOp23
 70
     1
102
RTVSPropertyOp24
 70
     1
102
RTVSPropertyOp25
 70
     1
102
RTVSPropertyOp26
 70
     1
102
RTVSPropertyOp27
 70
     1
102
RTVSPropertyOp28
 70
     1
102
RTVSPropertyOp29
 70
     1
102
RTVSPropertyOp30
 70
     1
102
RTVSPropertyOp31
 70
     1
102
RTVSPropertyOp32
 70
     1
102
RTVSPropertyOp33
 70
     1
102
RTVSPropertyOp34
 70
     1
102
RTVSPropertyOp35
 70
     1
102
RTVSPropertyOp36
 70
     1
102
RTVSPropertyOp37
 70
     1
102
RTVSPropertyOp38
 70
     1
102
RTVSPropertyOp39
 70
     1
102
RTVSPropertyOp40
 70
     1
102
RTVSPropertyOp41
 70
     1
102
RTVSPropertyOp42
 70
     1
102
RTVSPropertyOp43
 70
     1
102
RTVSPropertyOp44
 70
     1
102
RTVSPropertyOp45
 70
     1
102
RTVSPropertyOp46
 70
     1
102
RTVSPropertyOp47
 70
     1
102
RTVSPropertyOp48
 70
     1
102
RTVSPropertyOp49
 70
     1
102
RTVSPropertyOp50
 70
     1
102
RTVSPropertyOp51
 70
     0
102
RTVSPropertyOp52
 70
     0
102
RTVSPropertyOp53
 70
     1
102
RTVSPropertyOp54
 70
     1
102
RTVSPropertyOp55
 70
     1
102
RTVSPropertyOp56
 70
     1
102
RTVSPropertyOp57
 70
     1
102
RTVSPropertyOp58
 70
     1
102
RTVSPropertyOp59
 70
     1
102
RTVSPropertyOp60
 70
     1
102
RTVSPropertyOp61
 70
     1
102
RTVSPropertyOp62
 70
     1
  0
XRECORD
  5
1ADB
102
{ACAD_REACTORS
330
1ADA
102
}
330
1ADA
100
AcDbXrecord
280
     1
102
RTVSPost2010Prop28
280
     0
102
RTVSPost2010PropOp28
 70
     1
102
RTVSPost2010Prop29
280
     1
102
RTVSPost2010PropOp29
 70
     1
102
RTVSPost2010Prop30
280
     1
102
RTVSPost2010PropOp30
 70
     1
102
RTVSPost2010Prop31
280
     0
102
RTVSPost2010PropOp31
 70
     1
102
RTVSPost2010Prop32
280
     0
102
RTVSPost2010PropOp32
 70
     1
102
RTVSPost2010Prop33
280
     0
102
RTVSPost2010PropOp33
 70
     1
102
RTVSPost2010Prop34
280
     0
102
RTVSPost2010PropOp34
 70
     1
102
RTVSPost2010Prop35
280
     0
102
RTVSPost2010PropOp35
 70
     1
102
RTVSPost2010Prop36
280
     0
102
RTVSPost2010PropOp36
 70
     1
102
RTVSPost2010Prop37
 90
       50
102
RTVSPost2010PropOp37
 70
     1
102
RTVSPost2010Prop38
140
0.0
102
RTVSPost2010PropOp38
 70
     1
102
RTVSPost2010Prop39
140
1.0
102
RTVSPost2010PropOp39
 70
     1
102
RTVSPost2010Prop40
 90
        0
102
RTVSPost2010PropOp40
 70
     1
102
RTVSPost2010Prop41ColorIndex
 90
       18
102
RTVSPost2010Prop41ColorRGB
 90
        0
102
RTVSPost2010PropOp41
 70
     1
102
RTVSPost2010Prop42
 90
       50
102
RTVSPost2010PropOp42
 70
     1
102
RTVSPost2010Prop43
 90
        3
102
RTVSPost2010PropOp43
 70
     1
102
RTVSPost2010Prop44ColorIndex
 90
        5
102
RTVSPost2010Prop44ColorRGB
 90
      255
102
RTVSPost2010PropOp44
 70
     1
102
RTVSPost2010Prop45
280
     0
102
RTVSPost2010PropOp45
 70
     1
102
RTVSPost2010Prop46
 90
       50
102
RTVSPost2010PropOp46
 70
     1
102
RTVSPost2010Prop47
 90
       50
102
RTVSPost2010PropOp47
 70
     1
102
RTVSPost2010Prop48
 90
       50
102
RTVSPost2010PropOp48
 70
     1
102
RTVSPost2010Prop49
280
     0
102
RTVSPost2010PropOp49
 70
     1
102
RTVSPost2010Prop50
 90
       50
102
RTVSPost2010PropOp50
 70
     1
102
RTVSPost2010Prop51ColorIndex
 90
      256
102
RTVSPost2010Prop51ColorRGB
 90
-16777216
102
RTVSPost2010PropOp51
 70
     0
102
RTVSPost2010Prop52
140
1.0
102
RTVSPost2010PropOp52
 70
     0
102
RTVSPost2010Prop53
 90
        2
102
RTVSPost2010PropOp53
 70
     1
102
RTVSPost2010Prop54
  1
strokes_ogs.tif
102
RTVSPost2010PropOp54
 70
     1
102
RTVSPost2010Prop55
280
     0
102
RTVSPost2010PropOp55
 70
     1
102
RTVSPost2010Prop56
140
1.0
102
RTVSPost2010PropOp56
 70
     1
102
RTVSPost2010Prop57
140
1.0
102
RTVSPost2010PropOp57
 70
     1
102
RTVSPropertyOp0
 70
     1
102
RTVSPropertyOp1
 70
     1
102
RTVSPropertyOp2
 70
     1
102
RTVSPropertyOp3
 70
     1
102
RTVSPropertyOp4
 70
     1
102
RTVSPropertyOp5
 70
     1
102
RTVSPropertyOp6
 70
     1
102
RTVSPropertyOp7
 70
     1
102
RTVSPropertyOp8
 70
     1
102
RTVSPropertyOp9
 70
     1
102
RTVSPropertyOp10
 70
     1
102
RTVSPropertyOp11
 70
     1
102
RTVSPropertyOp12
 70
     1
102
RTVSPropertyOp13
 70
     1
102
RTVSPropertyOp14
 70
     1
102
RTVSPropertyOp15
 70
     1
102
RTVSPropertyOp16
 70
     1
102
RTVSPropertyOp17
 70
     1
102
RTVSPropertyOp18
 70
     1
102
RTVSPropertyOp19
 70
     1
102
RTVSPropertyOp20
 70
     1
102
RTVSPropertyOp21
 70
     1
102
RTVSPropertyOp22
 70
     1
102
RTVSPropertyOp23
 70
     1
102
RTVSPropertyOp24
 70
     1
102
RTVSPropertyOp25
 70
     1
102
RTVSPropertyOp26
 70
     1
102
RTVSPropertyOp27
 70
     1
102
RTVSPropertyOp28
 70
     1
102
RTVSPropertyOp29
 70
     1
102
RTVSPropertyOp30
 70
     1
102
RTVSPropertyOp31
 70
     1
102
RTVSPropertyOp32
 70
     1
102
RTVSPropertyOp33
 70
     1
102
RTVSPropertyOp34
 70
     1
102
RTVSPropertyOp35
 70
     1
102
RTVSPropertyOp36
 70
     1
102
RTVSPropertyOp37
 70
     1
102
RTVSPropertyOp38
 70
     1
102
RTVSPropertyOp39
 70
     1
102
RTVSPropertyOp40
 70
     1
102
RTVSPropertyOp41
 70
     1
102
RTVSPropertyOp42
 70
     1
102
RTVSPropertyOp43
 70
     1
102
RTVSPropertyOp44
 70
     1
102
RTVSPropertyOp45
 70
     1
102
RTVSPropertyOp46
 70
     1
102
RTVSPropertyOp47
 70
     1
102
RTVSPropertyOp48
 70
     1
102
RTVSPropertyOp49
 70
     1
102
RTVSPropertyOp50
 70
     1
102
RTVSPropertyOp51
 70
     0
102
RTVSPropertyOp52
 70
     0
102
RTVSPropertyOp53
 70
     1
102
RTVSPropertyOp54
 70
     1
102
RTVSPropertyOp55
 70
     1
102
RTVSPropertyOp56
 70
     1
102
RTVSPropertyOp57
 70
     1
102
RTVSPropertyOp58
 70
     1
102
RTVSPropertyOp59
 70
     1
102
RTVSPropertyOp60
 70
     1
102
RTVSPropertyOp61
 70
     1
102
RTVSPropertyOp62
 70
     1
  0
XRECORD
  5
1AF7
102
{ACAD_REACTORS
330
1AF6
102
}
330
1AF6
100
AcDbXrecord
280
     1
102
RTVSPost2010Prop28
280
     0
102
RTVSPost2010PropOp28
 70
     1
102
RTVSPost2010Prop29
280
     1
102
RTVSPost2010PropOp29
 70
     1
102
RTVSPost2010Prop30
280
     1
102
RTVSPost2010PropOp30
 70
     1
102
RTVSPost2010Prop31
280
     0
102
RTVSPost2010PropOp31
 70
     1
102
RTVSPost2010Prop32
280
     0
102
RTVSPost2010PropOp32
 70
     1
102
RTVSPost2010Prop33
280
     0
102
RTVSPost2010PropOp33
 70
     1
102
RTVSPost2010Prop34
280
     0
102
RTVSPost2010PropOp34
 70
     1
102
RTVSPost2010Prop35
280
     0
102
RTVSPost2010PropOp35
 70
     1
102
RTVSPost2010Prop36
280
     0
102
RTVSPost2010PropOp36
 70
     1
102
RTVSPost2010Prop37
 90
       50
102
RTVSPost2010PropOp37
 70
     0
102
RTVSPost2010Prop38
140
0.0
102
RTVSPost2010PropOp38
 70
     0
102
RTVSPost2010Prop39
140
1.0
102
RTVSPost2010PropOp39
 70
     0
102
RTVSPost2010Prop40
 90
        0
102
RTVSPost2010PropOp40
 70
     0
102
RTVSPost2010Prop41ColorIndex
 90
       18
102
RTVSPost2010Prop41ColorRGB
 90
        0
102
RTVSPost2010PropOp41
 70
     0
102
RTVSPost2010Prop42
 90
       50
102
RTVSPost2010PropOp42
 70
     0
102
RTVSPost2010Prop43
 90
        3
102
RTVSPost2010PropOp43
 70
     0
102
RTVSPost2010Prop44ColorIndex
 90
        5
102
RTVSPost2010Prop44ColorRGB
 90
      255
102
RTVSPost2010PropOp44
 70
     0
102
RTVSPost2010Prop45
280
     0
102
RTVSPost2010PropOp45
 70
     1
102
RTVSPost2010Prop46
 90
       50
102
RTVSPost2010PropOp46
 70
     0
102
RTVSPost2010Prop47
 90
       50
102
RTVSPost2010PropOp47
 70
     0
102
RTVSPost2010Prop48
 90
       50
102
RTVSPost2010PropOp48
 70
     0
102
RTVSPost2010Prop49
280
     0
102
RTVSPost2010PropOp49
 70
     1
102
RTVSPost2010Prop50
 90
       50
102
RTVSPost2010PropOp50
 70
     0
102
RTVSPost2010Prop51ColorIndex
 90
      256
102
RTVSPost2010Prop51ColorRGB
 90
-16777216
102
RTVSPost2010PropOp51
 70
     0
102
RTVSPost2010Prop52
140
1.0
102
RTVSPost2010PropOp52
 70
     0
102
RTVSPost2010Prop53
 90
        2
102
RTVSPost2010PropOp53
 70
     0
102
RTVSPost2010Prop54
  1
strokes_ogs.tif
102
RTVSPost2010PropOp54
 70
     0
102
RTVSPost2010Prop55
280
     0
102
RTVSPost2010PropOp55
 70
     1
102
RTVSPost2010Prop56
140
1.0
102
RTVSPost2010PropOp56
 70
     0
102
RTVSPost2010Prop57
140
1.0
102
RTVSPost2010PropOp57
 70
     0
102
RTVSPropertyOp0
 70
     0
102
RTVSPropertyOp1
 70
     0
102
RTVSPropertyOp2
 70
     0
102
RTVSPropertyOp3
 70
     0
102
RTVSPropertyOp4
 70
     0
102
RTVSPropertyOp5
 70
     0
102
RTVSPropertyOp6
 70
     0
102
RTVSPropertyOp7
 70
     0
102
RTVSPropertyOp8
 70
     0
102
RTVSPropertyOp9
 70
     0
102
RTVSPropertyOp10
 70
     0
102
RTVSPropertyOp11
 70
     0
102
RTVSPropertyOp12
 70
     0
102
RTVSPropertyOp13
 70
     0
102
RTVSPropertyOp14
 70
     2
102
RTVSPropertyOp15
 70
     0
102
RTVSPropertyOp16
 70
     0
102
RTVSPropertyOp17
 70
     0
102
RTVSPropertyOp18
 70
     0
102
RTVSPropertyOp19
 70
     0
102
RTVSPropertyOp20
 70
     0
102
RTVSPropertyOp21
 70
     0
102
RTVSPropertyOp22
 70
     0
102
RTVSPropertyOp23
 70
     0
102
RTVSPropertyOp24
 70
     0
102
RTVSPropertyOp25
 70
     0
102
RTVSPropertyOp26
 70
     0
102
RTVSPropertyOp27
 70
     0
102
RTVSPropertyOp28
 70
     1
102
RTVSPropertyOp29
 70
     1
102
RTVSPropertyOp30
 70
     1
102
RTVSPropertyOp31
 70
     1
102
RTVSPropertyOp32
 70
     1
102
RTVSPropertyOp33
 70
     1
102
RTVSPropertyOp34
 70
     1
102
RTVSPropertyOp35
 70
     1
102
RTVSPropertyOp36
 70
     1
102
RTVSPropertyOp37
 70
     0
102
RTVSPropertyOp38
 70
     0
102
RTVSPropertyOp39
 70
     0
102
RTVSPropertyOp40
 70
     0
102
RTVSPropertyOp41
 70
     0
102
RTVSPropertyOp42
 70
     0
102
RTVSPropertyOp43
 70
     0
102
RTVSPropertyOp44
 70
     0
102
RTVSPropertyOp45
 70
     1
102
RTVSPropertyOp46
 70
     0
102
RTVSPropertyOp47
 70
     0
102
RTVSPropertyOp48
 70
     0
102
RTVSPropertyOp49
 70
     1
102
RTVSPropertyOp50
 70
     0
102
RTVSPropertyOp51
 70
     0
102
RTVSPropertyOp52
 70
     0
102
RTVSPropertyOp53
 70
     0
102
RTVSPropertyOp54
 70
     0
102
RTVSPropertyOp55
 70
     1
102
RTVSPropertyOp56
 70
     0
102
RTVSPropertyOp57
 70
     0
102
RTVSPropertyOp58
 70
     0
102
RTVSPropertyOp59
 70
     0
102
RTVSPropertyOp60
 70
     0
102
RTVSPropertyOp61
 70
     0
102
RTVSPropertyOp62
 70
     0
  0
XRECORD
  5
1AE7
102
{ACAD_REACTORS
330
1AE6
102
}
330
1AE6
100
AcDbXrecord
280
     1
102
RTVSPost2010Prop28
280
     0
102
RTVSPost2010PropOp28
 70
     1
102
RTVSPost2010Prop29
280
     1
102
RTVSPost2010PropOp29
 70
     1
102
RTVSPost2010Prop30
280
     1
102
RTVSPost2010PropOp30
 70
     1
102
RTVSPost2010Prop31
280
     0
102
RTVSPost2010PropOp31
 70
     1
102
RTVSPost2010Prop32
280
     0
102
RTVSPost2010PropOp32
 70
     1
102
RTVSPost2010Prop33
280
     0
102
RTVSPost2010PropOp33
 70
     1
102
RTVSPost2010Prop34
280
     0
102
RTVSPost2010PropOp34
 70
     1
102
RTVSPost2010Prop35
280
     0
102
RTVSPost2010PropOp35
 70
     1
102
RTVSPost2010Prop36
280
     0
102
RTVSPost2010PropOp36
 70
     1
102
RTVSPost2010Prop37
 90
       50
102
RTVSPost2010PropOp37
 70
     1
102
RTVSPost2010Prop38
140
0.0
102
RTVSPost2010PropOp38
 70
     1
102
RTVSPost2010Prop39
140
1.0
102
RTVSPost2010PropOp39
 70
     1
102
RTVSPost2010Prop40
 90
        0
102
RTVSPost2010PropOp40
 70
     1
102
RTVSPost2010Prop41ColorIndex
 90
       18
102
RTVSPost2010Prop41ColorRGB
 90
        0
102
RTVSPost2010PropOp41
 70
     1
102
RTVSPost2010Prop42
 90
       50
102
RTVSPost2010PropOp42
 70
     1
102
RTVSPost2010Prop43
 90
        3
102
RTVSPost2010PropOp43
 70
     1
102
RTVSPost2010Prop44ColorIndex
 90
        5
102
RTVSPost2010Prop44ColorRGB
 90
      255
102
RTVSPost2010PropOp44
 70
     1
102
RTVSPost2010Prop45
280
     0
102
RTVSPost2010PropOp45
 70
     1
102
RTVSPost2010Prop46
 90
       50
102
RTVSPost2010PropOp46
 70
     1
102
RTVSPost2010Prop47
 90
       50
102
RTVSPost2010PropOp47
 70
     1
102
RTVSPost2010Prop48
 90
       50
102
RTVSPost2010PropOp48
 70
     1
102
RTVSPost2010Prop49
280
     0
102
RTVSPost2010PropOp49
 70
     1
102
RTVSPost2010Prop50
 90
       50
102
RTVSPost2010PropOp50
 70
     1
102
RTVSPost2010Prop51ColorIndex
 90
      256
102
RTVSPost2010Prop51ColorRGB
 90
-16777216
102
RTVSPost2010PropOp51
 70
     0
102
RTVSPost2010Prop52
140
1.0
102
RTVSPost2010PropOp52
 70
     0
102
RTVSPost2010Prop53
 90
        2
102
RTVSPost2010PropOp53
 70
     1
102
RTVSPost2010Prop54
  1
strokes_ogs.tif
102
RTVSPost2010PropOp54
 70
     1
102
RTVSPost2010Prop55
280
     0
102
RTVSPost2010PropOp55
 70
     1
102
RTVSPost2010Prop56
140
1.0
102
RTVSPost2010PropOp56
 70
     1
102
RTVSPost2010Prop57
140
1.0
102
RTVSPost2010PropOp57
 70
     1
102
RTVSPropertyOp0
 70
     1
102
RTVSPropertyOp1
 70
     1
102
RTVSPropertyOp2
 70
     1
102
RTVSPropertyOp3
 70
     1
102
RTVSPropertyOp4
 70
     1
102
RTVSPropertyOp5
 70
     1
102
RTVSPropertyOp6
 70
     1
102
RTVSPropertyOp7
 70
     1
102
RTVSPropertyOp8
 70
     1
102
RTVSPropertyOp9
 70
     1
102
RTVSPropertyOp10
 70
     1
102
RTVSPropertyOp11
 70
     1
102
RTVSPropertyOp12
 70
     1
102
RTVSPropertyOp13
 70
     1
102
RTVSPropertyOp14
 70
     1
102
RTVSPropertyOp15
 70
     1
102
RTVSPropertyOp16
 70
     1
102
RTVSPropertyOp17
 70
     1
102
RTVSPropertyOp18
 70
     1
102
RTVSPropertyOp19
 70
     1
102
RTVSPropertyOp20
 70
     1
102
RTVSPropertyOp21
 70
     1
102
RTVSPropertyOp22
 70
     1
102
RTVSPropertyOp23
 70
     1
102
RTVSPropertyOp24
 70
     1
102
RTVSPropertyOp25
 70
     1
102
RTVSPropertyOp26
 70
     1
102
RTVSPropertyOp27
 70
     1
102
RTVSPropertyOp28
 70
     1
102
RTVSPropertyOp29
 70
     1
102
RTVSPropertyOp30
 70
     1
102
RTVSPropertyOp31
 70
     1
102
RTVSPropertyOp32
 70
     1
102
RTVSPropertyOp33
 70
     1
102
RTVSPropertyOp34
 70
     1
102
RTVSPropertyOp35
 70
     1
102
RTVSPropertyOp36
 70
     1
102
RTVSPropertyOp37
 70
     1
102
RTVSPropertyOp38
 70
     1
102
RTVSPropertyOp39
 70
     1
102
RTVSPropertyOp40
 70
     1
102
RTVSPropertyOp41
 70
     1
102
RTVSPropertyOp42
 70
     1
102
RTVSPropertyOp43
 70
     1
102
RTVSPropertyOp44
 70
     1
102
RTVSPropertyOp45
 70
     1
102
RTVSPropertyOp46
 70
     1
102
RTVSPropertyOp47
 70
     1
102
RTVSPropertyOp48
 70
     1
102
RTVSPropertyOp49
 70
     1
102
RTVSPropertyOp50
 70
     1
102
RTVSPropertyOp51
 70
     0
102
RTVSPropertyOp52
 70
     0
102
RTVSPropertyOp53
 70
     1
102
RTVSPropertyOp54
 70
     1
102
RTVSPropertyOp55
 70
     1
102
RTVSPropertyOp56
 70
     1
102
RTVSPropertyOp57
 70
     1
102
RTVSPropertyOp58
 70
     1
102
RTVSPropertyOp59
 70
     1
102
RTVSPropertyOp60
 70
     1
102
RTVSPropertyOp61
 70
     1
102
RTVSPropertyOp62
 70
     1
  0
XRECORD
  5
1AF9
102
{ACAD_REACTORS
330
1AF8
102
}
330
1AF8
100
AcDbXrecord
280
     1
102
RTVSPost2010Prop28
280
     0
102
RTVSPost2010PropOp28
 70
     1
102
RTVSPost2010Prop29
280
     1
102
RTVSPost2010PropOp29
 70
     1
102
RTVSPost2010Prop30
280
     1
102
RTVSPost2010PropOp30
 70
     1
102
RTVSPost2010Prop31
280
     0
102
RTVSPost2010PropOp31
 70
     1
102
RTVSPost2010Prop32
280
     0
102
RTVSPost2010PropOp32
 70
     1
102
RTVSPost2010Prop33
280
     0
102
RTVSPost2010PropOp33
 70
     1
102
RTVSPost2010Prop34
280
     0
102
RTVSPost2010PropOp34
 70
     1
102
RTVSPost2010Prop35
280
     0
102
RTVSPost2010PropOp35
 70
     1
102
RTVSPost2010Prop36
280
     0
102
RTVSPost2010PropOp36
 70
     1
102
RTVSPost2010Prop37
 90
       50
102
RTVSPost2010PropOp37
 70
     0
102
RTVSPost2010Prop38
140
0.0
102
RTVSPost2010PropOp38
 70
     0
102
RTVSPost2010Prop39
140
1.0
102
RTVSPost2010PropOp39
 70
     0
102
RTVSPost2010Prop40
 90
        0
102
RTVSPost2010PropOp40
 70
     0
102
RTVSPost2010Prop41ColorIndex
 90
       18
102
RTVSPost2010Prop41ColorRGB
 90
        0
102
RTVSPost2010PropOp41
 70
     0
102
RTVSPost2010Prop42
 90
       50
102
RTVSPost2010PropOp42
 70
     0
102
RTVSPost2010Prop43
 90
        3
102
RTVSPost2010PropOp43
 70
     0
102
RTVSPost2010Prop44ColorIndex
 90
        5
102
RTVSPost2010Prop44ColorRGB
 90
      255
102
RTVSPost2010PropOp44
 70
     0
102
RTVSPost2010Prop45
280
     0
102
RTVSPost2010PropOp45
 70
     1
102
RTVSPost2010Prop46
 90
       50
102
RTVSPost2010PropOp46
 70
     0
102
RTVSPost2010Prop47
 90
       50
102
RTVSPost2010PropOp47
 70
     0
102
RTVSPost2010Prop48
 90
       50
102
RTVSPost2010PropOp48
 70
     0
102
RTVSPost2010Prop49
280
     0
102
RTVSPost2010PropOp49
 70
     1
102
RTVSPost2010Prop50
 90
       50
102
RTVSPost2010PropOp50
 70
     0
102
RTVSPost2010Prop51ColorIndex
 90
      256
102
RTVSPost2010Prop51ColorRGB
 90
-16777216
102
RTVSPost2010PropOp51
 70
     0
102
RTVSPost2010Prop52
140
1.0
102
RTVSPost2010PropOp52
 70
     0
102
RTVSPost2010Prop53
 90
        2
102
RTVSPost2010PropOp53
 70
     0
102
RTVSPost2010Prop54
  1
strokes_ogs.tif
102
RTVSPost2010PropOp54
 70
     0
102
RTVSPost2010Prop55
280
     0
102
RTVSPost2010PropOp55
 70
     1
102
RTVSPost2010Prop56
140
1.0
102
RTVSPost2010PropOp56
 70
     0
102
RTVSPost2010Prop57
140
1.0
102
RTVSPost2010PropOp57
 70
     0
102
RTVSPropertyOp0
 70
     0
102
RTVSPropertyOp1
 70
     0
102
RTVSPropertyOp2
 70
     0
102
RTVSPropertyOp3
 70
     0
102
RTVSPropertyOp4
 70
     0
102
RTVSPropertyOp5
 70
     0
102
RTVSPropertyOp6
 70
     0
102
RTVSPropertyOp7
 70
     0
102
RTVSPropertyOp8
 70
     0
102
RTVSPropertyOp9
 70
     0
102
RTVSPropertyOp10
 70
     0
102
RTVSPropertyOp11
 70
     0
102
RTVSPropertyOp12
 70
     0
102
RTVSPropertyOp13
 70
     0
102
RTVSPropertyOp14
 70
     2
102
RTVSPropertyOp15
 70
     0
102
RTVSPropertyOp16
 70
     0
102
RTVSPropertyOp17
 70
     0
102
RTVSPropertyOp18
 70
     0
102
RTVSPropertyOp19
 70
     0
102
RTVSPropertyOp20
 70
     0
102
RTVSPropertyOp21
 70
     0
102
RTVSPropertyOp22
 70
     0
102
RTVSPropertyOp23
 70
     0
102
RTVSPropertyOp24
 70
     0
102
RTVSPropertyOp25
 70
     0
102
RTVSPropertyOp26
 70
     0
102
RTVSPropertyOp27
 70
     0
102
RTVSPropertyOp28
 70
     1
102
RTVSPropertyOp29
 70
     1
102
RTVSPropertyOp30
 70
     1
102
RTVSPropertyOp31
 70
     1
102
RTVSPropertyOp32
 70
     1
102
RTVSPropertyOp33
 70
     1
102
RTVSPropertyOp34
 70
     1
102
RTVSPropertyOp35
 70
     1
102
RTVSPropertyOp36
 70
     1
102
RTVSPropertyOp37
 70
     0
102
RTVSPropertyOp38
 70
     0
102
RTVSPropertyOp39
 70
     0
102
RTVSPropertyOp40
 70
     0
102
RTVSPropertyOp41
 70
     0
102
RTVSPropertyOp42
 70
     0
102
RTVSPropertyOp43
 70
     0
102
RTVSPropertyOp44
 70
     0
102
RTVSPropertyOp45
 70
     1
102
RTVSPropertyOp46
 70
     0
102
RTVSPropertyOp47
 70
     0
102
RTVSPropertyOp48
 70
     0
102
RTVSPropertyOp49
 70
     1
102
RTVSPropertyOp50
 70
     0
102
RTVSPropertyOp51
 70
     0
102
RTVSPropertyOp52
 70
     0
102
RTVSPropertyOp53
 70
     0
102
RTVSPropertyOp54
 70
     0
102
RTVSPropertyOp55
 70
     1
102
RTVSPropertyOp56
 70
     0
102
RTVSPropertyOp57
 70
     0
102
RTVSPropertyOp58
 70
     0
102
RTVSPropertyOp59
 70
     0
102
RTVSPropertyOp60
 70
     0
102
RTVSPropertyOp61
 70
     0
102
RTVSPropertyOp62
 70
     0
  0
XRECORD
  5
1ADF
102
{ACAD_REACTORS
330
1ADE
102
}
330
1ADE
100
AcDbXrecord
280
     1
102
RTVSPost2010Prop28
280
     0
102
RTVSPost2010PropOp28
 70
     1
102
RTVSPost2010Prop29
280
     1
102
RTVSPost2010PropOp29
 70
     1
102
RTVSPost2010Prop30
280
     1
102
RTVSPost2010PropOp30
 70
     1
102
RTVSPost2010Prop31
280
     0
102
RTVSPost2010PropOp31
 70
     1
102
RTVSPost2010Prop32
280
     0
102
RTVSPost2010PropOp32
 70
     1
102
RTVSPost2010Prop33
280
     0
102
RTVSPost2010PropOp33
 70
     1
102
RTVSPost2010Prop34
280
     0
102
RTVSPost2010PropOp34
 70
     1
102
RTVSPost2010Prop35
280
     0
102
RTVSPost2010PropOp35
 70
     1
102
RTVSPost2010Prop36
280
     0
102
RTVSPost2010PropOp36
 70
     1
102
RTVSPost2010Prop37
 90
       50
102
RTVSPost2010PropOp37
 70
     1
102
RTVSPost2010Prop38
140
0.0
102
RTVSPost2010PropOp38
 70
     1
102
RTVSPost2010Prop39
140
1.0
102
RTVSPost2010PropOp39
 70
     1
102
RTVSPost2010Prop40
 90
        0
102
RTVSPost2010PropOp40
 70
     1
102
RTVSPost2010Prop41ColorIndex
 90
       18
102
RTVSPost2010Prop41ColorRGB
 90
        0
102
RTVSPost2010PropOp41
 70
     1
102
RTVSPost2010Prop42
 90
       50
102
RTVSPost2010PropOp42
 70
     1
102
RTVSPost2010Prop43
 90
        3
102
RTVSPost2010PropOp43
 70
     1
102
RTVSPost2010Prop44ColorIndex
 90
        5
102
RTVSPost2010Prop44ColorRGB
 90
      255
102
RTVSPost2010PropOp44
 70
     1
102
RTVSPost2010Prop45
280
     0
102
RTVSPost2010PropOp45
 70
     1
102
RTVSPost2010Prop46
 90
       50
102
RTVSPost2010PropOp46
 70
     1
102
RTVSPost2010Prop47
 90
       50
102
RTVSPost2010PropOp47
 70
     1
102
RTVSPost2010Prop48
 90
       50
102
RTVSPost2010PropOp48
 70
     1
102
RTVSPost2010Prop49
280
     0
102
RTVSPost2010PropOp49
 70
     1
102
RTVSPost2010Prop50
 90
       50
102
RTVSPost2010PropOp50
 70
     1
102
RTVSPost2010Prop51ColorIndex
 90
      256
102
RTVSPost2010Prop51ColorRGB
 90
-16777216
102
RTVSPost2010PropOp51
 70
     0
102
RTVSPost2010Prop52
140
1.0
102
RTVSPost2010PropOp52
 70
     0
102
RTVSPost2010Prop53
 90
        2
102
RTVSPost2010PropOp53
 70
     1
102
RTVSPost2010Prop54
  1
strokes_ogs.tif
102
RTVSPost2010PropOp54
 70
     1
102
RTVSPost2010Prop55
280
     0
102
RTVSPost2010PropOp55
 70
     1
102
RTVSPost2010Prop56
140
1.0
102
RTVSPost2010PropOp56
 70
     1
102
RTVSPost2010Prop57
140
1.0
102
RTVSPost2010PropOp57
 70
     1
102
RTVSPropertyOp0
 70
     1
102
RTVSPropertyOp1
 70
     1
102
RTVSPropertyOp2
 70
     1
102
RTVSPropertyOp3
 70
     1
102
RTVSPropertyOp4
 70
     1
102
RTVSPropertyOp5
 70
     1
102
RTVSPropertyOp6
 70
     1
102
RTVSPropertyOp7
 70
     1
102
RTVSPropertyOp8
 70
     1
102
RTVSPropertyOp9
 70
     1
102
RTVSPropertyOp10
 70
     1
102
RTVSPropertyOp11
 70
     1
102
RTVSPropertyOp12
 70
     1
102
RTVSPropertyOp13
 70
     1
102
RTVSPropertyOp14
 70
     1
102
RTVSPropertyOp15
 70
     1
102
RTVSPropertyOp16
 70
     1
102
RTVSPropertyOp17
 70
     1
102
RTVSPropertyOp18
 70
     1
102
RTVSPropertyOp19
 70
     1
102
RTVSPropertyOp20
 70
     1
102
RTVSPropertyOp21
 70
     1
102
RTVSPropertyOp22
 70
     1
102
RTVSPropertyOp23
 70
     1
102
RTVSPropertyOp24
 70
     1
102
RTVSPropertyOp25
 70
     1
102
RTVSPropertyOp26
 70
     1
102
RTVSPropertyOp27
 70
     1
102
RTVSPropertyOp28
 70
     1
102
RTVSPropertyOp29
 70
     1
102
RTVSPropertyOp30
 70
     1
102
RTVSPropertyOp31
 70
     1
102
RTVSPropertyOp32
 70
     1
102
RTVSPropertyOp33
 70
     1
102
RTVSPropertyOp34
 70
     1
102
RTVSPropertyOp35
 70
     1
102
RTVSPropertyOp36
 70
     1
102
RTVSPropertyOp37
 70
     1
102
RTVSPropertyOp38
 70
     1
102
RTVSPropertyOp39
 70
     1
102
RTVSPropertyOp40
 70
     1
102
RTVSPropertyOp41
 70
     1
102
RTVSPropertyOp42
 70
     1
102
RTVSPropertyOp43
 70
     1
102
RTVSPropertyOp44
 70
     1
102
RTVSPropertyOp45
 70
     1
102
RTVSPropertyOp46
 70
     1
102
RTVSPropertyOp47
 70
     1
102
RTVSPropertyOp48
 70
     1
102
RTVSPropertyOp49
 70
     1
102
RTVSPropertyOp50
 70
     1
102
RTVSPropertyOp51
 70
     0
102
RTVSPropertyOp52
 70
     0
102
RTVSPropertyOp53
 70
     1
102
RTVSPropertyOp54
 70
     1
102
RTVSPropertyOp55
 70
     1
102
RTVSPropertyOp56
 70
     1
102
RTVSPropertyOp57
 70
     1
102
RTVSPropertyOp58
 70
     1
102
RTVSPropertyOp59
 70
     1
102
RTVSPropertyOp60
 70
     1
102
RTVSPropertyOp61
 70
     1
102
RTVSPropertyOp62
 70
     1
  0
XRECORD
  5
1AF5
102
{ACAD_REACTORS
330
1AF4
102
}
330
1AF4
100
AcDbXrecord
280
     1
102
RTVSPost2010Prop28
280
     0
102
RTVSPost2010PropOp28
 70
     1
102
RTVSPost2010Prop29
280
     1
102
RTVSPost2010PropOp29
 70
     1
102
RTVSPost2010Prop30
280
     1
102
RTVSPost2010PropOp30
 70
     1
102
RTVSPost2010Prop31
280
     0
102
RTVSPost2010PropOp31
 70
     1
102
RTVSPost2010Prop32
280
     0
102
RTVSPost2010PropOp32
 70
     1
102
RTVSPost2010Prop33
280
     0
102
RTVSPost2010PropOp33
 70
     1
102
RTVSPost2010Prop34
280
     0
102
RTVSPost2010PropOp34
 70
     1
102
RTVSPost2010Prop35
280
     0
102
RTVSPost2010PropOp35
 70
     1
102
RTVSPost2010Prop36
280
     0
102
RTVSPost2010PropOp36
 70
     1
102
RTVSPost2010Prop37
 90
       50
102
RTVSPost2010PropOp37
 70
     1
102
RTVSPost2010Prop38
140
0.0
102
RTVSPost2010PropOp38
 70
     1
102
RTVSPost2010Prop39
140
1.0
102
RTVSPost2010PropOp39
 70
     1
102
RTVSPost2010Prop40
 90
        0
102
RTVSPost2010PropOp40
 70
     1
102
RTVSPost2010Prop41ColorIndex
 90
       18
102
RTVSPost2010Prop41ColorRGB
 90
        0
102
RTVSPost2010PropOp41
 70
     1
102
RTVSPost2010Prop42
 90
       50
102
RTVSPost2010PropOp42
 70
     1
102
RTVSPost2010Prop43
 90
        3
102
RTVSPost2010PropOp43
 70
     1
102
RTVSPost2010Prop44ColorIndex
 90
        5
102
RTVSPost2010Prop44ColorRGB
 90
      255
102
RTVSPost2010PropOp44
 70
     1
102
RTVSPost2010Prop45
280
     0
102
RTVSPost2010PropOp45
 70
     1
102
RTVSPost2010Prop46
 90
       50
102
RTVSPost2010PropOp46
 70
     1
102
RTVSPost2010Prop47
 90
       50
102
RTVSPost2010PropOp47
 70
     1
102
RTVSPost2010Prop48
 90
       50
102
RTVSPost2010PropOp48
 70
     1
102
RTVSPost2010Prop49
280
     0
102
RTVSPost2010PropOp49
 70
     1
102
RTVSPost2010Prop50
 90
       50
102
RTVSPost2010PropOp50
 70
     1
102
RTVSPost2010Prop51ColorIndex
 90
      256
102
RTVSPost2010Prop51ColorRGB
 90
-16777216
102
RTVSPost2010PropOp51
 70
     0
102
RTVSPost2010Prop52
140
1.0
102
RTVSPost2010PropOp52
 70
     0
102
RTVSPost2010Prop53
 90
        2
102
RTVSPost2010PropOp53
 70
     1
102
RTVSPost2010Prop54
  1
strokes_ogs.tif
102
RTVSPost2010PropOp54
 70
     1
102
RTVSPost2010Prop55
280
     0
102
RTVSPost2010PropOp55
 70
     1
102
RTVSPost2010Prop56
140
1.0
102
RTVSPost2010PropOp56
 70
     1
102
RTVSPost2010Prop57
140
1.0
102
RTVSPost2010PropOp57
 70
     1
102
RTVSPropertyOp0
 70
     1
102
RTVSPropertyOp1
 70
     1
102
RTVSPropertyOp2
 70
     1
102
RTVSPropertyOp3
 70
     1
102
RTVSPropertyOp4
 70
     1
102
RTVSPropertyOp5
 70
     1
102
RTVSPropertyOp6
 70
     1
102
RTVSPropertyOp7
 70
     1
102
RTVSPropertyOp8
 70
     1
102
RTVSPropertyOp9
 70
     1
102
RTVSPropertyOp10
 70
     1
102
RTVSPropertyOp11
 70
     1
102
RTVSPropertyOp12
 70
     1
102
RTVSPropertyOp13
 70
     1
102
RTVSPropertyOp14
 70
     1
102
RTVSPropertyOp15
 70
     1
102
RTVSPropertyOp16
 70
     1
102
RTVSPropertyOp17
 70
     1
102
RTVSPropertyOp18
 70
     1
102
RTVSPropertyOp19
 70
     1
102
RTVSPropertyOp20
 70
     1
102
RTVSPropertyOp21
 70
     1
102
RTVSPropertyOp22
 70
     1
102
RTVSPropertyOp23
 70
     1
102
RTVSPropertyOp24
 70
     1
102
RTVSPropertyOp25
 70
     1
102
RTVSPropertyOp26
 70
     1
102
RTVSPropertyOp27
 70
     1
102
RTVSPropertyOp28
 70
     1
102
RTVSPropertyOp29
 70
     1
102
RTVSPropertyOp30
 70
     1
102
RTVSPropertyOp31
 70
     1
102
RTVSPropertyOp32
 70
     1
102
RTVSPropertyOp33
 70
     1
102
RTVSPropertyOp34
 70
     1
102
RTVSPropertyOp35
 70
     1
102
RTVSPropertyOp36
 70
     1
102
RTVSPropertyOp37
 70
     1
102
RTVSPropertyOp38
 70
     1
102
RTVSPropertyOp39
 70
     1
102
RTVSPropertyOp40
 70
     1
102
RTVSPropertyOp41
 70
     1
102
RTVSPropertyOp42
 70
     1
102
RTVSPropertyOp43
 70
     1
102
RTVSPropertyOp44
 70
     1
102
RTVSPropertyOp45
 70
     1
102
RTVSPropertyOp46
 70
     1
102
RTVSPropertyOp47
 70
     1
102
RTVSPropertyOp48
 70
     1
102
RTVSPropertyOp49
 70
     1
102
RTVSPropertyOp50
 70
     1
102
RTVSPropertyOp51
 70
     0
102
RTVSPropertyOp52
 70
     0
102
RTVSPropertyOp53
 70
     1
102
RTVSPropertyOp54
 70
     1
102
RTVSPropertyOp55
 70
     1
102
RTVSPropertyOp56
 70
     1
102
RTVSPropertyOp57
 70
     1
102
RTVSPropertyOp58
 70
     1
102
RTVSPropertyOp59
 70
     1
102
RTVSPropertyOp60
 70
     1
102
RTVSPropertyOp61
 70
     1
102
RTVSPropertyOp62
 70
     1
  0
XRECORD
  5
1AF3
102
{ACAD_REACTORS
330
1AF2
102
}
330
1AF2
100
AcDbXrecord
280
     1
102
RTVSPost2010Prop28
280
     0
102
RTVSPost2010PropOp28
 70
     1
102
RTVSPost2010Prop29
280
     1
102
RTVSPost2010PropOp29
 70
     1
102
RTVSPost2010Prop30
280
     1
102
RTVSPost2010PropOp30
 70
     1
102
RTVSPost2010Prop31
280
     0
102
RTVSPost2010PropOp31
 70
     1
102
RTVSPost2010Prop32
280
     0
102
RTVSPost2010PropOp32
 70
     1
102
RTVSPost2010Prop33
280
     0
102
RTVSPost2010PropOp33
 70
     1
102
RTVSPost2010Prop34
280
     0
102
RTVSPost2010PropOp34
 70
     1
102
RTVSPost2010Prop35
280
     0
102
RTVSPost2010PropOp35
 70
     1
102
RTVSPost2010Prop36
280
     0
102
RTVSPost2010PropOp36
 70
     1
102
RTVSPost2010Prop37
 90
       50
102
RTVSPost2010PropOp37
 70
     1
102
RTVSPost2010Prop38
140
0.0
102
RTVSPost2010PropOp38
 70
     1
102
RTVSPost2010Prop39
140
1.0
102
RTVSPost2010PropOp39
 70
     1
102
RTVSPost2010Prop40
 90
        0
102
RTVSPost2010PropOp40
 70
     1
102
RTVSPost2010Prop41ColorIndex
 90
       18
102
RTVSPost2010Prop41ColorRGB
 90
        0
102
RTVSPost2010PropOp41
 70
     1
102
RTVSPost2010Prop42
 90
       50
102
RTVSPost2010PropOp42
 70
     1
102
RTVSPost2010Prop43
 90
        3
102
RTVSPost2010PropOp43
 70
     1
102
RTVSPost2010Prop44ColorIndex
 90
        5
102
RTVSPost2010Prop44ColorRGB
 90
      255
102
RTVSPost2010PropOp44
 70
     1
102
RTVSPost2010Prop45
280
     0
102
RTVSPost2010PropOp45
 70
     1
102
RTVSPost2010Prop46
 90
       50
102
RTVSPost2010PropOp46
 70
     1
102
RTVSPost2010Prop47
 90
       50
102
RTVSPost2010PropOp47
 70
     1
102
RTVSPost2010Prop48
 90
       50
102
RTVSPost2010PropOp48
 70
     1
102
RTVSPost2010Prop49
280
     0
102
RTVSPost2010PropOp49
 70
     1
102
RTVSPost2010Prop50
 90
       50
102
RTVSPost2010PropOp50
 70
     1
102
RTVSPost2010Prop51ColorIndex
 90
      256
102
RTVSPost2010Prop51ColorRGB
 90
-16777216
102
RTVSPost2010PropOp51
 70
     0
102
RTVSPost2010Prop52
140
1.0
102
RTVSPost2010PropOp52
 70
     0
102
RTVSPost2010Prop53
 90
        2
102
RTVSPost2010PropOp53
 70
     1
102
RTVSPost2010Prop54
  1
strokes_ogs.tif
102
RTVSPost2010PropOp54
 70
     1
102
RTVSPost2010Prop55
280
     0
102
RTVSPost2010PropOp55
 70
     1
102
RTVSPost2010Prop56
140
1.0
102
RTVSPost2010PropOp56
 70
     1
102
RTVSPost2010Prop57
140
1.0
102
RTVSPost2010PropOp57
 70
     1
102
RTVSPropertyOp0
 70
     1
102
RTVSPropertyOp1
 70
     1
102
RTVSPropertyOp2
 70
     1
102
RTVSPropertyOp3
 70
     1
102
RTVSPropertyOp4
 70
     1
102
RTVSPropertyOp5
 70
     1
102
RTVSPropertyOp6
 70
     1
102
RTVSPropertyOp7
 70
     1
102
RTVSPropertyOp8
 70
     1
102
RTVSPropertyOp9
 70
     1
102
RTVSPropertyOp10
 70
     1
102
RTVSPropertyOp11
 70
     1
102
RTVSPropertyOp12
 70
     1
102
RTVSPropertyOp13
 70
     1
102
RTVSPropertyOp14
 70
     1
102
RTVSPropertyOp15
 70
     1
102
RTVSPropertyOp16
 70
     1
102
RTVSPropertyOp17
 70
     1
102
RTVSPropertyOp18
 70
     1
102
RTVSPropertyOp19
 70
     1
102
RTVSPropertyOp20
 70
     1
102
RTVSPropertyOp21
 70
     1
102
RTVSPropertyOp22
 70
     1
102
RTVSPropertyOp23
 70
     1
102
RTVSPropertyOp24
 70
     1
102
RTVSPropertyOp25
 70
     1
102
RTVSPropertyOp26
 70
     1
102
RTVSPropertyOp27
 70
     1
102
RTVSPropertyOp28
 70
     1
102
RTVSPropertyOp29
 70
     1
102
RTVSPropertyOp30
 70
     1
102
RTVSPropertyOp31
 70
     1
102
RTVSPropertyOp32
 70
     1
102
RTVSPropertyOp33
 70
     1
102
RTVSPropertyOp34
 70
     1
102
RTVSPropertyOp35
 70
     1
102
RTVSPropertyOp36
 70
     1
102
RTVSPropertyOp37
 70
     1
102
RTVSPropertyOp38
 70
     1
102
RTVSPropertyOp39
 70
     1
102
RTVSPropertyOp40
 70
     1
102
RTVSPropertyOp41
 70
     1
102
RTVSPropertyOp42
 70
     1
102
RTVSPropertyOp43
 70
     1
102
RTVSPropertyOp44
 70
     1
102
RTVSPropertyOp45
 70
     1
102
RTVSPropertyOp46
 70
     1
102
RTVSPropertyOp47
 70
     1
102
RTVSPropertyOp48
 70
     1
102
RTVSPropertyOp49
 70
     1
102
RTVSPropertyOp50
 70
     1
102
RTVSPropertyOp51
 70
     0
102
RTVSPropertyOp52
 70
     0
102
RTVSPropertyOp53
 70
     1
102
RTVSPropertyOp54
 70
     1
102
RTVSPropertyOp55
 70
     1
102
RTVSPropertyOp56
 70
     1
102
RTVSPropertyOp57
 70
     1
102
RTVSPropertyOp58
 70
     1
102
RTVSPropertyOp59
 70
     1
102
RTVSPropertyOp60
 70
     1
102
RTVSPropertyOp61
 70
     1
102
RTVSPropertyOp62
 70
     1
  0
XRECORD
  5
1AED
102
{ACAD_REACTORS
330
1AEC
102
}
330
1AEC
100
AcDbXrecord
280
     1
102
RTVSPost2010Prop28
280
     0
102
RTVSPost2010PropOp28
 70
     1
102
RTVSPost2010Prop29
280
     1
102
RTVSPost2010PropOp29
 70
     1
102
RTVSPost2010Prop30
280
     1
102
RTVSPost2010PropOp30
 70
     1
102
RTVSPost2010Prop31
280
     0
102
RTVSPost2010PropOp31
 70
     1
102
RTVSPost2010Prop32
280
     0
102
RTVSPost2010PropOp32
 70
     1
102
RTVSPost2010Prop33
280
     0
102
RTVSPost2010PropOp33
 70
     1
102
RTVSPost2010Prop34
280
     0
102
RTVSPost2010PropOp34
 70
     1
102
RTVSPost2010Prop35
280
     0
102
RTVSPost2010PropOp35
 70
     1
102
RTVSPost2010Prop36
280
     0
102
RTVSPost2010PropOp36
 70
     1
102
RTVSPost2010Prop37
 90
       50
102
RTVSPost2010PropOp37
 70
     1
102
RTVSPost2010Prop38
140
0.0
102
RTVSPost2010PropOp38
 70
     1
102
RTVSPost2010Prop39
140
1.0
102
RTVSPost2010PropOp39
 70
     1
102
RTVSPost2010Prop40
 90
        0
102
RTVSPost2010PropOp40
 70
     1
102
RTVSPost2010Prop41ColorIndex
 90
       18
102
RTVSPost2010Prop41ColorRGB
 90
        0
102
RTVSPost2010PropOp41
 70
     1
102
RTVSPost2010Prop42
 90
       50
102
RTVSPost2010PropOp42
 70
     1
102
RTVSPost2010Prop43
 90
        3
102
RTVSPost2010PropOp43
 70
     1
102
RTVSPost2010Prop44ColorIndex
 90
        5
102
RTVSPost2010Prop44ColorRGB
 90
      255
102
RTVSPost2010PropOp44
 70
     1
102
RTVSPost2010Prop45
280
     0
102
RTVSPost2010PropOp45
 70
     1
102
RTVSPost2010Prop46
 90
       50
102
RTVSPost2010PropOp46
 70
     1
102
RTVSPost2010Prop47
 90
       50
102
RTVSPost2010PropOp47
 70
     1
102
RTVSPost2010Prop48
 90
       50
102
RTVSPost2010PropOp48
 70
     1
102
RTVSPost2010Prop49
280
     0
102
RTVSPost2010PropOp49
 70
     1
102
RTVSPost2010Prop50
 90
       50
102
RTVSPost2010PropOp50
 70
     1
102
RTVSPost2010Prop51ColorIndex
 90
      256
102
RTVSPost2010Prop51ColorRGB
 90
-16777216
102
RTVSPost2010PropOp51
 70
     0
102
RTVSPost2010Prop52
140
1.0
102
RTVSPost2010PropOp52
 70
     0
102
RTVSPost2010Prop53
 90
        2
102
RTVSPost2010PropOp53
 70
     1
102
RTVSPost2010Prop54
  1
strokes_ogs.tif
102
RTVSPost2010PropOp54
 70
     1
102
RTVSPost2010Prop55
280
     0
102
RTVSPost2010PropOp55
 70
     1
102
RTVSPost2010Prop56
140
1.0
102
RTVSPost2010PropOp56
 70
     1
102
RTVSPost2010Prop57
140
1.0
102
RTVSPost2010PropOp57
 70
     1
102
RTVSPropertyOp0
 70
     1
102
RTVSPropertyOp1
 70
     1
102
RTVSPropertyOp2
 70
     1
102
RTVSPropertyOp3
 70
     1
102
RTVSPropertyOp4
 70
     1
102
RTVSPropertyOp5
 70
     1
102
RTVSPropertyOp6
 70
     1
102
RTVSPropertyOp7
 70
     1
102
RTVSPropertyOp8
 70
     1
102
RTVSPropertyOp9
 70
     1
102
RTVSPropertyOp10
 70
     1
102
RTVSPropertyOp11
 70
     1
102
RTVSPropertyOp12
 70
     1
102
RTVSPropertyOp13
 70
     1
102
RTVSPropertyOp14
 70
     1
102
RTVSPropertyOp15
 70
     1
102
RTVSPropertyOp16
 70
     1
102
RTVSPropertyOp17
 70
     1
102
RTVSPropertyOp18
 70
     1
102
RTVSPropertyOp19
 70
     1
102
RTVSPropertyOp20
 70
     1
102
RTVSPropertyOp21
 70
     1
102
RTVSPropertyOp22
 70
     1
102
RTVSPropertyOp23
 70
     1
102
RTVSPropertyOp24
 70
     1
102
RTVSPropertyOp25
 70
     1
102
RTVSPropertyOp26
 70
     1
102
RTVSPropertyOp27
 70
     1
102
RTVSPropertyOp28
 70
     1
102
RTVSPropertyOp29
 70
     1
102
RTVSPropertyOp30
 70
     1
102
RTVSPropertyOp31
 70
     1
102
RTVSPropertyOp32
 70
     1
102
RTVSPropertyOp33
 70
     1
102
RTVSPropertyOp34
 70
     1
102
RTVSPropertyOp35
 70
     1
102
RTVSPropertyOp36
 70
     1
102
RTVSPropertyOp37
 70
     1
102
RTVSPropertyOp38
 70
     1
102
RTVSPropertyOp39
 70
     1
102
RTVSPropertyOp40
 70
     1
102
RTVSPropertyOp41
 70
     1
102
RTVSPropertyOp42
 70
     1
102
RTVSPropertyOp43
 70
     1
102
RTVSPropertyOp44
 70
     1
102
RTVSPropertyOp45
 70
     1
102
RTVSPropertyOp46
 70
     1
102
RTVSPropertyOp47
 70
     1
102
RTVSPropertyOp48
 70
     1
102
RTVSPropertyOp49
 70
     1
102
RTVSPropertyOp50
 70
     1
102
RTVSPropertyOp51
 70
     0
102
RTVSPropertyOp52
 70
     0
102
RTVSPropertyOp53
 70
     1
102
RTVSPropertyOp54
 70
     1
102
RTVSPropertyOp55
 70
     1
102
RTVSPropertyOp56
 70
     1
102
RTVSPropertyOp57
 70
     1
102
RTVSPropertyOp58
 70
     1
102
RTVSPropertyOp59
 70
     1
102
RTVSPropertyOp60
 70
     1
102
RTVSPropertyOp61
 70
     1
102
RTVSPropertyOp62
 70
     1
  0
XRECORD
  5
1AEF
102
{ACAD_REACTORS
330
1AEE
102
}
330
1AEE
100
AcDbXrecord
280
     1
102
RTVSPost2010Prop28
280
     0
102
RTVSPost2010PropOp28
 70
     1
102
RTVSPost2010Prop29
280
     1
102
RTVSPost2010PropOp29
 70
     1
102
RTVSPost2010Prop30
280
     1
102
RTVSPost2010PropOp30
 70
     1
102
RTVSPost2010Prop31
280
     0
102
RTVSPost2010PropOp31
 70
     1
102
RTVSPost2010Prop32
280
     0
102
RTVSPost2010PropOp32
 70
     1
102
RTVSPost2010Prop33
280
     0
102
RTVSPost2010PropOp33
 70
     1
102
RTVSPost2010Prop34
280
     0
102
RTVSPost2010PropOp34
 70
     1
102
RTVSPost2010Prop35
280
     0
102
RTVSPost2010PropOp35
 70
     1
102
RTVSPost2010Prop36
280
     0
102
RTVSPost2010PropOp36
 70
     1
102
RTVSPost2010Prop37
 90
       50
102
RTVSPost2010PropOp37
 70
     1
102
RTVSPost2010Prop38
140
0.0
102
RTVSPost2010PropOp38
 70
     1
102
RTVSPost2010Prop39
140
1.0
102
RTVSPost2010PropOp39
 70
     1
102
RTVSPost2010Prop40
 90
        0
102
RTVSPost2010PropOp40
 70
     1
102
RTVSPost2010Prop41ColorIndex
 90
       18
102
RTVSPost2010Prop41ColorRGB
 90
        0
102
RTVSPost2010PropOp41
 70
     1
102
RTVSPost2010Prop42
 90
       50
102
RTVSPost2010PropOp42
 70
     1
102
RTVSPost2010Prop43
 90
        3
102
RTVSPost2010PropOp43
 70
     1
102
RTVSPost2010Prop44ColorIndex
 90
        5
102
RTVSPost2010Prop44ColorRGB
 90
      255
102
RTVSPost2010PropOp44
 70
     1
102
RTVSPost2010Prop45
280
     0
102
RTVSPost2010PropOp45
 70
     1
102
RTVSPost2010Prop46
 90
       50
102
RTVSPost2010PropOp46
 70
     1
102
RTVSPost2010Prop47
 90
       50
102
RTVSPost2010PropOp47
 70
     1
102
RTVSPost2010Prop48
 90
       50
102
RTVSPost2010PropOp48
 70
     1
102
RTVSPost2010Prop49
280
     0
102
RTVSPost2010PropOp49
 70
     1
102
RTVSPost2010Prop50
 90
       50
102
RTVSPost2010PropOp50
 70
     1
102
RTVSPost2010Prop51ColorIndex
 90
      256
102
RTVSPost2010Prop51ColorRGB
 90
-16777216
102
RTVSPost2010PropOp51
 70
     0
102
RTVSPost2010Prop52
140
1.0
102
RTVSPost2010PropOp52
 70
     0
102
RTVSPost2010Prop53
 90
        2
102
RTVSPost2010PropOp53
 70
     1
102
RTVSPost2010Prop54
  1
strokes_ogs.tif
102
RTVSPost2010PropOp54
 70
     1
102
RTVSPost2010Prop55
280
     0
102
RTVSPost2010PropOp55
 70
     1
102
RTVSPost2010Prop56
140
1.0
102
RTVSPost2010PropOp56
 70
     1
102
RTVSPost2010Prop57
140
1.0
102
RTVSPost2010PropOp57
 70
     1
102
RTVSPropertyOp0
 70
     1
102
RTVSPropertyOp1
 70
     1
102
RTVSPropertyOp2
 70
     1
102
RTVSPropertyOp3
 70
     1
102
RTVSPropertyOp4
 70
     1
102
RTVSPropertyOp5
 70
     1
102
RTVSPropertyOp6
 70
     1
102
RTVSPropertyOp7
 70
     1
102
RTVSPropertyOp8
 70
     1
102
RTVSPropertyOp9
 70
     1
102
RTVSPropertyOp10
 70
     1
102
RTVSPropertyOp11
 70
     1
102
RTVSPropertyOp12
 70
     1
102
RTVSPropertyOp13
 70
     1
102
RTVSPropertyOp14
 70
     1
102
RTVSPropertyOp15
 70
     1
102
RTVSPropertyOp16
 70
     1
102
RTVSPropertyOp17
 70
     1
102
RTVSPropertyOp18
 70
     1
102
RTVSPropertyOp19
 70
     1
102
RTVSPropertyOp20
 70
     1
102
RTVSPropertyOp21
 70
     1
102
RTVSPropertyOp22
 70
     1
102
RTVSPropertyOp23
 70
     1
102
RTVSPropertyOp24
 70
     1
102
RTVSPropertyOp25
 70
     1
102
RTVSPropertyOp26
 70
     1
102
RTVSPropertyOp27
 70
     1
102
RTVSPropertyOp28
 70
     1
102
RTVSPropertyOp29
 70
     1
102
RTVSPropertyOp30
 70
     1
102
RTVSPropertyOp31
 70
     1
102
RTVSPropertyOp32
 70
     1
102
RTVSPropertyOp33
 70
     1
102
RTVSPropertyOp34
 70
     1
102
RTVSPropertyOp35
 70
     1
102
RTVSPropertyOp36
 70
     1
102
RTVSPropertyOp37
 70
     1
102
RTVSPropertyOp38
 70
     1
102
RTVSPropertyOp39
 70
     1
102
RTVSPropertyOp40
 70
     1
102
RTVSPropertyOp41
 70
     1
102
RTVSPropertyOp42
 70
     1
102
RTVSPropertyOp43
 70
     1
102
RTVSPropertyOp44
 70
     1
102
RTVSPropertyOp45
 70
     1
102
RTVSPropertyOp46
 70
     1
102
RTVSPropertyOp47
 70
     1
102
RTVSPropertyOp48
 70
     1
102
RTVSPropertyOp49
 70
     1
102
RTVSPropertyOp50
 70
     1
102
RTVSPropertyOp51
 70
     0
102
RTVSPropertyOp52
 70
     0
102
RTVSPropertyOp53
 70
     1
102
RTVSPropertyOp54
 70
     1
102
RTVSPropertyOp55
 70
     1
102
RTVSPropertyOp56
 70
     1
102
RTVSPropertyOp57
 70
     1
102
RTVSPropertyOp58
 70
     1
102
RTVSPropertyOp59
 70
     1
102
RTVSPropertyOp60
 70
     1
102
RTVSPropertyOp61
 70
     1
102
RTVSPropertyOp62
 70
     1
  0
XRECORD
  5
1AE5
102
{ACAD_REACTORS
330
1AE4
102
}
330
1AE4
100
AcDbXrecord
280
     1
102
RTVSPost2010Prop28
280
     0
102
RTVSPost2010PropOp28
 70
     1
102
RTVSPost2010Prop29
280
     1
102
RTVSPost2010PropOp29
 70
     1
102
RTVSPost2010Prop30
280
     1
102
RTVSPost2010PropOp30
 70
     1
102
RTVSPost2010Prop31
280
     0
102
RTVSPost2010PropOp31
 70
     1
102
RTVSPost2010Prop32
280
     0
102
RTVSPost2010PropOp32
 70
     1
102
RTVSPost2010Prop33
280
     0
102
RTVSPost2010PropOp33
 70
     1
102
RTVSPost2010Prop34
280
     0
102
RTVSPost2010PropOp34
 70
     1
102
RTVSPost2010Prop35
280
     0
102
RTVSPost2010PropOp35
 70
     1
102
RTVSPost2010Prop36
280
     0
102
RTVSPost2010PropOp36
 70
     1
102
RTVSPost2010Prop37
 90
       50
102
RTVSPost2010PropOp37
 70
     1
102
RTVSPost2010Prop38
140
0.0
102
RTVSPost2010PropOp38
 70
     1
102
RTVSPost2010Prop39
140
1.0
102
RTVSPost2010PropOp39
 70
     1
102
RTVSPost2010Prop40
 90
        0
102
RTVSPost2010PropOp40
 70
     1
102
RTVSPost2010Prop41ColorIndex
 90
       18
102
RTVSPost2010Prop41ColorRGB
 90
        0
102
RTVSPost2010PropOp41
 70
     1
102
RTVSPost2010Prop42
 90
       50
102
RTVSPost2010PropOp42
 70
     1
102
RTVSPost2010Prop43
 90
        3
102
RTVSPost2010PropOp43
 70
     1
102
RTVSPost2010Prop44ColorIndex
 90
        5
102
RTVSPost2010Prop44ColorRGB
 90
      255
102
RTVSPost2010PropOp44
 70
     1
102
RTVSPost2010Prop45
280
     0
102
RTVSPost2010PropOp45
 70
     1
102
RTVSPost2010Prop46
 90
       50
102
RTVSPost2010PropOp46
 70
     1
102
RTVSPost2010Prop47
 90
       50
102
RTVSPost2010PropOp47
 70
     1
102
RTVSPost2010Prop48
 90
       50
102
RTVSPost2010PropOp48
 70
     1
102
RTVSPost2010Prop49
280
     0
102
RTVSPost2010PropOp49
 70
     1
102
RTVSPost2010Prop50
 90
       50
102
RTVSPost2010PropOp50
 70
     1
102
RTVSPost2010Prop51ColorIndex
 90
      256
102
RTVSPost2010Prop51ColorRGB
 90
-16777216
102
RTVSPost2010PropOp51
 70
     0
102
RTVSPost2010Prop52
140
1.0
102
RTVSPost2010PropOp52
 70
     0
102
RTVSPost2010Prop53
 90
        2
102
RTVSPost2010PropOp53
 70
     1
102
RTVSPost2010Prop54
  1
strokes_ogs.tif
102
RTVSPost2010PropOp54
 70
     1
102
RTVSPost2010Prop55
280
     0
102
RTVSPost2010PropOp55
 70
     1
102
RTVSPost2010Prop56
140
1.0
102
RTVSPost2010PropOp56
 70
     1
102
RTVSPost2010Prop57
140
1.0
102
RTVSPost2010PropOp57
 70
     1
102
RTVSPropertyOp0
 70
     1
102
RTVSPropertyOp1
 70
     1
102
RTVSPropertyOp2
 70
     1
102
RTVSPropertyOp3
 70
     1
102
RTVSPropertyOp4
 70
     1
102
RTVSPropertyOp5
 70
     1
102
RTVSPropertyOp6
 70
     1
102
RTVSPropertyOp7
 70
     1
102
RTVSPropertyOp8
 70
     1
102
RTVSPropertyOp9
 70
     1
102
RTVSPropertyOp10
 70
     1
102
RTVSPropertyOp11
 70
     1
102
RTVSPropertyOp12
 70
     1
102
RTVSPropertyOp13
 70
     1
102
RTVSPropertyOp14
 70
     1
102
RTVSPropertyOp15
 70
     1
102
RTVSPropertyOp16
 70
     1
102
RTVSPropertyOp17
 70
     1
102
RTVSPropertyOp18
 70
     1
102
RTVSPropertyOp19
 70
     1
102
RTVSPropertyOp20
 70
     1
102
RTVSPropertyOp21
 70
     1
102
RTVSPropertyOp22
 70
     1
102
RTVSPropertyOp23
 70
     1
102
RTVSPropertyOp24
 70
     1
102
RTVSPropertyOp25
 70
     1
102
RTVSPropertyOp26
 70
     1
102
RTVSPropertyOp27
 70
     1
102
RTVSPropertyOp28
 70
     1
102
RTVSPropertyOp29
 70
     1
102
RTVSPropertyOp30
 70
     1
102
RTVSPropertyOp31
 70
     1
102
RTVSPropertyOp32
 70
     1
102
RTVSPropertyOp33
 70
     1
102
RTVSPropertyOp34
 70
     1
102
RTVSPropertyOp35
 70
     1
102
RTVSPropertyOp36
 70
     1
102
RTVSPropertyOp37
 70
     1
102
RTVSPropertyOp38
 70
     1
102
RTVSPropertyOp39
 70
     1
102
RTVSPropertyOp40
 70
     1
102
RTVSPropertyOp41
 70
     1
102
RTVSPropertyOp42
 70
     1
102
RTVSPropertyOp43
 70
     1
102
RTVSPropertyOp44
 70
     1
102
RTVSPropertyOp45
 70
     1
102
RTVSPropertyOp46
 70
     1
102
RTVSPropertyOp47
 70
     1
102
RTVSPropertyOp48
 70
     1
102
RTVSPropertyOp49
 70
     1
102
RTVSPropertyOp50
 70
     1
102
RTVSPropertyOp51
 70
     0
102
RTVSPropertyOp52
 70
     0
102
RTVSPropertyOp53
 70
     1
102
RTVSPropertyOp54
 70
     1
102
RTVSPropertyOp55
 70
     1
102
RTVSPropertyOp56
 70
     1
102
RTVSPropertyOp57
 70
     1
102
RTVSPropertyOp58
 70
     1
102
RTVSPropertyOp59
 70
     1
102
RTVSPropertyOp60
 70
     1
102
RTVSPropertyOp61
 70
     1
102
RTVSPropertyOp62
 70
     1
  0
XRECORD
  5
1AD9
102
{ACAD_REACTORS
330
1AD8
102
}
330
1AD8
100
AcDbXrecord
280
     1
102
RTVSPost2010Prop28
280
     0
102
RTVSPost2010PropOp28
 70
     1
102
RTVSPost2010Prop29
280
     1
102
RTVSPost2010PropOp29
 70
     1
102
RTVSPost2010Prop30
280
     1
102
RTVSPost2010PropOp30
 70
     1
102
RTVSPost2010Prop31
280
     0
102
RTVSPost2010PropOp31
 70
     1
102
RTVSPost2010Prop32
280
     0
102
RTVSPost2010PropOp32
 70
     1
102
RTVSPost2010Prop33
280
     0
102
RTVSPost2010PropOp33
 70
     1
102
RTVSPost2010Prop34
280
     0
102
RTVSPost2010PropOp34
 70
     1
102
RTVSPost2010Prop35
280
     0
102
RTVSPost2010PropOp35
 70
     1
102
RTVSPost2010Prop36
280
     0
102
RTVSPost2010PropOp36
 70
     1
102
RTVSPost2010Prop37
 90
       50
102
RTVSPost2010PropOp37
 70
     1
102
RTVSPost2010Prop38
140
0.0
102
RTVSPost2010PropOp38
 70
     1
102
RTVSPost2010Prop39
140
1.0
102
RTVSPost2010PropOp39
 70
     1
102
RTVSPost2010Prop40
 90
        0
102
RTVSPost2010PropOp40
 70
     1
102
RTVSPost2010Prop41ColorIndex
 90
       18
102
RTVSPost2010Prop41ColorRGB
 90
        0
102
RTVSPost2010PropOp41
 70
     1
102
RTVSPost2010Prop42
 90
       50
102
RTVSPost2010PropOp42
 70
     1
102
RTVSPost2010Prop43
 90
        3
102
RTVSPost2010PropOp43
 70
     1
102
RTVSPost2010Prop44ColorIndex
 90
        5
102
RTVSPost2010Prop44ColorRGB
 90
      255
102
RTVSPost2010PropOp44
 70
     1
102
RTVSPost2010Prop45
280
     0
102
RTVSPost2010PropOp45
 70
     1
102
RTVSPost2010Prop46
 90
       50
102
RTVSPost2010PropOp46
 70
     1
102
RTVSPost2010Prop47
 90
       50
102
RTVSPost2010PropOp47
 70
     1
102
RTVSPost2010Prop48
 90
       50
102
RTVSPost2010PropOp48
 70
     1
102
RTVSPost2010Prop49
280
     0
102
RTVSPost2010PropOp49
 70
     1
102
RTVSPost2010Prop50
 90
       50
102
RTVSPost2010PropOp50
 70
     1
102
RTVSPost2010Prop51ColorIndex
 90
      256
102
RTVSPost2010Prop51ColorRGB
 90
-16777216
102
RTVSPost2010PropOp51
 70
     0
102
RTVSPost2010Prop52
140
1.0
102
RTVSPost2010PropOp52
 70
     0
102
RTVSPost2010Prop53
 90
        2
102
RTVSPost2010PropOp53
 70
     1
102
RTVSPost2010Prop54
  1
strokes_ogs.tif
102
RTVSPost2010PropOp54
 70
     1
102
RTVSPost2010Prop55
280
     0
102
RTVSPost2010PropOp55
 70
     1
102
RTVSPost2010Prop56
140
1.0
102
RTVSPost2010PropOp56
 70
     1
102
RTVSPost2010Prop57
140
1.0
102
RTVSPost2010PropOp57
 70
     1
102
RTVSPropertyOp0
 70
     1
102
RTVSPropertyOp1
 70
     1
102
RTVSPropertyOp2
 70
     1
102
RTVSPropertyOp3
 70
     1
102
RTVSPropertyOp4
 70
     1
102
RTVSPropertyOp5
 70
     1
102
RTVSPropertyOp6
 70
     1
102
RTVSPropertyOp7
 70
     1
102
RTVSPropertyOp8
 70
     1
102
RTVSPropertyOp9
 70
     1
102
RTVSPropertyOp10
 70
     1
102
RTVSPropertyOp11
 70
     1
102
RTVSPropertyOp12
 70
     1
102
RTVSPropertyOp13
 70
     1
102
RTVSPropertyOp14
 70
     1
102
RTVSPropertyOp15
 70
     1
102
RTVSPropertyOp16
 70
     1
102
RTVSPropertyOp17
 70
     1
102
RTVSPropertyOp18
 70
     1
102
RTVSPropertyOp19
 70
     1
102
RTVSPropertyOp20
 70
     1
102
RTVSPropertyOp21
 70
     1
102
RTVSPropertyOp22
 70
     1
102
RTVSPropertyOp23
 70
     1
102
RTVSPropertyOp24
 70
     1
102
RTVSPropertyOp25
 70
     1
102
RTVSPropertyOp26
 70
     1
102
RTVSPropertyOp27
 70
     1
102
RTVSPropertyOp28
 70
     1
102
RTVSPropertyOp29
 70
     1
102
RTVSPropertyOp30
 70
     1
102
RTVSPropertyOp31
 70
     1
102
RTVSPropertyOp32
 70
     1
102
RTVSPropertyOp33
 70
     1
102
RTVSPropertyOp34
 70
     1
102
RTVSPropertyOp35
 70
     1
102
RTVSPropertyOp36
 70
     1
102
RTVSPropertyOp37
 70
     1
102
RTVSPropertyOp38
 70
     1
102
RTVSPropertyOp39
 70
     1
102
RTVSPropertyOp40
 70
     1
102
RTVSPropertyOp41
 70
     1
102
RTVSPropertyOp42
 70
     1
102
RTVSPropertyOp43
 70
     1
102
RTVSPropertyOp44
 70
     1
102
RTVSPropertyOp45
 70
     1
102
RTVSPropertyOp46
 70
     1
102
RTVSPropertyOp47
 70
     1
102
RTVSPropertyOp48
 70
     1
102
RTVSPropertyOp49
 70
     1
102
RTVSPropertyOp50
 70
     1
102
RTVSPropertyOp51
 70
     0
102
RTVSPropertyOp52
 70
     0
102
RTVSPropertyOp53
 70
     1
102
RTVSPropertyOp54
 70
     1
102
RTVSPropertyOp55
 70
     1
102
RTVSPropertyOp56
 70
     1
102
RTVSPropertyOp57
 70
     1
102
RTVSPropertyOp58
 70
     1
102
RTVSPropertyOp59
 70
     1
102
RTVSPropertyOp60
 70
     1
102
RTVSPropertyOp61
 70
     1
102
RTVSPropertyOp62
 70
     1
  0
XRECORD
  5
1AF1
102
{ACAD_REACTORS
330
1AF0
102
}
330
1AF0
100
AcDbXrecord
280
     1
102
RTVSPost2010Prop28
280
     0
102
RTVSPost2010PropOp28
 70
     1
102
RTVSPost2010Prop29
280
     1
102
RTVSPost2010PropOp29
 70
     1
102
RTVSPost2010Prop30
280
     1
102
RTVSPost2010PropOp30
 70
     1
102
RTVSPost2010Prop31
280
     0
102
RTVSPost2010PropOp31
 70
     1
102
RTVSPost2010Prop32
280
     0
102
RTVSPost2010PropOp32
 70
     1
102
RTVSPost2010Prop33
280
     0
102
RTVSPost2010PropOp33
 70
     1
102
RTVSPost2010Prop34
280
     0
102
RTVSPost2010PropOp34
 70
     1
102
RTVSPost2010Prop35
280
     0
102
RTVSPost2010PropOp35
 70
     1
102
RTVSPost2010Prop36
280
     0
102
RTVSPost2010PropOp36
 70
     1
102
RTVSPost2010Prop37
 90
       50
102
RTVSPost2010PropOp37
 70
     1
102
RTVSPost2010Prop38
140
0.0
102
RTVSPost2010PropOp38
 70
     1
102
RTVSPost2010Prop39
140
1.0
102
RTVSPost2010PropOp39
 70
     1
102
RTVSPost2010Prop40
 90
        0
102
RTVSPost2010PropOp40
 70
     1
102
RTVSPost2010Prop41ColorIndex
 90
       18
102
RTVSPost2010Prop41ColorRGB
 90
        0
102
RTVSPost2010PropOp41
 70
     1
102
RTVSPost2010Prop42
 90
       50
102
RTVSPost2010PropOp42
 70
     1
102
RTVSPost2010Prop43
 90
        3
102
RTVSPost2010PropOp43
 70
     1
102
RTVSPost2010Prop44ColorIndex
 90
        5
102
RTVSPost2010Prop44ColorRGB
 90
      255
102
RTVSPost2010PropOp44
 70
     1
102
RTVSPost2010Prop45
280
     0
102
RTVSPost2010PropOp45
 70
     1
102
RTVSPost2010Prop46
 90
       50
102
RTVSPost2010PropOp46
 70
     1
102
RTVSPost2010Prop47
 90
       50
102
RTVSPost2010PropOp47
 70
     1
102
RTVSPost2010Prop48
 90
       50
102
RTVSPost2010PropOp48
 70
     1
102
RTVSPost2010Prop49
280
     0
102
RTVSPost2010PropOp49
 70
     1
102
RTVSPost2010Prop50
 90
       50
102
RTVSPost2010PropOp50
 70
     1
102
RTVSPost2010Prop51ColorIndex
 90
      256
102
RTVSPost2010Prop51ColorRGB
 90
-16777216
102
RTVSPost2010PropOp51
 70
     0
102
RTVSPost2010Prop52
140
1.0
102
RTVSPost2010PropOp52
 70
     0
102
RTVSPost2010Prop53
 90
        2
102
RTVSPost2010PropOp53
 70
     1
102
RTVSPost2010Prop54
  1
strokes_ogs.tif
102
RTVSPost2010PropOp54
 70
     1
102
RTVSPost2010Prop55
280
     0
102
RTVSPost2010PropOp55
 70
     1
102
RTVSPost2010Prop56
140
1.0
102
RTVSPost2010PropOp56
 70
     1
102
RTVSPost2010Prop57
140
1.0
102
RTVSPost2010PropOp57
 70
     1
102
RTVSPropertyOp0
 70
     1
102
RTVSPropertyOp1
 70
     1
102
RTVSPropertyOp2
 70
     1
102
RTVSPropertyOp3
 70
     1
102
RTVSPropertyOp4
 70
     1
102
RTVSPropertyOp5
 70
     1
102
RTVSPropertyOp6
 70
     1
102
RTVSPropertyOp7
 70
     1
102
RTVSPropertyOp8
 70
     1
102
RTVSPropertyOp9
 70
     1
102
RTVSPropertyOp10
 70
     1
102
RTVSPropertyOp11
 70
     1
102
RTVSPropertyOp12
 70
     1
102
RTVSPropertyOp13
 70
     1
102
RTVSPropertyOp14
 70
     1
102
RTVSPropertyOp15
 70
     1
102
RTVSPropertyOp16
 70
     1
102
RTVSPropertyOp17
 70
     1
102
RTVSPropertyOp18
 70
     1
102
RTVSPropertyOp19
 70
     1
102
RTVSPropertyOp20
 70
     1
102
RTVSPropertyOp21
 70
     1
102
RTVSPropertyOp22
 70
     1
102
RTVSPropertyOp23
 70
     1
102
RTVSPropertyOp24
 70
     1
102
RTVSPropertyOp25
 70
     1
102
RTVSPropertyOp26
 70
     1
102
RTVSPropertyOp27
 70
     1
102
RTVSPropertyOp28
 70
     1
102
RTVSPropertyOp29
 70
     1
102
RTVSPropertyOp30
 70
     1
102
RTVSPropertyOp31
 70
     1
102
RTVSPropertyOp32
 70
     1
102
RTVSPropertyOp33
 70
     1
102
RTVSPropertyOp34
 70
     1
102
RTVSPropertyOp35
 70
     1
102
RTVSPropertyOp36
 70
     1
102
RTVSPropertyOp37
 70
     1
102
RTVSPropertyOp38
 70
     1
102
RTVSPropertyOp39
 70
     1
102
RTVSPropertyOp40
 70
     1
102
RTVSPropertyOp41
 70
     1
102
RTVSPropertyOp42
 70
     1
102
RTVSPropertyOp43
 70
     1
102
RTVSPropertyOp44
 70
     1
102
RTVSPropertyOp45
 70
     1
102
RTVSPropertyOp46
 70
     1
102
RTVSPropertyOp47
 70
     1
102
RTVSPropertyOp48
 70
     1
102
RTVSPropertyOp49
 70
     1
102
RTVSPropertyOp50
 70
     1
102
RTVSPropertyOp51
 70
     0
102
RTVSPropertyOp52
 70
     0
102
RTVSPropertyOp53
 70
     1
102
RTVSPropertyOp54
 70
     1
102
RTVSPropertyOp55
 70
     1
102
RTVSPropertyOp56
 70
     1
102
RTVSPropertyOp57
 70
     1
102
RTVSPropertyOp58
 70
     1
102
RTVSPropertyOp59
 70
     1
102
RTVSPropertyOp60
 70
     1
102
RTVSPropertyOp61
 70
     1
102
RTVSPropertyOp62
 70
     1
  0
ENDSEC
  0
EOF
