  0
SECTION
  2
HEADER
  9
$ACADVER
  1
AC1021
  9
$DWGCODEPAGE
  3
ANSI_1252
  9
$EXTMAX
 10
17.0
 20
11.0
 30
0.0
  9
$EXTMIN
 10
0.0
 20
0.0
 30
0.0
  9
$LIMMIN
 10
0.0
 20
0.0
  9
$LIMMAX
 10
17.0
 20
11.0
  9
$VIEWCTR
 10
8.5
 20
5.5
  9
$VIEWSIZE
 40
11.0
  9
$CLAYER
  8
0
  9
$LTSCALE
 40
0.935
  9
$CELTYPE
  6
BYLAYER
  9
$DIMSCALE
 40
1.0
  9
$DIMASZ
 40
0.1875
  9
$DIMEXO
 40
0.10625
  9
$DIMDLI
 40
0.646
  9
$DIMEXE
 40
0.306
  9
$DIMCEN
 40
0.153
  9
$DIMLFAC
 40
1.0
  9
$DIMBLK
  1
_FILLED
  9
$DIMTXT
 40
0.125
  9
$DIMTOL
 70
1
  9
$DIMLIM
 70
0
  9
$DIMTFAC
 40
1.0
  9
$DIMTP
 40
0.001
  9
$DIMTM
 40
0.001
  9
$PDMODE
 70
3
  9
$PDSIZE
 40
0.03125
  9
$HANDSEED
  5
76D
  9
$TILEMODE
 70
1
  9
$MEASUREMENT
 70
0
  9
$INSUNITS
 70
1
  0
ENDSEC
  0
SECTION
  2
CLASSES
  0
CLASS
  1
ACDBDICTIONARYWDFLT
  2
AcDbDictionaryWithDefault
  3
AutoCAD 2000
 90
0
 91
1
280
0
281
0
  0
CLASS
  1
ACDBPLACEHOLDER
  2
AcDbPlaceHolder
  3
AutoCAD 2000
 90
0
 91
1
280
0
281
0
  0
CLASS
  1
LAYOUT
  2
AcDbLayout
  3
AutoCAD 2000
 90
0
 91
0
280
0
281
0
  0
ENDSEC
  0
SECTION
  2
TABLES
  0
TABLE
  2
VPORT
  5
8
100
AcDbSymbolTable
 70
2
  0
VPORT
  5
1F4
100
AcDbSymbolTableRecord
100
AcDbViewportTableRecord
  2
*ACTIVE
 70
0
 10
0.0
 20
0.0
 11
1.0
 21
1.0
 12
8.5
 22
5.5
 13
0.0
 23
0.0
 14
1.0
 24
1.0
 15
0.0
 25
0.0
 16
0.0
 26
0.0
 36
1.0
 17
0.0
 27
0.0
 37
0.0
 40
11.0
 41
1.5454545455
 42
50.0
 43
0.0
 44
0.0
 50
0.0
 51
0.0
 71
0
 72
100
 73
1
 74
1
 75
0
 76
0
 77
0
 78
0
  0
ENDTAB
  0
TABLE
  2
LTYPE
  5
5
100
AcDbSymbolTable
 70
6
  0
LTYPE
  5
14
100
AcDbSymbolTableRecord
100
AcDbLinetypeTableRecord
  2
BYBLOCK
 70
0
  3

 72
65
 73
0
 40
0.0
  0
LTYPE
  5
15
100
AcDbSymbolTableRecord
100
AcDbLinetypeTableRecord
  2
BYLAYER
 70
0
  3

 72
65
 73
0
 40
0.0
  0
LTYPE
  5
16
100
AcDbSymbolTableRecord
100
AcDbLinetypeTableRecord
  2
CONTINUOUS
 70
64
  3
Solid line
 72
65
 73
0
 40
0.0
  0
LTYPE
  5
1F5
100
AcDbSymbolTableRecord
100
AcDbLinetypeTableRecord
  2
CENTER
 70
64
  3
____ _ ____ _ ____ _ ____ _ ____ _ ____ _ ____
 72
65
 73
4
 40
0.6
 49
0.375
 74
0
 49
-0.075
 74
0
 49
0.075
 74
0
 49
-0.075
 74
0
  0
LTYPE
  5
1F6
100
AcDbSymbolTableRecord
100
AcDbLinetypeTableRecord
  2
HIDDEN
 70
64
  3
- - - - - - - - - - - - - - - - - - - -
 72
65
 73
2
 40
0.2
 49
0.1
 74
0
 49
-0.1
 74
0
  0
LTYPE
  5
1F7
100
AcDbSymbolTableRecord
100
AcDbLinetypeTableRecord
  2
PHANTOM
 70
64
  3
_____ _ _ _____ _ _ _____ _ _ _____
 72
65
 73
6
 40
0.8
 49
0.45
 74
0
 49
-0.05
 74
0
 49
0.1
 74
0
 49
-0.05
 74
0
 49
0.1
 74
0
 49
-0.05
 74
0
  0
LTYPE
  5
1F8
100
AcDbSymbolTableRecord
100
AcDbLinetypeTableRecord
  2
DOT
 70
64
  3
. . . . . . . . . . . . . . . . . . . .
 72
65
 73
2
 40
0.2
 49
0.1
 74
0
 49
-0.1
 74
0
  0
LTYPE
  5
1F9
100
AcDbSymbolTableRecord
100
AcDbLinetypeTableRecord
  2
DASHED
 70
64
  3
- - - - - - - - - - - - - - - - - - - -
 72
65
 73
2
 40
0.2
 49
0.1
 74
0
 49
-0.1
 74
0
  0
ENDTAB
  0
TABLE
  2
LAYER
  5
2
100
AcDbSymbolTable
 70
36
  0
LAYER
  5
10
100
AcDbSymbolTableRecord
100
AcDbLayerTableRecord
  2
0
 70
0
 62
7
  6
CONTINUOUS
370
-3
390
F
  0
LAYER
  5
1FA
100
AcDbSymbolTableRecord
100
AcDbLayerTableRecord
  2
DEFAULT_1
 70
0
 62
7
  6
CENTER
370
-3
390
F
  0
LAYER
  5
1FB
100
AcDbSymbolTableRecord
100
AcDbLayerTableRecord
  2
DEFAULT_2
 70
0
 62
8
  6
HIDDEN
370
-3
390
F
  0
LAYER
  5
1FC
100
AcDbSymbolTableRecord
100
AcDbLayerTableRecord
  2
DEFAULT_3
 70
0
 62
7
  6
PHANTOM
370
-3
390
F
  0
LAYER
  5
1FD
100
AcDbSymbolTableRecord
100
AcDbLayerTableRecord
  2
1_CURVES
 70
0
 62
7
  6
CONTINUOUS
370
-3
390
F
  0
LAYER
  5
1FE
100
AcDbSymbolTableRecord
100
AcDbLayerTableRecord
  2
1_CURVES-CONTOUR-REBORD
 70
0
 62
7
  6
CONTINUOUS
370
-3
390
F
  0
LAYER
  5
1FF
100
AcDbSymbolTableRecord
100
AcDbLayerTableRecord
  2
1_CURVES-JETS
 70
0
 62
7
  6
CONTINUOUS
370
-3
390
F
  0
LAYER
  5
200
100
AcDbSymbolTableRecord
100
AcDbLayerTableRecord
  2
1_CURVES-PATINS
 70
0
 62
7
  6
CONTINUOUS
370
-3
390
F
  0
LAYER
  5
201
100
AcDbSymbolTableRecord
100
AcDbLayerTableRecord
  2
2_PLANES
 70
0
 62
7
  6
CONTINUOUS
370
-3
390
F
  0
LAYER
  5
202
100
AcDbSymbolTableRecord
100
AcDbLayerTableRecord
  2
2_PLANES_JETS
 70
0
 62
7
  6
CONTINUOUS
370
-3
390
F
  0
LAYER
  5
203
100
AcDbSymbolTableRecord
100
AcDbLayerTableRecord
  2
3_POINTS
 70
0
 62
7
  6
CONTINUOUS
370
-3
390
F
  0
LAYER
  5
204
100
AcDbSymbolTableRecord
100
AcDbLayerTableRecord
  2
3_POINTS-JETS
 70
0
 62
7
  6
CONTINUOUS
370
-3
390
F
  0
LAYER
  5
205
100
AcDbSymbolTableRecord
100
AcDbLayerTableRecord
  2
4_CSYS
 70
0
 62
7
  6
CONTINUOUS
370
-3
390
F
  0
LAYER
  5
206
100
AcDbSymbolTableRecord
100
AcDbLayerTableRecord
  2
5-AXIS-JETS
 70
0
 62
7
  6
CONTINUOUS
370
-3
390
F
  0
LAYER
  5
207
100
AcDbSymbolTableRecord
100
AcDbLayerTableRecord
  2
5_AXIS
 70
0
 62
7
  6
CONTINUOUS
370
-3
390
F
  0
LAYER
  5
208
100
AcDbSymbolTableRecord
100
AcDbLayerTableRecord
  2
6_AIRE_CONDUIT
 70
0
 62
7
  6
CONTINUOUS
370
-3
390
F
  0
LAYER
  5
209
100
AcDbSymbolTableRecord
100
AcDbLayerTableRecord
  2
6_SUFACES-POUR_JUPE
 70
0
 62
7
  6
CONTINUOUS
370
-3
390
F
  0
LAYER
  5
20A
100
AcDbSymbolTableRecord
100
AcDbLayerTableRecord
  2
6_SURFACE-OFFSET-FIBRE-ACRYLIQU
 70
0
 62
7
  6
CONTINUOUS
370
-3
390
F
  0
LAYER
  5
20B
100
AcDbSymbolTableRecord
100
AcDbLayerTableRecord
  2
6_SURFACES
 70
0
 62
7
  6
CONTINUOUS
370
-3
390
F
  0
LAYER
  5
20C
100
AcDbSymbolTableRecord
100
AcDbLayerTableRecord
  2
6_SURFACES_AIRE
 70
0
 62
7
  6
CONTINUOUS
370
-3
390
F
  0
LAYER
  5
20D
100
AcDbSymbolTableRecord
100
AcDbLayerTableRecord
  2
6_SURFACES_DROITE
 70
0
 62
7
  6
CONTINUOUS
370
-3
390
F
  0
LAYER
  5
20E
100
AcDbSymbolTableRecord
100
AcDbLayerTableRecord
  2
6_SURFACES_GAUCHE
 70
0
 62
7
  6
CONTINUOUS
370
-3
390
F
  0
LAYER
  5
20F
100
AcDbSymbolTableRecord
100
AcDbLayerTableRecord
  2
6_SURFACES_OFFSET_CONDUIT
 70
0
 62
7
  6
CONTINUOUS
370
-3
390
F
  0
LAYER
  5
210
100
AcDbSymbolTableRecord
100
AcDbLayerTableRecord
  2
6_SURFACES_OFFSET_CONDUIT-PREPA
 70
0
 62
7
  6
CONTINUOUS
370
-3
390
F
  0
LAYER
  5
211
100
AcDbSymbolTableRecord
100
AcDbLayerTableRecord
  2
6_SURFACES_PATINS_DRW
 70
0
 62
7
  6
CONTINUOUS
370
-3
390
F
  0
LAYER
  5
212
100
AcDbSymbolTableRecord
100
AcDbLayerTableRecord
  2
6_SURFACES_POUR_HFL
 70
0
 62
7
  6
CONTINUOUS
370
-3
390
F
  0
LAYER
  5
213
100
AcDbSymbolTableRecord
100
AcDbLayerTableRecord
  2
6_SURFACES_TOOLING
 70
0
 62
7
  6
CONTINUOUS
370
-3
390
F
  0
LAYER
  5
214
100
AcDbSymbolTableRecord
100
AcDbLayerTableRecord
  2
7_NOTES
 70
0
 62
7
  6
CONTINUOUS
370
-3
390
F
  0
LAYER
  5
215
100
AcDbSymbolTableRecord
100
AcDbLayerTableRecord
  2
8_COSMETIC
 70
0
 62
7
  6
CONTINUOUS
370
-3
390
F
  0
LAYER
  5
216
100
AcDbSymbolTableRecord
100
AcDbLayerTableRecord
  2
XSEC_DATUMS
 70
0
 62
7
  6
CONTINUOUS
370
-3
390
F
  0
ENDTAB
  0
TABLE
  2
STYLE
  5
3
100
AcDbSymbolTable
 70
1
  0
STYLE
  5
11
100
AcDbSymbolTableRecord
100
AcDbTextStyleTableRecord
  2
STANDARD
 70
0
 40
0.0
 41
0.8
 50
0.0
 71
0
 42
0.2
  3
txt
  4

  0
STYLE
  5
217
100
AcDbSymbolTableRecord
100
AcDbTextStyleTableRecord
  2
TEXTSTYLE_1
 70
0
 40
0.0
 41
0.8
 50
0.0
 71
0
 42
0.2
  3
gdt
  4

  0
ENDTAB
  0
TABLE
  2
VIEW
  5
6
100
AcDbSymbolTable
 70
0
  0
ENDTAB
  0
TABLE
  2
UCS
  5
7
100
AcDbSymbolTable
 70
0
  0
ENDTAB
  0
TABLE
  2
APPID
  5
9
100
AcDbSymbolTable
 70
1
  0
APPID
  5
218
100
AcDbSymbolTableRecord
100
AcDbRegAppTableRecord
  2
ACAD
 70
0
  0
ENDTAB
  0
TABLE
  2
BLOCK_RECORD
  5
1
100
AcDbSymbolTable
 70
0
  0
BLOCK_RECORD
  5
219
100
AcDbSymbolTableRecord
100
AcDbBlockTableRecord
  2
*Model_Space
  0
BLOCK_RECORD
  5
21A
100
AcDbSymbolTableRecord
100
AcDbBlockTableRecord
  2
*Paper_Space
  0
ENDTAB
  0
TABLE
  2
DIMSTYLE
  5
A
100
AcDbSymbolTable
 70
1
100
AcDbDimStyleTable
 71
0
  0
DIMSTYLE
105
21B
100
AcDbSymbolTableRecord
100
AcDbDimStyleTableRecord
  2
STANDARD
 70
0
  3

  4

 40
1.0
 41
0.1875
 42
0.0625
 43
0.38
 44
0.18
 45
0.0
 46
0.0
 47
0.001
 48
0.001
140
0.125
141
0.09
142
0.0
143
25.4
144
1.0
145
0.0
146
1.0
147
0.09
 71
1.0
 72
0.0
 73
1
 74
1
 75
0
 76
0
 77
0
 78
4
170
0
171
2
172
0
173
0
174
0
175
0
176
0
177
0
178
0
270
2
271
3
272
3
273
2
274
2
275
0
280
0
281
0
282
0
283
1
284
4
285
0
286
0
287
3
288
0
340
11
  0
ENDTAB
  0
ENDSEC
  0
SECTION
  2
BLOCKS
  0
BLOCK
  5
20
100
AcDbEntity
  8
0
100
AcDbBlockBegin
  2
*Model_Space
 70
0
 10
0.0
 20
0.0
 30
0.0
  3
*Model_Space
  1

  0
ENDBLK
  5
21
100
AcDbEntity
  8
0
100
AcDbBlockEnd
  0
BLOCK
  5
1C
100
AcDbEntity
  8
0
100
AcDbBlockBegin
  2
*Paper_Space
 70
0
 10
0.0
 20
0.0
 30
0.0
  3
*Paper_Space
  1

  0
ENDBLK
  5
1D
100
AcDbEntity
  8
0
100
AcDbBlockEnd
  0
ENDSEC
  0
SECTION
  2
ENTITIES
  0
LINE
  5
21C
100
AcDbEntity
  8
DEFAULT_2
100
AcDbLine
 62
8
  6
CONTINUOUS
 10
40.8909069079
 20
34.0299088864
 11
40.8728932311
 21
34.0198896605
  0
LINE
  5
21D
100
AcDbEntity
  8
DEFAULT_2
100
AcDbLine
 62
8
  6
CONTINUOUS
 10
40.9091114513
 20
34.0395650938
 11
40.8909069079
 21
34.0299088864
  0
LINE
  5
21E
100
AcDbEntity
  8
DEFAULT_2
100
AcDbLine
 62
8
  6
CONTINUOUS
 10
26.4153565163
 20
24.8965281732
 11
26.5535885375
 21
24.9686169784
  0
LINE
  5
21F
100
AcDbEntity
  8
DEFAULT_2
100
AcDbLine
 62
8
  6
CONTINUOUS
 10
42.1522540376
 20
33.2994539328
 11
42.1587047059
 21
33.3027264279
  0
LINE
  5
220
100
AcDbEntity
  8
DEFAULT_2
100
AcDbLine
 62
8
  6
CONTINUOUS
 10
26.5535885375
 20
24.9686169784
 11
26.7015009959
 21
25.0436528626
  0
LINE
  5
221
100
AcDbEntity
  8
DEFAULT_2
100
AcDbLine
 62
8
  6
CONTINUOUS
 10
40.930973849
 20
34.0506120175
 11
40.9091114513
 21
34.0395650938
  0
LINE
  5
222
100
AcDbEntity
  8
DEFAULT_2
100
AcDbLine
 62
8
  6
CONTINUOUS
 10
26.7015009959
 20
25.0436528626
 11
26.8501825754
 21
25.1171539648
  0
LINE
  5
223
100
AcDbEntity
  8
DEFAULT_2
100
AcDbLine
 62
8
  6
CONTINUOUS
 10
26.8501825754
 20
25.1171539648
 11
27.0076207481
 21
25.1931524109
  0
LINE
  5
224
100
AcDbEntity
  8
DEFAULT_2
100
AcDbLine
 62
8
  6
CONTINUOUS
 10
40.9530302629
 20
34.0612507345
 11
40.930973849
 21
34.0506120175
  0
LINE
  5
225
100
AcDbEntity
  8
DEFAULT_2
100
AcDbLine
 62
8
  6
CONTINUOUS
 10
42.1457189957
 20
33.2963519053
 11
42.1522540376
 21
33.2994539328
  0
LINE
  5
226
100
AcDbEntity
  8
DEFAULT_2
100
AcDbLine
 62
8
  6
CONTINUOUS
 10
27.0076207481
 20
25.1931524109
 11
27.1657100892
 21
25.2677866459
  0
LINE
  5
227
100
AcDbEntity
  8
DEFAULT_2
100
AcDbLine
 62
8
  6
CONTINUOUS
 10
40.975243073
 20
34.0715569105
 11
40.9530302629
 21
34.0612507345
  0
LINE
  5
228
100
AcDbEntity
  8
DEFAULT_2
100
AcDbLine
 62
8
  6
CONTINUOUS
 10
27.1657100892
 20
25.2677866459
 11
27.3314220722
 21
25.3444290308
  0
LINE
  5
229
100
AcDbEntity
  8
DEFAULT_2
100
AcDbLine
 62
8
  6
CONTINUOUS
 10
27.3314220722
 20
25.3444290308
 11
27.4976737874
 21
25.4198938516
  0
LINE
  5
22A
100
AcDbEntity
  8
DEFAULT_2
100
AcDbLine
 62
8
  6
CONTINUOUS
 10
40.9975746592
 20
34.0816062113
 11
40.975243073
 21
34.0715569105
  0
LINE
  5
22B
100
AcDbEntity
  8
DEFAULT_2
100
AcDbLine
 62
8
  6
CONTINUOUS
 10
27.4976737874
 20
25.4198938516
 11
27.6699420906
 21
25.496788913
  0
LINE
  5
22C
100
AcDbEntity
  8
DEFAULT_2
100
AcDbLine
 62
8
  6
CONTINUOUS
 10
42.1391079754
 20
33.2934154759
 11
42.1457189957
 21
33.2963519053
  0
LINE
  5
22D
100
AcDbEntity
  8
DEFAULT_2
100
AcDbLine
 62
8
  6
CONTINUOUS
 10
41.0199874014
 20
34.0914743024
 11
40.9975746592
 21
34.0816062113
  0
LINE
  5
22E
100
AcDbEntity
  8
DEFAULT_2
100
AcDbLine
 62
8
  6
CONTINUOUS
 10
27.6699420906
 20
25.496788913
 11
27.8426397443
 21
25.5727148842
  0
LINE
  5
22F
100
AcDbEntity
  8
DEFAULT_2
100
AcDbLine
 62
8
  6
CONTINUOUS
 10
41.7737283177
 20
34.418630781
 11
41.0199874014
 21
34.0914743024
  0
LINE
  5
230
100
AcDbEntity
  8
DEFAULT_2
100
AcDbLine
 62
8
  6
CONTINUOUS
 10
56.4092639493
 20
35.9338471766
 11
56.4168603131
 21
35.9371389796
  0
LINE
  5
231
100
AcDbEntity
  8
DEFAULT_2
100
AcDbLine
 62
8
  6
CONTINUOUS
 10
41.788220372
 20
34.4249020558
 11
41.7737283177
 21
34.418630781
  0
LINE
  5
232
100
AcDbEntity
  8
DEFAULT_2
100
AcDbLine
 62
8
  6
CONTINUOUS
 10
27.8426397443
 20
25.5727148842
 11
28.1969228245
 21
25.7253485789
  0
LINE
  5
233
100
AcDbEntity
  8
DEFAULT_2
100
AcDbLine
 62
8
  6
CONTINUOUS
 10
41.802775294
 20
34.4310264706
 11
41.788220372
 21
34.4249020558
  0
LINE
  5
234
100
AcDbEntity
  8
DEFAULT_2
100
AcDbLine
 62
8
  6
CONTINUOUS
 10
28.1969228245
 20
25.7253485789
 11
28.5567696868
 21
25.8764714321
  0
LINE
  5
235
100
AcDbEntity
  8
DEFAULT_2
100
AcDbLine
 62
8
  6
CONTINUOUS
 10
42.1324293716
 20
33.2906397752
 11
42.1391079754
 21
33.2934154759
  0
LINE
  5
236
100
AcDbEntity
  8
DEFAULT_2
100
AcDbLine
 62
8
  6
CONTINUOUS
 10
28.5567696868
 20
25.8764714321
 11
28.9183854541
 21
26.0246248898
  0
LINE
  5
237
100
AcDbEntity
  8
DEFAULT_2
100
AcDbLine
 62
8
  6
CONTINUOUS
 10
41.8134496013
 20
34.4353106001
 11
41.802775294
 21
34.4310264706
  0
LINE
  5
238
100
AcDbEntity
  8
DEFAULT_2
100
AcDbLine
 62
8
  6
CONTINUOUS
 10
28.9183854541
 20
26.0246248898
 11
29.2778773119
 21
26.1682325349
  0
LINE
  5
239
100
AcDbEntity
  8
DEFAULT_2
100
AcDbLine
 62
8
  6
CONTINUOUS
 10
60.0449946867
 20
36.5172561477
 11
60.0764570192
 21
36.529617671
  0
LINE
  5
23A
100
AcDbEntity
  8
DEFAULT_2
100
AcDbLine
 62
8
  6
CONTINUOUS
 10
56.4168603131
 20
35.9371389796
 11
56.4245713041
 21
35.9401499715
  0
LINE
  5
23B
100
AcDbEntity
  8
DEFAULT_2
100
AcDbLine
 62
8
  6
CONTINUOUS
 10
29.2778773119
 20
26.1682325349
 11
29.6311841694
 21
26.3056900498
  0
LINE
  5
23C
100
AcDbEntity
  8
DEFAULT_2
100
AcDbLine
 62
8
  6
CONTINUOUS
 10
42.1256915795
 20
33.2880199337
 11
42.1324293716
 21
33.2906397752
  0
LINE
  5
23D
100
AcDbEntity
  8
DEFAULT_2
100
AcDbLine
 62
8
  6
CONTINUOUS
 10
57.6679072729
 20
34.8116528558
 11
57.6591964848
 21
34.8082901536
  0
LINE
  5
23E
100
AcDbEntity
  8
DEFAULT_2
100
AcDbLine
 62
8
  6
CONTINUOUS
 10
41.824203433
 20
34.4393910877
 11
41.8134496013
 21
34.4353106001
  0
LINE
  5
23F
100
AcDbEntity
  8
DEFAULT_2
100
AcDbLine
 62
8
  6
CONTINUOUS
 10
29.6311841694
 20
26.3056900498
 11
29.9736697682
 21
26.435399378
  0
LINE
  5
240
100
AcDbEntity
  8
DEFAULT_2
100
AcDbLine
 62
8
  6
CONTINUOUS
 10
30.3673062559
 20
26.5808538264
 11
29.9736721862
 21
26.4354002796
  0
LINE
  5
241
100
AcDbEntity
  8
DEFAULT_2
100
AcDbLine
 62
8
  6
CONTINUOUS
 10
60.8006416744
 20
34.3655886015
 11
60.7691870082
 21
34.3542064642
  0
LINE
  5
242
100
AcDbEntity
  8
DEFAULT_2
100
AcDbLine
 62
8
  6
CONTINUOUS
 10
60.0764570192
 20
36.529617671
 11
60.1082494952
 21
36.5411038496
  0
LINE
  5
243
100
AcDbEntity
  8
DEFAULT_2
100
AcDbLine
 62
8
  6
CONTINUOUS
 10
42.1170825193
 20
33.2849132821
 11
42.1256915795
 21
33.2880199337
  0
LINE
  5
244
100
AcDbEntity
  8
DEFAULT_2
100
AcDbLine
 62
8
  6
CONTINUOUS
 10
31.1405349908
 20
26.8575004684
 11
30.3673062559
 21
26.5808538264
  0
LINE
  5
245
100
AcDbEntity
  8
DEFAULT_2
100
AcDbLine
 62
8
  6
CONTINUOUS
 10
41.835049316
 20
34.4432217434
 11
41.824203433
 21
34.4393910877
  0
LINE
  5
246
100
AcDbEntity
  8
DEFAULT_2
100
AcDbLine
 62
8
  6
CONTINUOUS
 10
57.6591964848
 20
34.8082901536
 11
57.6503924658
 21
34.8051867163
  0
LINE
  5
247
100
AcDbEntity
  8
DEFAULT_2
100
AcDbLine
 62
8
  6
CONTINUOUS
 10
56.4245713041
 20
35.9401499715
 11
56.432385122
 21
35.9428766339
  0
LINE
  5
248
100
AcDbEntity
  8
DEFAULT_2
100
AcDbLine
 62
8
  6
CONTINUOUS
 10
31.917485216
 20
27.1235162747
 11
31.1405349908
 21
26.8575004684
  0
LINE
  5
249
100
AcDbEntity
  8
DEFAULT_2
100
AcDbLine
 62
8
  6
CONTINUOUS
 10
42.1084038151
 20
33.2820169319
 11
42.1170825193
 21
33.2849132821
  0
LINE
  5
24A
100
AcDbEntity
  8
DEFAULT_2
100
AcDbLine
 62
8
  6
CONTINUOUS
 10
60.7691870082
 20
34.3542064642
 11
60.7374284344
 21
34.3437016987
  0
LINE
  5
24B
100
AcDbEntity
  8
DEFAULT_2
100
AcDbLine
 62
8
  6
CONTINUOUS
 10
60.1082494952
 20
36.5411038496
 11
60.1403486383
 21
36.5517034956
  0
LINE
  5
24C
100
AcDbEntity
  8
DEFAULT_2
100
AcDbLine
 62
8
  6
CONTINUOUS
 10
32.698010794
 20
27.3788511592
 11
31.917485216
 21
27.1235162747
  0
LINE
  5
24D
100
AcDbEntity
  8
DEFAULT_2
100
AcDbLine
 62
8
  6
CONTINUOUS
 10
41.8441638029
 20
34.4461900039
 11
41.835049316
 21
34.4432217434
  0
LINE
  5
24E
100
AcDbEntity
  8
DEFAULT_2
100
AcDbLine
 62
8
  6
CONTINUOUS
 10
57.6503924658
 20
34.8051867163
 11
57.6415050151
 21
34.8023421348
  0
LINE
  5
24F
100
AcDbEntity
  8
DEFAULT_2
100
AcDbLine
 62
8
  6
CONTINUOUS
 10
33.4819652412
 20
27.6234560768
 11
32.698010794
 21
27.3788511592
  0
LINE
  5
250
100
AcDbEntity
  8
DEFAULT_2
100
AcDbLine
 62
8
  6
CONTINUOUS
 10
42.0996673523
 20
33.2792988284
 11
42.1084038151
 21
33.2820169319
  0
LINE
  5
251
100
AcDbEntity
  8
DEFAULT_2
100
AcDbLine
 62
8
  6
CONTINUOUS
 10
56.432385122
 20
35.9428766339
 11
56.4402899662
 21
35.945315448
  0
LINE
  5
252
100
AcDbEntity
  8
DEFAULT_2
100
AcDbLine
 62
8
  6
CONTINUOUS
 10
60.7374284344
 20
34.3437016987
 11
60.7054957329
 21
34.3341165582
  0
LINE
  5
253
100
AcDbEntity
  8
DEFAULT_2
100
AcDbLine
 62
8
  6
CONTINUOUS
 10
60.1403486383
 20
36.5517034956
 11
60.17298869
 21
36.5614790126
  0
LINE
  5
254
100
AcDbEntity
  8
DEFAULT_2
100
AcDbLine
 62
8
  6
CONTINUOUS
 10
41.8533499602
 20
34.4489306076
 11
41.8441638029
 21
34.4461900039
  0
LINE
  5
255
100
AcDbEntity
  8
DEFAULT_2
100
AcDbLine
 62
8
  6
CONTINUOUS
 10
34.2692006892
 20
27.8572861485
 11
33.4819652412
 21
27.6234560768
  0
LINE
  5
256
100
AcDbEntity
  8
DEFAULT_2
100
AcDbLine
 62
8
  6
CONTINUOUS
 10
42.0908850161
 20
33.2767269167
 11
42.0996673523
 21
33.2792988284
  0
LINE
  5
257
100
AcDbEntity
  8
DEFAULT_2
100
AcDbLine
 62
8
  6
CONTINUOUS
 10
41.1153494664
 20
33.0084157265
 11
40.9684106218
 21
32.965593043
  0
LINE
  5
258
100
AcDbEntity
  8
DEFAULT_2
100
AcDbLine
 62
8
  6
CONTINUOUS
 10
42.0984204592
 20
33.2788973483
 11
42.2556659945
 21
33.3244541135
  0
LINE
  5
259
100
AcDbEntity
  8
DEFAULT_2
100
AcDbLine
 62
8
  6
CONTINUOUS
 10
57.6415050151
 20
34.8023421348
 11
57.6325439323
 21
34.7997560001
  0
LINE
  5
25A
100
AcDbEntity
  8
DEFAULT_2
100
AcDbLine
 62
8
  6
CONTINUOUS
 10
41.2509295153
 20
33.0473698969
 11
41.1153494664
 21
33.0084157265
  0
LINE
  5
25B
100
AcDbEntity
  8
DEFAULT_2
100
AcDbLine
 62
8
  6
CONTINUOUS
 10
40.9568833004
 20
32.9622954625
 11
40.9684106218
 21
32.965593043
  0
LINE
  5
25C
100
AcDbEntity
  8
DEFAULT_2
100
AcDbLine
 62
8
  6
CONTINUOUS
 10
40.8728932311
 20
34.0198896605
 11
40.8550975128
 21
34.0094865118
  0
LINE
  5
25D
100
AcDbEntity
  8
DEFAULT_2
100
AcDbLine
 62
8
  6
CONTINUOUS
 10
26.1508752938
 20
24.7524359669
 11
26.2780001017
 21
24.8227844817
  0
LINE
  5
25E
100
AcDbEntity
  8
DEFAULT_2
100
AcDbLine
 62
8
  6
CONTINUOUS
 10
42.1587047059
 20
33.3027264279
 11
42.1650626056
 21
33.30617426
  0
LINE
  5
25F
100
AcDbEntity
  8
DEFAULT_2
100
AcDbLine
 62
8
  6
CONTINUOUS
 10
26.2780001017
 20
24.8227844817
 11
26.4153565163
 21
24.8965281732
  0
LINE
  5
260
100
AcDbEntity
  8
DEFAULT_2
100
AcDbLine
 62
8
  6
CONTINUOUS
 10
26.0247253674
 20
24.6803552978
 11
26.1508752938
 21
24.7524359669
  0
LINE
  5
261
100
AcDbEntity
  8
DEFAULT_2
100
AcDbLine
 62
8
  6
CONTINUOUS
 10
59.9990138383
 20
36.4973462545
 11
60.0449946867
 21
36.5172561477
  0
LINE
  5
262
100
AcDbEntity
  8
DEFAULT_2
100
AcDbLine
 62
8
  6
CONTINUOUS
 10
57.6765150305
 20
34.8152752317
 11
57.6679072729
 21
34.8116528558
  0
LINE
  5
263
100
AcDbEntity
  8
DEFAULT_2
100
AcDbLine
 62
8
  6
CONTINUOUS
 10
60.8317695917
 20
34.3778359979
 11
60.8006416744
 21
34.3655886015
  0
LINE
  5
264
100
AcDbEntity
  8
DEFAULT_2
100
AcDbLine
 62
8
  6
CONTINUOUS
 10
40.8550975128
 20
34.0094865118
 11
40.8375468449
 21
33.9986785359
  0
LINE
  5
265
100
AcDbEntity
  8
DEFAULT_2
100
AcDbLine
 62
8
  6
CONTINUOUS
 10
25.7947096656
 20
24.5420675785
 11
25.9091885688
 21
24.6120912482
  0
LINE
  5
266
100
AcDbEntity
  8
DEFAULT_2
100
AcDbLine
 62
8
  6
CONTINUOUS
 10
25.9091885688
 20
24.6120912482
 11
26.0247253674
 21
24.6803552978
  0
LINE
  5
267
100
AcDbEntity
  8
DEFAULT_2
100
AcDbLine
 62
8
  6
CONTINUOUS
 10
42.1650626056
 20
33.30617426
 11
42.1713193418
 21
33.3098022986
  0
LINE
  5
268
100
AcDbEntity
  8
DEFAULT_2
100
AcDbLine
 62
8
  6
CONTINUOUS
 10
25.6908976113
 20
24.4762677799
 11
25.7947096656
 21
24.5420675785
  0
LINE
  5
269
100
AcDbEntity
  8
DEFAULT_2
100
AcDbLine
 62
8
  6
CONTINUOUS
 10
56.4017940134
 20
35.9302780812
 11
56.4092639493
 21
35.9338471766
  0
LINE
  5
26A
100
AcDbEntity
  8
DEFAULT_2
100
AcDbLine
 62
8
  6
CONTINUOUS
 10
25.496158643
 20
24.3458101793
 11
25.5882112785
 21
24.4087267617
  0
LINE
  5
26B
100
AcDbEntity
  8
DEFAULT_2
100
AcDbLine
 62
8
  6
CONTINUOUS
 10
25.5882112785
 20
24.4087267617
 11
25.6908976113
 21
24.4762677799
  0
LINE
  5
26C
100
AcDbEntity
  8
DEFAULT_2
100
AcDbLine
 62
8
  6
CONTINUOUS
 10
40.8375468449
 20
33.9986785359
 11
40.8202683193
 21
33.9874448283
  0
LINE
  5
26D
100
AcDbEntity
  8
DEFAULT_2
100
AcDbLine
 62
8
  6
CONTINUOUS
 10
42.1713193418
 20
33.3098022986
 11
42.1774665193
 21
33.3136154132
  0
LINE
  5
26E
100
AcDbEntity
  8
DEFAULT_2
100
AcDbLine
 62
8
  6
CONTINUOUS
 10
57.6850099582
 20
34.8191576905
 11
57.6765150305
 21
34.8152752317
  0
LINE
  5
26F
100
AcDbEntity
  8
DEFAULT_2
100
AcDbLine
 62
8
  6
CONTINUOUS
 10
60.8625698653
 20
34.3909459354
 11
60.8317695917
 21
34.3778359979
  0
LINE
  5
270
100
AcDbEntity
  8
DEFAULT_2
100
AcDbLine
 62
8
  6
CONTINUOUS
 10
25.4053167269
 20
24.281155107
 11
25.496158643
 21
24.3458101793
  0
LINE
  5
271
100
AcDbEntity
  8
DEFAULT_2
100
AcDbLine
 62
8
  6
CONTINUOUS
 10
59.953883189
 20
36.4755780012
 11
59.9990138383
 21
36.4973462545
  0
LINE
  5
272
100
AcDbEntity
  8
DEFAULT_2
100
AcDbLine
 62
8
  6
CONTINUOUS
 10
25.325045226
 20
24.2215398049
 11
25.4053167269
 21
24.281155107
  0
LINE
  5
273
100
AcDbEntity
  8
DEFAULT_2
100
AcDbLine
 62
8
  6
CONTINUOUS
 10
40.8202683193
 20
33.9874448283
 11
40.8032890278
 21
33.9757644845
  0
LINE
  5
274
100
AcDbEntity
  8
DEFAULT_2
100
AcDbLine
 62
8
  6
CONTINUOUS
 10
56.394462306
 20
35.9264352119
 11
56.4017940134
 21
35.9302780812
  0
LINE
  5
275
100
AcDbEntity
  8
0
100
AcDbLine
 62
7
  6
CONTINUOUS
 10
56.9028225302
 20
14.1979405785
 11
57.6130745556
 21
14.3992659395
  0
LINE
  5
276
100
AcDbEntity
  8
0
100
AcDbLine
 62
7
  6
CONTINUOUS
 10
56.894806822
 20
14.1932759215
 11
57.5956556782
 21
14.391326558
  0
LINE
  5
277
100
AcDbEntity
  8
0
100
AcDbLine
 62
7
  6
CONTINUOUS
 10
56.670537874
 20
14.1337914347
 11
56.5951025319
 21
14.1126563729
  0
LINE
  5
278
100
AcDbEntity
  8
0
100
AcDbLine
 62
7
  6
CONTINUOUS
 10
56.7465194174
 20
14.1550771625
 11
56.670537874
 21
14.1337914347
  0
LINE
  5
279
100
AcDbEntity
  8
DEFAULT_2
100
AcDbLine
 62
8
  6
CONTINUOUS
 10
25.2461125311
 20
24.1601748741
 11
25.325045226
 21
24.2215398049
  0
LINE
  5
27A
100
AcDbEntity
  8
DEFAULT_2
100
AcDbLine
 62
8
  6
CONTINUOUS
 10
42.1774665193
 20
33.3136154132
 11
42.1828609423
 21
33.3171834503
  0
LINE
  5
27B
100
AcDbEntity
  8
DEFAULT_2
100
AcDbLine
 62
8
  6
CONTINUOUS
 10
57.6933822567
 20
34.8233006412
 11
57.6850099582
 21
34.8191576905
  0
LINE
  5
27C
100
AcDbEntity
  8
DEFAULT_2
100
AcDbLine
 62
8
  6
CONTINUOUS
 10
60.8929984876
 20
34.4048968464
 11
60.8625698653
 21
34.3909459354
  0
LINE
  5
27D
100
AcDbEntity
  8
0
100
AcDbLine
 62
7
  6
CONTINUOUS
 10
62.1704893252
 20
15.8931634503
 11
62.187903407
 21
15.8980790509
  0
LINE
  5
27E
100
AcDbEntity
  8
0
100
AcDbLine
 62
7
  6
CONTINUOUS
 10
56.5466328121
 20
14.0965997544
 11
56.7270908943
 21
14.1470063136
  0
LINE
  5
27F
100
AcDbEntity
  8
0
100
AcDbLine
 62
7
  6
CONTINUOUS
 10
62.2123059229
 20
15.9116434115
 11
62.2612261668
 21
15.9253006083
  0
LINE
  5
280
100
AcDbEntity
  8
0
100
AcDbLine
 62
7
  6
CONTINUOUS
 10
56.5951025319
 20
14.1126563729
 11
56.5194139293
 21
14.0916850223
  0
LINE
  5
281
100
AcDbEntity
  8
0
100
AcDbLine
 62
7
  6
CONTINUOUS
 10
56.8238073688
 20
14.1764808059
 11
56.7465194174
 21
14.1550771625
  0
LINE
  5
282
100
AcDbEntity
  8
0
100
AcDbLine
 62
7
  6
CONTINUOUS
 10
62.1851176809
 20
15.8973003669
 11
62.2012851315
 21
15.9017734561
  0
LINE
  5
283
100
AcDbEntity
  8
0
100
AcDbLine
 62
7
  6
CONTINUOUS
 10
56.7270908943
 20
14.1470063136
 11
56.8947765867
 21
14.1932913972
  0
LINE
  5
284
100
AcDbEntity
  8
0
100
AcDbLine
 62
7
  6
CONTINUOUS
 10
56.5194139293
 20
14.0916850223
 11
56.4426381533
 21
14.0708981198
  0
LINE
  5
285
100
AcDbEntity
  8
0
100
AcDbLine
 62
7
  6
CONTINUOUS
 10
56.9029882578
 20
14.197889274
 11
56.8238073688
 21
14.1764808059
  0
LINE
  5
286
100
AcDbEntity
  8
0
100
AcDbLine
 62
7
  6
CONTINUOUS
 10
10.5387427935
 20
39.3020315169
 11
10.6123394858
 21
39.7483259915
  0
LINE
  5
287
100
AcDbEntity
  8
DEFAULT_2
100
AcDbLine
 62
8
  6
CONTINUOUS
 10
40.8032890278
 20
33.9757644845
 11
40.7866360623
 21
33.9636166003
  0
LINE
  5
288
100
AcDbEntity
  8
0
100
AcDbLine
 62
7
  6
CONTINUOUS
 10
62.1988218397
 20
15.9010995094
 11
62.2136303006
 21
15.9051032978
  0
LINE
  5
289
100
AcDbEntity
  8
0
100
AcDbLine
 62
7
  6
CONTINUOUS
 10
56.3722745183
 20
14.050263538
 11
56.5466328121
 21
14.0965997544
  0
LINE
  5
28A
100
AcDbEntity
  8
0
100
AcDbLine
 62
7
  6
CONTINUOUS
 10
62.2114891455
 20
15.9045319168
 11
62.2230370402
 21
15.9075787259
  0
LINE
  5
28B
100
AcDbEntity
  8
0
100
AcDbLine
 62
7
  6
CONTINUOUS
 10
62.2136303006
 20
15.9051032978
 11
62.2248663337
 21
15.9080529294
  0
LINE
  5
28C
100
AcDbEntity
  8
0
100
AcDbLine
 62
7
  6
CONTINUOUS
 10
56.4426381533
 20
14.0708981198
 11
56.3639357632
 21
14.0503606938
  0
LINE
  5
28D
100
AcDbEntity
  8
DEFAULT_2
100
AcDbLine
 62
8
  6
CONTINUOUS
 10
42.1828609423
 20
33.3171834503
 11
42.1881537778
 21
33.3209027656
  0
LINE
  5
28E
100
AcDbEntity
  8
DEFAULT_2
100
AcDbLine
 62
8
  6
CONTINUOUS
 10
59.9100322479
 20
36.452192241
 11
59.953883189
 21
36.4755780012
  0
LINE
  5
28F
100
AcDbEntity
  8
0
100
AcDbLine
 62
7
  6
CONTINUOUS
 10
62.2612261668
 20
15.9253006083
 11
62.3013095902
 21
15.935753143
  0
LINE
  5
290
100
AcDbEntity
  8
0
100
AcDbLine
 62
7
  6
CONTINUOUS
 10
62.2230370402
 20
15.9075787259
 11
62.2333408135
 21
15.9102142683
  0
LINE
  5
291
100
AcDbEntity
  8
0
100
AcDbLine
 62
7
  6
CONTINUOUS
 10
56.3639357632
 20
14.0503606938
 11
56.2821375829
 21
14.0301372367
  0
LINE
  5
292
100
AcDbEntity
  8
DEFAULT_2
100
AcDbLine
 62
8
  6
CONTINUOUS
 10
40.7866360623
 20
33.9636166003
 11
40.7706646868
 21
33.9512458324
  0
LINE
  5
293
100
AcDbEntity
  8
DEFAULT_2
100
AcDbLine
 62
8
  6
CONTINUOUS
 10
56.3872806274
 20
35.9223220874
 11
56.394462306
 21
35.9264352119
  0
LINE
  5
294
100
AcDbEntity
  8
DEFAULT_2
100
AcDbLine
 62
8
  6
CONTINUOUS
 10
57.7016221264
 20
34.8277044927
 11
57.6933822567
 21
34.8233006412
  0
LINE
  5
295
100
AcDbEntity
  8
DEFAULT_2
100
AcDbLine
 62
8
  6
CONTINUOUS
 10
60.9230338942
 20
34.419675346
 11
60.8929984876
 21
34.4048968464
  0
LINE
  5
296
100
AcDbEntity
  8
0
100
AcDbLine
 62
7
  6
CONTINUOUS
 10
62.2333408135
 20
15.9102142683
 11
62.2422092011
 21
15.9124006022
  0
LINE
  5
297
100
AcDbEntity
  8
0
100
AcDbLine
 62
7
  6
CONTINUOUS
 10
56.2033922374
 20
14.0103919495
 11
56.3722745183
 21
14.050263538
  0
LINE
  5
298
100
AcDbEntity
  8
0
100
AcDbLine
 62
7
  6
CONTINUOUS
 10
56.2821375829
 20
14.0301372367
 11
56.1953559252
 21
14.0102803831
  0
LINE
  5
299
100
AcDbEntity
  8
0
100
AcDbLine
 62
7
  6
CONTINUOUS
 10
10.4859658589
 20
38.8520233185
 11
10.5387427935
 21
39.3020315169
  0
LINE
  5
29A
100
AcDbEntity
  8
DEFAULT_2
100
AcDbLine
 62
8
  6
CONTINUOUS
 10
42.1881537778
 20
33.3209027656
 11
42.1933376645
 21
33.3247729005
  0
LINE
  5
29B
100
AcDbEntity
  8
0
100
AcDbLine
 62
7
  6
CONTINUOUS
 10
62.3013095902
 20
15.935753143
 11
62.3335620477
 21
15.9433851922
  0
LINE
  5
29C
100
AcDbEntity
  8
0
100
AcDbLine
 62
7
  6
CONTINUOUS
 10
62.2422092011
 20
15.9124006022
 11
62.2494749413
 21
15.914114103
  0
LINE
  5
29D
100
AcDbEntity
  8
0
100
AcDbLine
 62
7
  6
CONTINUOUS
 10
62.2768429137
 20
15.9181778348
 11
62.3353078966
 21
15.9317155501
  0
LINE
  5
29E
100
AcDbEntity
  8
DEFAULT_2
100
AcDbLine
 62
8
  6
CONTINUOUS
 10
40.7706646868
 20
33.9512458324
 11
40.7550594566
 21
33.9384074136
  0
LINE
  5
29F
100
AcDbEntity
  8
0
100
AcDbLine
 62
7
  6
CONTINUOUS
 10
62.2494749413
 20
15.914114103
 11
62.2548374022
 21
15.9153126213
  0
LINE
  5
2A0
100
AcDbEntity
  8
0
100
AcDbLine
 62
7
  6
CONTINUOUS
 10
56.1953559252
 20
14.0102803831
 11
56.1010267984
 21
13.9910067732
  0
LINE
  5
2A1
100
AcDbEntity
  8
DEFAULT_2
100
AcDbLine
 62
8
  6
CONTINUOUS
 10
42.1933376645
 20
33.3247729005
 11
42.1984052413
 21
33.3287933967
  0
LINE
  5
2A2
100
AcDbEntity
  8
DEFAULT_2
100
AcDbLine
 62
8
  6
CONTINUOUS
 10
59.8671577212
 20
36.4270613331
 11
59.9100322479
 21
36.452192241
  0
LINE
  5
2A3
100
AcDbEntity
  8
DEFAULT_2
100
AcDbLine
 62
8
  6
CONTINUOUS
 10
57.709719768
 20
34.8323696542
 11
57.7016221264
 21
34.8277044927
  0
LINE
  5
2A4
100
AcDbEntity
  8
DEFAULT_2
100
AcDbLine
 62
8
  6
CONTINUOUS
 10
60.967423783
 20
34.443432629
 11
60.9230338942
 21
34.419675346
  0
LINE
  5
2A5
100
AcDbEntity
  8
DEFAULT_2
100
AcDbLine
 62
8
  6
CONTINUOUS
 10
68.4433148109
 20
21.7158259665
 11
68.3927458249
 21
21.7016898501
  0
LINE
  5
2A6
100
AcDbEntity
  8
0
100
AcDbLine
 62
7
  6
CONTINUOUS
 10
62.2548374022
 20
15.9153126213
 11
62.2583348467
 21
15.9160415622
  0
LINE
  5
2A7
100
AcDbEntity
  8
0
100
AcDbLine
 62
7
  6
CONTINUOUS
 10
56.0397648795
 20
13.9790433855
 11
56.2033922374
 21
14.0103919495
  0
LINE
  5
2A8
100
AcDbEntity
  8
0
100
AcDbLine
 62
7
  6
CONTINUOUS
 10
10.4542479364
 20
38.4000800806
 11
10.4859658589
 21
38.8520233185
  0
LINE
  5
2A9
100
AcDbEntity
  8
DEFAULT_2
100
AcDbLine
 62
8
  6
CONTINUOUS
 10
40.7550594566
 20
33.9384074136
 11
40.7398473338
 21
33.9251024645
  0
LINE
  5
2AA
100
AcDbEntity
  8
DEFAULT_2
100
AcDbLine
 62
8
  6
CONTINUOUS
 10
56.3802607783
 20
35.9179422261
 11
56.3872806274
 21
35.9223220874
  0
LINE
  5
2AB
100
AcDbEntity
  8
0
100
AcDbLine
 62
7
  6
CONTINUOUS
 10
62.3335620477
 20
15.9433851922
 11
62.3589071411
 21
15.9485464091
  0
LINE
  5
2AC
100
AcDbEntity
  8
DEFAULT_2
100
AcDbLine
 62
8
  6
CONTINUOUS
 10
42.1984052413
 20
33.3287933967
 11
42.2033491471
 21
33.3329637956
  0
LINE
  5
2AD
100
AcDbEntity
  8
0
100
AcDbLine
 62
7
  6
CONTINUOUS
 10
56.1010267984
 20
13.9910067732
 11
55.9963253547
 21
13.9730370157
  0
LINE
  5
2AE
100
AcDbEntity
  8
0
100
AcDbLine
 62
7
  6
CONTINUOUS
 10
10.4436785618
 20
37.9479304332
 11
10.4542479364
 21
38.4000800806
  0
LINE
  5
2AF
100
AcDbEntity
  8
DEFAULT_2
100
AcDbLine
 62
8
  6
CONTINUOUS
 10
40.7398473338
 20
33.9251024645
 11
40.7250552805
 21
33.911332106
  0
LINE
  5
2B0
100
AcDbEntity
  8
DEFAULT_2
100
AcDbLine
 62
8
  6
CONTINUOUS
 10
57.7172971087
 20
34.8370597551
 11
57.709719768
 21
34.8323696542
  0
LINE
  5
2B1
100
AcDbEntity
  8
DEFAULT_2
100
AcDbLine
 62
8
  6
CONTINUOUS
 10
42.2033491471
 20
33.3329637956
 11
42.2081620208
 21
33.337283639
  0
LINE
  5
2B2
100
AcDbEntity
  8
DEFAULT_2
100
AcDbLine
 62
8
  6
CONTINUOUS
 10
56.3734145591
 20
35.9132991468
 11
56.3802607783
 21
35.9179422261
  0
LINE
  5
2B3
100
AcDbEntity
  8
DEFAULT_2
100
AcDbLine
 62
8
  6
CONTINUOUS
 10
59.8256138311
 20
36.4004211072
 11
59.8671577212
 21
36.4270613331
  0
LINE
  5
2B4
100
AcDbEntity
  8
DEFAULT_2
100
AcDbLine
 62
8
  6
CONTINUOUS
 10
61.0108064741
 20
34.4689828546
 11
60.967423783
 21
34.443432629
  0
LINE
  5
2B5
100
AcDbEntity
  8
DEFAULT_2
100
AcDbLine
 62
8
  6
CONTINUOUS
 10
68.3927458249
 20
21.7016898501
 11
68.3417754379
 21
21.6890789548
  0
LINE
  5
2B6
100
AcDbEntity
  8
0
100
AcDbLine
 62
7
  6
CONTINUOUS
 10
10.4436785618
 20
37.9479304332
 11
10.4480766065
 21
37.656278614
  0
LINE
  5
2B7
100
AcDbEntity
  8
DEFAULT_2
100
AcDbLine
 62
8
  6
CONTINUOUS
 10
68.4934376477
 20
21.7314718138
 11
68.4433148109
 21
21.7158259665
  0
LINE
  5
2B8
100
AcDbEntity
  8
0
100
AcDbLine
 62
7
  6
CONTINUOUS
 10
62.3589071411
 20
15.9485464091
 11
62.3780191906
 21
15.9515285692
  0
LINE
  5
2B9
100
AcDbEntity
  8
0
100
AcDbLine
 62
7
  6
CONTINUOUS
 10
55.8813607353
 20
13.9579286281
 11
56.0397648795
 21
13.9790433855
  0
LINE
  5
2BA
100
AcDbEntity
  8
0
100
AcDbLine
 62
7
  6
CONTINUOUS
 10
55.9963253547
 20
13.9730370157
 11
55.8756440655
 21
13.9577067683
  0
LINE
  5
2BB
100
AcDbEntity
  8
DEFAULT_2
100
AcDbLine
 62
8
  6
CONTINUOUS
 10
40.7250552805
 20
33.911332106
 11
40.7107102588
 21
33.8970974589
  0
LINE
  5
2BC
100
AcDbEntity
  8
DEFAULT_2
100
AcDbLine
 62
8
  6
CONTINUOUS
 10
57.7247260086
 20
34.8419845359
 11
57.7172971087
 21
34.8370597551
  0
LINE
  5
2BD
100
AcDbEntity
  8
0
100
AcDbLine
 62
7
  6
CONTINUOUS
 10
10.4480766065
 20
37.656278614
 11
10.4612799835
 21
37.3644577557
  0
LINE
  5
2BE
100
AcDbEntity
  8
DEFAULT_2
100
AcDbLine
 62
8
  6
CONTINUOUS
 10
42.2081620208
 20
33.337283639
 11
42.2128365011
 21
33.3417524682
  0
LINE
  5
2BF
100
AcDbEntity
  8
DEFAULT_2
100
AcDbLine
 62
8
  6
CONTINUOUS
 10
68.3417754379
 20
21.6890789548
 11
68.2904487681
 21
21.6780071529
  0
LINE
  5
2C0
100
AcDbEntity
  8
DEFAULT_2
100
AcDbLine
 62
8
  6
CONTINUOUS
 10
40.7107102588
 20
33.8970974589
 11
40.6968392308
 21
33.8823996438
  0
LINE
  5
2C1
100
AcDbEntity
  8
DEFAULT_2
100
AcDbLine
 62
8
  6
CONTINUOUS
 10
56.3667493202
 20
35.9083949353
 11
56.3734145591
 21
35.9132991468
  0
LINE
  5
2C2
100
AcDbEntity
  8
DEFAULT_2
100
AcDbLine
 62
8
  6
CONTINUOUS
 10
59.7851634855
 20
36.3721481473
 11
59.8256138311
 21
36.4004211072
  0
LINE
  5
2C3
100
AcDbEntity
  8
DEFAULT_2
100
AcDbLine
 62
8
  6
CONTINUOUS
 10
61.0531069617
 20
34.4962717456
 11
61.0108064741
 21
34.4689828546
  0
LINE
  5
2C4
100
AcDbEntity
  8
0
100
AcDbLine
 62
7
  6
CONTINUOUS
 10
10.4612799835
 20
37.3644577557
 11
10.4832846198
 21
37.0729304332
  0
LINE
  5
2C5
100
AcDbEntity
  8
DEFAULT_2
100
AcDbLine
 62
8
  6
CONTINUOUS
 10
42.2128365011
 20
33.3417524682
 11
42.217365227
 21
33.346369825
  0
LINE
  5
2C6
100
AcDbEntity
  8
DEFAULT_2
100
AcDbLine
 62
8
  6
CONTINUOUS
 10
57.7319961704
 20
34.8471408589
 11
57.7247260086
 21
34.8419845359
  0
LINE
  5
2C7
100
AcDbEntity
  8
DEFAULT_2
100
AcDbLine
 62
8
  6
CONTINUOUS
 10
68.5430695871
 20
21.7486119022
 11
68.4934376477
 21
21.7314718138
  0
LINE
  5
2C8
100
AcDbEntity
  8
0
100
AcDbLine
 62
7
  6
CONTINUOUS
 10
10.6531414955
 20
35.5051331629
 11
10.4832846198
 21
37.0729304332
  0
LINE
  5
2C9
100
AcDbEntity
  8
DEFAULT_2
100
AcDbLine
 62
8
  6
CONTINUOUS
 10
40.6968392308
 20
33.8823996438
 11
40.6834691585
 21
33.8672397816
  0
LINE
  5
2CA
100
AcDbEntity
  8
0
100
AcDbLine
 62
7
  6
CONTINUOUS
 10
62.1215585971
 20
15.8788592867
 11
62.1424300306
 21
15.8850364513
  0
LINE
  5
2CB
100
AcDbEntity
  8
0
100
AcDbLine
 62
7
  6
CONTINUOUS
 10
62.1543850042
 20
15.8946423636
 11
62.2123059229
 21
15.9116434115
  0
LINE
  5
2CC
100
AcDbEntity
  8
0
100
AcDbLine
 62
7
  6
CONTINUOUS
 10
62.1386501622
 20
15.8839253473
 11
62.1584285106
 21
15.8896981086
  0
LINE
  5
2CD
100
AcDbEntity
  8
0
100
AcDbLine
 62
7
  6
CONTINUOUS
 10
62.1549871785
 20
15.8887012817
 11
62.1735949428
 21
15.8940481221
  0
LINE
  5
2CE
100
AcDbEntity
  8
DEFAULT_2
100
AcDbLine
 62
8
  6
CONTINUOUS
 10
68.2904487681
 20
21.6780071529
 11
68.2388124125
 21
21.6684818464
  0
LINE
  5
2CF
100
AcDbEntity
  8
0
100
AcDbLine
 62
7
  6
CONTINUOUS
 10
62.2171907326
 20
15.9122429374
 11
62.2768429137
 21
15.9181778348
  0
LINE
  5
2D0
100
AcDbEntity
  8
0
100
AcDbLine
 62
7
  6
CONTINUOUS
 10
55.8756440655
 20
13.9577067683
 11
55.7455210705
 21
13.9488983551
  0
LINE
  5
2D1
100
AcDbEntity
  8
0
100
AcDbLine
 62
7
  6
CONTINUOUS
 10
55.7454698461
 20
13.9488595873
 11
55.8813607353
 21
13.9579286281
  0
LINE
  5
2D2
100
AcDbEntity
  8
DEFAULT_2
100
AcDbLine
 62
8
  6
CONTINUOUS
 10
42.217365227
 20
33.346369825
 11
42.2218091131
 21
33.351211513
  0
LINE
  5
2D3
100
AcDbEntity
  8
0
100
AcDbLine
 62
7
  6
CONTINUOUS
 10
62.0322212948
 20
15.8515108084
 11
62.0662144161
 21
15.8620624685
  0
LINE
  5
2D4
100
AcDbEntity
  8
0
100
AcDbLine
 62
7
  6
CONTINUOUS
 10
62.0520624089
 20
15.8576885283
 11
62.0852943783
 21
15.8679122631
  0
LINE
  5
2D5
100
AcDbEntity
  8
0
100
AcDbLine
 62
7
  6
CONTINUOUS
 10
62.0852895631
 20
15.8735689301
 11
62.1543850042
 21
15.8946423636
  0
LINE
  5
2D6
100
AcDbEntity
  8
0
100
AcDbLine
 62
7
  6
CONTINUOUS
 10
62.0713610211
 20
15.8636458855
 11
62.10376211
 21
15.8735176701
  0
LINE
  5
2D7
100
AcDbEntity
  8
0
100
AcDbLine
 62
7
  6
CONTINUOUS
 10
57.6130745556
 20
14.3992659395
 11
58.3819871661
 21
14.6320267729
  0
LINE
  5
2D8
100
AcDbEntity
  8
0
100
AcDbLine
 62
7
  6
CONTINUOUS
 10
57.5956556782
 20
14.391326558
 11
58.4003078919
 21
14.6344168055
  0
LINE
  5
2D9
100
AcDbEntity
  8
0
100
AcDbLine
 62
7
  6
CONTINUOUS
 10
62.0900988257
 20
15.8693761664
 11
62.1215585971
 21
15.8788592867
  0
LINE
  5
2DA
100
AcDbEntity
  8
0
100
AcDbLine
 62
7
  6
CONTINUOUS
 10
62.1082213457
 20
15.8748619827
 11
62.1256731762
 21
15.8800849151
  0
LINE
  5
2DB
100
AcDbEntity
  8
DEFAULT_2
100
AcDbLine
 62
8
  6
CONTINUOUS
 10
56.3602750445
 20
35.9032411881
 11
56.3667493202
 21
35.9083949353
  0
LINE
  5
2DC
100
AcDbEntity
  8
DEFAULT_2
100
AcDbLine
 62
8
  6
CONTINUOUS
 10
59.7459447223
 20
36.3423480668
 11
59.7851634855
 21
36.3721481473
  0
LINE
  5
2DD
100
AcDbEntity
  8
DEFAULT_2
100
AcDbLine
 62
8
  6
CONTINUOUS
 10
57.7390972968
 20
34.8525255868
 11
57.7319961704
 21
34.8471408589
  0
LINE
  5
2DE
100
AcDbEntity
  8
DEFAULT_2
100
AcDbLine
 62
8
  6
CONTINUOUS
 10
61.0942672842
 20
34.5252517861
 11
61.0531069617
 21
34.4962717456
  0
LINE
  5
2DF
100
AcDbEntity
  8
DEFAULT_2
100
AcDbLine
 62
8
  6
CONTINUOUS
 10
68.5921658808
 20
21.7672307416
 11
68.5430695871
 21
21.7486119022
  0
LINE
  5
2E0
100
AcDbEntity
  8
0
100
AcDbLine
 62
7
  6
CONTINUOUS
 10
61.9048331878
 20
15.8160658363
 11
62.0018699888
 21
15.847337079
  0
LINE
  5
2E1
100
AcDbEntity
  8
0
100
AcDbLine
 62
7
  6
CONTINUOUS
 10
58.4003078919
 20
14.6344168055
 11
59.2277821078
 21
14.9008641517
  0
LINE
  5
2E2
100
AcDbEntity
  8
0
100
AcDbLine
 62
7
  6
CONTINUOUS
 10
61.9184638984
 20
15.8152954836
 11
61.9629177132
 21
15.8295880869
  0
LINE
  5
2E3
100
AcDbEntity
  8
0
100
AcDbLine
 62
7
  6
CONTINUOUS
 10
61.9481018227
 20
15.8248419473
 11
61.9845207717
 21
15.8364736291
  0
LINE
  5
2E4
100
AcDbEntity
  8
0
100
AcDbLine
 62
7
  6
CONTINUOUS
 10
61.9697868371
 20
15.8317821389
 11
62.0056851488
 21
15.8431753426
  0
LINE
  5
2E5
100
AcDbEntity
  8
0
100
AcDbLine
 62
7
  6
CONTINUOUS
 10
61.9910463189
 20
15.8385447519
 11
62.0263826136
 21
15.849683614
  0
LINE
  5
2E6
100
AcDbEntity
  8
0
100
AcDbLine
 62
7
  6
CONTINUOUS
 10
62.0018699888
 20
15.847337079
 11
62.0852895631
 21
15.8735689301
  0
LINE
  5
2E7
100
AcDbEntity
  8
0
100
AcDbLine
 62
7
  6
CONTINUOUS
 10
62.0118693968
 20
15.8451248711
 11
62.0465717997
 21
15.8559840536
  0
LINE
  5
2E8
100
AcDbEntity
  8
0
100
AcDbLine
 62
7
  6
CONTINUOUS
 10
62.3780191906
 20
15.9515285692
 11
62.391685453
 21
15.952647626
  0
LINE
  5
2E9
100
AcDbEntity
  8
0
100
AcDbLine
 62
7
  6
CONTINUOUS
 10
10.8780770355
 20
33.9427015456
 11
10.6531414955
 21
35.5051331629
  0
LINE
  5
2EA
100
AcDbEntity
  8
DEFAULT_2
100
AcDbLine
 62
8
  6
CONTINUOUS
 10
40.6834691585
 20
33.8672397816
 11
40.6723840392
 21
33.8538250214
  0
LINE
  5
2EB
100
AcDbEntity
  8
0
100
AcDbLine
 62
7
  6
CONTINUOUS
 10
59.3753796171
 20
14.9499953187
 11
59.535146735
 21
15.0034994542
  0
LINE
  5
2EC
100
AcDbEntity
  8
0
100
AcDbLine
 62
7
  6
CONTINUOUS
 10
61.6603538722
 20
15.7300545439
 11
61.7117940359
 21
15.7472724352
  0
LINE
  5
2ED
100
AcDbEntity
  8
0
100
AcDbLine
 62
7
  6
CONTINUOUS
 10
59.2314566114
 20
14.9059653214
 11
59.4968791415
 21
14.9947149605
  0
LINE
  5
2EE
100
AcDbEntity
  8
0
100
AcDbLine
 62
7
  6
CONTINUOUS
 10
59.2679911382
 20
14.9142198167
 11
59.4303218244
 21
14.9683582067
  0
LINE
  5
2EF
100
AcDbEntity
  8
0
100
AcDbLine
 62
7
  6
CONTINUOUS
 10
61.7011548188
 20
15.7437187475
 11
61.7617708517
 21
15.7639091153
  0
LINE
  5
2F0
100
AcDbEntity
  8
0
100
AcDbLine
 62
7
  6
CONTINUOUS
 10
61.7010962094
 20
15.7487045282
 11
61.8024345058
 21
15.7824408797
  0
LINE
  5
2F1
100
AcDbEntity
  8
0
100
AcDbLine
 62
7
  6
CONTINUOUS
 10
59.2277817478
 20
14.9008650547
 11
59.3229631272
 21
14.9325136867
  0
LINE
  5
2F2
100
AcDbEntity
  8
0
100
AcDbLine
 62
7
  6
CONTINUOUS
 10
61.751854574
 20
15.7606158969
 11
61.8011308977
 21
15.7769382467
  0
LINE
  5
2F3
100
AcDbEntity
  8
0
100
AcDbLine
 62
7
  6
CONTINUOUS
 10
61.7862310412
 20
15.7720143665
 11
61.8341453713
 21
15.7878098578
  0
LINE
  5
2F4
100
AcDbEntity
  8
0
100
AcDbLine
 62
7
  6
CONTINUOUS
 10
61.8024345058
 20
15.7824408797
 11
61.9048331878
 21
15.8160658363
  0
LINE
  5
2F5
100
AcDbEntity
  8
0
100
AcDbLine
 62
7
  6
CONTINUOUS
 10
61.8252612917
 20
15.7848897379
 11
61.8725319739
 21
15.8003776785
  0
LINE
  5
2F6
100
AcDbEntity
  8
0
100
AcDbLine
 62
7
  6
CONTINUOUS
 10
61.8576109608
 20
15.7955024854
 11
61.9035569709
 21
15.8104696563
  0
LINE
  5
2F7
100
AcDbEntity
  8
0
100
AcDbLine
 62
7
  6
CONTINUOUS
 10
61.895670178
 20
15.8079102541
 11
61.9260160495
 21
15.8177343146
  0
LINE
  5
2F8
100
AcDbEntity
  8
0
100
AcDbLine
 62
7
  6
CONTINUOUS
 10
58.3819871661
 20
14.6320267729
 11
59.2314566114
 21
14.9059653214
  0
LINE
  5
2F9
100
AcDbEntity
  8
DEFAULT_2
100
AcDbLine
 62
8
  6
CONTINUOUS
 10
68.2388124125
 20
21.6684818464
 11
68.1869133381
 21
21.6605088198
  0
LINE
  5
2FA
100
AcDbEntity
  8
DEFAULT_2
100
AcDbLine
 62
8
  6
CONTINUOUS
 10
42.2218091131
 20
33.351211513
 11
42.2260872061
 21
33.356201401
  0
LINE
  5
2FB
100
AcDbEntity
  8
0
100
AcDbLine
 62
7
  6
CONTINUOUS
 10
60.6328061142
 20
15.3825878579
 11
60.7881748508
 21
15.4362116943
  0
LINE
  5
2FC
100
AcDbEntity
  8
0
100
AcDbLine
 62
7
  6
CONTINUOUS
 10
60.7881748508
 20
15.4362116943
 11
60.9460135174
 21
15.4906924327
  0
LINE
  5
2FD
100
AcDbEntity
  8
0
100
AcDbLine
 62
7
  6
CONTINUOUS
 10
60.479479621
 20
15.3297241407
 11
60.6328061142
 21
15.3825878579
  0
LINE
  5
2FE
100
AcDbEntity
  8
0
100
AcDbLine
 62
7
  6
CONTINUOUS
 10
60.9460135174
 20
15.4906924327
 11
61.1022391598
 21
15.544556913
  0
LINE
  5
2FF
100
AcDbEntity
  8
0
100
AcDbLine
 62
7
  6
CONTINUOUS
 10
60.8960881693
 20
15.4687027762
 11
61.079783263
 21
15.5320067297
  0
LINE
  5
300
100
AcDbEntity
  8
0
100
AcDbLine
 62
7
  6
CONTINUOUS
 10
60.4562234932
 20
15.3171186596
 11
60.9099284492
 21
15.4734752592
  0
LINE
  5
301
100
AcDbEntity
  8
0
100
AcDbLine
 62
7
  6
CONTINUOUS
 10
60.6211064869
 20
15.373888314
 11
60.6615032682
 21
15.387810662
  0
LINE
  5
302
100
AcDbEntity
  8
0
100
AcDbLine
 62
7
  6
CONTINUOUS
 10
60.3215897606
 20
15.2753897621
 11
60.479479621
 21
15.3297241407
  0
LINE
  5
303
100
AcDbEntity
  8
0
100
AcDbLine
 62
7
  6
CONTINUOUS
 10
61.0221449146
 20
15.5121551896
 11
61.1647503612
 21
15.5612392576
  0
LINE
  5
304
100
AcDbEntity
  8
0
100
AcDbLine
 62
7
  6
CONTINUOUS
 10
61.1022391598
 20
15.544556913
 11
61.2471696555
 21
15.5944054133
  0
LINE
  5
305
100
AcDbEntity
  8
0
100
AcDbLine
 62
7
  6
CONTINUOUS
 10
60.3385662401
 20
15.2766842232
 11
60.592004959
 21
15.3638615007
  0
LINE
  5
306
100
AcDbEntity
  8
0
100
AcDbLine
 62
7
  6
CONTINUOUS
 10
61.1150640006
 20
15.5441500282
 11
61.232774198
 21
15.5846071607
  0
LINE
  5
307
100
AcDbEntity
  8
0
100
AcDbLine
 62
7
  6
CONTINUOUS
 10
60.4141505274
 20
15.3026513328
 11
60.4562234932
 21
15.3171186596
  0
LINE
  5
308
100
AcDbEntity
  8
0
100
AcDbLine
 62
7
  6
CONTINUOUS
 10
60.149856699
 20
15.2164570642
 11
60.3215897606
 21
15.2753897621
  0
LINE
  5
309
100
AcDbEntity
  8
0
100
AcDbLine
 62
7
  6
CONTINUOUS
 10
61.2177365669
 20
15.5794446009
 11
61.3154043744
 21
15.6129358273
  0
LINE
  5
30A
100
AcDbEntity
  8
0
100
AcDbLine
 62
7
  6
CONTINUOUS
 10
60.1619596814
 20
15.2161497462
 11
60.3717140646
 21
15.2880682791
  0
LINE
  5
30B
100
AcDbEntity
  8
0
100
AcDbLine
 62
7
  6
CONTINUOUS
 10
61.2471696555
 20
15.5944054133
 11
61.380237103
 21
15.6400008271
  0
LINE
  5
30C
100
AcDbEntity
  8
0
100
AcDbLine
 62
7
  6
CONTINUOUS
 10
60.2067401435
 20
15.2314785319
 11
60.2510930837
 21
15.2466751789
  0
LINE
  5
30D
100
AcDbEntity
  8
0
100
AcDbLine
 62
7
  6
CONTINUOUS
 10
61.2984748223
 20
15.6071375225
 11
61.3927989811
 21
15.6393980319
  0
LINE
  5
30E
100
AcDbEntity
  8
0
100
AcDbLine
 62
7
  6
CONTINUOUS
 10
59.9550937031
 20
15.1498874002
 11
60.149856699
 21
15.2164570642
  0
LINE
  5
30F
100
AcDbEntity
  8
0
100
AcDbLine
 62
7
  6
CONTINUOUS
 10
60.0249280677
 20
15.1693396949
 11
60.1980997449
 21
15.2285196933
  0
LINE
  5
310
100
AcDbEntity
  8
0
100
AcDbLine
 62
7
  6
CONTINUOUS
 10
61.3777636031
 20
15.634263588
 11
61.4530268943
 21
15.6599309479
  0
LINE
  5
311
100
AcDbEntity
  8
0
100
AcDbLine
 62
7
  6
CONTINUOUS
 10
61.380237103
 20
15.6400008271
 11
61.4986566039
 21
15.6803715226
  0
LINE
  5
312
100
AcDbEntity
  8
0
100
AcDbLine
 62
7
  6
CONTINUOUS
 10
59.9247598774
 20
15.1352243849
 11
60.0634942568
 21
15.1824983331
  0
LINE
  5
313
100
AcDbEntity
  8
0
100
AcDbLine
 62
7
  6
CONTINUOUS
 10
61.4380290672
 20
15.6548233084
 11
61.5112670581
 21
15.6797264417
  0
LINE
  5
314
100
AcDbEntity
  8
0
100
AcDbLine
 62
7
  6
CONTINUOUS
 10
59.7373661964
 20
15.0758755054
 11
59.9550937031
 21
15.1498874002
  0
LINE
  5
315
100
AcDbEntity
  8
0
100
AcDbLine
 62
7
  6
CONTINUOUS
 10
59.8298139024
 20
15.1029751109
 11
59.9312050044
 21
15.1374166901
  0
LINE
  5
316
100
AcDbEntity
  8
0
100
AcDbLine
 62
7
  6
CONTINUOUS
 10
61.4963042966
 20
15.6746469217
 11
61.5676433384
 21
15.6988225026
  0
LINE
  5
317
100
AcDbEntity
  8
0
100
AcDbLine
 62
7
  6
CONTINUOUS
 10
59.7376153433
 20
15.071746849
 11
59.8835947896
 21
15.1212314346
  0
LINE
  5
318
100
AcDbEntity
  8
0
100
AcDbLine
 62
7
  6
CONTINUOUS
 10
61.4986566039
 20
15.6803715226
 11
61.6017923447
 21
15.7153141429
  0
LINE
  5
319
100
AcDbEntity
  8
0
100
AcDbLine
 62
7
  6
CONTINUOUS
 10
59.6834639991
 20
15.0534479691
 11
59.7815670748
 21
15.0866224265
  0
LINE
  5
31A
100
AcDbEntity
  8
0
100
AcDbLine
 62
7
  6
CONTINUOUS
 10
61.5527103385
 20
15.6937711893
 11
61.6222680076
 21
15.7172527489
  0
LINE
  5
31B
100
AcDbEntity
  8
0
100
AcDbLine
 62
7
  6
CONTINUOUS
 10
59.4968791415
 20
14.9947149605
 11
59.7373661964
 21
15.0758755054
  0
LINE
  5
31C
100
AcDbEntity
  8
0
100
AcDbLine
 62
7
  6
CONTINUOUS
 10
59.5831321868
 20
15.0196310999
 11
59.7376153433
 21
15.071746849
  0
LINE
  5
31D
100
AcDbEntity
  8
0
100
AcDbLine
 62
7
  6
CONTINUOUS
 10
61.6073571632
 20
15.7122296156
 11
61.6752501948
 21
15.7350497035
  0
LINE
  5
31E
100
AcDbEntity
  8
0
100
AcDbLine
 62
7
  6
CONTINUOUS
 10
61.6017923447
 20
15.7153141429
 11
61.7010962094
 21
15.7487045282
  0
LINE
  5
31F
100
AcDbEntity
  8
0
100
AcDbLine
 62
7
  6
CONTINUOUS
 10
59.4804709389
 20
14.985152931
 11
59.6375429047
 21
15.0379558544
  0
LINE
  5
320
100
AcDbEntity
  8
0
100
AcDbLine
 62
7
  6
CONTINUOUS
 10
55.7454626715
 20
13.9488594376
 11
55.7293655542
 21
13.948603937
  0
LINE
  5
321
100
AcDbEntity
  8
0
100
AcDbLine
 62
7
  6
CONTINUOUS
 10
11.1560078389
 20
32.3975413921
 11
10.8780770355
 21
33.9427015456
  0
LINE
  5
322
100
AcDbEntity
  8
DEFAULT_2
100
AcDbLine
 62
8
  6
CONTINUOUS
 10
59.2893479944
 20
35.2598745266
 11
59.285795508
 21
35.2939515045
  0
LINE
  5
323
100
AcDbEntity
  8
DEFAULT_2
100
AcDbLine
 62
8
  6
CONTINUOUS
 10
61.5928493638
 20
35.6451657428
 11
61.5963730563
 21
35.6112068771
  0
LINE
  5
324
100
AcDbEntity
  8
DEFAULT_2
100
AcDbLine
 62
8
  6
CONTINUOUS
 10
23.6521485716
 20
20.6047913878
 11
23.6531197448
 21
20.5951383479
  0
LINE
  5
325
100
AcDbEntity
  8
DEFAULT_2
100
AcDbLine
 62
8
  6
CONTINUOUS
 10
40.5577720499
 20
33.4444173614
 11
40.5597173295
 21
33.4250529262
  0
LINE
  5
326
100
AcDbEntity
  8
DEFAULT_2
100
AcDbLine
 62
8
  6
CONTINUOUS
 10
42.2669050533
 20
33.4969232184
 11
42.2660207552
 21
33.5058916645
  0
LINE
  5
327
100
AcDbEntity
  8
DEFAULT_2
100
AcDbLine
 62
8
  6
CONTINUOUS
 10
57.864577212
 20
35.4026308025
 11
57.8663479102
 21
35.3844246624
  0
LINE
  5
328
100
AcDbEntity
  8
DEFAULT_2
100
AcDbLine
 62
8
  6
CONTINUOUS
 10
23.6686001849
 20
20.358241641
 11
23.6622081627
 21
20.4241530231
  0
LINE
  5
329
100
AcDbEntity
  8
DEFAULT_2
100
AcDbLine
 62
8
  6
CONTINUOUS
 10
56.1802634728
 20
34.8869963539
 11
56.1796770671
 21
34.8930882654
  0
LINE
  5
32A
100
AcDbEntity
  8
DEFAULT_2
100
AcDbLine
 62
8
  6
CONTINUOUS
 10
48.252916253
 20
17.5478212678
 11
48.3232731919
 21
16.7436377769
  0
LINE
  5
32B
100
AcDbEntity
  8
DEFAULT_2
100
AcDbLine
 62
8
  6
CONTINUOUS
 10
23.6531197448
 20
20.5951383479
 11
23.6539239684
 21
20.5854699838
  0
LINE
  5
32C
100
AcDbEntity
  8
DEFAULT_2
100
AcDbLine
 62
8
  6
CONTINUOUS
 10
40.5562168354
 20
33.4638177862
 11
40.5577720499
 21
33.4444173614
  0
LINE
  5
32D
100
AcDbEntity
  8
DEFAULT_2
100
AcDbLine
 62
8
  6
CONTINUOUS
 10
42.267364594
 20
33.4908002808
 11
42.2669050533
 21
33.4969232184
  0
LINE
  5
32E
100
AcDbEntity
  8
DEFAULT_2
100
AcDbLine
 62
8
  6
CONTINUOUS
 10
59.285795508
 20
35.2939515045
 11
59.2832660447
 21
35.3281196343
  0
LINE
  5
32F
100
AcDbEntity
  8
DEFAULT_2
100
AcDbLine
 62
8
  6
CONTINUOUS
 10
61.5963730563
 20
35.6112068771
 11
61.5988757958
 21
35.577157563
  0
LINE
  5
330
100
AcDbEntity
  8
0
100
AcDbLine
 62
7
  6
CONTINUOUS
 10
82.435407961
 20
38.3143432663
 11
82.4106116065
 21
38.680181987
  0
LINE
  5
331
100
AcDbEntity
  8
DEFAULT_2
100
AcDbLine
 62
8
  6
CONTINUOUS
 10
57.8663479102
 20
35.3844246624
 11
57.867577223
 21
35.3661715876
  0
LINE
  5
332
100
AcDbEntity
  8
DEFAULT_2
100
AcDbLine
 62
8
  6
CONTINUOUS
 10
23.6622081627
 20
20.4241530231
 11
23.657782889
 21
20.4902257672
  0
LINE
  5
333
100
AcDbEntity
  8
DEFAULT_2
100
AcDbLine
 62
8
  6
CONTINUOUS
 10
23.6539239684
 20
20.5854699838
 11
23.6545606136
 21
20.5757891012
  0
LINE
  5
334
100
AcDbEntity
  8
DEFAULT_2
100
AcDbLine
 62
8
  6
CONTINUOUS
 10
56.1796770671
 20
34.8930882654
 11
56.1792880111
 21
34.8991866104
  0
LINE
  5
335
100
AcDbEntity
  8
DEFAULT_2
100
AcDbLine
 62
8
  6
CONTINUOUS
 10
40.5551229692
 20
33.4832580915
 11
40.5562168354
 21
33.4638177862
  0
LINE
  5
336
100
AcDbEntity
  8
DEFAULT_2
100
AcDbLine
 62
8
  6
CONTINUOUS
 10
42.2676922331
 20
33.4846674444
 11
42.267364594
 21
33.4908002808
  0
LINE
  5
337
100
AcDbEntity
  8
DEFAULT_2
100
AcDbLine
 62
8
  6
CONTINUOUS
 10
23.6545606136
 20
20.5757891012
 11
23.6550290513
 21
20.5660985057
  0
LINE
  5
338
100
AcDbEntity
  8
DEFAULT_2
100
AcDbLine
 62
8
  6
CONTINUOUS
 10
59.2832660447
 20
35.3281196343
 11
59.2817569328
 21
35.3624076724
  0
LINE
  5
339
100
AcDbEntity
  8
DEFAULT_2
100
AcDbLine
 62
8
  6
CONTINUOUS
 10
61.5988757958
 20
35.577157563
 11
61.6003611481
 21
35.543009724
  0
LINE
  5
33A
100
AcDbEntity
  8
DEFAULT_2
100
AcDbLine
 62
8
  6
CONTINUOUS
 10
57.867577223
 20
35.3661715876
 11
57.8682990959
 21
35.3478931438
  0
LINE
  5
33B
100
AcDbEntity
  8
DEFAULT_2
100
AcDbLine
 62
8
  6
CONTINUOUS
 10
23.657782889
 20
20.4902257672
 11
23.6553286527
 21
20.5564010032
  0
LINE
  5
33C
100
AcDbEntity
  8
DEFAULT_2
100
AcDbLine
 62
8
  6
CONTINUOUS
 10
56.1792880111
 20
34.8991866104
 11
56.1790922236
 21
34.9052800473
  0
LINE
  5
33D
100
AcDbEntity
  8
DEFAULT_2
100
AcDbLine
 62
8
  6
CONTINUOUS
 10
23.6550290513
 20
20.5660985057
 11
23.6553286527
 21
20.5564010031
  0
LINE
  5
33E
100
AcDbEntity
  8
DEFAULT_2
100
AcDbLine
 62
8
  6
CONTINUOUS
 10
40.5545928789
 20
33.5004365286
 11
40.5551229692
 21
33.4832580915
  0
LINE
  5
33F
100
AcDbEntity
  8
DEFAULT_2
100
AcDbLine
 62
8
  6
CONTINUOUS
 10
42.2678757225
 20
33.478528702
 11
42.2676922331
 21
33.4846674444
  0
LINE
  5
340
100
AcDbEntity
  8
0
100
AcDbLine
 62
7
  6
CONTINUOUS
 10
82.4436785618
 20
37.9479304332
 11
82.435407961
 21
38.3143432663
  0
LINE
  5
341
100
AcDbEntity
  8
DEFAULT_2
100
AcDbLine
 62
8
  6
CONTINUOUS
 10
59.2817569328
 20
35.3624076724
 11
59.2812706397
 21
35.3967254684
  0
LINE
  5
342
100
AcDbEntity
  8
DEFAULT_2
100
AcDbLine
 62
8
  6
CONTINUOUS
 10
61.6003611481
 20
35.543009724
 11
61.6008300305
 21
35.5088328245
  0
LINE
  5
343
100
AcDbEntity
  8
DEFAULT_2
100
AcDbLine
 62
8
  6
CONTINUOUS
 10
57.8682990959
 20
35.3478931438
 11
57.8685374548
 21
35.3246674332
  0
LINE
  5
344
100
AcDbEntity
  8
DEFAULT_2
100
AcDbLine
 62
8
  6
CONTINUOUS
 10
40.5544956763
 20
33.517632397
 11
40.5545928789
 21
33.5004365286
  0
LINE
  5
345
100
AcDbEntity
  8
DEFAULT_2
100
AcDbLine
 62
8
  6
CONTINUOUS
 10
42.2679028141
 20
33.472388046
 11
42.2678757225
 21
33.478528702
  0
LINE
  5
346
100
AcDbEntity
  8
DEFAULT_1
100
AcDbLine
 62
7
  6
CENTER
 10
51.9436785618
 20
11.9410529977
 11
51.9436785618
 21
21.3916060544
  0
LINE
  5
347
100
AcDbEntity
  8
DEFAULT_2
100
AcDbLine
 62
8
  6
CONTINUOUS
 10
56.1790922236
 20
34.9052800473
 11
56.1791014614
 21
34.9124848184
  0
LINE
  5
348
100
AcDbEntity
  8
DEFAULT_2
100
AcDbLine
 62
8
  6
CONTINUOUS
 10
59.2812706397
 20
35.3967254684
 11
59.28180385
 21
35.4310425562
  0
LINE
  5
349
100
AcDbEntity
  8
DEFAULT_2
100
AcDbLine
 62
8
  6
CONTINUOUS
 10
61.6008300305
 20
35.5088328245
 11
61.6002873044
 21
35.4746570387
  0
LINE
  5
34A
100
AcDbEntity
  8
0
100
AcDbLine
 62
7
  6
CONTINUOUS
 10
82.4436785618
 20
37.9479304332
 11
82.4384243337
 21
37.6558724209
  0
LINE
  5
34B
100
AcDbEntity
  8
DEFAULT_2
100
AcDbLine
 62
8
  6
CONTINUOUS
 10
57.8685374548
 20
35.3246674332
 11
57.8680797097
 21
35.3014493693
  0
LINE
  5
34C
100
AcDbEntity
  8
DEFAULT_2
100
AcDbLine
 62
8
  6
CONTINUOUS
 10
40.5548499456
 20
33.5348290809
 11
40.5544956763
 21
33.517632397
  0
LINE
  5
34D
100
AcDbEntity
  8
DEFAULT_2
100
AcDbLine
 62
8
  6
CONTINUOUS
 10
42.2677612596
 20
33.466249469
 11
42.2679028141
 21
33.472388046
  0
LINE
  5
34E
100
AcDbEntity
  8
DEFAULT_2
100
AcDbLine
 62
8
  6
CONTINUOUS
 10
56.1791014614
 20
34.9124848184
 11
56.1793493297
 21
34.919668456
  0
LINE
  5
34F
100
AcDbEntity
  8
DEFAULT_2
100
AcDbLine
 62
8
  6
CONTINUOUS
 10
59.28180385
 20
35.4310425562
 11
59.283356403
 21
35.4653884121
  0
LINE
  5
350
100
AcDbEntity
  8
DEFAULT_2
100
AcDbLine
 62
8
  6
CONTINUOUS
 10
61.6002873044
 20
35.4746570387
 11
61.5987358683
 21
35.4404728798
  0
LINE
  5
351
100
AcDbEntity
  8
DEFAULT_2
100
AcDbLine
 62
8
  6
CONTINUOUS
 10
57.8680797097
 20
35.3014493693
 11
57.8669937418
 21
35.278252736
  0
LINE
  5
352
100
AcDbEntity
  8
DEFAULT_2
100
AcDbLine
 62
8
  6
CONTINUOUS
 10
40.5556742709
 20
33.5520099646
 11
40.5548499456
 21
33.5348290809
  0
LINE
  5
353
100
AcDbEntity
  8
DEFAULT_2
100
AcDbLine
 62
8
  6
CONTINUOUS
 10
42.267438811
 20
33.4601169635
 11
42.2677612596
 21
33.466249469
  0
LINE
  5
354
100
AcDbEntity
  8
0
100
AcDbLine
 62
7
  6
CONTINUOUS
 10
82.4384243337
 20
37.6558724209
 11
82.4226624401
 21
37.3639853542
  0
LINE
  5
355
100
AcDbEntity
  8
DEFAULT_2
100
AcDbLine
 62
8
  6
CONTINUOUS
 10
56.1793493297
 20
34.919668456
 11
56.1798086082
 21
34.926832661
  0
LINE
  5
356
100
AcDbEntity
  8
DEFAULT_2
100
AcDbLine
 62
8
  6
CONTINUOUS
 10
57.8669937418
 20
35.278252736
 11
57.8653474322
 21
35.2550913171
  0
LINE
  5
357
100
AcDbEntity
  8
DEFAULT_2
100
AcDbLine
 62
8
  6
CONTINUOUS
 10
56.268661801
 20
35.6866918869
 11
56.2693109662
 21
35.6957753534
  0
LINE
  5
358
100
AcDbEntity
  8
DEFAULT_2
100
AcDbLine
 62
8
  6
CONTINUOUS
 10
56.2642954724
 20
35.6273712353
 11
56.268661801
 21
35.6866918869
  0
LINE
  5
359
100
AcDbEntity
  8
DEFAULT_2
100
AcDbLine
 62
8
  6
CONTINUOUS
 10
59.283356403
 20
35.4653884121
 11
59.2859227541
 21
35.4996734258
  0
LINE
  5
35A
100
AcDbEntity
  8
DEFAULT_2
100
AcDbLine
 62
8
  6
CONTINUOUS
 10
61.5987358683
 20
35.4404728798
 11
61.5961826827
 21
35.4063489287
  0
LINE
  5
35B
100
AcDbEntity
  8
DEFAULT_2
100
AcDbLine
 62
8
  6
CONTINUOUS
 10
56.2693109662
 20
35.6957753534
 11
56.2699984305
 21
35.7048570519
  0
LINE
  5
35C
100
AcDbEntity
  8
DEFAULT_2
100
AcDbLine
 62
8
  6
CONTINUOUS
 10
40.5569872366
 20
33.5691584322
 11
40.5556742709
 21
33.5520099646
  0
LINE
  5
35D
100
AcDbEntity
  8
DEFAULT_2
100
AcDbLine
 62
8
  6
CONTINUOUS
 10
56.2595284313
 20
35.5680795266
 11
56.2642954724
 21
35.6273712353
  0
LINE
  5
35E
100
AcDbEntity
  8
DEFAULT_2
100
AcDbLine
 62
8
  6
CONTINUOUS
 10
56.2699984305
 20
35.7048570519
 11
56.2707618696
 21
35.7139324157
  0
LINE
  5
35F
100
AcDbEntity
  8
DEFAULT_2
100
AcDbLine
 62
8
  6
CONTINUOUS
 10
42.2668891063
 20
33.453640215
 11
42.267438811
 21
33.4601169635
  0
LINE
  5
360
100
AcDbEntity
  8
DEFAULT_2
100
AcDbLine
 62
8
  6
CONTINUOUS
 10
56.2543466517
 20
35.5088213474
 11
56.2595284313
 21
35.5680795266
  0
LINE
  5
361
100
AcDbEntity
  8
DEFAULT_2
100
AcDbLine
 62
8
  6
CONTINUOUS
 10
56.1798086082
 20
34.926832661
 11
56.1804520763
 21
34.9339791345
  0
LINE
  5
362
100
AcDbEntity
  8
0
100
AcDbLine
 62
7
  6
CONTINUOUS
 10
82.4226624401
 20
37.3639853542
 11
82.3964246969
 21
37.0729304332
  0
LINE
  5
363
100
AcDbEntity
  8
DEFAULT_2
100
AcDbLine
 62
8
  6
CONTINUOUS
 10
69.6931179603
 20
23.2716790593
 11
69.6910115198
 21
23.2488011365
  0
LINE
  5
364
100
AcDbEntity
  8
DEFAULT_2
100
AcDbLine
 62
8
  6
CONTINUOUS
 10
57.8653474322
 20
35.2550913171
 11
57.8631923897
 21
35.2317324811
  0
LINE
  5
365
100
AcDbEntity
  8
DEFAULT_2
100
AcDbLine
 62
8
  6
CONTINUOUS
 10
56.2487361077
 20
35.4496012843
 11
56.2543466517
 21
35.5088213474
  0
LINE
  5
366
100
AcDbEntity
  8
DEFAULT_2
100
AcDbLine
 62
8
  6
CONTINUOUS
 10
69.6910115198
 20
23.2488011365
 11
69.6866567421
 21
23.2030639923
  0
LINE
  5
367
100
AcDbEntity
  8
DEFAULT_2
100
AcDbLine
 62
8
  6
CONTINUOUS
 10
56.2707618696
 20
35.7139324157
 11
56.2716389591
 21
35.7229968778
  0
LINE
  5
368
100
AcDbEntity
  8
DEFAULT_2
100
AcDbLine
 62
8
  6
CONTINUOUS
 10
56.2426827732
 20
35.3904239239
 11
56.2487361077
 21
35.4496012843
  0
LINE
  5
369
100
AcDbEntity
  8
DEFAULT_2
100
AcDbLine
 62
8
  6
CONTINUOUS
 10
61.5961826827
 20
35.4063489287
 11
61.5926350729
 21
35.3723140324
  0
LINE
  5
36A
100
AcDbEntity
  8
DEFAULT_2
100
AcDbLine
 62
8
  6
CONTINUOUS
 10
59.2859227541
 20
35.4996734258
 11
59.2894969647
 21
35.5338680382
  0
LINE
  5
36B
100
AcDbEntity
  8
DEFAULT_2
100
AcDbLine
 62
8
  6
CONTINUOUS
 10
40.5588074268
 20
33.5862578679
 11
40.5569872366
 21
33.5691584322
  0
LINE
  5
36C
100
AcDbEntity
  8
DEFAULT_2
100
AcDbLine
 62
8
  6
CONTINUOUS
 10
57.8631923897
 20
35.2317324811
 11
57.860655803
 21
35.2084129598
  0
LINE
  5
36D
100
AcDbEntity
  8
DEFAULT_2
100
AcDbLine
 62
8
  6
CONTINUOUS
 10
56.2361726224
 20
35.3312938527
 11
56.2426827732
 21
35.3904239239
  0
LINE
  5
36E
100
AcDbEntity
  8
DEFAULT_2
100
AcDbLine
 62
8
  6
CONTINUOUS
 10
69.6956471877
 20
23.2945078753
 11
69.6931179603
 21
23.2716790593
  0
LINE
  5
36F
100
AcDbEntity
  8
DEFAULT_2
100
AcDbLine
 62
8
  6
CONTINUOUS
 10
56.1804520763
 20
34.9339791345
 11
56.1812525136
 21
34.9411095773
  0
LINE
  5
370
100
AcDbEntity
  8
DEFAULT_2
100
AcDbLine
 62
8
  6
CONTINUOUS
 10
56.2716389591
 20
35.7229968778
 11
56.2726673744
 21
35.7320458713
  0
LINE
  5
371
100
AcDbEntity
  8
DEFAULT_2
100
AcDbLine
 62
8
  6
CONTINUOUS
 10
56.2291664981
 20
35.2720054544
 11
56.2361726224
 21
35.3312938527
  0
LINE
  5
372
100
AcDbEntity
  8
DEFAULT_2
100
AcDbLine
 62
8
  6
CONTINUOUS
 10
42.2661207074
 20
33.4471836681
 11
42.2668891063
 21
33.453640215
  0
LINE
  5
373
100
AcDbEntity
  8
DEFAULT_2
100
AcDbLine
 62
8
  6
CONTINUOUS
 10
57.860655803
 20
35.2084129598
 11
57.8578589797
 21
35.1851220358
  0
LINE
  5
374
100
AcDbEntity
  8
DEFAULT_2
100
AcDbLine
 62
8
  6
CONTINUOUS
 10
69.6866567421
 20
23.2030639923
 11
69.6810207353
 21
23.1574649279
  0
LINE
  5
375
100
AcDbEntity
  8
DEFAULT_2
100
AcDbLine
 62
8
  6
CONTINUOUS
 10
57.8578589797
 20
35.1851220358
 11
57.8549232275
 21
35.1618489915
  0
LINE
  5
376
100
AcDbEntity
  8
DEFAULT_2
100
AcDbLine
 62
8
  6
CONTINUOUS
 10
56.2216757032
 20
35.2127759797
 11
56.2291664981
 21
35.2720054544
  0
LINE
  5
377
100
AcDbEntity
  8
DEFAULT_2
100
AcDbLine
 62
8
  6
CONTINUOUS
 10
56.1812525136
 20
34.9411095773
 11
56.1821826996
 21
34.9482256903
  0
LINE
  5
378
100
AcDbEntity
  8
0
100
AcDbLine
 62
7
  6
CONTINUOUS
 10
82.2981327075
 20
36.3220593807
 11
82.3964246969
 21
37.0729304332
  0
LINE
  5
379
100
AcDbEntity
  8
DEFAULT_2
100
AcDbLine
 62
8
  6
CONTINUOUS
 10
57.8549232275
 20
35.1618489915
 11
57.8399946219
 21
35.0492450155
  0
LINE
  5
37A
100
AcDbEntity
  8
DEFAULT_2
100
AcDbLine
 62
8
  6
CONTINUOUS
 10
61.5926350729
 20
35.3723140324
 11
61.5881188248
 21
35.3385189074
  0
LINE
  5
37B
100
AcDbEntity
  8
DEFAULT_2
100
AcDbLine
 62
8
  6
CONTINUOUS
 10
59.2894969647
 20
35.5338680382
 11
59.294063119
 21
35.5678786268
  0
LINE
  5
37C
100
AcDbEntity
  8
DEFAULT_2
100
AcDbLine
 62
8
  6
CONTINUOUS
 10
56.2726673744
 20
35.7320458713
 11
56.2738847911
 21
35.7410748295
  0
LINE
  5
37D
100
AcDbEntity
  8
DEFAULT_2
100
AcDbLine
 62
8
  6
CONTINUOUS
 10
56.2136897728
 20
35.1536121061
 11
56.2216757032
 21
35.2127759797
  0
LINE
  5
37E
100
AcDbEntity
  8
DEFAULT_2
100
AcDbLine
 62
8
  6
CONTINUOUS
 10
57.8399946219
 20
35.0492450155
 11
57.8388317977
 21
35.0406562875
  0
LINE
  5
37F
100
AcDbEntity
  8
DEFAULT_2
100
AcDbLine
 62
8
  6
CONTINUOUS
 10
40.5611534258
 20
33.6032916558
 11
40.5588074268
 21
33.5862578679
  0
LINE
  5
380
100
AcDbEntity
  8
DEFAULT_2
100
AcDbLine
 62
8
  6
CONTINUOUS
 10
56.2051982423
 20
35.0945205106
 11
56.2136897728
 21
35.1536121061
  0
LINE
  5
381
100
AcDbEntity
  8
DEFAULT_2
100
AcDbLine
 62
8
  6
CONTINUOUS
 10
69.6989392284
 20
23.3172410353
 11
69.6956471877
 21
23.2945078753
  0
LINE
  5
382
100
AcDbEntity
  8
DEFAULT_2
100
AcDbLine
 62
8
  6
CONTINUOUS
 10
56.1821826996
 20
34.9482256903
 11
56.1832154139
 21
34.9553291745
  0
LINE
  5
383
100
AcDbEntity
  8
DEFAULT_2
100
AcDbLine
 62
8
  6
CONTINUOUS
 10
57.8388317977
 20
35.0406562875
 11
57.8375820044
 21
35.0320704686
  0
LINE
  5
384
100
AcDbEntity
  8
DEFAULT_2
100
AcDbLine
 62
8
  6
CONTINUOUS
 10
69.6810207353
 20
23.1574649279
 11
69.6741998809
 21
23.1120280133
  0
LINE
  5
385
100
AcDbEntity
  8
DEFAULT_2
100
AcDbLine
 62
8
  6
CONTINUOUS
 10
56.1961906469
 20
35.0355078706
 11
56.2051982423
 21
35.0945205106
  0
LINE
  5
386
100
AcDbEntity
  8
DEFAULT_2
100
AcDbLine
 62
8
  6
CONTINUOUS
 10
42.2651311364
 20
33.4407562584
 11
42.2661207074
 21
33.4471836681
  0
LINE
  5
387
100
AcDbEntity
  8
DEFAULT_2
100
AcDbLine
 62
8
  6
CONTINUOUS
 10
56.1832154139
 20
34.9553291745
 11
56.184323436
 21
34.9624217308
  0
LINE
  5
388
100
AcDbEntity
  8
DEFAULT_2
100
AcDbLine
 62
8
  6
CONTINUOUS
 10
57.8375820044
 20
35.0320704686
 11
57.8362196778
 21
35.0234977431
  0
LINE
  5
389
100
AcDbEntity
  8
DEFAULT_2
100
AcDbLine
 62
8
  6
CONTINUOUS
 10
56.2738847911
 20
35.7410748295
 11
56.2752569408
 21
35.7496854227
  0
LINE
  5
38A
100
AcDbEntity
  8
DEFAULT_2
100
AcDbLine
 62
8
  6
CONTINUOUS
 10
56.1866565218
 20
34.9765808634
 11
56.1961906469
 21
35.0355078706
  0
LINE
  5
38B
100
AcDbEntity
  8
DEFAULT_2
100
AcDbLine
 62
8
  6
CONTINUOUS
 10
61.5881188248
 20
35.3385189074
 11
61.582631833
 21
35.3048678121
  0
LINE
  5
38C
100
AcDbEntity
  8
DEFAULT_2
100
AcDbLine
 62
8
  6
CONTINUOUS
 10
56.184323436
 20
34.9624217308
 11
56.1854795455
 21
34.9695050601
  0
LINE
  5
38D
100
AcDbEntity
  8
DEFAULT_2
100
AcDbLine
 62
8
  6
CONTINUOUS
 10
59.294063119
 20
35.5678786268
 11
59.2996191819
 21
35.6017415499
  0
LINE
  5
38E
100
AcDbEntity
  8
DEFAULT_2
100
AcDbLine
 62
8
  6
CONTINUOUS
 10
56.1854795455
 20
34.9695050601
 11
56.1866565218
 21
34.9765808634
  0
LINE
  5
38F
100
AcDbEntity
  8
DEFAULT_2
100
AcDbLine
 62
8
  6
CONTINUOUS
 10
40.5640438176
 20
33.6202431802
 11
40.5611534258
 21
33.6032916558
  0
LINE
  5
390
100
AcDbEntity
  8
DEFAULT_2
100
AcDbLine
 62
8
  6
CONTINUOUS
 10
57.8362196778
 20
35.0234977431
 11
57.8347192538
 21
35.0149482957
  0
LINE
  5
391
100
AcDbEntity
  8
DEFAULT_2
100
AcDbLine
 62
8
  6
CONTINUOUS
 10
69.6741998809
 20
23.1120280133
 11
69.6662284761
 21
23.0667824433
  0
LINE
  5
392
100
AcDbEntity
  8
DEFAULT_2
100
AcDbLine
 62
8
  6
CONTINUOUS
 10
63.2893532046
 20
18.1583487506
 11
63.8019707593
 21
21.0655473691
  0
LINE
  5
393
100
AcDbEntity
  8
0
100
AcDbLine
 62
7
  6
CONTINUOUS
 10
82.1664777778
 20
35.5762024683
 11
82.2981327075
 21
36.3220593807
  0
LINE
  5
394
100
AcDbEntity
  8
DEFAULT_2
100
AcDbLine
 62
8
  6
CONTINUOUS
 10
69.7029868868
 20
23.3398574382
 11
69.6989392284
 21
23.3172410353
  0
LINE
  5
395
100
AcDbEntity
  8
DEFAULT_2
100
AcDbLine
 62
8
  6
CONTINUOUS
 10
56.2752569408
 20
35.7496854227
 11
56.2768475021
 21
35.7582625245
  0
LINE
  5
396
100
AcDbEntity
  8
DEFAULT_2
100
AcDbLine
 62
8
  6
CONTINUOUS
 10
42.2639179156
 20
33.4343669209
 11
42.2651311364
 21
33.4407562584
  0
LINE
  5
397
100
AcDbEntity
  8
DEFAULT_2
100
AcDbLine
 62
8
  6
CONTINUOUS
 10
61.582631833
 20
35.3048678121
 11
61.5761833422
 21
35.2713877232
  0
LINE
  5
398
100
AcDbEntity
  8
DEFAULT_2
100
AcDbLine
 62
8
  6
CONTINUOUS
 10
59.2996191819
 20
35.6017415499
 11
59.3061569246
 21
35.6354286494
  0
LINE
  5
399
100
AcDbEntity
  8
DEFAULT_2
100
AcDbLine
 62
8
  6
CONTINUOUS
 10
57.8347192538
 20
35.0149482957
 11
57.8330551679
 21
35.0064323108
  0
LINE
  5
39A
100
AcDbEntity
  8
DEFAULT_2
100
AcDbLine
 62
8
  6
CONTINUOUS
 10
69.6662284761
 20
23.0667824433
 11
69.6570509755
 21
23.0217640186
  0
LINE
  5
39B
100
AcDbEntity
  8
DEFAULT_2
100
AcDbLine
 62
8
  6
CONTINUOUS
 10
40.567509635
 20
33.6371695315
 11
40.5640438176
 21
33.6202431802
  0
LINE
  5
39C
100
AcDbEntity
  8
DEFAULT_2
100
AcDbLine
 62
8
  6
CONTINUOUS
 10
56.2768475021
 20
35.7582625245
 11
56.2786675732
 21
35.7667951445
  0
LINE
  5
39D
100
AcDbEntity
  8
DEFAULT_2
100
AcDbLine
 62
8
  6
CONTINUOUS
 10
69.7094355018
 20
23.3698028383
 11
69.7029868868
 21
23.3398574382
  0
LINE
  5
39E
100
AcDbEntity
  8
DEFAULT_2
100
AcDbLine
 62
8
  6
CONTINUOUS
 10
57.8330551679
 20
35.0064323108
 11
57.8312018561
 21
34.9979599731
  0
LINE
  5
39F
100
AcDbEntity
  8
DEFAULT_2
100
AcDbLine
 62
8
  6
CONTINUOUS
 10
61.5761833422
 20
35.2713877232
 11
61.5688190002
 21
35.2382576634
  0
LINE
  5
3A0
100
AcDbEntity
  8
0
100
AcDbLine
 62
7
  6
CONTINUOUS
 10
82.0017513269
 20
34.8370256601
 11
82.1664777778
 21
35.5762024683
  0
LINE
  5
3A1
100
AcDbEntity
  8
DEFAULT_2
100
AcDbLine
 62
8
  6
CONTINUOUS
 10
59.3061569246
 20
35.6354286494
 11
59.3136104873
 21
35.6686727186
  0
LINE
  5
3A2
100
AcDbEntity
  8
DEFAULT_2
100
AcDbLine
 62
8
  6
CONTINUOUS
 10
42.2624785672
 20
33.4280245911
 11
42.2639179156
 21
33.4343669209
  0
LINE
  5
3A3
100
AcDbEntity
  8
DEFAULT_2
100
AcDbLine
 62
8
  6
CONTINUOUS
 10
69.6570509755
 20
23.0217640186
 11
69.6466817353
 21
22.9770031509
  0
LINE
  5
3A4
100
AcDbEntity
  8
DEFAULT_2
100
AcDbLine
 62
8
  6
CONTINUOUS
 10
40.5715377496
 20
33.6539763296
 11
40.567509635
 21
33.6371695315
  0
LINE
  5
3A5
100
AcDbEntity
  8
DEFAULT_2
100
AcDbLine
 62
8
  6
CONTINUOUS
 10
56.2786675732
 20
35.7667951445
 11
56.280728252
 21
35.7752722921
  0
LINE
  5
3A6
100
AcDbEntity
  8
DEFAULT_2
100
AcDbLine
 62
8
  6
CONTINUOUS
 10
57.8312018561
 20
34.9979599731
 11
57.8291337541
 21
34.989541467
  0
LINE
  5
3A7
100
AcDbEntity
  8
DEFAULT_2
100
AcDbLine
 62
8
  6
CONTINUOUS
 10
61.5688190002
 20
35.2382576634
 11
61.5605218428
 21
35.205348876
  0
LINE
  5
3A8
100
AcDbEntity
  8
DEFAULT_2
100
AcDbLine
 62
8
  6
CONTINUOUS
 10
59.3136104873
 20
35.6686727186
 11
59.3220135419
 21
35.7016894994
  0
LINE
  5
3A9
100
AcDbEntity
  8
DEFAULT_2
100
AcDbLine
 62
8
  6
CONTINUOUS
 10
69.7170703191
 20
23.3994632887
 11
69.7094355018
 21
23.3698028383
  0
LINE
  5
3AA
100
AcDbEntity
  8
DEFAULT_2
100
AcDbLine
 62
8
  6
CONTINUOUS
 10
69.6466817353
 20
22.9770031509
 11
69.6351474308
 21
22.9325292518
  0
LINE
  5
3AB
100
AcDbEntity
  8
DEFAULT_2
100
AcDbLine
 62
8
  6
CONTINUOUS
 10
42.2608106136
 20
33.4217382042
 11
42.2624785672
 21
33.4280245911
  0
LINE
  5
3AC
100
AcDbEntity
  8
0
100
AcDbLine
 62
7
  6
CONTINUOUS
 10
81.8042515399
 20
34.1058682587
 11
82.0017513269
 21
34.8370256601
  0
LINE
  5
3AD
100
AcDbEntity
  8
DEFAULT_2
100
AcDbLine
 62
8
  6
CONTINUOUS
 10
40.5761224968
 20
33.6706437762
 11
40.5715377496
 21
33.6539763296
  0
LINE
  5
3AE
100
AcDbEntity
  8
DEFAULT_2
100
AcDbLine
 62
8
  6
CONTINUOUS
 10
56.280728252
 20
35.7752722921
 11
56.2830406367
 21
35.7836829765
  0
LINE
  5
3AF
100
AcDbEntity
  8
DEFAULT_2
100
AcDbLine
 62
8
  6
CONTINUOUS
 10
57.8291337541
 20
34.989541467
 11
57.8268252977
 21
34.9811869771
  0
LINE
  5
3B0
100
AcDbEntity
  8
DEFAULT_2
100
AcDbLine
 62
8
  6
CONTINUOUS
 10
61.5605218428
 20
35.205348876
 11
61.5513025858
 21
35.1726864637
  0
LINE
  5
3B1
100
AcDbEntity
  8
DEFAULT_2
100
AcDbLine
 62
8
  6
CONTINUOUS
 10
59.3220135419
 20
35.7016894994
 11
59.3313560377
 21
35.7344527708
  0
LINE
  5
3B2
100
AcDbEntity
  8
DEFAULT_2
100
AcDbLine
 62
8
  6
CONTINUOUS
 10
69.6351474308
 20
22.9325292518
 11
69.6224541116
 21
22.88837312
  0
LINE
  5
3B3
100
AcDbEntity
  8
DEFAULT_2
100
AcDbLine
 62
8
  6
CONTINUOUS
 10
69.7259013329
 20
23.4287876103
 11
69.7170703191
 21
23.3994632887
  0
LINE
  5
3B4
100
AcDbEntity
  8
DEFAULT_2
100
AcDbLine
 62
8
  6
CONTINUOUS
 10
42.2590751043
 20
33.4160187542
 11
42.2608106136
 21
33.4217382042
  0
LINE
  5
3B5
100
AcDbEntity
  8
DEFAULT_2
100
AcDbLine
 62
8
  6
CONTINUOUS
 10
56.2830406367
 20
35.7836829765
 11
56.2856158253
 21
35.7920162072
  0
LINE
  5
3B6
100
AcDbEntity
  8
DEFAULT_2
100
AcDbLine
 62
8
  6
CONTINUOUS
 10
57.8268252977
 20
34.9811869771
 11
57.8242509225
 21
34.972906688
  0
LINE
  5
3B7
100
AcDbEntity
  8
DEFAULT_2
100
AcDbLine
 62
8
  6
CONTINUOUS
 10
40.581258212
 20
33.6871520731
 11
40.5761224968
 21
33.6706437762
  0
LINE
  5
3B8
100
AcDbEntity
  8
DEFAULT_2
100
AcDbLine
 62
8
  6
CONTINUOUS
 10
61.5513025858
 20
35.1726864637
 11
61.5412183816
 21
35.1404361679
  0
LINE
  5
3B9
100
AcDbEntity
  8
DEFAULT_2
100
AcDbLine
 62
8
  6
CONTINUOUS
 10
59.3313560377
 20
35.7344527708
 11
59.3415492822
 21
35.7667003928
  0
LINE
  5
3BA
100
AcDbEntity
  8
DEFAULT_2
100
AcDbLine
 62
8
  6
CONTINUOUS
 10
69.6224541116
 20
22.88837312
 11
69.6086044254
 21
22.844565679
  0
LINE
  5
3BB
100
AcDbEntity
  8
0
100
AcDbLine
 62
7
  6
CONTINUOUS
 10
81.57439394
 20
33.3842640582
 11
81.8042515399
 21
34.1058682587
  0
LINE
  5
3BC
100
AcDbEntity
  8
DEFAULT_2
100
AcDbLine
 62
8
  6
CONTINUOUS
 10
42.257147238
 20
33.4103605098
 11
42.2590751043
 21
33.4160187542
  0
LINE
  5
3BD
100
AcDbEntity
  8
DEFAULT_2
100
AcDbLine
 62
8
  6
CONTINUOUS
 10
61.5412183816
 20
35.1404361679
 11
61.5302426022
 21
35.1084783539
  0
LINE
  5
3BE
100
AcDbEntity
  8
DEFAULT_2
100
AcDbLine
 62
8
  6
CONTINUOUS
 10
69.6086044254
 20
22.844565679
 11
69.5936080394
 21
22.8011369625
  0
LINE
  5
3BF
100
AcDbEntity
  8
DEFAULT_2
100
AcDbLine
 62
8
  6
CONTINUOUS
 10
56.2856158253
 20
35.7920162072
 11
56.2884649158
 21
35.8002609936
  0
LINE
  5
3C0
100
AcDbEntity
  8
DEFAULT_2
100
AcDbLine
 62
8
  6
CONTINUOUS
 10
69.735932706
 20
23.457725301
 11
69.7259013329
 21
23.4287876103
  0
LINE
  5
3C1
100
AcDbEntity
  8
DEFAULT_2
100
AcDbLine
 62
8
  6
CONTINUOUS
 10
59.3415492822
 20
35.7667003928
 11
59.3526468498
 21
35.7986480303
  0
LINE
  5
3C2
100
AcDbEntity
  8
DEFAULT_2
100
AcDbLine
 62
8
  6
CONTINUOUS
 10
40.5869392306
 20
33.703481422
 11
40.581258212
 21
33.6871520731
  0
LINE
  5
3C3
100
AcDbEntity
  8
DEFAULT_2
100
AcDbLine
 62
8
  6
CONTINUOUS
 10
57.8242509225
 20
34.972906688
 11
57.8213811851
 21
34.9646865341
  0
LINE
  5
3C4
100
AcDbEntity
  8
0
100
AcDbLine
 62
7
  6
CONTINUOUS
 10
81.3126239542
 20
32.6736074234
 11
81.57439394
 21
33.3842640582
  0
LINE
  5
3C5
100
AcDbEntity
  8
DEFAULT_2
100
AcDbLine
 62
8
  6
CONTINUOUS
 10
61.5302426022
 20
35.1084783539
 11
61.5183871111
 21
35.0768363924
  0
LINE
  5
3C6
100
AcDbEntity
  8
DEFAULT_2
100
AcDbLine
 62
8
  6
CONTINUOUS
 10
69.5936080394
 20
22.8011369625
 11
69.5774763754
 21
22.758116782
  0
LINE
  5
3C7
100
AcDbEntity
  8
DEFAULT_2
100
AcDbLine
 62
8
  6
CONTINUOUS
 10
42.2550297649
 20
33.4047698986
 11
42.257147238
 21
33.4103605098
  0
LINE
  5
3C8
100
AcDbEntity
  8
DEFAULT_2
100
AcDbLine
 62
8
  6
CONTINUOUS
 10
59.3526468498
 20
35.7986480303
 11
59.3646371974
 21
35.8302713591
  0
LINE
  5
3C9
100
AcDbEntity
  8
DEFAULT_2
100
AcDbLine
 62
8
  6
CONTINUOUS
 10
56.2884649158
 20
35.8002609936
 11
56.291557714
 21
35.8083100568
  0
LINE
  5
3CA
100
AcDbEntity
  8
DEFAULT_2
100
AcDbLine
 62
8
  6
CONTINUOUS
 10
40.5931598879
 20
33.7196120245
 11
40.5869392306
 21
33.703481422
  0
LINE
  5
3CB
100
AcDbEntity
  8
DEFAULT_2
100
AcDbLine
 62
8
  6
CONTINUOUS
 10
57.8213811851
 20
34.9646865341
 11
57.8182233638
 21
34.9565623331
  0
LINE
  5
3CC
100
AcDbEntity
  8
DEFAULT_2
100
AcDbLine
 62
8
  6
CONTINUOUS
 10
69.7471452763
 20
23.4862285664
 11
69.735932706
 21
23.457725301
  0
LINE
  5
3CD
100
AcDbEntity
  8
DEFAULT_2
100
AcDbLine
 62
8
  6
CONTINUOUS
 10
69.5774763754
 20
22.758116782
 11
69.5602208552
 21
22.7155349489
  0
LINE
  5
3CE
100
AcDbEntity
  8
DEFAULT_2
100
AcDbLine
 62
8
  6
CONTINUOUS
 10
61.5183871111
 20
35.0768363924
 11
61.5057205936
 21
35.0456675098
  0
LINE
  5
3CF
100
AcDbEntity
  8
DEFAULT_2
100
AcDbLine
 62
8
  6
CONTINUOUS
 10
59.3646371974
 20
35.8302713591
 11
59.3774230124
 21
35.8613464116
  0
LINE
  5
3D0
100
AcDbEntity
  8
DEFAULT_2
100
AcDbLine
 62
8
  6
CONTINUOUS
 10
42.2527254348
 20
33.3992533484
 11
42.2550297649
 21
33.4047698986
  0
LINE
  5
3D1
100
AcDbEntity
  8
0
100
AcDbLine
 62
7
  6
CONTINUOUS
 10
81.019447849
 20
31.975286603
 11
81.3126239542
 21
32.6736074234
  0
LINE
  5
3D2
100
AcDbEntity
  8
DEFAULT_2
100
AcDbLine
 62
8
  6
CONTINUOUS
 10
56.291557714
 20
35.8083100568
 11
56.2949258207
 21
35.8162515487
  0
LINE
  5
3D3
100
AcDbEntity
  8
DEFAULT_2
100
AcDbLine
 62
8
  6
CONTINUOUS
 10
40.5999145193
 20
33.7355240825
 11
40.5931598879
 21
33.7196120245
  0
LINE
  5
3D4
100
AcDbEntity
  8
DEFAULT_2
100
AcDbLine
 62
8
  6
CONTINUOUS
 10
57.8182233638
 20
34.9565623331
 11
57.8147826038
 21
34.9485451469
  0
LINE
  5
3D5
100
AcDbEntity
  8
DEFAULT_2
100
AcDbLine
 62
8
  6
CONTINUOUS
 10
69.5602208552
 20
22.7155349489
 11
69.5418532772
 21
22.6734210498
  0
LINE
  5
3D6
100
AcDbEntity
  8
DEFAULT_2
100
AcDbLine
 62
8
  6
CONTINUOUS
 10
61.5057205936
 20
35.0456675098
 11
61.4922064429
 21
35.0148567142
  0
LINE
  5
3D7
100
AcDbEntity
  8
DEFAULT_2
100
AcDbLine
 62
8
  6
CONTINUOUS
 10
69.7595140507
 20
23.5142502895
 11
69.7471452763
 21
23.4862285664
  0
LINE
  5
3D8
100
AcDbEntity
  8
DEFAULT_2
100
AcDbLine
 62
8
  6
CONTINUOUS
 10
59.3774230124
 20
35.8613464116
 11
59.3910659816
 21
35.8920547514
  0
LINE
  5
3D9
100
AcDbEntity
  8
DEFAULT_2
100
AcDbLine
 62
8
  6
CONTINUOUS
 10
42.2502369979
 20
33.3938172872
 11
42.2527254348
 21
33.3992533484
  0
LINE
  5
3DA
100
AcDbEntity
  8
DEFAULT_2
100
AcDbLine
 62
8
  6
CONTINUOUS
 10
40.6071974603
 20
33.7511977975
 11
40.5999145193
 21
33.7355240825
  0
LINE
  5
3DB
100
AcDbEntity
  8
DEFAULT_2
100
AcDbLine
 62
8
  6
CONTINUOUS
 10
56.2949258207
 20
35.8162515487
 11
56.2985662875
 21
35.8240749804
  0
LINE
  5
3DC
100
AcDbEntity
  8
DEFAULT_2
100
AcDbLine
 62
8
  6
CONTINUOUS
 10
69.5418532772
 20
22.6734210498
 11
69.5223869451
 21
22.6318037717
  0
LINE
  5
3DD
100
AcDbEntity
  8
DEFAULT_2
100
AcDbLine
 62
8
  6
CONTINUOUS
 10
57.8147826038
 20
34.9485451469
 11
57.8110640508
 21
34.9406460374
  0
LINE
  5
3DE
100
AcDbEntity
  8
DEFAULT_2
100
AcDbLine
 62
8
  6
CONTINUOUS
 10
61.4922064429
 20
35.0148567142
 11
61.4778574141
 21
34.9844257855
  0
LINE
  5
3DF
100
AcDbEntity
  8
0
100
AcDbLine
 62
7
  6
CONTINUOUS
 10
80.6954994193
 20
31.2907920568
 11
81.019447849
 21
31.975286603
  0
LINE
  5
3E0
100
AcDbEntity
  8
DEFAULT_2
100
AcDbLine
 62
8
  6
CONTINUOUS
 10
59.3910659816
 20
35.8920547514
 11
59.4055533146
 21
35.9223738315
  0
LINE
  5
3E1
100
AcDbEntity
  8
DEFAULT_2
100
AcDbLine
 62
8
  6
CONTINUOUS
 10
69.7730144869
 20
23.5417436938
 11
69.7595140507
 21
23.5142502895
  0
LINE
  5
3E2
100
AcDbEntity
  8
DEFAULT_2
100
AcDbLine
 62
8
  6
CONTINUOUS
 10
42.2475672041
 20
33.3884681426
 11
42.2502369979
 21
33.3938172872
  0
LINE
  5
3E3
100
AcDbEntity
  8
DEFAULT_2
100
AcDbLine
 62
8
  6
CONTINUOUS
 10
69.5223869451
 20
22.6318037717
 11
69.5018355393
 21
22.5907115766
  0
LINE
  5
3E4
100
AcDbEntity
  8
DEFAULT_2
100
AcDbLine
 62
8
  6
CONTINUOUS
 10
40.6150585658
 20
33.766723902
 11
40.6071974603
 21
33.7511977975
  0
LINE
  5
3E5
100
AcDbEntity
  8
DEFAULT_2
100
AcDbLine
 62
8
  6
CONTINUOUS
 10
56.2985662875
 20
35.8240749804
 11
56.302476166
 21
35.8317698632
  0
LINE
  5
3E6
100
AcDbEntity
  8
DEFAULT_2
100
AcDbLine
 62
8
  6
CONTINUOUS
 10
57.8110640508
 20
34.9406460374
 11
57.8070728502
 21
34.9328760667
  0
LINE
  5
3E7
100
AcDbEntity
  8
DEFAULT_2
100
AcDbLine
 62
8
  6
CONTINUOUS
 10
61.4778574141
 20
34.9844257855
 11
61.4548268448
 21
34.9395941506
  0
LINE
  5
3E8
100
AcDbEntity
  8
DEFAULT_2
100
AcDbLine
 62
8
  6
CONTINUOUS
 10
59.4055533146
 20
35.9223738315
 11
59.4286936198
 21
35.9668087531
  0
LINE
  5
3E9
100
AcDbEntity
  8
0
100
AcDbLine
 62
7
  6
CONTINUOUS
 10
80.3413928978
 20
30.6214119327
 11
80.6954994193
 21
31.2907920568
  0
LINE
  5
3EA
100
AcDbEntity
  8
DEFAULT_2
100
AcDbLine
 62
8
  6
CONTINUOUS
 10
69.5018355393
 20
22.5907115766
 11
69.48021274
 21
22.5501729266
  0
LINE
  5
3EB
100
AcDbEntity
  8
DEFAULT_2
100
AcDbLine
 62
8
  6
CONTINUOUS
 10
42.2447188036
 20
33.3832123424
 11
42.2475672041
 21
33.3884681426
  0
LINE
  5
3EC
100
AcDbEntity
  8
DEFAULT_2
100
AcDbLine
 62
8
  6
CONTINUOUS
 10
69.7876238463
 20
23.5686633665
 11
69.7730144869
 21
23.5417436938
  0
LINE
  5
3ED
100
AcDbEntity
  8
DEFAULT_2
100
AcDbLine
 62
8
  6
CONTINUOUS
 10
40.6234324018
 20
33.7819782278
 11
40.6150585658
 21
33.766723902
  0
LINE
  5
3EE
100
AcDbEntity
  8
DEFAULT_2
100
AcDbLine
 62
8
  6
CONTINUOUS
 10
56.302476166
 20
35.8317698632
 11
56.3066525075
 21
35.8393257079
  0
LINE
  5
3EF
100
AcDbEntity
  8
DEFAULT_2
100
AcDbLine
 62
8
  6
CONTINUOUS
 10
57.8070728502
 20
34.9328760667
 11
57.8028141474
 21
34.9252462965
  0
LINE
  5
3F0
100
AcDbEntity
  8
DEFAULT_2
100
AcDbLine
 62
8
  6
CONTINUOUS
 10
61.4548268448
 20
34.9395941506
 11
61.4299971037
 21
34.895733417
  0
LINE
  5
3F1
100
AcDbEntity
  8
DEFAULT_2
100
AcDbLine
 62
8
  6
CONTINUOUS
 10
69.48021274
 20
22.5501729266
 11
69.45753271
 21
22.5102160483
  0
LINE
  5
3F2
100
AcDbEntity
  8
DEFAULT_2
100
AcDbLine
 62
8
  6
CONTINUOUS
 10
59.4286936198
 20
35.9668087531
 11
59.453635866
 21
36.0102576894
  0
LINE
  5
3F3
100
AcDbEntity
  8
0
100
AcDbLine
 62
7
  6
CONTINUOUS
 10
79.9576559559
 20
29.9681967416
 11
80.3413928978
 21
30.6214119327
  0
LINE
  5
3F4
100
AcDbEntity
  8
DEFAULT_2
100
AcDbLine
 62
8
  6
CONTINUOUS
 10
42.241386235
 20
33.3775506682
 11
42.2447188036
 21
33.3832123424
  0
LINE
  5
3F5
100
AcDbEntity
  8
DEFAULT_2
100
AcDbLine
 62
8
  6
CONTINUOUS
 10
40.6323015825
 20
33.7969508277
 11
40.6234324018
 21
33.7819782278
  0
LINE
  5
3F6
100
AcDbEntity
  8
DEFAULT_2
100
AcDbLine
 62
8
  6
CONTINUOUS
 10
69.8033198412
 20
23.5949642357
 11
69.7876238463
 21
23.5686633665
  0
LINE
  5
3F7
100
AcDbEntity
  8
DEFAULT_2
100
AcDbLine
 62
8
  6
CONTINUOUS
 10
56.3066525075
 20
35.8393257079
 11
56.3110923638
 21
35.8467320258
  0
LINE
  5
3F8
100
AcDbEntity
  8
DEFAULT_2
100
AcDbLine
 62
8
  6
CONTINUOUS
 10
69.45753271
 20
22.5102160483
 11
69.433811543
 21
22.4708682268
  0
LINE
  5
3F9
100
AcDbEntity
  8
DEFAULT_2
100
AcDbLine
 62
8
  6
CONTINUOUS
 10
57.8028141474
 20
34.9252462965
 11
57.7982930879
 21
34.9177677889
  0
LINE
  5
3FA
100
AcDbEntity
  8
DEFAULT_2
100
AcDbLine
 62
8
  6
CONTINUOUS
 10
61.4299971037
 20
34.895733417
 11
61.4034798486
 21
34.8530129335
  0
LINE
  5
3FB
100
AcDbEntity
  8
DEFAULT_2
100
AcDbLine
 62
8
  6
CONTINUOUS
 10
69.8033198412
 20
23.5949642357
 11
79.9436785618
 21
39.8229304332
  0
LINE
  5
3FC
100
AcDbEntity
  8
DEFAULT_2
100
AcDbLine
 62
8
  6
CONTINUOUS
 10
59.453635866
 20
36.0102576894
 11
59.4801202642
 21
36.0523281647
  0
LINE
  5
3FD
100
AcDbEntity
  8
DEFAULT_2
100
AcDbLine
 62
8
  6
CONTINUOUS
 10
40.6416487223
 20
33.8116317544
 11
40.6323015825
 21
33.7969508277
  0
LINE
  5
3FE
100
AcDbEntity
  8
DEFAULT_2
100
AcDbLine
 62
8
  6
CONTINUOUS
 10
42.2378490203
 20
33.3720141227
 11
42.241386235
 21
33.3775506682
  0
LINE
  5
3FF
100
AcDbEntity
  8
DEFAULT_2
100
AcDbLine
 62
8
  6
CONTINUOUS
 10
69.433811543
 20
22.4708682268
 11
69.4090658151
 21
22.432156512
  0
LINE
  5
400
100
AcDbEntity
  8
DEFAULT_2
100
AcDbLine
 62
8
  6
CONTINUOUS
 10
56.3110923638
 20
35.8467320258
 11
56.3157927863
 21
35.8539783279
  0
LINE
  5
401
100
AcDbEntity
  8
0
100
AcDbLine
 62
7
  6
CONTINUOUS
 10
79.545702472
 20
29.3334486419
 11
79.9576559559
 21
29.9681967416
  0
LINE
  5
402
100
AcDbEntity
  8
DEFAULT_2
100
AcDbLine
 62
8
  6
CONTINUOUS
 10
57.7982930879
 20
34.9177677889
 11
57.793514817
 21
34.9104516059
  0
LINE
  5
403
100
AcDbEntity
  8
DEFAULT_2
100
AcDbLine
 62
8
  6
CONTINUOUS
 10
69.4090658151
 20
22.432156512
 11
69.3833121026
 21
22.3941079537
  0
LINE
  5
404
100
AcDbEntity
  8
DEFAULT_2
100
AcDbLine
 62
8
  6
CONTINUOUS
 10
61.4034798486
 20
34.8530129335
 11
61.3752661256
 21
34.8113933504
  0
LINE
  5
405
100
AcDbEntity
  8
DEFAULT_2
100
AcDbLine
 62
8
  6
CONTINUOUS
 10
40.6514564354
 20
33.8260110604
 11
40.6416487223
 21
33.8116317544
  0
LINE
  5
406
100
AcDbEntity
  8
DEFAULT_2
100
AcDbLine
 62
8
  6
CONTINUOUS
 10
59.4801202642
 20
36.0523281647
 11
59.5082835841
 21
36.0932936116
  0
LINE
  5
407
100
AcDbEntity
  8
DEFAULT_2
100
AcDbLine
 62
8
  6
CONTINUOUS
 10
42.2341149303
 20
33.3666073201
 11
42.2378490203
 21
33.3720141227
  0
LINE
  5
408
100
AcDbEntity
  8
DEFAULT_2
100
AcDbLine
 62
8
  6
CONTINUOUS
 10
56.3157927863
 20
35.8539783279
 11
56.3207508266
 21
35.8610541253
  0
LINE
  5
409
100
AcDbEntity
  8
DEFAULT_2
100
AcDbLine
 62
8
  6
CONTINUOUS
 10
57.793514817
 20
34.9104516059
 11
57.7884844804
 21
34.9033088094
  0
LINE
  5
40A
100
AcDbEntity
  8
0
100
AcDbLine
 62
7
  6
CONTINUOUS
 10
79.1029698849
 20
28.7137326382
 11
79.545702472
 21
29.3334486419
  0
LINE
  5
40B
100
AcDbEntity
  8
DEFAULT_2
100
AcDbLine
 62
8
  6
CONTINUOUS
 10
69.3833121026
 20
22.3941079537
 11
69.3565674421
 21
22.356749293
  0
LINE
  5
40C
100
AcDbEntity
  8
0
100
AcDbLine
 62
7
  6
CONTINUOUS
 10
59.2277818021
 20
14.9008650728
 11
59.2314566314
 21
14.9059652629
  0
LINE
  5
40D
100
AcDbEntity
  8
DEFAULT_2
100
AcDbLine
 62
8
  6
CONTINUOUS
 10
40.6617073363
 20
33.8400787985
 11
40.6514564354
 21
33.8260110604
  0
LINE
  5
40E
100
AcDbEntity
  8
DEFAULT_2
100
AcDbLine
 62
8
  6
CONTINUOUS
 10
61.3752661256
 20
34.8113933504
 11
61.345367555
 21
34.770891277
  0
LINE
  5
40F
100
AcDbEntity
  8
DEFAULT_2
100
AcDbLine
 62
8
  6
CONTINUOUS
 10
42.2301917353
 20
33.3613348748
 11
42.2341149303
 21
33.3666073201
  0
LINE
  5
410
100
AcDbEntity
  8
DEFAULT_2
100
AcDbLine
 62
8
  6
CONTINUOUS
 10
59.5082835841
 20
36.0932936116
 11
59.537958046
 21
36.1329388566
  0
LINE
  5
411
100
AcDbEntity
  8
DEFAULT_2
100
AcDbLine
 62
8
  6
CONTINUOUS
 10
56.3207508266
 20
35.8610541253
 11
56.3257387789
 21
35.8676625666
  0
LINE
  5
412
100
AcDbEntity
  8
DEFAULT_2
100
AcDbLine
 62
8
  6
CONTINUOUS
 10
69.3565674421
 20
22.356749293
 11
69.3288507127
 21
22.320106037
  0
LINE
  5
413
100
AcDbEntity
  8
DEFAULT_2
100
AcDbLine
 62
8
  6
CONTINUOUS
 10
57.7884844804
 20
34.9033088094
 11
57.7832072234
 21
34.8963504613
  0
LINE
  5
414
100
AcDbEntity
  8
DEFAULT_2
100
AcDbLine
 62
8
  6
CONTINUOUS
 10
40.6723840392
 20
33.8538250214
 11
40.6617073363
 21
33.8400787985
  0
LINE
  5
415
100
AcDbEntity
  8
0
100
AcDbLine
 62
7
  6
CONTINUOUS
 10
78.607715334
 20
28.0767454263
 11
79.1029698849
 21
28.7137326382
  0
LINE
  5
416
100
AcDbEntity
  8
DEFAULT_2
100
AcDbLine
 62
8
  6
CONTINUOUS
 10
69.3288507127
 20
22.320106037
 11
69.3001812539
 21
22.2842033842
  0
LINE
  5
417
100
AcDbEntity
  8
DEFAULT_2
100
AcDbLine
 62
8
  6
CONTINUOUS
 10
42.2260872061
 20
33.356201401
 11
42.2301917353
 21
33.3613348748
  0
LINE
  5
418
100
AcDbEntity
  8
DEFAULT_2
100
AcDbLine
 62
8
  6
CONTINUOUS
 10
61.345367555
 20
34.770891277
 11
61.3138682808
 21
34.7316212019
  0
LINE
  5
419
100
AcDbEntity
  8
DEFAULT_2
100
AcDbLine
 62
8
  6
CONTINUOUS
 10
56.3257387789
 20
35.8676625666
 11
56.3309550898
 21
35.8740944862
  0
LINE
  5
41A
100
AcDbEntity
  8
DEFAULT_2
100
AcDbLine
 62
8
  6
CONTINUOUS
 10
59.537958046
 20
36.1329388566
 11
59.5691973824
 21
36.1713630368
  0
LINE
  5
41B
100
AcDbEntity
  8
0
100
AcDbLine
 62
7
  6
CONTINUOUS
 10
78.0386900598
 20
27.3784161014
 11
78.607715334
 21
28.0767454263
  0
LINE
  5
41C
100
AcDbEntity
  8
DEFAULT_2
100
AcDbLine
 62
8
  6
CONTINUOUS
 10
57.7832072234
 20
34.8963504613
 11
57.7775776672
 21
34.8894547514
  0
LINE
  5
41D
100
AcDbEntity
  8
DEFAULT_2
100
AcDbLine
 62
8
  6
CONTINUOUS
 10
69.3001812539
 20
22.2842033842
 11
69.2705784053
 21
22.2490665328
  0
LINE
  5
41E
100
AcDbEntity
  8
0
100
AcDbLine
 62
7
  6
CONTINUOUS
 10
77.379843507
 20
26.6078206709
 11
78.0386900598
 21
27.3784161014
  0
LINE
  5
41F
100
AcDbEntity
  8
DEFAULT_2
100
AcDbLine
 62
8
  6
CONTINUOUS
 10
61.3138682808
 20
34.7316212019
 11
61.2808492434
 21
34.6936775515
  0
LINE
  5
420
100
AcDbEntity
  8
DEFAULT_2
100
AcDbLine
 62
8
  6
CONTINUOUS
 10
56.3309550898
 20
35.8740944862
 11
56.3363944169
 21
35.8803394534
  0
LINE
  5
421
100
AcDbEntity
  8
DEFAULT_2
100
AcDbLine
 62
8
  6
CONTINUOUS
 10
57.7775776672
 20
34.8894547514
 11
57.771706995
 21
34.8827654834
  0
LINE
  5
422
100
AcDbEntity
  8
DEFAULT_2
100
AcDbLine
 62
8
  6
CONTINUOUS
 10
59.5691973824
 20
36.1713630368
 11
59.6017904783
 21
36.2083338841
  0
LINE
  5
423
100
AcDbEntity
  8
DEFAULT_2
100
AcDbLine
 62
8
  6
CONTINUOUS
 10
69.2705784053
 20
22.2490665328
 11
69.2356293455
 21
22.2098793439
  0
LINE
  5
424
100
AcDbEntity
  8
0
100
AcDbLine
 62
7
  6
CONTINUOUS
 10
76.6110414264
 20
25.7557656339
 11
77.379843507
 21
26.6078206709
  0
LINE
  5
425
100
AcDbEntity
  8
DEFAULT_2
100
AcDbLine
 62
8
  6
CONTINUOUS
 10
56.3363944169
 20
35.8803394534
 11
56.3420514182
 21
35.8863870378
  0
LINE
  5
426
100
AcDbEntity
  8
DEFAULT_2
100
AcDbLine
 62
8
  6
CONTINUOUS
 10
57.771706995
 20
34.8827654834
 11
57.7656055039
 21
34.8762857949
  0
LINE
  5
427
100
AcDbEntity
  8
DEFAULT_2
100
AcDbLine
 62
8
  6
CONTINUOUS
 10
61.2808492434
 20
34.6936775515
 11
61.2463375811
 21
34.6570862624
  0
LINE
  5
428
100
AcDbEntity
  8
DEFAULT_2
100
AcDbLine
 62
8
  6
CONTINUOUS
 10
69.2356293455
 20
22.2098793439
 11
69.1995206021
 21
22.1717579433
  0
LINE
  5
429
100
AcDbEntity
  8
DEFAULT_2
100
AcDbLine
 62
8
  6
CONTINUOUS
 10
59.6017904783
 20
36.2083338841
 11
59.6358275209
 21
36.2439797672
  0
LINE
  5
42A
100
AcDbEntity
  8
0
100
AcDbLine
 62
7
  6
CONTINUOUS
 10
75.7087319207
 20
24.8146779337
 11
76.6110414264
 21
25.7557656339
  0
LINE
  5
42B
100
AcDbEntity
  8
DEFAULT_2
100
AcDbLine
 62
8
  6
CONTINUOUS
 10
53.7496431305
 20
16.1288950019
 11
53.3919018665
 21
15.7711537379
  0
LINE
  5
42C
100
AcDbEntity
  8
DEFAULT_2
100
AcDbLine
 62
8
  6
CONTINUOUS
 10
56.3420514182
 20
35.8863870378
 11
56.3479207513
 21
35.8922268088
  0
LINE
  5
42D
100
AcDbEntity
  8
DEFAULT_2
100
AcDbLine
 62
8
  6
CONTINUOUS
 10
69.1995206021
 20
22.1717579433
 11
69.1622863528
 21
22.1347349762
  0
LINE
  5
42E
100
AcDbEntity
  8
DEFAULT_2
100
AcDbLine
 62
8
  6
CONTINUOUS
 10
57.7656055039
 20
34.8762857949
 11
57.7592834914
 21
34.8700188235
  0
LINE
  5
42F
100
AcDbEntity
  8
DEFAULT_2
100
AcDbLine
 62
8
  6
CONTINUOUS
 10
61.2463375811
 20
34.6570862624
 11
61.2103413075
 21
34.6218629705
  0
LINE
  5
430
100
AcDbEntity
  8
0
100
AcDbLine
 62
7
  6
CONTINUOUS
 10
74.6888290614
 20
23.8202953345
 11
75.7087319207
 21
24.8146779337
  0
LINE
  5
431
100
AcDbEntity
  8
DEFAULT_2
100
AcDbLine
 62
8
  6
CONTINUOUS
 10
59.6358275209
 20
36.2439797672
 11
59.6712184244
 21
36.278212887
  0
LINE
  5
432
100
AcDbEntity
  8
DEFAULT_2
100
AcDbLine
 62
8
  6
CONTINUOUS
 10
69.1622863528
 20
22.1347349762
 11
69.1239607756
 21
22.0988430882
  0
LINE
  5
433
100
AcDbEntity
  8
DEFAULT_2
100
AcDbLine
 62
8
  6
CONTINUOUS
 10
57.7592834914
 20
34.8700188235
 11
57.7527512545
 21
34.8639677066
  0
LINE
  5
434
100
AcDbEntity
  8
DEFAULT_2
100
AcDbLine
 62
8
  6
CONTINUOUS
 10
56.3479207513
 20
35.8922268088
 11
56.3539970741
 21
35.8978483357
  0
LINE
  5
435
100
AcDbEntity
  8
0
100
AcDbLine
 62
7
  6
CONTINUOUS
 10
73.6122261578
 20
22.8428382853
 11
74.6888290614
 21
23.8202953345
  0
LINE
  5
436
100
AcDbEntity
  8
DEFAULT_2
100
AcDbLine
 62
8
  6
CONTINUOUS
 10
61.2103413075
 20
34.6218629705
 11
61.1729601728
 21
34.5881129424
  0
LINE
  5
437
100
AcDbEntity
  8
DEFAULT_2
100
AcDbLine
 62
8
  6
CONTINUOUS
 10
59.6712184244
 20
36.278212887
 11
59.707938817
 21
36.3110158689
  0
LINE
  5
438
100
AcDbEntity
  8
DEFAULT_2
100
AcDbLine
 62
8
  6
CONTINUOUS
 10
69.1239607756
 20
22.0988430882
 11
69.0845780485
 21
22.0641149246
  0
LINE
  5
439
100
AcDbEntity
  8
DEFAULT_2
100
AcDbLine
 62
8
  6
CONTINUOUS
 10
57.7527512545
 20
34.8639677066
 11
57.7460190905
 21
34.8581355819
  0
LINE
  5
43A
100
AcDbEntity
  8
DEFAULT_2
100
AcDbLine
 62
8
  6
CONTINUOUS
 10
56.3539970741
 20
35.8978483357
 11
56.3602750445
 21
35.9032411881
  0
LINE
  5
43B
100
AcDbEntity
  8
0
100
AcDbLine
 62
7
  6
CONTINUOUS
 10
72.5036282613
 20
21.9066507731
 11
73.6122261578
 21
22.8428382853
  0
LINE
  5
43C
100
AcDbEntity
  8
DEFAULT_2
100
AcDbLine
 62
8
  6
CONTINUOUS
 10
61.1729601728
 20
34.5881129424
 11
61.1342472164
 21
34.5558893227
  0
LINE
  5
43D
100
AcDbEntity
  8
DEFAULT_2
100
AcDbLine
 62
8
  6
CONTINUOUS
 10
69.0845780485
 20
22.0641149246
 11
69.0441723494
 21
22.0305831309
  0
LINE
  5
43E
100
AcDbEntity
  8
DEFAULT_2
100
AcDbLine
 62
8
  6
CONTINUOUS
 10
59.707938817
 20
36.3110158689
 11
59.7459447223
 21
36.3423480668
  0
LINE
  5
43F
100
AcDbEntity
  8
DEFAULT_2
100
AcDbLine
 62
8
  6
CONTINUOUS
 10
57.7460190905
 20
34.8581355819
 11
57.7390972968
 21
34.8525255868
  0
LINE
  5
440
100
AcDbEntity
  8
0
100
AcDbLine
 62
7
  6
CONTINUOUS
 10
71.3615273406
 20
21.0103036287
 11
72.5036282613
 21
21.9066507731
  0
LINE
  5
441
100
AcDbEntity
  8
DEFAULT_2
100
AcDbLine
 62
8
  6
CONTINUOUS
 10
69.0441723494
 20
22.0305831309
 11
69.0027778563
 21
21.9982803523
  0
LINE
  5
442
100
AcDbEntity
  8
DEFAULT_2
100
AcDbLine
 62
8
  6
CONTINUOUS
 10
61.1342472164
 20
34.5558893227
 11
61.0942672842
 21
34.5252517861
  0
LINE
  5
443
100
AcDbEntity
  8
DEFAULT_2
100
AcDbLine
 62
8
  6
CONTINUOUS
 10
69.0027778563
 20
21.9982803523
 11
68.9604298298
 21
21.9672378559
  0
LINE
  5
444
100
AcDbEntity
  8
0
100
AcDbLine
 62
7
  6
CONTINUOUS
 10
70.1882524726
 20
20.1556569854
 11
71.3615273406
 21
21.0103036287
  0
LINE
  5
445
100
AcDbEntity
  8
DEFAULT_2
100
AcDbLine
 62
8
  6
CONTINUOUS
 10
68.9604298298
 20
21.9672378559
 11
68.9171678624
 21
21.9374813945
  0
LINE
  5
446
100
AcDbEntity
  8
0
100
AcDbLine
 62
7
  6
CONTINUOUS
 10
68.9850165579
 20
19.3435821988
 11
70.1882524726
 21
20.1556569854
  0
LINE
  5
447
100
AcDbEntity
  8
0
100
AcDbLine
 62
7
  6
CONTINUOUS
 10
55.7455210825
 20
13.948898384
 11
55.7454628425
 21
13.9488594432
  0
LINE
  5
448
100
AcDbEntity
  8
DEFAULT_2
100
AcDbLine
 62
8
  6
CONTINUOUS
 10
68.9171678624
 20
21.9374813945
 11
68.873032629
 21
21.9090353423
  0
LINE
  5
449
100
AcDbEntity
  8
0
100
AcDbLine
 62
7
  6
CONTINUOUS
 10
67.753433415
 20
18.5751818163
 11
68.9850165579
 21
19.3435821988
  0
LINE
  5
44A
100
AcDbEntity
  8
DEFAULT_2
100
AcDbLine
 62
8
  6
CONTINUOUS
 10
68.873032629
 20
21.9090353423
 11
68.8280648048
 21
21.8819240738
  0
LINE
  5
44B
100
AcDbEntity
  8
0
100
AcDbLine
 62
7
  6
CONTINUOUS
 10
66.4949588378
 20
17.8513625739
 11
67.753433415
 21
18.5751818163
  0
LINE
  5
44C
100
AcDbEntity
  8
0
100
AcDbLine
 62
7
  6
CONTINUOUS
 10
56.9029882578
 20
14.1978892738
 11
56.894806822
 21
14.1932759215
  0
LINE
  5
44D
100
AcDbEntity
  8
DEFAULT_2
100
AcDbLine
 62
8
  6
CONTINUOUS
 10
68.8280648048
 20
21.8819240738
 11
68.7823050649
 21
21.8561719633
  0
LINE
  5
44E
100
AcDbEntity
  8
0
100
AcDbLine
 62
7
  6
CONTINUOUS
 10
65.2114470264
 20
17.1731903673
 11
66.4949588378
 21
17.8513625739
  0
LINE
  5
44F
100
AcDbEntity
  8
DEFAULT_2
100
AcDbLine
 62
8
  6
CONTINUOUS
 10
68.7823050649
 20
21.8561719633
 11
68.7357940843
 21
21.831803385
  0
LINE
  5
450
100
AcDbEntity
  8
DEFAULT_2
100
AcDbLine
 62
8
  6
CONTINUOUS
 10
68.7357940843
 20
21.831803385
 11
68.6885725383
 21
21.8088427134
  0
LINE
  5
451
100
AcDbEntity
  8
0
100
AcDbLine
 62
7
  6
CONTINUOUS
 10
63.9045438098
 20
16.541527287
 11
65.2114470264
 21
17.1731903673
  0
LINE
  5
452
100
AcDbEntity
  8
DEFAULT_2
100
AcDbLine
 62
8
  6
CONTINUOUS
 10
68.6885725383
 20
21.8088427134
 11
68.6406817806
 21
21.787312842
  0
LINE
  5
453
100
AcDbEntity
  8
0
100
AcDbLine
 62
7
  6
CONTINUOUS
 10
62.5757604936
 20
15.9571022832
 11
63.9045438098
 21
16.541527287
  0
LINE
  5
454
100
AcDbEntity
  8
DEFAULT_2
100
AcDbLine
 62
8
  6
CONTINUOUS
 10
68.6406817806
 20
21.787312842
 11
68.5921658808
 21
21.7672307416
  0
LINE
  5
455
100
AcDbEntity
  8
0
100
AcDbLine
 62
7
  6
CONTINUOUS
 10
62.3353078966
 20
15.9317155501
 11
62.39168545
 21
15.9526476332
  0
LINE
  5
456
100
AcDbEntity
  8
DEFAULT_2
100
AcDbLine
 62
8
  6
CONTINUOUS
 10
41.3866554355
 20
33.0858145145
 11
41.2509295153
 21
33.0473698969
  0
LINE
  5
457
100
AcDbEntity
  8
DEFAULT_2
100
AcDbLine
 62
8
  6
CONTINUOUS
 10
35.0595689234
 20
28.0802975366
 11
34.2692006892
 21
27.8572861485
  0
LINE
  5
458
100
AcDbEntity
  8
DEFAULT_2
100
AcDbLine
 62
8
  6
CONTINUOUS
 10
41.5225253429
 20
33.1237479884
 11
41.3866554355
 21
33.0858145145
  0
LINE
  5
459
100
AcDbEntity
  8
DEFAULT_2
100
AcDbLine
 62
8
  6
CONTINUOUS
 10
42.0820686919
 20
33.2742691419
 11
42.0908850161
 21
33.2767269167
  0
LINE
  5
45A
100
AcDbEntity
  8
DEFAULT_2
100
AcDbLine
 62
8
  6
CONTINUOUS
 10
42.2556659945
 20
33.3244541135
 11
42.4134748019
 21
33.3680437628
  0
LINE
  5
45B
100
AcDbEntity
  8
DEFAULT_2
100
AcDbLine
 62
8
  6
CONTINUOUS
 10
40.9453237339
 20
32.9591142622
 11
40.9568833004
 21
32.9622954625
  0
LINE
  5
45C
100
AcDbEntity
  8
DEFAULT_2
100
AcDbLine
 62
8
  6
CONTINUOUS
 10
41.6577843804
 20
33.1609633772
 11
41.5225253429
 21
33.1237479884
  0
LINE
  5
45D
100
AcDbEntity
  8
DEFAULT_2
100
AcDbLine
 62
8
  6
CONTINUOUS
 10
42.0060337996
 20
34.4904962465
 11
41.8541193742
 21
34.4491428828
  0
LINE
  5
45E
100
AcDbEntity
  8
DEFAULT_2
100
AcDbLine
 62
8
  6
CONTINUOUS
 10
41.7931816446
 20
33.1976717594
 11
41.6577843804
 21
33.1609633772
  0
LINE
  5
45F
100
AcDbEntity
  8
DEFAULT_2
100
AcDbLine
 62
8
  6
CONTINUOUS
 10
56.4402899662
 20
35.945315448
 11
56.4477634662
 21
35.9473362239
  0
LINE
  5
460
100
AcDbEntity
  8
DEFAULT_2
100
AcDbLine
 62
8
  6
CONTINUOUS
 10
60.7054957329
 20
34.3341165582
 11
60.6733083133
 21
34.3254255409
  0
LINE
  5
461
100
AcDbEntity
  8
DEFAULT_2
100
AcDbLine
 62
8
  6
CONTINUOUS
 10
35.6543117615
 20
28.2404303033
 11
35.0595689234
 21
28.0802975366
  0
LINE
  5
462
100
AcDbEntity
  8
DEFAULT_2
100
AcDbLine
 62
8
  6
CONTINUOUS
 10
60.17298869
 20
36.5614790126
 11
60.2058907449
 21
36.5703324588
  0
LINE
  5
463
100
AcDbEntity
  8
DEFAULT_2
100
AcDbLine
 62
8
  6
CONTINUOUS
 10
41.8626068622
 20
34.4514213901
 11
41.8533499602
 21
34.4489306076
  0
LINE
  5
464
100
AcDbEntity
  8
DEFAULT_2
100
AcDbLine
 62
8
  6
CONTINUOUS
 10
42.0732302651
 20
33.2718934493
 11
42.0820686919
 21
33.2742691419
  0
LINE
  5
465
100
AcDbEntity
  8
DEFAULT_2
100
AcDbLine
 62
8
  6
CONTINUOUS
 10
41.9287148275
 20
33.233873205
 11
41.7931816446
 21
33.1976717594
  0
LINE
  5
466
100
AcDbEntity
  8
DEFAULT_2
100
AcDbLine
 62
8
  6
CONTINUOUS
 10
42.4134748019
 20
33.3680437628
 11
42.6312004148
 21
33.4257750605
  0
LINE
  5
467
100
AcDbEntity
  8
DEFAULT_2
100
AcDbLine
 62
8
  6
CONTINUOUS
 10
41.9287148275
 20
33.233873205
 11
42.0732302651
 21
33.2718934493
  0
LINE
  5
468
100
AcDbEntity
  8
DEFAULT_2
100
AcDbLine
 62
8
  6
CONTINUOUS
 10
42.1583334719
 20
34.530425346
 11
42.0060337996
 21
34.4904962465
  0
LINE
  5
469
100
AcDbEntity
  8
DEFAULT_2
100
AcDbLine
 62
8
  6
CONTINUOUS
 10
40.9337204474
 20
32.9561028518
 11
40.9453237339
 21
32.9591142622
  0
LINE
  5
46A
100
AcDbEntity
  8
DEFAULT_2
100
AcDbLine
 62
8
  6
CONTINUOUS
 10
36.2506704841
 20
28.3944365558
 11
35.6543117615
 21
28.2404303033
  0
LINE
  5
46B
100
AcDbEntity
  8
DEFAULT_2
100
AcDbLine
 62
8
  6
CONTINUOUS
 10
57.6325439323
 20
34.7997560001
 11
57.6235190167
 21
34.7974279032
  0
LINE
  5
46C
100
AcDbEntity
  8
DEFAULT_2
100
AcDbLine
 62
8
  6
CONTINUOUS
 10
42.6312004148
 20
33.4257750605
 11
42.8494980106
 21
33.4812936985
  0
LINE
  5
46D
100
AcDbEntity
  8
DEFAULT_2
100
AcDbLine
 62
8
  6
CONTINUOUS
 10
42.3861214569
 20
34.5883488926
 11
42.1583334719
 21
34.530425346
  0
LINE
  5
46E
100
AcDbEntity
  8
DEFAULT_2
100
AcDbLine
 62
8
  6
CONTINUOUS
 10
36.8485820053
 20
28.5423001118
 11
36.2506704841
 21
28.3944365558
  0
LINE
  5
46F
100
AcDbEntity
  8
DEFAULT_2
100
AcDbLine
 62
8
  6
CONTINUOUS
 10
42.6143925832
 20
34.6443201862
 11
42.3861214569
 21
34.5883488926
  0
LINE
  5
470
100
AcDbEntity
  8
DEFAULT_2
100
AcDbLine
 62
8
  6
CONTINUOUS
 10
42.8494980106
 20
33.4812936985
 11
43.118123789
 21
33.5467468903
  0
LINE
  5
471
100
AcDbEntity
  8
DEFAULT_2
100
AcDbLine
 62
8
  6
CONTINUOUS
 10
60.6733083133
 20
34.3254255409
 11
60.6408906638
 21
34.3176391714
  0
LINE
  5
472
100
AcDbEntity
  8
DEFAULT_2
100
AcDbLine
 62
8
  6
CONTINUOUS
 10
40.9220619655
 20
32.9533146409
 11
40.9337204474
 21
32.9561028518
  0
LINE
  5
473
100
AcDbEntity
  8
DEFAULT_2
100
AcDbLine
 62
8
  6
CONTINUOUS
 10
60.2058907449
 20
36.5703324588
 11
60.2390291038
 21
36.5782537856
  0
LINE
  5
474
100
AcDbEntity
  8
DEFAULT_2
100
AcDbLine
 62
8
  6
CONTINUOUS
 10
41.8719335834
 20
34.4536401873
 11
41.8626068622
 21
34.4514213901
  0
LINE
  5
475
100
AcDbEntity
  8
DEFAULT_2
100
AcDbLine
 62
8
  6
CONTINUOUS
 10
37.4479826437
 20
28.6840054454
 11
36.8485820053
 21
28.5423001118
  0
LINE
  5
476
100
AcDbEntity
  8
DEFAULT_2
100
AcDbLine
 62
8
  6
CONTINUOUS
 10
56.4477634662
 20
35.9473362239
 11
56.4552979745
 21
35.9491069579
  0
LINE
  5
477
100
AcDbEntity
  8
DEFAULT_2
100
AcDbLine
 62
8
  6
CONTINUOUS
 10
42.9085436785
 20
34.7133457707
 11
42.6143925832
 21
34.6443201862
  0
LINE
  5
478
100
AcDbEntity
  8
DEFAULT_2
100
AcDbLine
 62
8
  6
CONTINUOUS
 10
43.118123789
 20
33.5467468903
 11
43.3874096396
 21
33.6094371282
  0
LINE
  5
479
100
AcDbEntity
  8
DEFAULT_2
100
AcDbLine
 62
8
  6
CONTINUOUS
 10
57.6235190167
 20
34.7974279032
 11
57.6144400678
 21
34.795357435
  0
LINE
  5
47A
100
AcDbEntity
  8
DEFAULT_2
100
AcDbLine
 62
8
  6
CONTINUOUS
 10
38.0488088692
 20
28.8195373919
 11
37.4479826437
 21
28.6840054454
  0
LINE
  5
47B
100
AcDbEntity
  8
DEFAULT_2
100
AcDbLine
 62
8
  6
CONTINUOUS
 10
43.2033208572
 20
34.7796700903
 11
42.9085436785
 21
34.7133457707
  0
LINE
  5
47C
100
AcDbEntity
  8
DEFAULT_2
100
AcDbLine
 62
8
  6
CONTINUOUS
 10
43.3874096396
 20
33.6094371282
 11
43.6980667841
 21
33.6783922475
  0
LINE
  5
47D
100
AcDbEntity
  8
DEFAULT_2
100
AcDbLine
 62
8
  6
CONTINUOUS
 10
43.552981543
 20
34.8556173079
 11
43.2033208572
 21
34.7796700903
  0
LINE
  5
47E
100
AcDbEntity
  8
DEFAULT_2
100
AcDbLine
 62
8
  6
CONTINUOUS
 10
38.6509983531
 20
28.9488815773
 11
38.0488088692
 21
28.8195373919
  0
LINE
  5
47F
100
AcDbEntity
  8
DEFAULT_2
100
AcDbLine
 62
8
  6
CONTINUOUS
 10
40.9103368132
 20
32.9508030393
 11
40.9220619655
 21
32.9533146409
  0
LINE
  5
480
100
AcDbEntity
  8
DEFAULT_2
100
AcDbLine
 62
8
  6
CONTINUOUS
 10
43.6980667841
 20
33.6783922475
 11
44.0094225215
 21
33.7441228998
  0
LINE
  5
481
100
AcDbEntity
  8
DEFAULT_2
100
AcDbLine
 62
8
  6
CONTINUOUS
 10
60.6408906638
 20
34.3176391714
 11
60.6083121041
 21
34.3107764607
  0
LINE
  5
482
100
AcDbEntity
  8
DEFAULT_2
100
AcDbLine
 62
8
  6
CONTINUOUS
 10
43.903157604
 20
34.9291572674
 11
43.552981543
 21
34.8556173079
  0
LINE
  5
483
100
AcDbEntity
  8
DEFAULT_2
100
AcDbLine
 62
8
  6
CONTINUOUS
 10
60.2390291038
 20
36.5782537856
 11
60.2726402533
 21
36.5852841752
  0
LINE
  5
484
100
AcDbEntity
  8
DEFAULT_2
100
AcDbLine
 62
8
  6
CONTINUOUS
 10
41.880467087
 20
34.45540334
 11
41.8719335834
 21
34.4536401873
  0
LINE
  5
485
100
AcDbEntity
  8
DEFAULT_2
100
AcDbLine
 62
8
  6
CONTINUOUS
 10
39.2544878279
 20
29.0720242017
 11
38.6509983531
 21
28.9488815773
  0
LINE
  5
486
100
AcDbEntity
  8
DEFAULT_2
100
AcDbLine
 62
8
  6
CONTINUOUS
 10
44.2919734897
 20
35.0079650585
 11
43.903157604
 21
34.9291572674
  0
LINE
  5
487
100
AcDbEntity
  8
DEFAULT_2
100
AcDbLine
 62
8
  6
CONTINUOUS
 10
56.4552979745
 20
35.9491069579
 11
56.4628850464
 21
35.9506330329
  0
LINE
  5
488
100
AcDbEntity
  8
DEFAULT_2
100
AcDbLine
 62
8
  6
CONTINUOUS
 10
44.0094225215
 20
33.7441228998
 11
44.3483789413
 21
33.812082717
  0
LINE
  5
489
100
AcDbEntity
  8
DEFAULT_2
100
AcDbLine
 62
8
  6
CONTINUOUS
 10
57.6144400678
 20
34.795357435
 11
57.6048080665
 21
34.7934469143
  0
LINE
  5
48A
100
AcDbEntity
  8
DEFAULT_2
100
AcDbLine
 62
8
  6
CONTINUOUS
 10
39.8592090715
 20
29.1889529715
 11
39.2544878279
 21
29.0720242017
  0
LINE
  5
48B
100
AcDbEntity
  8
DEFAULT_2
100
AcDbLine
 62
8
  6
CONTINUOUS
 10
44.6815404344
 20
35.0829377242
 11
44.2919734897
 21
35.0079650585
  0
LINE
  5
48C
100
AcDbEntity
  8
DEFAULT_2
100
AcDbLine
 62
8
  6
CONTINUOUS
 10
44.3483789413
 20
33.812082717
 11
44.6880095813
 21
33.8765914633
  0
LINE
  5
48D
100
AcDbEntity
  8
DEFAULT_2
100
AcDbLine
 62
8
  6
CONTINUOUS
 10
40.9005750154
 20
32.9489684188
 11
40.9103368132
 21
32.9508030393
  0
LINE
  5
48E
100
AcDbEntity
  8
DEFAULT_2
100
AcDbLine
 62
8
  6
CONTINUOUS
 10
40.4651012739
 20
29.2996544406
 11
39.8592090715
 21
29.1889529715
  0
LINE
  5
48F
100
AcDbEntity
  8
DEFAULT_2
100
AcDbLine
 62
8
  6
CONTINUOUS
 10
60.6083121041
 20
34.3107764607
 11
60.5755524872
 21
34.3048350553
  0
LINE
  5
490
100
AcDbEntity
  8
DEFAULT_2
100
AcDbLine
 62
8
  6
CONTINUOUS
 10
60.2726402533
 20
36.5852841752
 11
60.3064395751
 21
36.5913490144
  0
LINE
  5
491
100
AcDbEntity
  8
DEFAULT_2
100
AcDbLine
 62
8
  6
CONTINUOUS
 10
44.6880095813
 20
33.8765914633
 11
45.0496331121
 21
33.9414843259
  0
LINE
  5
492
100
AcDbEntity
  8
DEFAULT_2
100
AcDbLine
 62
8
  6
CONTINUOUS
 10
45.1035721807
 20
35.1585434717
 11
44.6815404344
 21
35.0829377242
  0
LINE
  5
493
100
AcDbEntity
  8
DEFAULT_2
100
AcDbLine
 62
8
  6
CONTINUOUS
 10
41.8890499021
 20
34.4569159788
 11
41.880467087
 21
34.45540334
  0
LINE
  5
494
100
AcDbEntity
  8
DEFAULT_2
100
AcDbLine
 62
8
  6
CONTINUOUS
 10
41.0721053729
 20
29.4041183107
 11
40.4651012739
 21
29.2996544406
  0
LINE
  5
495
100
AcDbEntity
  8
DEFAULT_2
100
AcDbLine
 62
8
  6
CONTINUOUS
 10
57.6048080665
 20
34.7934469143
 11
57.5951328225
 21
34.791798041
  0
LINE
  5
496
100
AcDbEntity
  8
DEFAULT_2
100
AcDbLine
 62
8
  6
CONTINUOUS
 10
45.0496331121
 20
33.9414843259
 11
45.4119071606
 21
34.0026420248
  0
LINE
  5
497
100
AcDbEntity
  8
DEFAULT_2
100
AcDbLine
 62
8
  6
CONTINUOUS
 10
56.4628850464
 20
35.9506330329
 11
56.4705162375
 21
35.9519198322
  0
LINE
  5
498
100
AcDbEntity
  8
DEFAULT_2
100
AcDbLine
 62
8
  6
CONTINUOUS
 10
45.5265667793
 20
35.2286095945
 11
45.1035721807
 21
35.1585434717
  0
LINE
  5
499
100
AcDbEntity
  8
DEFAULT_2
100
AcDbLine
 62
8
  6
CONTINUOUS
 10
40.890766439
 20
32.9473722868
 11
40.9005750154
 21
32.9489684188
  0
LINE
  5
49A
100
AcDbEntity
  8
DEFAULT_2
100
AcDbLine
 62
8
  6
CONTINUOUS
 10
41.6801329461
 20
29.5023295834
 11
41.0721053729
 21
29.4041183107
  0
LINE
  5
49B
100
AcDbEntity
  8
DEFAULT_2
100
AcDbLine
 62
8
  6
CONTINUOUS
 10
45.4119071606
 20
34.0026420248
 11
45.7953871023
 21
34.0632335101
  0
LINE
  5
49C
100
AcDbEntity
  8
DEFAULT_2
100
AcDbLine
 62
8
  6
CONTINUOUS
 10
41.9845706829
 20
29.5490965104
 11
41.6801329461
 21
29.5023295834
  0
LINE
  5
49D
100
AcDbEntity
  8
DEFAULT_2
100
AcDbLine
 62
8
  6
CONTINUOUS
 10
45.9833949562
 20
35.2983110616
 11
45.5265667793
 21
35.2286095945
  0
LINE
  5
49E
100
AcDbEntity
  8
DEFAULT_2
100
AcDbLine
 62
8
  6
CONTINUOUS
 10
60.5755524872
 20
34.3048350553
 11
60.5426359339
 21
34.2998235969
  0
LINE
  5
49F
100
AcDbEntity
  8
DEFAULT_2
100
AcDbLine
 62
8
  6
CONTINUOUS
 10
60.3064395751
 20
36.5913490144
 11
60.3404013228
 21
36.5964397453
  0
LINE
  5
4A0
100
AcDbEntity
  8
DEFAULT_2
100
AcDbLine
 62
8
  6
CONTINUOUS
 10
42.2890417172
 20
29.5942671701
 11
41.9845706829
 21
29.5490965104
  0
LINE
  5
4A1
100
AcDbEntity
  8
DEFAULT_2
100
AcDbLine
 62
8
  6
CONTINUOUS
 10
45.7953871023
 20
34.0632335101
 11
46.1794961181
 21
34.1197031613
  0
LINE
  5
4A2
100
AcDbEntity
  8
DEFAULT_2
100
AcDbLine
 62
8
  6
CONTINUOUS
 10
57.5951328225
 20
34.791798041
 11
57.5854203781
 21
34.7903858713
  0
LINE
  5
4A3
100
AcDbEntity
  8
DEFAULT_2
100
AcDbLine
 62
8
  6
CONTINUOUS
 10
41.897674456
 20
34.4581704622
 11
41.8890499021
 21
34.4569159788
  0
LINE
  5
4A4
100
AcDbEntity
  8
DEFAULT_2
100
AcDbLine
 62
8
  6
CONTINUOUS
 10
42.4822584163
 20
29.6215460967
 11
42.2890417172
 21
29.5942671701
  0
LINE
  5
4A5
100
AcDbEntity
  8
DEFAULT_2
100
AcDbLine
 62
8
  6
CONTINUOUS
 10
46.4410786211
 20
35.3621444943
 11
45.9833949562
 21
35.2983110616
  0
LINE
  5
4A6
100
AcDbEntity
  8
DEFAULT_2
100
AcDbLine
 62
8
  6
CONTINUOUS
 10
56.4705162375
 20
35.9519198322
 11
56.478183103
 21
35.9529727389
  0
LINE
  5
4A7
100
AcDbEntity
  8
DEFAULT_2
100
AcDbLine
 62
8
  6
CONTINUOUS
 10
40.8809178471
 20
32.9460270169
 11
40.890766439
 21
32.9473722868
  0
LINE
  5
4A8
100
AcDbEntity
  8
DEFAULT_2
100
AcDbLine
 62
8
  6
CONTINUOUS
 10
46.1794961181
 20
34.1197031613
 11
46.5859469787
 21
34.1749117967
  0
LINE
  5
4A9
100
AcDbEntity
  8
DEFAULT_2
100
AcDbLine
 62
8
  6
CONTINUOUS
 10
42.6755070122
 20
29.6470744554
 11
42.4822584163
 21
29.6215460967
  0
LINE
  5
4AA
100
AcDbEntity
  8
DEFAULT_2
100
AcDbLine
 62
8
  6
CONTINUOUS
 10
46.7713071417
 20
35.4045536053
 11
46.4410786211
 21
35.3621444943
  0
LINE
  5
4AB
100
AcDbEntity
  8
DEFAULT_2
100
AcDbLine
 62
8
  6
CONTINUOUS
 10
46.5859469787
 20
34.1749117967
 11
46.9929915184
 21
34.2255627392
  0
LINE
  5
4AC
100
AcDbEntity
  8
DEFAULT_2
100
AcDbLine
 62
8
  6
CONTINUOUS
 10
60.5426359339
 20
34.2998235969
 11
60.5096708682
 21
34.2957594703
  0
LINE
  5
4AD
100
AcDbEntity
  8
DEFAULT_2
100
AcDbLine
 62
8
  6
CONTINUOUS
 10
68.1869133381
 20
21.6605088198
 11
68.1347985118
 21
21.6540938574
  0
LINE
  5
4AE
100
AcDbEntity
  8
DEFAULT_2
100
AcDbLine
 62
8
  6
CONTINUOUS
 10
57.5854203781
 20
34.7903858713
 11
57.5756767756
 21
34.7891854614
  0
LINE
  5
4AF
100
AcDbEntity
  8
DEFAULT_2
100
AcDbLine
 62
8
  6
CONTINUOUS
 10
60.3404013228
 20
36.5964397453
 11
60.3746684058
 21
36.6005660553
  0
LINE
  5
4B0
100
AcDbEntity
  8
DEFAULT_2
100
AcDbLine
 62
8
  6
CONTINUOUS
 10
47.1019064996
 20
35.4439733616
 11
46.7713071417
 21
35.4045536053
  0
LINE
  5
4B1
100
AcDbEntity
  8
DEFAULT_2
100
AcDbLine
 62
8
  6
CONTINUOUS
 10
43.0627551321
 20
29.6929719053
 11
42.6755070122
 21
29.6470744554
  0
LINE
  5
4B2
100
AcDbEntity
  8
DEFAULT_2
100
AcDbLine
 62
8
  6
CONTINUOUS
 10
41.9063331765
 20
34.4591591482
 11
41.897674456
 21
34.4581704622
  0
LINE
  5
4B3
100
AcDbEntity
  8
DEFAULT_2
100
AcDbLine
 62
8
  6
CONTINUOUS
 10
46.9929915184
 20
34.2255627392
 11
47.4245432469
 21
34.2742391727
  0
LINE
  5
4B4
100
AcDbEntity
  8
DEFAULT_2
100
AcDbLine
 62
8
  6
CONTINUOUS
 10
47.4328488026
 20
35.4804018759
 11
47.1019064996
 21
35.4439733616
  0
LINE
  5
4B5
100
AcDbEntity
  8
DEFAULT_2
100
AcDbLine
 62
8
  6
CONTINUOUS
 10
40.8710360032
 20
32.9449449833
 11
40.8809178471
 21
32.9460270169
  0
LINE
  5
4B6
100
AcDbEntity
  8
DEFAULT_2
100
AcDbLine
 62
8
  6
CONTINUOUS
 10
56.478183103
 20
35.9529727389
 11
56.4858771984
 21
35.953797136
  0
LINE
  5
4B7
100
AcDbEntity
  8
DEFAULT_2
100
AcDbLine
 62
8
  6
CONTINUOUS
 10
57.5756767756
 20
34.7891854614
 11
57.5659080571
 21
34.7881718674
  0
LINE
  5
4B8
100
AcDbEntity
  8
DEFAULT_2
100
AcDbLine
 62
8
  6
CONTINUOUS
 10
47.4245432469
 20
34.2742391727
 11
47.8566378503
 21
34.3178345974
  0
LINE
  5
4B9
100
AcDbEntity
  8
DEFAULT_2
100
AcDbLine
 62
8
  6
CONTINUOUS
 10
43.4507407471
 20
29.7319572388
 11
43.0627551321
 21
29.6929719053
  0
LINE
  5
4BA
100
AcDbEntity
  8
DEFAULT_2
100
AcDbLine
 62
8
  6
CONTINUOUS
 10
47.7929555476
 20
35.516606277
 11
47.4328488026
 21
35.4804018759
  0
LINE
  5
4BB
100
AcDbEntity
  8
DEFAULT_2
100
AcDbLine
 62
8
  6
CONTINUOUS
 10
60.5096708682
 20
34.2957594703
 11
60.4766052321
 21
34.2926360665
  0
LINE
  5
4BC
100
AcDbEntity
  8
DEFAULT_2
100
AcDbLine
 62
8
  6
CONTINUOUS
 10
68.1347985118
 20
21.6540938574
 11
68.0825149006
 21
21.6492427436
  0
LINE
  5
4BD
100
AcDbEntity
  8
DEFAULT_2
100
AcDbLine
 62
8
  6
CONTINUOUS
 10
60.3746684058
 20
36.6005660553
 11
60.4090391668
 21
36.6036928229
  0
LINE
  5
4BE
100
AcDbEntity
  8
DEFAULT_2
100
AcDbLine
 62
8
  6
CONTINUOUS
 10
48.1534017987
 20
35.5492728366
 11
47.7929555476
 21
35.516606277
  0
LINE
  5
4BF
100
AcDbEntity
  8
DEFAULT_2
100
AcDbLine
 62
8
  6
CONTINUOUS
 10
47.8566378503
 20
34.3178345974
 11
48.3157201735
 21
34.3585532956
  0
LINE
  5
4C0
100
AcDbEntity
  8
DEFAULT_2
100
AcDbLine
 62
8
  6
CONTINUOUS
 10
57.5659080571
 20
34.7881718674
 11
57.556120265
 21
34.7873201455
  0
LINE
  5
4C1
100
AcDbEntity
  8
DEFAULT_2
100
AcDbLine
 62
8
  6
CONTINUOUS
 10
43.8393648305
 20
29.7640208816
 11
43.4507407471
 21
29.7319572388
  0
LINE
  5
4C2
100
AcDbEntity
  8
DEFAULT_2
100
AcDbLine
 62
8
  6
CONTINUOUS
 10
41.9150184911
 20
34.4598743953
 11
41.9063331765
 21
34.4591591482
  0
LINE
  5
4C3
100
AcDbEntity
  8
DEFAULT_2
100
AcDbLine
 62
8
  6
CONTINUOUS
 10
40.8611276703
 20
32.9441385598
 11
40.8710360032
 21
32.9449449833
  0
LINE
  5
4C4
100
AcDbEntity
  8
DEFAULT_2
100
AcDbLine
 62
8
  6
CONTINUOUS
 10
48.5141547732
 20
35.5784006068
 11
48.1534017987
 21
35.5492728366
  0
LINE
  5
4C5
100
AcDbEntity
  8
DEFAULT_2
100
AcDbLine
 62
8
  6
CONTINUOUS
 10
56.4858771984
 20
35.953797136
 11
56.4935900792
 21
35.9543984067
  0
LINE
  5
4C6
100
AcDbEntity
  8
DEFAULT_2
100
AcDbLine
 62
8
  6
CONTINUOUS
 10
48.3157201735
 20
34.3585532956
 11
48.7752756506
 21
34.3935695234
  0
LINE
  5
4C7
100
AcDbEntity
  8
DEFAULT_2
100
AcDbLine
 62
8
  6
CONTINUOUS
 10
57.556120265
 20
34.7873201455
 11
57.5463194415
 21
34.7866053517
  0
LINE
  5
4C8
100
AcDbEntity
  8
DEFAULT_2
100
AcDbLine
 62
8
  6
CONTINUOUS
 10
48.908702888
 20
35.6061863205
 11
48.5141547732
 21
35.5784006068
  0
LINE
  5
4C9
100
AcDbEntity
  8
DEFAULT_2
100
AcDbLine
 62
8
  6
CONTINUOUS
 10
60.4766052321
 20
34.2926360665
 11
60.4434706058
 21
34.2904602211
  0
LINE
  5
4CA
100
AcDbEntity
  8
DEFAULT_2
100
AcDbLine
 62
8
  6
CONTINUOUS
 10
48.7752756506
 20
34.3935695234
 11
49.1012380066
 21
34.4149389017
  0
LINE
  5
4CB
100
AcDbEntity
  8
DEFAULT_2
100
AcDbLine
 62
8
  6
CONTINUOUS
 10
44.2284991265
 20
29.7891523863
 11
43.8393648305
 21
29.7640208816
  0
LINE
  5
4CC
100
AcDbEntity
  8
DEFAULT_2
100
AcDbLine
 62
8
  6
CONTINUOUS
 10
68.0825149006
 20
21.6492427436
 11
68.0301094713
 21
21.6459612627
  0
LINE
  5
4CD
100
AcDbEntity
  8
DEFAULT_2
100
AcDbLine
 62
8
  6
CONTINUOUS
 10
60.4090391668
 20
36.6036928229
 11
60.4434792399
 21
36.6058129793
  0
LINE
  5
4CE
100
AcDbEntity
  8
DEFAULT_2
100
AcDbLine
 62
8
  6
CONTINUOUS
 10
57.5463194415
 20
34.7866053517
 11
57.5365116289
 21
34.7860025423
  0
LINE
  5
4CF
100
AcDbEntity
  8
DEFAULT_2
100
AcDbLine
 62
8
  6
CONTINUOUS
 10
49.303523258
 20
35.6297564251
 11
48.908702888
 21
35.6061863205
  0
LINE
  5
4D0
100
AcDbEntity
  8
DEFAULT_2
100
AcDbLine
 62
8
  6
CONTINUOUS
 10
49.1012380066
 20
34.4149389017
 11
49.4273738348
 21
34.4334495911
  0
LINE
  5
4D1
100
AcDbEntity
  8
DEFAULT_2
100
AcDbLine
 62
8
  6
CONTINUOUS
 10
81.6621557676
 20
39.9184013891
 11
80.2025663987
 21
39.8373130908
  0
LINE
  5
4D2
100
AcDbEntity
  8
DEFAULT_2
100
AcDbLine
 62
8
  6
CONTINUOUS
 10
57.5365116289
 20
34.7860025423
 11
57.5267028693
 21
34.7854867734
  0
LINE
  5
4D3
100
AcDbEntity
  8
DEFAULT_2
100
AcDbLine
 62
8
  6
CONTINUOUS
 10
40.8511996118
 20
32.9436201202
 11
40.8611276703
 21
32.9441385598
  0
LINE
  5
4D4
100
AcDbEntity
  8
DEFAULT_2
100
AcDbLine
 62
8
  6
CONTINUOUS
 10
56.4935900792
 20
35.9543984067
 11
56.5013133007
 21
35.9547819341
  0
LINE
  5
4D5
100
AcDbEntity
  8
DEFAULT_2
100
AcDbLine
 62
8
  6
CONTINUOUS
 10
49.6985609831
 20
35.6491226613
 11
49.303523258
 21
35.6297564251
  0
LINE
  5
4D6
100
AcDbEntity
  8
DEFAULT_2
100
AcDbLine
 62
8
  6
CONTINUOUS
 10
41.9247454217
 20
34.4603426366
 11
41.9150184911
 21
34.4598743953
  0
LINE
  5
4D7
100
AcDbEntity
  8
DEFAULT_2
100
AcDbLine
 62
8
  6
CONTINUOUS
 10
49.4273738348
 20
34.4334495911
 11
49.7536530155
 21
34.4491031625
  0
LINE
  5
4D8
100
AcDbEntity
  8
DEFAULT_2
100
AcDbLine
 62
8
  6
CONTINUOUS
 10
44.6180161281
 20
29.8073427433
 11
44.2284991265
 21
29.7891523863
  0
LINE
  5
4D9
100
AcDbEntity
  8
DEFAULT_2
100
AcDbLine
 62
8
  6
CONTINUOUS
 10
57.5267028693
 20
34.7854867734
 11
57.5168992051
 21
34.7850331011
  0
LINE
  5
4DA
100
AcDbEntity
  8
DEFAULT_2
100
AcDbLine
 62
8
  6
CONTINUOUS
 10
56.4836696072
 20
35.9536584682
 11
49.6985609482
 21
35.649121712
  0
LINE
  5
4DB
100
AcDbEntity
  8
DEFAULT_2
100
AcDbLine
 62
8
  6
CONTINUOUS
 10
57.5168992051
 20
34.7850331011
 11
56.430410312
 21
34.7372749061
  0
LINE
  5
4DC
100
AcDbEntity
  8
DEFAULT_2
100
AcDbLine
 62
8
  6
CONTINUOUS
 10
56.4395695691
 20
34.737660535
 11
49.753566602
 21
34.4491181241
  0
LINE
  5
4DD
100
AcDbEntity
  8
DEFAULT_2
100
AcDbLine
 62
8
  6
CONTINUOUS
 10
61.4012667545
 20
16.5073018441
 11
53.9162282453
 21
16.2019104836
  0
LINE
  5
4DE
100
AcDbEntity
  8
DEFAULT_2
100
AcDbLine
 62
8
  6
CONTINUOUS
 10
56.430410312
 20
34.7372749061
 11
56.4213377462
 21
34.7369437662
  0
LINE
  5
4DF
100
AcDbEntity
  8
DEFAULT_2
100
AcDbLine
 62
8
  6
CONTINUOUS
 10
60.4434706058
 20
34.2904602211
 11
60.4091789111
 21
34.2892135139
  0
LINE
  5
4E0
100
AcDbEntity
  8
0
100
AcDbLine
 62
7
  6
CONTINUOUS
 10
62.2457729444
 20
15.9132410502
 11
62.4001501394
 21
15.9186320207
  0
LINE
  5
4E1
100
AcDbEntity
  8
DEFAULT_2
100
AcDbLine
 62
8
  6
CONTINUOUS
 10
60.4434792399
 20
36.6058129793
 11
60.4767935515
 21
36.6068994686
  0
LINE
  5
4E2
100
AcDbEntity
  8
DEFAULT_2
100
AcDbLine
 62
8
  6
CONTINUOUS
 10
68.0301094713
 20
21.6459612627
 11
67.9776291911
 21
21.6442551992
  0
LINE
  5
4E3
100
AcDbEntity
  8
DEFAULT_2
100
AcDbLine
 62
8
  6
CONTINUOUS
 10
45.0077969057
 20
29.8185871202
 11
44.6180161281
 21
29.8073427433
  0
LINE
  5
4E4
100
AcDbEntity
  8
DEFAULT_2
100
AcDbLine
 62
8
  6
CONTINUOUS
 10
56.4213377462
 20
34.7369437662
 11
56.4122604943
 21
34.7366877413
  0
LINE
  5
4E5
100
AcDbEntity
  8
0
100
AcDbLine
 62
7
  6
CONTINUOUS
 10
62.391685453
 20
15.952647626
 11
62.4922451055
 21
15.9551819012
  0
LINE
  5
4E6
100
AcDbEntity
  8
0
100
AcDbLine
 62
7
  6
CONTINUOUS
 10
62.4922451055
 20
15.9551819012
 11
62.547818061
 21
15.9564889224
  0
LINE
  5
4E7
100
AcDbEntity
  8
DEFAULT_2
100
AcDbLine
 62
8
  6
CONTINUOUS
 10
56.5013133007
 20
35.9547819341
 11
56.5090384183
 21
35.9549531013
  0
LINE
  5
4E8
100
AcDbEntity
  8
0
100
AcDbLine
 62
7
  6
CONTINUOUS
 10
62.547818061
 20
15.9564889224
 11
62.5757604937
 21
15.9571022832
  0
LINE
  5
4E9
100
AcDbEntity
  8
DEFAULT_2
100
AcDbLine
 62
8
  6
CONTINUOUS
 10
40.8412585909
 20
32.9434020387
 11
40.8511996118
 21
32.9436201202
  0
LINE
  5
4EA
100
AcDbEntity
  8
DEFAULT_2
100
AcDbLine
 62
8
  6
CONTINUOUS
 10
67.9776291911
 20
21.6442551992
 11
64.4065679244
 21
21.5819220929
  0
LINE
  5
4EB
100
AcDbEntity
  8
DEFAULT_2
100
AcDbLine
 62
8
  6
CONTINUOUS
 10
56.4122604943
 20
34.7366877413
 11
56.4031809246
 21
34.7365315791
  0
LINE
  5
4EC
100
AcDbEntity
  8
DEFAULT_2
100
AcDbLine
 62
8
  6
CONTINUOUS
 10
41.9344840463
 20
34.4604606148
 11
41.9247454217
 21
34.4603426366
  0
LINE
  5
4ED
100
AcDbEntity
  8
DEFAULT_2
100
AcDbLine
 62
8
  6
CONTINUOUS
 10
45.3977172109
 20
29.8228821487
 11
45.0077969057
 21
29.8185871202
  0
LINE
  5
4EE
100
AcDbEntity
  8
DEFAULT_2
100
AcDbLine
 62
8
  6
CONTINUOUS
 10
60.4091789111
 20
34.2892135139
 11
60.3748577019
 21
34.2889896462
  0
LINE
  5
4EF
100
AcDbEntity
  8
DEFAULT_2
100
AcDbLine
 62
8
  6
CONTINUOUS
 10
60.4767935515
 20
36.6068994686
 11
60.5101320193
 21
36.6070367915
  0
LINE
  5
4F0
100
AcDbEntity
  8
DEFAULT_2
100
AcDbLine
 62
8
  6
CONTINUOUS
 10
56.4031809246
 20
34.7365315791
 11
56.3941014051
 21
34.7365000279
  0
LINE
  5
4F1
100
AcDbEntity
  8
0
100
AcDbLine
 62
7
  6
CONTINUOUS
 10
81.6966936015
 20
39.9193636548
 11
81.6323317628
 21
39.9192869329
  0
LINE
  5
4F2
100
AcDbEntity
  8
0
100
AcDbLine
 62
7
  6
CONTINUOUS
 10
37.2490024538
 20
39.9166948874
 11
35.8075295331
 21
39.915142927
  0
LINE
  5
4F3
100
AcDbEntity
  8
0
100
AcDbLine
 62
7
  6
CONTINUOUS
 10
31.3131181384
 20
13.9522298599
 11
31.953194888
 21
13.9527506529
  0
LINE
  5
4F4
100
AcDbEntity
  8
0
100
AcDbLine
 62
7
  6
CONTINUOUS
 10
31.953194888
 20
13.9527506529
 11
32.6278913478
 21
13.9532748164
  0
LINE
  5
4F5
100
AcDbEntity
  8
0
100
AcDbLine
 62
7
  6
CONTINUOUS
 10
30.7095918293
 20
13.9517836524
 11
31.3131181384
 21
13.9522298599
  0
LINE
  5
4F6
100
AcDbEntity
  8
0
100
AcDbLine
 62
7
  6
CONTINUOUS
 10
30.1440615811
 20
13.9513875568
 11
30.7095918293
 21
13.9517836524
  0
LINE
  5
4F7
100
AcDbEntity
  8
0
100
AcDbLine
 62
7
  6
CONTINUOUS
 10
32.6278913478
 20
13.9532748164
 11
33.3366613539
 21
13.9537563087
  0
LINE
  5
4F8
100
AcDbEntity
  8
0
100
AcDbLine
 62
7
  6
CONTINUOUS
 10
24.911084403
 20
13.9493544596
 11
25.2019740551
 21
13.9495709465
  0
LINE
  5
4F9
100
AcDbEntity
  8
0
100
AcDbLine
 62
7
  6
CONTINUOUS
 10
38.7356200228
 20
39.9177408247
 11
37.2490024538
 21
39.9166948874
  0
LINE
  5
4FA
100
AcDbEntity
  8
0
100
AcDbLine
 62
7
  6
CONTINUOUS
 10
29.6162418356
 20
13.9510713596
 11
30.1440615811
 21
13.9513875568
  0
LINE
  5
4FB
100
AcDbEntity
  8
0
100
AcDbLine
 62
7
  6
CONTINUOUS
 10
26.2813576074
 20
13.9500217842
 11
26.7992299134
 21
13.9502832549
  0
LINE
  5
4FC
100
AcDbEntity
  8
0
100
AcDbLine
 62
7
  6
CONTINUOUS
 10
33.3366613539
 20
13.9537563087
 11
34.0792460909
 21
13.9541286688
  0
LINE
  5
4FD
100
AcDbEntity
  8
0
100
AcDbLine
 62
7
  6
CONTINUOUS
 10
26.7992299134
 20
13.9502832549
 11
27.4491332537
 21
13.9505939039
  0
LINE
  5
4FE
100
AcDbEntity
  8
0
100
AcDbLine
 62
7
  6
CONTINUOUS
 10
25.2019740551
 20
13.9495709465
 11
25.6474924617
 21
13.9497838012
  0
LINE
  5
4FF
100
AcDbEntity
  8
0
100
AcDbLine
 62
7
  6
CONTINUOUS
 10
40.267076093
 20
39.9186175904
 11
38.7356200228
 21
39.9177408247
  0
LINE
  5
500
100
AcDbEntity
  8
0
100
AcDbLine
 62
7
  6
CONTINUOUS
 10
29.1245546754
 20
13.9508375612
 11
29.6162418356
 21
13.9510713596
  0
LINE
  5
501
100
AcDbEntity
  8
0
100
AcDbLine
 62
7
  6
CONTINUOUS
 10
34.0792460909
 20
13.9541286688
 11
34.857452222
 21
13.9544700054
  0
LINE
  5
502
100
AcDbEntity
  8
0
100
AcDbLine
 62
7
  6
CONTINUOUS
 10
26.0510687593
 20
13.9499296894
 11
26.2813576074
 21
13.9500217842
  0
LINE
  5
503
100
AcDbEntity
  8
0
100
AcDbLine
 62
7
  6
CONTINUOUS
 10
25.6474924617
 20
13.9497838012
 11
25.838966735
 21
13.949856884
  0
LINE
  5
504
100
AcDbEntity
  8
0
100
AcDbLine
 62
7
  6
CONTINUOUS
 10
28.6651678676
 20
13.9506795137
 11
29.1245546754
 21
13.9508375612
  0
LINE
  5
505
100
AcDbEntity
  8
0
100
AcDbLine
 62
7
  6
CONTINUOUS
 10
25.838966735
 20
13.949856884
 11
26.0510687593
 21
13.9499296894
  0
LINE
  5
506
100
AcDbEntity
  8
0
100
AcDbLine
 62
7
  6
CONTINUOUS
 10
81.6323317628
 20
39.9192869329
 11
81.4404728673
 21
39.9192207326
  0
LINE
  5
507
100
AcDbEntity
  8
0
100
AcDbLine
 62
7
  6
CONTINUOUS
 10
41.8429336596
 20
39.9191767332
 11
40.267076093
 21
39.9186175904
  0
LINE
  5
508
100
AcDbEntity
  8
0
100
AcDbLine
 62
7
  6
CONTINUOUS
 10
28.234183718
 20
13.9506099195
 11
28.6651678676
 21
13.9506795137
  0
LINE
  5
509
100
AcDbEntity
  8
0
100
AcDbLine
 62
7
  6
CONTINUOUS
 10
34.857452222
 20
13.9544700054
 11
35.6761710825
 21
13.954621979
  0
LINE
  5
50A
100
AcDbEntity
  8
0
100
AcDbLine
 62
7
  6
CONTINUOUS
 10
81.4404728673
 20
39.9192207326
 11
81.2967711375
 21
39.9191855173
  0
LINE
  5
50B
100
AcDbEntity
  8
0
100
AcDbLine
 62
7
  6
CONTINUOUS
 10
81.2967711375
 20
39.9191855173
 11
81.1217523109
 21
39.9191491074
  0
LINE
  5
50C
100
AcDbEntity
  8
0
100
AcDbLine
 62
7
  6
CONTINUOUS
 10
81.1217523109
 20
39.9191491074
 11
80.6800959966
 21
39.9190896698
  0
LINE
  5
50D
100
AcDbEntity
  8
0
100
AcDbLine
 62
7
  6
CONTINUOUS
 10
27.4491332537
 20
13.9505939039
 11
27.8280093319
 21
13.9506201922
  0
LINE
  5
50E
100
AcDbEntity
  8
0
100
AcDbLine
 62
7
  6
CONTINUOUS
 10
27.8280093319
 20
13.9506201922
 11
28.234183718
 21
13.9506099195
  0
LINE
  5
50F
100
AcDbEntity
  8
DEFAULT_2
100
AcDbLine
 62
8
  6
CONTINUOUS
 10
50.6722319524
 20
15.6979304332
 11
53.2151251712
 21
15.6979304332
  0
LINE
  5
510
100
AcDbEntity
  8
0
100
AcDbLine
 62
7
  6
CONTINUOUS
 10
10.4436785618
 20
37.9479304332
 11
82.4436785618
 21
37.9479304332
  0
LINE
  5
511
100
AcDbEntity
  8
0
100
AcDbLine
 62
7
  6
CONTINUOUS
 10
80.6800959966
 20
39.9190896698
 11
80.1201371113
 21
39.9190365618
  0
LINE
  5
512
100
AcDbEntity
  8
0
100
AcDbLine
 62
7
  6
CONTINUOUS
 10
80.1201371113
 20
39.9190365618
 11
79.7968031102
 21
39.9190080983
  0
LINE
  5
513
100
AcDbEntity
  8
0
100
AcDbLine
 62
7
  6
CONTINUOUS
 10
79.7968031102
 20
39.9190080983
 11
79.4449750493
 21
39.9189814338
  0
LINE
  5
514
100
AcDbEntity
  8
0
100
AcDbLine
 62
7
  6
CONTINUOUS
 10
79.4449750493
 20
39.9189814338
 11
78.6604527829
 21
39.9189301862
  0
LINE
  5
515
100
AcDbEntity
  8
0
100
AcDbLine
 62
7
  6
CONTINUOUS
 10
43.4436770862
 20
39.9193640047
 11
41.8429336596
 21
39.9191767332
  0
LINE
  5
516
100
AcDbEntity
  8
0
100
AcDbLine
 62
7
  6
CONTINUOUS
 10
78.6604527829
 20
39.9189301862
 11
75.1675179017
 21
39.9187643874
  0
LINE
  5
517
100
AcDbEntity
  8
0
100
AcDbLine
 62
7
  6
CONTINUOUS
 10
75.1675179017
 20
39.9187643874
 11
74.518081733
 21
39.9187463518
  0
LINE
  5
518
100
AcDbEntity
  8
0
100
AcDbLine
 62
7
  6
CONTINUOUS
 10
73.825982583
 20
39.9187642393
 11
73.1055242188
 21
39.9187746823
  0
LINE
  5
519
100
AcDbEntity
  8
0
100
AcDbLine
 62
7
  6
CONTINUOUS
 10
57.2999314534
 20
39.919223236
 11
43.4436770869
 21
39.9193652509
  0
LINE
  5
51A
100
AcDbEntity
  8
0
100
AcDbLine
 62
7
  6
CONTINUOUS
 10
74.518081733
 20
39.9187463518
 11
73.825982583
 21
39.9187642393
  0
LINE
  5
51B
100
AcDbEntity
  8
0
100
AcDbLine
 62
7
  6
CONTINUOUS
 10
73.1055242188
 20
39.9187746823
 11
57.2999314534
 21
39.919223236
  0
LINE
  5
51C
100
AcDbEntity
  8
0
100
AcDbLine
 62
7
  6
CONTINUOUS
 10
54.6995042526
 20
13.948693262
 11
55.3845094407
 21
13.9486413299
  0
LINE
  5
51D
100
AcDbEntity
  8
0
100
AcDbLine
 62
7
  6
CONTINUOUS
 10
54.431288018
 20
13.9487181976
 11
54.6995042526
 21
13.948693262
  0
LINE
  5
51E
100
AcDbEntity
  8
0
100
AcDbLine
 62
7
  6
CONTINUOUS
 10
55.3845094407
 20
13.9486413299
 11
55.5705382339
 21
13.9486237918
  0
LINE
  5
51F
100
AcDbEntity
  8
0
100
AcDbLine
 62
7
  6
CONTINUOUS
 10
53.1813728153
 20
13.9488503315
 11
54.431288018
 21
13.9487181976
  0
LINE
  5
520
100
AcDbEntity
  8
0
100
AcDbLine
 62
7
  6
CONTINUOUS
 10
50.1549782043
 20
13.9494332642
 11
50.6761195358
 21
13.9493764803
  0
LINE
  5
521
100
AcDbEntity
  8
0
100
AcDbLine
 62
7
  6
CONTINUOUS
 10
55.5705382339
 20
13.9486237918
 11
55.7294068762
 21
13.9486039579
  0
LINE
  5
522
100
AcDbEntity
  8
0
100
AcDbLine
 62
7
  6
CONTINUOUS
 10
52.8342380114
 20
13.9488976882
 11
53.1813728153
 21
13.9488503315
  0
LINE
  5
523
100
AcDbEntity
  8
0
100
AcDbLine
 62
7
  6
CONTINUOUS
 10
49.6103716669
 20
13.9495098944
 11
50.1549782043
 21
13.9494332642
  0
LINE
  5
524
100
AcDbEntity
  8
0
100
AcDbLine
 62
7
  6
CONTINUOUS
 10
52.4709719595
 20
13.9489562066
 11
52.8342380114
 21
13.9488976882
  0
LINE
  5
525
100
AcDbEntity
  8
0
100
AcDbLine
 62
7
  6
CONTINUOUS
 10
49.0377866515
 20
13.9496064391
 11
49.6103716669
 21
13.9495098944
  0
LINE
  5
526
100
AcDbEntity
  8
0
100
AcDbLine
 62
7
  6
CONTINUOUS
 10
50.6761195358
 20
13.9493764803
 11
51.1753834074
 21
13.9492797146
  0
LINE
  5
527
100
AcDbEntity
  8
0
100
AcDbLine
 62
7
  6
CONTINUOUS
 10
55.7294068772
 20
13.948603929
 11
55.729365674
 21
13.9486039369
  0
LINE
  5
528
100
AcDbEntity
  8
0
100
AcDbLine
 62
7
  6
CONTINUOUS
 10
51.6438789665
 20
13.9491324945
 11
52.4709719595
 21
13.9489562066
  0
LINE
  5
529
100
AcDbEntity
  8
0
100
AcDbLine
 62
7
  6
CONTINUOUS
 10
35.6761710825
 20
13.954621979
 11
36.5405528785
 21
13.9544770763
  0
LINE
  5
52A
100
AcDbEntity
  8
0
100
AcDbLine
 62
7
  6
CONTINUOUS
 10
47.7947570933
 20
13.9498928985
 11
49.0377866515
 21
13.9496064391
  0
LINE
  5
52B
100
AcDbEntity
  8
0
100
AcDbLine
 62
7
  6
CONTINUOUS
 10
46.4145804126
 20
13.9503241041
 11
47.7947570933
 21
13.9498928985
  0
LINE
  5
52C
100
AcDbEntity
  8
0
100
AcDbLine
 62
7
  6
CONTINUOUS
 10
39.4059124407
 20
13.952915303
 11
40.4216431613
 21
13.9526054762
  0
LINE
  5
52D
100
AcDbEntity
  8
0
100
AcDbLine
 62
7
  6
CONTINUOUS
 10
51.1753834074
 20
13.9492797146
 11
51.6438789665
 21
13.9491324945
  0
LINE
  5
52E
100
AcDbEntity
  8
0
100
AcDbLine
 62
7
  6
CONTINUOUS
 10
44.0995245823
 20
13.9512014372
 11
46.4145804126
 21
13.9503241041
  0
LINE
  5
52F
100
AcDbEntity
  8
0
100
AcDbLine
 62
7
  6
CONTINUOUS
 10
40.4216431613
 20
13.9526054762
 11
44.0995245823
 21
13.9512014372
  0
LINE
  5
530
100
AcDbEntity
  8
0
100
AcDbLine
 62
7
  6
CONTINUOUS
 10
36.5405528785
 20
13.9544770763
 11
37.4537503628
 21
13.9540734729
  0
LINE
  5
531
100
AcDbEntity
  8
0
100
AcDbLine
 62
7
  6
CONTINUOUS
 10
38.4110918187
 20
13.9534138606
 11
39.4059124407
 21
13.952915303
  0
LINE
  5
532
100
AcDbEntity
  8
0
100
AcDbLine
 62
7
  6
CONTINUOUS
 10
37.4537503628
 20
13.9540734729
 11
38.4110918187
 21
13.9534138606
  0
LINE
  5
533
100
AcDbEntity
  8
0
100
AcDbLine
 62
7
  6
CONTINUOUS
 10
35.8075295331
 20
39.915142927
 11
34.4127204583
 21
39.9178703805
  0
LINE
  5
534
100
AcDbEntity
  8
DEFAULT_2
100
AcDbLine
 62
8
  6
CONTINUOUS
 10
56.5090384183
 20
35.9549531013
 11
56.5179784899
 21
35.954897919
  0
LINE
  5
535
100
AcDbEntity
  8
DEFAULT_2
100
AcDbLine
 62
8
  6
CONTINUOUS
 10
45.7876517952
 20
29.8202257224
 11
45.3977172109
 21
29.8228821487
  0
LINE
  5
536
100
AcDbEntity
  8
0
100
AcDbLine
 62
7
  6
CONTINUOUS
 10
34.4127204583
 20
39.9178703805
 11
33.0643031452
 21
39.9299510126
  0
LINE
  5
537
100
AcDbEntity
  8
DEFAULT_2
100
AcDbLine
 62
8
  6
CONTINUOUS
 10
40.8313113709
 20
32.9434966889
 11
40.8412585909
 21
32.9434020387
  0
LINE
  5
538
100
AcDbEntity
  8
DEFAULT_2
100
AcDbLine
 62
8
  6
CONTINUOUS
 10
56.3941014051
 20
34.7365000279
 11
56.3850243041
 21
34.7366178355
  0
LINE
  5
539
100
AcDbEntity
  8
0
100
AcDbLine
 62
7
  6
CONTINUOUS
 10
33.0643031452
 20
39.9299510126
 11
31.7635825165
 21
39.9517332286
  0
LINE
  5
53A
100
AcDbEntity
  8
DEFAULT_2
100
AcDbLine
 62
8
  6
CONTINUOUS
 10
25.8360196123
 20
18.3869136208
 11
47.7635450076
 21
18.0041672413
  0
LINE
  5
53B
100
AcDbEntity
  8
DEFAULT_2
100
AcDbLine
 62
8
  6
CONTINUOUS
 10
60.3748577019
 20
34.2889896462
 11
60.340543178
 21
34.2897935057
  0
LINE
  5
53C
100
AcDbEntity
  8
DEFAULT_2
100
AcDbLine
 62
8
  6
CONTINUOUS
 10
41.9442223086
 20
34.4602290234
 11
41.9344840463
 21
34.4604606148
  0
LINE
  5
53D
100
AcDbEntity
  8
0
100
AcDbLine
 62
7
  6
CONTINUOUS
 10
31.7635825165
 20
39.9517332286
 11
30.5146674181
 21
39.9813250154
  0
LINE
  5
53E
100
AcDbEntity
  8
0
100
AcDbLine
 62
7
  6
CONTINUOUS
 10
81.7266728
 20
39.9186505264
 11
81.6966937885
 21
39.9193636548
  0
LINE
  5
53F
100
AcDbEntity
  8
DEFAULT_2
100
AcDbLine
 62
8
  6
CONTINUOUS
 10
46.1774767282
 20
29.8106193175
 11
45.7876517952
 21
29.8202257224
  0
LINE
  5
540
100
AcDbEntity
  8
DEFAULT_2
100
AcDbLine
 62
8
  6
CONTINUOUS
 10
60.5101320193
 20
36.6070367915
 11
60.5434626717
 21
36.6062205432
  0
LINE
  5
541
100
AcDbEntity
  8
0
100
AcDbLine
 62
7
  6
CONTINUOUS
 10
30.5146674181
 20
39.9813250154
 11
29.317757946
 21
40.0177350322
  0
LINE
  5
542
100
AcDbEntity
  8
DEFAULT_2
100
AcDbLine
 62
8
  6
CONTINUOUS
 10
56.3850243041
 20
34.7366178355
 11
56.3759519898
 21
34.7369097499
  0
LINE
  5
543
100
AcDbEntity
  8
0
100
AcDbLine
 62
7
  6
CONTINUOUS
 10
56.9029241137
 20
14.1979368243
 11
56.9028226486
 21
14.1979401653
  0
LINE
  5
544
100
AcDbEntity
  8
DEFAULT_2
100
AcDbLine
 62
8
  6
CONTINUOUS
 10
56.5179784899
 20
35.954897919
 11
56.5269097868
 21
35.9546028107
  0
LINE
  5
545
100
AcDbEntity
  8
DEFAULT_2
100
AcDbLine
 62
8
  6
CONTINUOUS
 10
25.8348917524
 20
18.3869333077
 11
25.7619287174
 21
18.3894230204
  0
LINE
  5
546
100
AcDbEntity
  8
0
100
AcDbLine
 62
7
  6
CONTINUOUS
 10
29.317757946
 20
40.0177350322
 11
28.1765116402
 21
40.0598347292
  0
LINE
  5
547
100
AcDbEntity
  8
DEFAULT_2
100
AcDbLine
 62
8
  6
CONTINUOUS
 10
40.8220719042
 20
32.9438749974
 11
40.8313113709
 21
32.9434966889
  0
LINE
  5
548
100
AcDbEntity
  8
DEFAULT_2
100
AcDbLine
 62
8
  6
CONTINUOUS
 10
46.5670683971
 20
29.7940657819
 11
46.1774767282
 21
29.8106193175
  0
LINE
  5
549
100
AcDbEntity
  8
0
100
AcDbLine
 62
7
  6
CONTINUOUS
 10
28.1765116402
 20
40.0598347292
 11
27.094883382
 21
40.1064847976
  0
LINE
  5
54A
100
AcDbEntity
  8
0
100
AcDbLine
 62
7
  6
CONTINUOUS
 10
27.094883382
 20
40.1064847976
 11
26.0752520348
 21
40.1565370721
  0
LINE
  5
54B
100
AcDbEntity
  8
DEFAULT_2
100
AcDbLine
 62
8
  6
CONTINUOUS
 10
60.5434626717
 20
36.6062205432
 11
60.5772118853
 21
36.6044156537
  0
LINE
  5
54C
100
AcDbEntity
  8
DEFAULT_2
100
AcDbLine
 62
8
  6
CONTINUOUS
 10
60.340543178
 20
34.2897935057
 11
60.306403964
 21
34.2916202521
  0
LINE
  5
54D
100
AcDbEntity
  8
DEFAULT_2
100
AcDbLine
 62
8
  6
CONTINUOUS
 10
56.3759519898
 20
34.7369097499
 11
56.3668868302
 21
34.7374005192
  0
LINE
  5
54E
100
AcDbEntity
  8
0
100
AcDbLine
 62
7
  6
CONTINUOUS
 10
26.0752520348
 20
40.1565370721
 11
25.1138367718
 21
40.2091823225
  0
LINE
  5
54F
100
AcDbEntity
  8
DEFAULT_2
100
AcDbLine
 62
8
  6
CONTINUOUS
 10
56.5269097868
 20
35.9546028107
 11
56.5358323171
 21
35.9541054574
  0
LINE
  5
550
100
AcDbEntity
  8
DEFAULT_2
100
AcDbLine
 62
8
  6
CONTINUOUS
 10
41.9539481523
 20
34.459648556
 11
41.9442223086
 21
34.4602290234
  0
LINE
  5
551
100
AcDbEntity
  8
0
100
AcDbLine
 62
7
  6
CONTINUOUS
 10
25.1138367718
 20
40.2091823225
 11
24.2049887543
 21
40.2638583467
  0
LINE
  5
552
100
AcDbEntity
  8
DEFAULT_2
100
AcDbLine
 62
8
  6
CONTINUOUS
 10
46.9563031395
 20
29.7705698677
 11
46.5670683971
 21
29.7940657819
  0
LINE
  5
553
100
AcDbEntity
  8
0
100
AcDbLine
 62
7
  6
CONTINUOUS
 10
24.2049887543
 20
40.2638583467
 11
23.3432731599
 21
40.3201534922
  0
LINE
  5
554
100
AcDbEntity
  8
DEFAULT_2
100
AcDbLine
 62
8
  6
CONTINUOUS
 10
25.7619287174
 20
18.3894230204
 11
25.689090574
 21
18.3943318241
  0
LINE
  5
555
100
AcDbEntity
  8
0
100
AcDbLine
 62
7
  6
CONTINUOUS
 10
23.3432731599
 20
40.3201534922
 11
22.5245551111
 21
40.3776799567
  0
LINE
  5
556
100
AcDbEntity
  8
DEFAULT_2
100
AcDbLine
 62
8
  6
CONTINUOUS
 10
40.8128447837
 20
32.9445398602
 11
40.8220719042
 21
32.9438749974
  0
LINE
  5
557
100
AcDbEntity
  8
DEFAULT_2
100
AcDbLine
 62
8
  6
CONTINUOUS
 10
56.5358323171
 20
35.9541054574
 11
56.5447460893
 21
35.95344354
  0
LINE
  5
558
100
AcDbEntity
  8
0
100
AcDbLine
 62
7
  6
CONTINUOUS
 10
22.5245551111
 20
40.3776799567
 11
21.74563363
 21
40.4360935503
  0
LINE
  5
559
100
AcDbEntity
  8
DEFAULT_2
100
AcDbLine
 62
8
  6
CONTINUOUS
 10
56.3668868302
 20
34.7374005192
 11
56.3578311936
 21
34.7381148914
  0
LINE
  5
55A
100
AcDbEntity
  8
0
100
AcDbLine
 62
7
  6
CONTINUOUS
 10
21.74563363
 20
40.4360935503
 11
21.0032822969
 21
40.495117864
  0
LINE
  5
55B
100
AcDbEntity
  8
DEFAULT_2
100
AcDbLine
 62
8
  6
CONTINUOUS
 10
47.4745139348
 20
29.7284548285
 11
46.9563031395
 21
29.7705698677
  0
LINE
  5
55C
100
AcDbEntity
  8
DEFAULT_2
100
AcDbLine
 62
8
  6
CONTINUOUS
 10
60.5772118853
 20
36.6044156537
 11
60.6108921691
 21
36.6016242885
  0
LINE
  5
55D
100
AcDbEntity
  8
DEFAULT_2
100
AcDbLine
 62
8
  6
CONTINUOUS
 10
60.306403964
 20
34.2916202521
 11
60.2723371557
 21
34.294473042
  0
LINE
  5
55E
100
AcDbEntity
  8
0
100
AcDbLine
 62
7
  6
CONTINUOUS
 10
21.0032822969
 20
40.495117864
 11
20.2949104473
 21
40.5545105992
  0
LINE
  5
55F
100
AcDbEntity
  8
0
100
AcDbLine
 62
7
  6
CONTINUOUS
 10
20.2949104473
 20
40.5545105992
 11
19.6207174877
 21
40.613787298
  0
LINE
  5
560
100
AcDbEntity
  8
DEFAULT_2
100
AcDbLine
 62
8
  6
CONTINUOUS
 10
56.5447460893
 20
35.95344354
 11
56.5536511116
 21
35.9526547394
  0
LINE
  5
561
100
AcDbEntity
  8
0
100
AcDbLine
 62
7
  6
CONTINUOUS
 10
19.6207174877
 20
40.613787298
 11
18.9827486526
 21
40.672381268
  0
LINE
  5
562
100
AcDbEntity
  8
0
100
AcDbLine
 62
7
  6
CONTINUOUS
 10
18.9827486526
 20
40.672381268
 11
18.3917562625
 21
40.7287267702
  0
LINE
  5
563
100
AcDbEntity
  8
DEFAULT_2
100
AcDbLine
 62
8
  6
CONTINUOUS
 10
41.9636495208
 20
34.458719906
 11
41.9539481523
 21
34.459648556
  0
LINE
  5
564
100
AcDbEntity
  8
0
100
AcDbLine
 62
7
  6
CONTINUOUS
 10
18.3917562625
 20
40.7287267702
 11
17.8445492198
 21
40.7826862546
  0
LINE
  5
565
100
AcDbEntity
  8
DEFAULT_2
100
AcDbLine
 62
8
  6
CONTINUOUS
 10
59.8687807566
 20
26.6613892748
 11
59.6838216684
 21
26.6796412013
  0
LINE
  5
566
100
AcDbEntity
  8
DEFAULT_2
100
AcDbLine
 62
8
  6
CONTINUOUS
 10
56.5536511116
 20
35.9526547394
 11
56.5625473923
 21
35.9517767367
  0
LINE
  5
567
100
AcDbEntity
  8
DEFAULT_2
100
AcDbLine
 62
8
  6
CONTINUOUS
 10
60.0526125396
 20
26.6430999049
 11
59.8687807566
 21
26.6613892748
  0
LINE
  5
568
100
AcDbEntity
  8
0
100
AcDbLine
 62
7
  6
CONTINUOUS
 10
81.7908718268
 20
39.9122472376
 11
81.7266728
 21
39.9186505264
  0
LINE
  5
569
100
AcDbEntity
  8
DEFAULT_2
100
AcDbLine
 62
8
  6
CONTINUOUS
 10
25.689090574
 20
18.3943318241
 11
25.6164540558
 21
18.4016418705
  0
LINE
  5
56A
100
AcDbEntity
  8
0
100
AcDbLine
 62
7
  6
CONTINUOUS
 10
17.8445492198
 20
40.7826862546
 11
17.3387168625
 21
40.8341249658
  0
LINE
  5
56B
100
AcDbEntity
  8
DEFAULT_2
100
AcDbLine
 62
8
  6
CONTINUOUS
 10
59.6838216684
 20
26.6796412013
 11
59.4977639846
 21
26.6987151268
  0
LINE
  5
56C
100
AcDbEntity
  8
DEFAULT_2
100
AcDbLine
 62
8
  6
CONTINUOUS
 10
60.2353979859
 20
26.6240817176
 11
60.0526125396
 21
26.6430999049
  0
LINE
  5
56D
100
AcDbEntity
  8
DEFAULT_2
100
AcDbLine
 62
8
  6
CONTINUOUS
 10
40.8036418686
 20
32.9454972563
 11
40.8128447837
 21
32.9445398602
  0
LINE
  5
56E
100
AcDbEntity
  8
DEFAULT_2
100
AcDbLine
 62
8
  6
CONTINUOUS
 10
56.5625473923
 20
35.9517767367
 11
56.5714349396
 21
35.9508472127
  0
LINE
  5
56F
100
AcDbEntity
  8
0
100
AcDbLine
 62
7
  6
CONTINUOUS
 10
17.3387168625
 20
40.8341249658
 11
16.8671813906
 21
40.8834584445
  0
LINE
  5
570
100
AcDbEntity
  8
DEFAULT_2
100
AcDbLine
 62
8
  6
CONTINUOUS
 10
47.9915778722
 20
29.6740378668
 11
47.4745139348
 21
29.7284548285
  0
LINE
  5
571
100
AcDbEntity
  8
DEFAULT_2
100
AcDbLine
 62
8
  6
CONTINUOUS
 10
56.3578311936
 20
34.7381148914
 11
56.3487874481
 21
34.7390776144
  0
LINE
  5
572
100
AcDbEntity
  8
0
100
AcDbLine
 62
7
  6
CONTINUOUS
 10
16.8671813906
 20
40.8834584445
 11
16.4234994833
 21
40.9311230042
  0
LINE
  5
573
100
AcDbEntity
  8
DEFAULT_2
100
AcDbLine
 62
8
  6
CONTINUOUS
 10
56.5714349396
 20
35.9508472127
 11
57.23726188
 21
35.8792251959
  0
LINE
  5
574
100
AcDbEntity
  8
DEFAULT_2
100
AcDbLine
 62
8
  6
CONTINUOUS
 10
57.23726188
 20
35.8792251959
 11
57.2632772755
 21
35.8763658622
  0
LINE
  5
575
100
AcDbEntity
  8
DEFAULT_2
100
AcDbLine
 62
8
  6
CONTINUOUS
 10
59.4977639846
 20
26.6987151268
 11
59.1211055432
 21
26.7402323361
  0
LINE
  5
576
100
AcDbEntity
  8
0
100
AcDbLine
 62
7
  6
CONTINUOUS
 10
16.4234994833
 20
40.9311230042
 11
16.0016630047
 21
40.9775804013
  0
LINE
  5
577
100
AcDbEntity
  8
DEFAULT_2
100
AcDbLine
 62
8
  6
CONTINUOUS
 10
60.597706537
 20
26.5835911556
 11
60.2353979859
 21
26.6240817176
  0
LINE
  5
578
100
AcDbEntity
  8
DEFAULT_2
100
AcDbLine
 62
8
  6
CONTINUOUS
 10
60.6108921691
 20
36.6016242885
 11
60.6444754822
 21
36.5978444818
  0
LINE
  5
579
100
AcDbEntity
  8
0
100
AcDbLine
 62
7
  6
CONTINUOUS
 10
16.0016630047
 20
40.9775804013
 11
15.595737519
 21
41.0233303807
  0
LINE
  5
57A
100
AcDbEntity
  8
DEFAULT_2
100
AcDbLine
 62
8
  6
CONTINUOUS
 10
60.2723371557
 20
34.294473042
 11
60.238372607
 21
34.2983533357
  0
LINE
  5
57B
100
AcDbEntity
  8
DEFAULT_2
100
AcDbLine
 62
8
  6
CONTINUOUS
 10
57.2632772755
 20
35.8763658622
 11
57.2892786238
 21
35.873374168
  0
LINE
  5
57C
100
AcDbEntity
  8
0
100
AcDbLine
 62
7
  6
CONTINUOUS
 10
15.595737519
 20
41.0233303807
 11
15.2019309865
 21
41.0686905895
  0
LINE
  5
57D
100
AcDbEntity
  8
0
100
AcDbLine
 62
7
  6
CONTINUOUS
 10
15.2019309865
 20
41.0686905895
 11
14.956314865
 21
41.0974687909
  0
LINE
  5
57E
100
AcDbEntity
  8
0
100
AcDbLine
 62
7
  6
CONTINUOUS
 10
14.9994512282
 20
41.0923833073
 11
14.9020426096
 21
41.1038948407
  0
LINE
  5
57F
100
AcDbEntity
  8
0
100
AcDbLine
 62
7
  6
CONTINUOUS
 10
14.9296294482
 20
41.1006112041
 11
14.8403085698
 21
41.111179943
  0
LINE
  5
580
100
AcDbEntity
  8
0
100
AcDbLine
 62
7
  6
CONTINUOUS
 10
14.8403085698
 20
41.111179943
 11
14.7528791028
 21
41.1215712837
  0
LINE
  5
581
100
AcDbEntity
  8
0
100
AcDbLine
 62
7
  6
CONTINUOUS
 10
14.9020426096
 20
41.1038948407
 11
14.7639796255
 21
41.1203555193
  0
LINE
  5
582
100
AcDbEntity
  8
0
100
AcDbLine
 62
7
  6
CONTINUOUS
 10
14.7528791028
 20
41.1215712837
 11
14.6427457377
 21
41.1347299152
  0
LINE
  5
583
100
AcDbEntity
  8
0
100
AcDbLine
 62
7
  6
CONTINUOUS
 10
14.6427457377
 20
41.1347299152
 11
14.5014550705
 21
41.1517059584
  0
LINE
  5
584
100
AcDbEntity
  8
0
100
AcDbLine
 62
7
  6
CONTINUOUS
 10
14.7639796255
 20
41.1203555193
 11
14.6427727324
 21
41.1349243936
  0
LINE
  5
585
100
AcDbEntity
  8
DEFAULT_2
100
AcDbLine
 62
8
  6
CONTINUOUS
 10
60.7766361568
 20
26.562032053
 11
60.597706537
 21
26.5835911556
  0
LINE
  5
586
100
AcDbEntity
  8
0
100
AcDbLine
 62
7
  6
CONTINUOUS
 10
14.683234038
 20
41.1300495727
 11
14.6521461783
 21
41.1337945659
  0
LINE
  5
587
100
AcDbEntity
  8
0
100
AcDbLine
 62
7
  6
CONTINUOUS
 10
14.5014550705
 20
41.1517059584
 11
14.3425073934
 21
41.17094707
  0
LINE
  5
588
100
AcDbEntity
  8
0
100
AcDbLine
 62
7
  6
CONTINUOUS
 10
14.6427691018
 20
41.1349248315
 11
14.4802910045
 21
41.1545924425
  0
LINE
  5
589
100
AcDbEntity
  8
DEFAULT_2
100
AcDbLine
 62
8
  6
CONTINUOUS
 10
59.1211055432
 20
26.7402323361
 11
58.744925674
 21
26.7859083405
  0
LINE
  5
58A
100
AcDbEntity
  8
0
100
AcDbLine
 62
7
  6
CONTINUOUS
 10
14.4802910045
 20
41.1545924425
 11
14.3865887129
 21
41.165997666
  0
LINE
  5
58B
100
AcDbEntity
  8
0
100
AcDbLine
 62
7
  6
CONTINUOUS
 10
14.3425073934
 20
41.17094707
 11
14.1903176425
 21
41.1895052056
  0
LINE
  5
58C
100
AcDbEntity
  8
0
100
AcDbLine
 62
7
  6
CONTINUOUS
 10
14.3865887129
 20
41.165997666
 11
14.2950385901
 21
41.177184549
  0
LINE
  5
58D
100
AcDbEntity
  8
0
100
AcDbLine
 62
7
  6
CONTINUOUS
 10
14.1903176425
 20
41.1895052056
 11
14.0445558686
 21
41.2074003513
  0
LINE
  5
58E
100
AcDbEntity
  8
0
100
AcDbLine
 62
7
  6
CONTINUOUS
 10
14.2950385901
 20
41.177184549
 11
14.1192786558
 21
41.1987800738
  0
LINE
  5
58F
100
AcDbEntity
  8
0
100
AcDbLine
 62
7
  6
CONTINUOUS
 10
14.0445558686
 20
41.2074003513
 11
13.9060128201
 21
41.224515783
  0
LINE
  5
590
100
AcDbEntity
  8
0
100
AcDbLine
 62
7
  6
CONTINUOUS
 10
14.1192786558
 20
41.1987800738
 11
13.8983890791
 21
41.2261379587
  0
LINE
  5
591
100
AcDbEntity
  8
0
100
AcDbLine
 62
7
  6
CONTINUOUS
 10
14.0356015791
 20
41.2091154185
 11
13.8779112674
 21
41.2286852651
  0
LINE
  5
592
100
AcDbEntity
  8
0
100
AcDbLine
 62
7
  6
CONTINUOUS
 10
13.9060128201
 20
41.224515783
 11
13.7721974823
 21
41.241142644
  0
LINE
  5
593
100
AcDbEntity
  8
DEFAULT_2
100
AcDbLine
 62
8
  6
CONTINUOUS
 10
57.2892786238
 20
35.873374168
 11
57.315251009
 21
35.8701451248
  0
LINE
  5
594
100
AcDbEntity
  8
0
100
AcDbLine
 62
7
  6
CONTINUOUS
 10
13.7721974823
 20
41.241142644
 11
13.6408534338
 21
41.257554084
  0
LINE
  5
595
100
AcDbEntity
  8
0
100
AcDbLine
 62
7
  6
CONTINUOUS
 10
13.8983890791
 20
41.2261379587
 11
13.6653354861
 21
41.2552510397
  0
LINE
  5
596
100
AcDbEntity
  8
0
100
AcDbLine
 62
7
  6
CONTINUOUS
 10
13.6408534338
 20
41.257554084
 11
13.5180789031
 21
41.2729794422
  0
LINE
  5
597
100
AcDbEntity
  8
0
100
AcDbLine
 62
7
  6
CONTINUOUS
 10
13.6858086538
 20
41.2526849582
 11
13.4802648623
 21
41.2785393485
  0
LINE
  5
598
100
AcDbEntity
  8
0
100
AcDbLine
 62
7
  6
CONTINUOUS
 10
13.0219589145
 20
41.3367129681
 11
12.8275379132
 21
41.3612084081
  0
LINE
  5
599
100
AcDbEntity
  8
0
100
AcDbLine
 62
7
  6
CONTINUOUS
 10
13.5180789031
 20
41.2729794422
 11
13.4053993134
 21
41.2872082461
  0
LINE
  5
59A
100
AcDbEntity
  8
0
100
AcDbLine
 62
7
  6
CONTINUOUS
 10
13.5074508501
 20
41.2751115503
 11
13.2785277348
 21
41.3040723766
  0
LINE
  5
59B
100
AcDbEntity
  8
0
100
AcDbLine
 62
7
  6
CONTINUOUS
 10
13.4053993134
 20
41.2872082461
 11
13.3024926783
 21
41.3002622073
  0
LINE
  5
59C
100
AcDbEntity
  8
0
100
AcDbLine
 62
7
  6
CONTINUOUS
 10
13.3587278453
 20
41.2939077783
 11
13.1189834854
 21
41.3243532526
  0
LINE
  5
59D
100
AcDbEntity
  8
DEFAULT_2
100
AcDbLine
 62
8
  6
CONTINUOUS
 10
60.9554174798
 20
26.5392846285
 11
60.7766361568
 21
26.562032053
  0
LINE
  5
59E
100
AcDbEntity
  8
0
100
AcDbLine
 62
7
  6
CONTINUOUS
 10
13.2370716602
 20
41.3093376528
 11
13.0762419517
 21
41.3297989623
  0
LINE
  5
59F
100
AcDbEntity
  8
0
100
AcDbLine
 62
7
  6
CONTINUOUS
 10
13.1189834854
 20
41.3243532526
 11
13.0629050802
 21
41.3314959041
  0
LINE
  5
5A0
100
AcDbEntity
  8
0
100
AcDbLine
 62
7
  6
CONTINUOUS
 10
13.0629050802
 20
41.3314959041
 11
13.0391636956
 21
41.3345210268
  0
LINE
  5
5A1
100
AcDbEntity
  8
0
100
AcDbLine
 62
7
  6
CONTINUOUS
 10
13.0762419517
 20
41.3297989623
 11
13.0219589145
 21
41.3367129681
  0
LINE
  5
5A2
100
AcDbEntity
  8
0
100
AcDbLine
 62
7
  6
CONTINUOUS
 10
13.3024926783
 20
41.3002622073
 11
13.1665999137
 21
41.3175855644
  0
LINE
  5
5A3
100
AcDbEntity
  8
0
100
AcDbLine
 62
7
  6
CONTINUOUS
 10
13.1665999137
 20
41.3175855644
 11
13.0207106676
 21
41.3362887546
  0
LINE
  5
5A4
100
AcDbEntity
  8
0
100
AcDbLine
 62
7
  6
CONTINUOUS
 10
13.0207106676
 20
41.3362887546
 11
12.8494056425
 21
41.358380084
  0
LINE
  5
5A5
100
AcDbEntity
  8
DEFAULT_2
100
AcDbLine
 62
8
  6
CONTINUOUS
 10
48.5072024959
 20
29.6073497722
 11
47.9915778722
 21
29.6740378668
  0
LINE
  5
5A6
100
AcDbEntity
  8
0
100
AcDbLine
 62
7
  6
CONTINUOUS
 10
12.8494056425
 20
41.358380084
 11
12.8275379132
 21
41.3612084081
  0
LINE
  5
5A7
100
AcDbEntity
  8
DEFAULT_2
100
AcDbLine
 62
8
  6
CONTINUOUS
 10
41.9720964217
 20
34.4576223635
 11
41.9636495208
 21
34.458719906
  0
LINE
  5
5A8
100
AcDbEntity
  8
0
100
AcDbLine
 62
7
  6
CONTINUOUS
 10
24.7799460737
 20
13.9627195395
 11
24.8689978601
 21
13.9511081231
  0
LINE
  5
5A9
100
AcDbEntity
  8
DEFAULT_2
100
AcDbLine
 62
8
  6
CONTINUOUS
 10
58.744925674
 20
26.7859083405
 11
58.490156559
 21
26.8194432715
  0
LINE
  5
5AA
100
AcDbEntity
  8
DEFAULT_2
100
AcDbLine
 62
8
  6
CONTINUOUS
 10
56.3487874481
 20
34.7390776144
 11
56.3421690591
 21
34.7399544949
  0
LINE
  5
5AB
100
AcDbEntity
  8
DEFAULT_2
100
AcDbLine
 62
8
  6
CONTINUOUS
 10
25.6164540558
 20
18.4016418705
 11
25.5440958966
 21
18.4113353117
  0
LINE
  5
5AC
100
AcDbEntity
  8
DEFAULT_2
100
AcDbLine
 62
8
  6
CONTINUOUS
 10
40.7944750183
 20
32.9467531644
 11
40.8036418686
 21
32.9454972563
  0
LINE
  5
5AD
100
AcDbEntity
  8
DEFAULT_2
100
AcDbLine
 62
8
  6
CONTINUOUS
 10
57.315251009
 20
35.8701451248
 11
57.3411795153
 21
35.8665737441
  0
LINE
  5
5AE
100
AcDbEntity
  8
DEFAULT_2
100
AcDbLine
 62
8
  6
CONTINUOUS
 10
58.490156559
 20
26.8194432715
 11
58.2356905719
 21
26.8552015149
  0
LINE
  5
5AF
100
AcDbEntity
  8
DEFAULT_2
100
AcDbLine
 62
8
  6
CONTINUOUS
 10
60.6444754822
 20
36.5978444818
 11
60.6781380749
 21
36.5930424019
  0
LINE
  5
5B0
100
AcDbEntity
  8
DEFAULT_2
100
AcDbLine
 62
8
  6
CONTINUOUS
 10
60.238372607
 20
34.2983533357
 11
60.2046862157
 21
34.3032386746
  0
LINE
  5
5B1
100
AcDbEntity
  8
DEFAULT_2
100
AcDbLine
 62
8
  6
CONTINUOUS
 10
49.9865529046
 20
16.2098705346
 11
48.6428935042
 21
16.4052227554
  0
LINE
  5
5B2
100
AcDbEntity
  8
DEFAULT_2
100
AcDbLine
 62
8
  6
CONTINUOUS
 10
58.2356905719
 20
26.8552015149
 11
57.9815678218
 21
26.893319961
  0
LINE
  5
5B3
100
AcDbEntity
  8
DEFAULT_2
100
AcDbLine
 62
8
  6
CONTINUOUS
 10
48.8928007232
 20
29.5493005566
 11
48.5072024959
 21
29.6073497722
  0
LINE
  5
5B4
100
AcDbEntity
  8
DEFAULT_2
100
AcDbLine
 62
8
  6
CONTINUOUS
 10
57.3411795153
 20
35.8665737441
 11
57.3670492269
 21
35.8625550376
  0
LINE
  5
5B5
100
AcDbEntity
  8
DEFAULT_2
100
AcDbLine
 62
8
  6
CONTINUOUS
 10
56.3421690591
 20
34.7399544949
 11
56.3355653894
 21
34.7409833303
  0
LINE
  5
5B6
100
AcDbEntity
  8
DEFAULT_2
100
AcDbLine
 62
8
  6
CONTINUOUS
 10
57.9815678218
 20
26.893319961
 11
57.7244534545
 21
26.9345234979
  0
LINE
  5
5B7
100
AcDbEntity
  8
DEFAULT_2
100
AcDbLine
 62
8
  6
CONTINUOUS
 10
41.9805031462
 20
34.4562504749
 11
41.9720964217
 21
34.4576223635
  0
LINE
  5
5B8
100
AcDbEntity
  8
DEFAULT_2
100
AcDbLine
 62
8
  6
CONTINUOUS
 10
25.5440958966
 20
18.4113353117
 11
25.4720928302
 21
18.4233942998
  0
LINE
  5
5B9
100
AcDbEntity
  8
DEFAULT_2
100
AcDbLine
 62
8
  6
CONTINUOUS
 10
49.2773028891
 20
29.4843867229
 11
48.8928007232
 21
29.5493005566
  0
LINE
  5
5BA
100
AcDbEntity
  8
DEFAULT_2
100
AcDbLine
 62
8
  6
CONTINUOUS
 10
40.7853560921
 20
32.9483135634
 11
40.7944750183
 21
32.9467531644
  0
LINE
  5
5BB
100
AcDbEntity
  8
DEFAULT_2
100
AcDbLine
 62
8
  6
CONTINUOUS
 10
57.7244534545
 20
26.9345234979
 11
57.4678156873
 21
26.9786060313
  0
LINE
  5
5BC
100
AcDbEntity
  8
DEFAULT_2
100
AcDbLine
 62
8
  6
CONTINUOUS
 10
60.6781380749
 20
36.5930424019
 11
60.7116430055
 21
36.5872383897
  0
LINE
  5
5BD
100
AcDbEntity
  8
DEFAULT_2
100
AcDbLine
 62
8
  6
CONTINUOUS
 10
57.3670492269
 20
35.8625550376
 11
57.3887286402
 21
35.8587582282
  0
LINE
  5
5BE
100
AcDbEntity
  8
DEFAULT_2
100
AcDbLine
 62
8
  6
CONTINUOUS
 10
60.2046862157
 20
34.3032386746
 11
60.1711627633
 21
34.3091423915
  0
LINE
  5
5BF
100
AcDbEntity
  8
DEFAULT_2
100
AcDbLine
 62
8
  6
CONTINUOUS
 10
56.3355653894
 20
34.7409833303
 11
56.3289834988
 21
34.742169375
  0
LINE
  5
5C0
100
AcDbEntity
  8
DEFAULT_2
100
AcDbLine
 62
8
  6
CONTINUOUS
 10
57.4678156873
 20
26.9786060313
 11
57.2117374787
 21
27.0258824033
  0
LINE
  5
5C1
100
AcDbEntity
  8
DEFAULT_2
100
AcDbLine
 62
8
  6
CONTINUOUS
 10
49.6605870676
 20
29.4126293558
 11
49.2773028891
 21
29.4843867229
  0
LINE
  5
5C2
100
AcDbEntity
  8
DEFAULT_2
100
AcDbLine
 62
8
  6
CONTINUOUS
 10
57.3887286402
 20
35.8587582282
 11
57.4103316235
 21
35.8545262344
  0
LINE
  5
5C3
100
AcDbEntity
  8
DEFAULT_2
100
AcDbLine
 62
8
  6
CONTINUOUS
 10
57.2117374787
 20
27.0258824033
 11
57.0181277215
 21
27.0640409603
  0
LINE
  5
5C4
100
AcDbEntity
  8
DEFAULT_2
100
AcDbLine
 62
8
  6
CONTINUOUS
 10
41.9888574109
 20
34.4545952139
 11
41.9805031462
 21
34.4562504749
  0
LINE
  5
5C5
100
AcDbEntity
  8
DEFAULT_2
100
AcDbLine
 62
8
  6
CONTINUOUS
 10
25.4720928302
 20
18.4233942998
 11
25.4005215903
 21
18.4378009867
  0
LINE
  5
5C6
100
AcDbEntity
  8
DEFAULT_2
100
AcDbLine
 62
8
  6
CONTINUOUS
 10
60.7116430055
 20
36.5872383897
 11
60.7449591614
 21
36.5804331034
  0
LINE
  5
5C7
100
AcDbEntity
  8
0
100
AcDbLine
 62
7
  6
CONTINUOUS
 10
81.8540687051
 20
39.8992597447
 11
81.7908718268
 21
39.9122472376
  0
LINE
  5
5C8
100
AcDbEntity
  8
DEFAULT_2
100
AcDbLine
 62
8
  6
CONTINUOUS
 10
50.0425313931
 20
29.3340515784
 11
49.6605870676
 21
29.4126293558
  0
LINE
  5
5C9
100
AcDbEntity
  8
DEFAULT_2
100
AcDbLine
 62
8
  6
CONTINUOUS
 10
56.3289834988
 20
34.742169375
 11
56.322430447
 21
34.7435178834
  0
LINE
  5
5CA
100
AcDbEntity
  8
DEFAULT_2
100
AcDbLine
 62
8
  6
CONTINUOUS
 10
40.7762969493
 20
32.950184432
 11
40.7853560921
 21
32.9483135634
  0
LINE
  5
5CB
100
AcDbEntity
  8
DEFAULT_2
100
AcDbLine
 62
8
  6
CONTINUOUS
 10
60.1711627633
 20
34.3091423915
 11
60.1378342123
 21
34.3160627594
  0
LINE
  5
5CC
100
AcDbEntity
  8
DEFAULT_2
100
AcDbLine
 62
8
  6
CONTINUOUS
 10
57.0181277215
 20
27.0640409603
 11
56.8249743164
 21
27.1044438388
  0
LINE
  5
5CD
100
AcDbEntity
  8
DEFAULT_2
100
AcDbLine
 62
8
  6
CONTINUOUS
 10
57.4103316235
 20
35.8545262344
 11
57.4318337946
 21
35.8498138652
  0
LINE
  5
5CE
100
AcDbEntity
  8
0
100
AcDbLine
 62
7
  6
CONTINUOUS
 10
24.6807980762
 20
13.9846261569
 11
24.7799460737
 21
13.9627195395
  0
LINE
  5
5CF
100
AcDbEntity
  8
DEFAULT_2
100
AcDbLine
 62
8
  6
CONTINUOUS
 10
56.8249743164
 20
27.1044438388
 11
56.6323646976
 21
27.1473207597
  0
LINE
  5
5D0
100
AcDbEntity
  8
DEFAULT_2
100
AcDbLine
 62
8
  6
CONTINUOUS
 10
50.4230142297
 20
29.248677797
 11
50.0425313931
 21
29.3340515784
  0
LINE
  5
5D1
100
AcDbEntity
  8
DEFAULT_2
100
AcDbLine
 62
8
  6
CONTINUOUS
 10
56.322430447
 20
34.7435178834
 11
56.3159132938
 21
34.7450341099
  0
LINE
  5
5D2
100
AcDbEntity
  8
DEFAULT_2
100
AcDbLine
 62
8
  6
CONTINUOUS
 10
41.9971469326
 20
34.4526475542
 11
41.9888574109
 21
34.4545952139
  0
LINE
  5
5D3
100
AcDbEntity
  8
DEFAULT_2
100
AcDbLine
 62
8
  6
CONTINUOUS
 10
25.4005215903
 20
18.4378009867
 11
25.3294589106
 21
18.4545375244
  0
LINE
  5
5D4
100
AcDbEntity
  8
DEFAULT_2
100
AcDbLine
 62
8
  6
CONTINUOUS
 10
60.7449591614
 20
36.5804331034
 11
60.7781090673
 21
36.5726142049
  0
LINE
  5
5D5
100
AcDbEntity
  8
DEFAULT_2
100
AcDbLine
 62
8
  6
CONTINUOUS
 10
56.6323646976
 20
27.1473207597
 11
56.4403862989
 21
27.1929014438
  0
LINE
  5
5D6
100
AcDbEntity
  8
DEFAULT_2
100
AcDbLine
 62
8
  6
CONTINUOUS
 10
60.1378342123
 20
34.3160627594
 11
60.1048177113
 21
34.3239756542
  0
LINE
  5
5D7
100
AcDbEntity
  8
DEFAULT_2
100
AcDbLine
 62
8
  6
CONTINUOUS
 10
50.8019148001
 20
29.1565355126
 11
50.4230142297
 21
29.248677797
  0
LINE
  5
5D8
100
AcDbEntity
  8
DEFAULT_2
100
AcDbLine
 62
8
  6
CONTINUOUS
 10
40.7673094492
 20
32.952371749
 11
40.7762969493
 21
32.950184432
  0
LINE
  5
5D9
100
AcDbEntity
  8
DEFAULT_2
100
AcDbLine
 62
8
  6
CONTINUOUS
 10
57.4318337946
 20
35.8498138652
 11
57.4532107713
 21
35.84457593
  0
LINE
  5
5DA
100
AcDbEntity
  8
DEFAULT_2
100
AcDbLine
 62
8
  6
CONTINUOUS
 10
56.4403862989
 20
27.1929014438
 11
56.247639859
 21
27.2417893578
  0
LINE
  5
5DB
100
AcDbEntity
  8
DEFAULT_2
100
AcDbLine
 62
8
  6
CONTINUOUS
 10
56.3159132938
 20
34.7450341099
 11
56.3094390988
 21
34.7467233089
  0
LINE
  5
5DC
100
AcDbEntity
  8
DEFAULT_2
100
AcDbLine
 62
8
  6
CONTINUOUS
 10
51.1791126948
 20
29.0576536971
 11
50.8019148001
 21
29.1565355126
  0
LINE
  5
5DD
100
AcDbEntity
  8
DEFAULT_2
100
AcDbLine
 62
8
  6
CONTINUOUS
 10
60.7781090673
 20
36.5726142049
 11
60.8110069482
 21
36.563795224
  0
LINE
  5
5DE
100
AcDbEntity
  8
DEFAULT_2
100
AcDbLine
 62
8
  6
CONTINUOUS
 10
25.3294589106
 20
18.4545375244
 11
25.258981525
 21
18.473586065
  0
LINE
  5
5DF
100
AcDbEntity
  8
DEFAULT_2
100
AcDbLine
 62
8
  6
CONTINUOUS
 10
56.247639859
 20
27.2417893578
 11
56.0557112228
 21
27.2937946435
  0
LINE
  5
5E0
100
AcDbEntity
  8
DEFAULT_2
100
AcDbLine
 62
8
  6
CONTINUOUS
 10
60.1048177113
 20
34.3239756542
 11
60.0720583568
 21
34.3328930292
  0
LINE
  5
5E1
100
AcDbEntity
  8
DEFAULT_2
100
AcDbLine
 62
8
  6
CONTINUOUS
 10
57.4532107713
 20
35.84457593
 11
57.4744381711
 21
35.8387672378
  0
LINE
  5
5E2
100
AcDbEntity
  8
DEFAULT_2
100
AcDbLine
 62
8
  6
CONTINUOUS
 10
42.0053594277
 20
34.4503984693
 11
41.9971469326
 21
34.4526475542
  0
LINE
  5
5E3
100
AcDbEntity
  8
DEFAULT_2
100
AcDbLine
 62
8
  6
CONTINUOUS
 10
51.5544881154
 20
28.9520641121
 11
51.1791126948
 21
29.0576536971
  0
LINE
  5
5E4
100
AcDbEntity
  8
DEFAULT_2
100
AcDbLine
 62
8
  6
CONTINUOUS
 10
40.7584054511
 20
32.9548814933
 11
40.7673094492
 21
32.952371749
  0
LINE
  5
5E5
100
AcDbEntity
  8
DEFAULT_2
100
AcDbLine
 62
8
  6
CONTINUOUS
 10
56.0557112228
 20
27.2937946435
 11
55.8635360367
 21
27.3494008216
  0
LINE
  5
5E6
100
AcDbEntity
  8
DEFAULT_2
100
AcDbLine
 62
8
  6
CONTINUOUS
 10
56.3094390988
 20
34.7467233089
 11
56.3030149217
 21
34.7485907348
  0
LINE
  5
5E7
100
AcDbEntity
  8
DEFAULT_2
100
AcDbLine
 62
8
  6
CONTINUOUS
 10
51.927921655
 20
28.8397999383
 11
51.5544881154
 21
28.9520641121
  0
LINE
  5
5E8
100
AcDbEntity
  8
DEFAULT_2
100
AcDbLine
 62
8
  6
CONTINUOUS
 10
60.8110069482
 20
36.563795224
 11
60.8436213829
 21
36.5539799537
  0
LINE
  5
5E9
100
AcDbEntity
  8
DEFAULT_2
100
AcDbLine
 62
8
  6
CONTINUOUS
 10
57.4744381711
 20
35.8387672378
 11
57.4954916119
 21
35.8323425978
  0
LINE
  5
5EA
100
AcDbEntity
  8
DEFAULT_2
100
AcDbLine
 62
8
  6
CONTINUOUS
 10
60.0720583568
 20
34.3328930292
 11
60.0395876022
 21
34.3428096798
  0
LINE
  5
5EB
100
AcDbEntity
  8
DEFAULT_2
100
AcDbLine
 62
8
  6
CONTINUOUS
 10
25.258981525
 20
18.473586065
 11
25.1891661672
 21
18.4949287604
  0
LINE
  5
5EC
100
AcDbEntity
  8
0
100
AcDbLine
 62
7
  6
CONTINUOUS
 10
24.5698901949
 20
14.0187951229
 11
24.6807980762
 21
13.9846261569
  0
LINE
  5
5ED
100
AcDbEntity
  8
DEFAULT_2
100
AcDbLine
 62
8
  6
CONTINUOUS
 10
55.8635360367
 20
27.3494008216
 11
55.6723899355
 21
27.408442531
  0
LINE
  5
5EE
100
AcDbEntity
  8
DEFAULT_2
100
AcDbLine
 62
8
  6
CONTINUOUS
 10
42.013482613
 20
34.447838933
 11
42.0053594277
 21
34.4503984693
  0
LINE
  5
5EF
100
AcDbEntity
  8
0
100
AcDbLine
 62
7
  6
CONTINUOUS
 10
81.9155899713
 20
39.8798264469
 11
81.8540687051
 21
39.8992597447
  0
LINE
  5
5F0
100
AcDbEntity
  8
0
100
AcDbLine
 62
7
  6
CONTINUOUS
 10
56.902978465
 20
14.1979196062
 11
56.9029241137
 21
14.1979368243
  0
LINE
  5
5F1
100
AcDbEntity
  8
DEFAULT_2
100
AcDbLine
 62
8
  6
CONTINUOUS
 10
52.2992948619
 20
28.7208972445
 11
51.927921655
 21
28.8397999383
  0
LINE
  5
5F2
100
AcDbEntity
  8
DEFAULT_2
100
AcDbLine
 62
8
  6
CONTINUOUS
 10
40.7495968144
 20
32.9577196437
 11
40.7584054511
 21
32.9548814933
  0
LINE
  5
5F3
100
AcDbEntity
  8
DEFAULT_2
100
AcDbLine
 62
8
  6
CONTINUOUS
 10
56.3030149217
 20
34.7485907348
 11
56.2966478223
 21
34.750641642
  0
LINE
  5
5F4
100
AcDbEntity
  8
DEFAULT_2
100
AcDbLine
 62
8
  6
CONTINUOUS
 10
55.6723899355
 20
27.408442531
 11
55.4815634802
 21
27.4713096537
  0
LINE
  5
5F5
100
AcDbEntity
  8
DEFAULT_2
100
AcDbLine
 62
8
  6
CONTINUOUS
 10
60.8436213829
 20
36.5539799537
 11
60.8757553064
 21
36.5432309797
  0
LINE
  5
5F6
100
AcDbEntity
  8
DEFAULT_2
100
AcDbLine
 62
8
  6
CONTINUOUS
 10
57.4954916119
 20
35.8323425978
 11
57.5136510139
 21
35.8262188654
  0
LINE
  5
5F7
100
AcDbEntity
  8
DEFAULT_2
100
AcDbLine
 62
8
  6
CONTINUOUS
 10
60.0395876022
 20
34.3428096798
 11
60.007560116
 21
34.3536758654
  0
LINE
  5
5F8
100
AcDbEntity
  8
DEFAULT_2
100
AcDbLine
 62
8
  6
CONTINUOUS
 10
52.6684894747
 20
28.5953935285
 11
52.2992948619
 21
28.7208972445
  0
LINE
  5
5F9
100
AcDbEntity
  8
DEFAULT_2
100
AcDbLine
 62
8
  6
CONTINUOUS
 10
25.1891661672
 20
18.4949287604
 11
25.1200895708
 21
18.5185477626
  0
LINE
  5
5FA
100
AcDbEntity
  8
DEFAULT_2
100
AcDbLine
 62
8
  6
CONTINUOUS
 10
55.4815634802
 20
27.4713096537
 11
55.2919510473
 21
27.5377613208
  0
LINE
  5
5FB
100
AcDbEntity
  8
DEFAULT_2
100
AcDbLine
 62
8
  6
CONTINUOUS
 10
56.2966478223
 20
34.750641642
 11
56.2903448602
 21
34.7528812848
  0
LINE
  5
5FC
100
AcDbEntity
  8
DEFAULT_2
100
AcDbLine
 62
8
  6
CONTINUOUS
 10
42.0214936936
 20
34.4449654378
 11
42.013482613
 21
34.447838933
  0
LINE
  5
5FD
100
AcDbEntity
  8
DEFAULT_2
100
AcDbLine
 62
8
  6
CONTINUOUS
 10
53.0353882851
 20
28.4633287592
 11
52.6684894747
 21
28.5953935285
  0
LINE
  5
5FE
100
AcDbEntity
  8
DEFAULT_2
100
AcDbLine
 62
8
  6
CONTINUOUS
 10
40.742012492
 20
32.9604628985
 11
40.7495968144
 21
32.9577196437
  0
LINE
  5
5FF
100
AcDbEntity
  8
DEFAULT_2
100
AcDbLine
 62
8
  6
CONTINUOUS
 10
57.5136510139
 20
35.8262188654
 11
57.5316369197
 21
35.819585907
  0
LINE
  5
600
100
AcDbEntity
  8
DEFAULT_2
100
AcDbLine
 62
8
  6
CONTINUOUS
 10
60.8757553064
 20
36.5432309797
 11
60.907546407
 21
36.5315067783
  0
LINE
  5
601
100
AcDbEntity
  8
DEFAULT_2
100
AcDbLine
 62
8
  6
CONTINUOUS
 10
55.2919510473
 20
27.5377613208
 11
55.1028976377
 21
27.6080874015
  0
LINE
  5
602
100
AcDbEntity
  8
DEFAULT_2
100
AcDbLine
 62
8
  6
CONTINUOUS
 10
60.007560116
 20
34.3536758654
 11
59.9758811338
 21
34.3655198007
  0
LINE
  5
603
100
AcDbEntity
  8
DEFAULT_2
100
AcDbLine
 62
8
  6
CONTINUOUS
 10
25.1200895708
 20
18.5185477626
 11
25.0518284696
 21
18.5444252237
  0
LINE
  5
604
100
AcDbEntity
  8
DEFAULT_2
100
AcDbLine
 62
8
  6
CONTINUOUS
 10
53.3998749018
 20
28.324744826
 11
53.0353882851
 21
28.4633287592
  0
LINE
  5
605
100
AcDbEntity
  8
0
100
AcDbLine
 62
7
  6
CONTINUOUS
 10
24.4470097727
 20
14.0662976779
 11
24.5698901949
 21
14.0187951229
  0
LINE
  5
606
100
AcDbEntity
  8
DEFAULT_2
100
AcDbLine
 62
8
  6
CONTINUOUS
 10
56.2903448602
 20
34.7528812848
 11
56.2841130953
 21
34.7553149178
  0
LINE
  5
607
100
AcDbEntity
  8
DEFAULT_2
100
AcDbLine
 62
8
  6
CONTINUOUS
 10
55.1028976377
 20
27.6080874015
 11
54.9152947569
 21
27.6821682113
  0
LINE
  5
608
100
AcDbEntity
  8
DEFAULT_2
100
AcDbLine
 62
8
  6
CONTINUOUS
 10
40.7345206832
 20
32.9634587029
 11
40.742012492
 21
32.9604628985
  0
LINE
  5
609
100
AcDbEntity
  8
DEFAULT_2
100
AcDbLine
 62
8
  6
CONTINUOUS
 10
53.7618325558
 20
28.1796861438
 11
53.3998749018
 21
28.324744826
  0
LINE
  5
60A
100
AcDbEntity
  8
DEFAULT_2
100
AcDbLine
 62
8
  6
CONTINUOUS
 10
57.5316369197
 20
35.819585907
 11
57.5494260342
 21
35.8124351671
  0
LINE
  5
60B
100
AcDbEntity
  8
DEFAULT_2
100
AcDbLine
 62
8
  6
CONTINUOUS
 10
60.907546407
 20
36.5315067783
 11
60.938963492
 21
36.5188144147
  0
LINE
  5
60C
100
AcDbEntity
  8
DEFAULT_2
100
AcDbLine
 62
8
  6
CONTINUOUS
 10
42.0293868872
 20
34.4417749349
 11
42.0214936936
 21
34.4449654378
  0
LINE
  5
60D
100
AcDbEntity
  8
DEFAULT_2
100
AcDbLine
 62
8
  6
CONTINUOUS
 10
59.9758811338
 20
34.3655198007
 11
59.9445815682
 21
34.3783328114
  0
LINE
  5
60E
100
AcDbEntity
  8
DEFAULT_2
100
AcDbLine
 62
8
  6
CONTINUOUS
 10
54.9152911458
 20
27.6821741959
 11
54.7854524572
 21
27.735884952
  0
LINE
  5
60F
100
AcDbEntity
  8
DEFAULT_2
100
AcDbLine
 62
8
  6
CONTINUOUS
 10
53.941829456
 20
28.1047420952
 11
53.7618325558
 21
28.1796861438
  0
LINE
  5
610
100
AcDbEntity
  8
DEFAULT_2
100
AcDbLine
 62
8
  6
CONTINUOUS
 10
25.0518284696
 20
18.5444252237
 11
24.9844595975
 21
18.5725432956
  0
LINE
  5
611
100
AcDbEntity
  8
DEFAULT_2
100
AcDbLine
 62
8
  6
CONTINUOUS
 10
54.1211431168
 20
28.0282001998
 11
53.941829456
 21
28.1047420952
  0
LINE
  5
612
100
AcDbEntity
  8
DEFAULT_2
100
AcDbLine
 62
8
  6
CONTINUOUS
 10
56.2841130953
 20
34.7553149178
 11
56.2779595871
 21
34.7579477952
  0
LINE
  5
613
100
AcDbEntity
  8
DEFAULT_2
100
AcDbLine
 62
8
  6
CONTINUOUS
 10
54.7854524572
 20
27.735884952
 11
54.6311344067
 21
27.8020325284
  0
LINE
  5
614
100
AcDbEntity
  8
0
100
AcDbLine
 62
7
  6
CONTINUOUS
 10
81.9747800223
 20
39.8541544445
 11
81.9155899713
 21
39.8798264469
  0
LINE
  5
615
100
AcDbEntity
  8
DEFAULT_2
100
AcDbLine
 62
8
  6
CONTINUOUS
 10
57.5494260342
 20
35.8124351671
 11
57.5669950621
 21
35.8047580899
  0
LINE
  5
616
100
AcDbEntity
  8
DEFAULT_2
100
AcDbLine
 62
8
  6
CONTINUOUS
 10
54.2997969735
 20
27.9500501146
 11
54.1211431168
 21
28.0282001998
  0
LINE
  5
617
100
AcDbEntity
  8
DEFAULT_2
100
AcDbLine
 62
8
  6
CONTINUOUS
 10
40.7271325703
 20
32.9667059614
 11
40.7345206832
 21
32.9634587029
  0
LINE
  5
618
100
AcDbEntity
  8
DEFAULT_2
100
AcDbLine
 62
8
  6
CONTINUOUS
 10
60.938963492
 20
36.5188144147
 11
60.96985114
 21
36.5052185592
  0
LINE
  5
619
100
AcDbEntity
  8
DEFAULT_2
100
AcDbLine
 62
8
  6
CONTINUOUS
 10
54.6311344067
 20
27.8020325284
 11
54.5542401624
 21
27.8359427479
  0
LINE
  5
61A
100
AcDbEntity
  8
DEFAULT_2
100
AcDbLine
 62
8
  6
CONTINUOUS
 10
54.388778573
 20
27.9104155333
 11
54.2997969735
 21
27.9500501146
  0
LINE
  5
61B
100
AcDbEntity
  8
DEFAULT_2
100
AcDbLine
 62
8
  6
CONTINUOUS
 10
59.9445815682
 20
34.3783328114
 11
59.9137285943
 21
34.3920887179
  0
LINE
  5
61C
100
AcDbEntity
  8
0
100
AcDbLine
 62
7
  6
CONTINUOUS
 10
24.3122421887
 20
14.1267407056
 11
24.4470097727
 21
14.0662976779
  0
LINE
  5
61D
100
AcDbEntity
  8
DEFAULT_2
100
AcDbLine
 62
8
  6
CONTINUOUS
 10
54.5542401624
 20
27.8359427479
 11
54.4778967679
 21
27.870242903
  0
LINE
  5
61E
100
AcDbEntity
  8
DEFAULT_2
100
AcDbLine
 62
8
  6
CONTINUOUS
 10
54.4778967679
 20
27.870242903
 11
54.388778573
 21
27.9104155333
  0
LINE
  5
61F
100
AcDbEntity
  8
DEFAULT_2
100
AcDbLine
 62
8
  6
CONTINUOUS
 10
42.0371456504
 20
34.4382691096
 11
42.0293868872
 21
34.4417749349
  0
LINE
  5
620
100
AcDbEntity
  8
DEFAULT_2
100
AcDbLine
 62
8
  6
CONTINUOUS
 10
24.9844595975
 20
18.5725432956
 11
24.9180583008
 21
18.60288014
  0
LINE
  5
621
100
AcDbEntity
  8
DEFAULT_2
100
AcDbLine
 62
8
  6
CONTINUOUS
 10
56.2779595871
 20
34.7579477952
 11
56.2718913955
 21
34.7607851714
  0
LINE
  5
622
100
AcDbEntity
  8
DEFAULT_2
100
AcDbLine
 62
8
  6
CONTINUOUS
 10
57.5669950621
 20
35.8047580899
 11
57.5843207081
 21
35.7965461197
  0
LINE
  5
623
100
AcDbEntity
  8
DEFAULT_2
100
AcDbLine
 62
8
  6
CONTINUOUS
 10
60.96985114
 20
36.5052185592
 11
61.0003063568
 21
36.490679858
  0
LINE
  5
624
100
AcDbEntity
  8
DEFAULT_2
100
AcDbLine
 62
8
  6
CONTINUOUS
 10
40.7198593357
 20
32.9702035786
 11
40.7271325703
 21
32.9667059614
  0
LINE
  5
625
100
AcDbEntity
  8
0
100
AcDbLine
 62
7
  6
CONTINUOUS
 10
24.1649577362
 20
14.1979304332
 11
24.3122421887
 21
14.1267407056
  0
LINE
  5
626
100
AcDbEntity
  8
DEFAULT_2
100
AcDbLine
 62
8
  6
CONTINUOUS
 10
59.9137285943
 20
34.3920887179
 11
59.8833149675
 21
34.40679053
  0
LINE
  5
627
100
AcDbEntity
  8
DEFAULT_2
100
AcDbLine
 62
8
  6
CONTINUOUS
 10
24.9180583008
 20
18.60288014
 11
24.8526943766
 21
18.635397957
  0
LINE
  5
628
100
AcDbEntity
  8
DEFAULT_2
100
AcDbLine
 62
8
  6
CONTINUOUS
 10
42.0447534395
 20
34.4344496471
 11
42.0371456504
 21
34.4382691096
  0
LINE
  5
629
100
AcDbEntity
  8
DEFAULT_2
100
AcDbLine
 62
8
  6
CONTINUOUS
 10
56.2718913955
 20
34.7607851714
 11
56.2659155801
 21
34.763832301
  0
LINE
  5
62A
100
AcDbEntity
  8
DEFAULT_2
100
AcDbLine
 62
8
  6
CONTINUOUS
 10
57.5843207081
 20
35.7965461197
 11
57.6013796771
 21
35.7877907009
  0
LINE
  5
62B
100
AcDbEntity
  8
0
100
AcDbLine
 62
7
  6
CONTINUOUS
 10
24.1649577362
 20
14.1979304332
 11
23.3015254202
 21
14.6423055869
  0
LINE
  5
62C
100
AcDbEntity
  8
DEFAULT_2
100
AcDbLine
 62
8
  6
CONTINUOUS
 10
61.0003063568
 20
36.490679858
 11
61.0302986556
 21
36.4752088218
  0
LINE
  5
62D
100
AcDbEntity
  8
DEFAULT_2
100
AcDbLine
 62
8
  6
CONTINUOUS
 10
59.8833149675
 20
34.40679053
 11
59.8533706788
 21
34.4224260308
  0
LINE
  5
62E
100
AcDbEntity
  8
DEFAULT_2
100
AcDbLine
 62
8
  6
CONTINUOUS
 10
40.7127121615
 20
32.9739504591
 11
40.7198593357
 21
32.9702035786
  0
LINE
  5
62F
100
AcDbEntity
  8
DEFAULT_2
100
AcDbLine
 62
8
  6
CONTINUOUS
 10
24.8526943766
 20
18.635397957
 11
24.7884362349
 21
18.6700549565
  0
LINE
  5
630
100
AcDbEntity
  8
DEFAULT_2
100
AcDbLine
 62
8
  6
CONTINUOUS
 10
57.6013796771
 20
35.7877907009
 11
57.6181486737
 21
35.7784832778
  0
LINE
  5
631
100
AcDbEntity
  8
DEFAULT_2
100
AcDbLine
 62
8
  6
CONTINUOUS
 10
42.0521937113
 20
34.4303182325
 11
42.0447534395
 21
34.4344496471
  0
LINE
  5
632
100
AcDbEntity
  8
DEFAULT_2
100
AcDbLine
 62
8
  6
CONTINUOUS
 10
56.2659155801
 20
34.763832301
 11
56.2600392007
 21
34.7670944381
  0
LINE
  5
633
100
AcDbEntity
  8
DEFAULT_2
100
AcDbLine
 62
8
  6
CONTINUOUS
 10
61.0302986556
 20
36.4752088218
 11
61.0596708675
 21
36.4588896294
  0
LINE
  5
634
100
AcDbEntity
  8
DEFAULT_2
100
AcDbLine
 62
8
  6
CONTINUOUS
 10
59.8533706788
 20
34.4224260308
 11
59.8240062425
 21
34.4389353648
  0
LINE
  5
635
100
AcDbEntity
  8
0
100
AcDbLine
 62
7
  6
CONTINUOUS
 10
82.0310081272
 20
39.8225173165
 11
81.9747800223
 21
39.8541544445
  0
LINE
  5
636
100
AcDbEntity
  8
0
100
AcDbLine
 62
7
  6
CONTINUOUS
 10
23.3015254202
 20
14.6423055869
 11
22.4574480469
 21
15.1225536691
  0
LINE
  5
637
100
AcDbEntity
  8
DEFAULT_2
100
AcDbLine
 62
8
  6
CONTINUOUS
 10
40.7057022302
 20
32.9779455075
 11
40.7127121615
 21
32.9739504591
  0
LINE
  5
638
100
AcDbEntity
  8
DEFAULT_2
100
AcDbLine
 62
8
  6
CONTINUOUS
 10
24.7884362349
 20
18.6700549565
 11
24.7253522855
 21
18.7068093482
  0
LINE
  5
639
100
AcDbEntity
  8
DEFAULT_2
100
AcDbLine
 62
8
  6
CONTINUOUS
 10
61.0596708675
 20
36.4588896294
 11
61.088524748
 21
36.4416705378
  0
LINE
  5
63A
100
AcDbEntity
  8
DEFAULT_2
100
AcDbLine
 62
8
  6
CONTINUOUS
 10
57.6181486737
 20
35.7784832778
 11
57.6335435157
 21
35.769274987
  0
LINE
  5
63B
100
AcDbEntity
  8
DEFAULT_2
100
AcDbLine
 62
8
  6
CONTINUOUS
 10
56.2600392007
 20
34.7670944381
 11
56.2549607847
 21
34.7701434416
  0
LINE
  5
63C
100
AcDbEntity
  8
DEFAULT_2
100
AcDbLine
 62
8
  6
CONTINUOUS
 10
59.8240062425
 20
34.4389353648
 11
59.7951667735
 21
34.4563455368
  0
LINE
  5
63D
100
AcDbEntity
  8
DEFAULT_2
100
AcDbLine
 62
8
  6
CONTINUOUS
 10
42.0594499221
 20
34.4258765509
 11
42.0521937113
 21
34.4303182325
  0
LINE
  5
63E
100
AcDbEntity
  8
DEFAULT_2
100
AcDbLine
 62
8
  6
CONTINUOUS
 10
40.6988407239
 20
32.9821876283
 11
40.7057022302
 21
32.9779455075
  0
LINE
  5
63F
100
AcDbEntity
  8
0
100
AcDbLine
 62
7
  6
CONTINUOUS
 10
22.4574480469
 20
15.1225536691
 11
21.6342762071
 21
15.6377863756
  0
LINE
  5
640
100
AcDbEntity
  8
DEFAULT_2
100
AcDbLine
 62
8
  6
CONTINUOUS
 10
24.7253522855
 20
18.7068093482
 11
24.6635109382
 21
18.745619342
  0
LINE
  5
641
100
AcDbEntity
  8
DEFAULT_2
100
AcDbLine
 62
8
  6
CONTINUOUS
 10
61.088524748
 20
36.4416705378
 11
61.1168310998
 21
36.4235654938
  0
LINE
  5
642
100
AcDbEntity
  8
DEFAULT_2
100
AcDbLine
 62
8
  6
CONTINUOUS
 10
57.6335435157
 20
35.769274987
 11
57.6486374147
 21
35.7595764358
  0
LINE
  5
643
100
AcDbEntity
  8
DEFAULT_2
100
AcDbLine
 62
8
  6
CONTINUOUS
 10
56.2549607847
 20
34.7701434416
 11
56.2499742955
 21
34.7733595505
  0
LINE
  5
644
100
AcDbEntity
  8
DEFAULT_2
100
AcDbLine
 62
8
  6
CONTINUOUS
 10
59.7951667735
 20
34.4563455368
 11
59.7668806692
 21
34.4746410051
  0
LINE
  5
645
100
AcDbEntity
  8
DEFAULT_2
100
AcDbLine
 62
8
  6
CONTINUOUS
 10
40.6921388249
 20
32.9866757262
 11
40.6988407239
 21
32.9821876283
  0
LINE
  5
646
100
AcDbEntity
  8
DEFAULT_2
100
AcDbLine
 62
8
  6
CONTINUOUS
 10
42.0664432377
 20
34.4211739484
 11
42.0594499221
 21
34.4258765509
  0
LINE
  5
647
100
AcDbEntity
  8
DEFAULT_2
100
AcDbLine
 62
8
  6
CONTINUOUS
 10
24.6635109382
 20
18.745619342
 11
24.6029806029
 21
18.7864431477
  0
LINE
  5
648
100
AcDbEntity
  8
DEFAULT_2
100
AcDbLine
 62
8
  6
CONTINUOUS
 10
61.1168310998
 20
36.4235654938
 11
61.1445331493
 21
36.4046087237
  0
LINE
  5
649
100
AcDbEntity
  8
0
100
AcDbLine
 62
7
  6
CONTINUOUS
 10
21.6342762071
 20
15.6377863756
 11
20.8334585924
 21
16.1871034331
  0
LINE
  5
64A
100
AcDbEntity
  8
DEFAULT_2
100
AcDbLine
 62
8
  6
CONTINUOUS
 10
57.6486374147
 20
35.7595764358
 11
57.6634032975
 21
35.7493874259
  0
LINE
  5
64B
100
AcDbEntity
  8
DEFAULT_2
100
AcDbLine
 62
8
  6
CONTINUOUS
 10
56.2499742955
 20
34.7733595505
 11
56.2450893251
 21
34.7767395796
  0
LINE
  5
64C
100
AcDbEntity
  8
DEFAULT_2
100
AcDbLine
 62
8
  6
CONTINUOUS
 10
59.7668806692
 20
34.4746410051
 11
59.7391727804
 21
34.4938080043
  0
LINE
  5
64D
100
AcDbEntity
  8
0
100
AcDbLine
 62
7
  6
CONTINUOUS
 10
82.083675156
 20
39.7852521815
 11
82.0310081272
 21
39.8225173165
  0
LINE
  5
64E
100
AcDbEntity
  8
DEFAULT_2
100
AcDbLine
 62
8
  6
CONTINUOUS
 10
24.6029806029
 20
18.7864431477
 11
24.5438283383
 21
18.8292374903
  0
LINE
  5
64F
100
AcDbEntity
  8
DEFAULT_2
100
AcDbLine
 62
8
  6
CONTINUOUS
 10
40.6856077156
 20
32.9914087057
 11
40.6921388249
 21
32.9866757262
  0
LINE
  5
650
100
AcDbEntity
  8
DEFAULT_2
100
AcDbLine
 62
8
  6
CONTINUOUS
 10
61.1445331493
 20
36.4046087237
 11
61.1716319975
 21
36.3847992023
  0
LINE
  5
651
100
AcDbEntity
  8
DEFAULT_2
100
AcDbLine
 62
8
  6
CONTINUOUS
 10
42.0732354081
 20
34.4161840733
 11
42.0664432377
 21
34.4211739484
  0
LINE
  5
652
100
AcDbEntity
  8
DEFAULT_2
100
AcDbLine
 62
8
  6
CONTINUOUS
 10
59.7391727804
 20
34.4938080043
 11
59.712073393
 21
34.5138261509
  0
LINE
  5
653
100
AcDbEntity
  8
DEFAULT_2
100
AcDbLine
 62
8
  6
CONTINUOUS
 10
57.6634032975
 20
35.7493874259
 11
57.6778140909
 21
35.7387077586
  0
LINE
  5
654
100
AcDbEntity
  8
DEFAULT_2
100
AcDbLine
 62
8
  6
CONTINUOUS
 10
56.2450893251
 20
34.7767395796
 11
56.2403154654
 21
34.7802803434
  0
LINE
  5
655
100
AcDbEntity
  8
0
100
AcDbLine
 62
7
  6
CONTINUOUS
 10
20.8334585924
 20
16.1871034331
 11
20.0564689372
 21
16.7694788196
  0
LINE
  5
656
100
AcDbEntity
  8
DEFAULT_2
100
AcDbLine
 62
8
  6
CONTINUOUS
 10
24.5438283383
 20
18.8292374903
 11
24.4861157981
 21
18.8739531558
  0
LINE
  5
657
100
AcDbEntity
  8
DEFAULT_2
100
AcDbLine
 62
8
  6
CONTINUOUS
 10
61.1716319975
 20
36.3847992023
 11
61.1981000003
 21
36.3641544164
  0
LINE
  5
658
100
AcDbEntity
  8
DEFAULT_2
100
AcDbLine
 62
8
  6
CONTINUOUS
 10
40.6792585782
 20
32.9963854715
 11
40.6856077156
 21
32.9914087057
  0
LINE
  5
659
100
AcDbEntity
  8
DEFAULT_2
100
AcDbLine
 62
8
  6
CONTINUOUS
 10
59.712073393
 20
34.5138261509
 11
59.6856091085
 21
34.5346766318
  0
LINE
  5
65A
100
AcDbEntity
  8
DEFAULT_2
100
AcDbLine
 62
8
  6
CONTINUOUS
 10
56.2403154654
 20
34.7802803434
 11
56.2356623085
 21
34.7839786566
  0
LINE
  5
65B
100
AcDbEntity
  8
DEFAULT_2
100
AcDbLine
 62
8
  6
CONTINUOUS
 10
57.6778140909
 20
35.7387077586
 11
57.6918427218
 21
35.7275372357
  0
LINE
  5
65C
100
AcDbEntity
  8
DEFAULT_2
100
AcDbLine
 62
8
  6
CONTINUOUS
 10
42.0798222002
 20
34.410922555
 11
42.0732354081
 21
34.4161840733
  0
LINE
  5
65D
100
AcDbEntity
  8
0
100
AcDbLine
 62
7
  6
CONTINUOUS
 10
20.0564689372
 20
16.7694788196
 11
19.3046210763
 21
17.3839318448
  0
LINE
  5
65E
100
AcDbEntity
  8
DEFAULT_2
100
AcDbLine
 62
8
  6
CONTINUOUS
 10
24.4861157981
 20
18.8739531558
 11
24.429903285
 21
18.9205394454
  0
LINE
  5
65F
100
AcDbEntity
  8
DEFAULT_2
100
AcDbLine
 62
8
  6
CONTINUOUS
 10
61.1981000003
 20
36.3641544164
 11
61.2238505618
 21
36.3427433187
  0
LINE
  5
660
100
AcDbEntity
  8
DEFAULT_2
100
AcDbLine
 62
8
  6
CONTINUOUS
 10
59.6856091085
 20
34.5346766318
 11
59.659837073
 21
34.556313347
  0
LINE
  5
661
100
AcDbEntity
  8
DEFAULT_2
100
AcDbLine
 62
8
  6
CONTINUOUS
 10
40.6730068824
 20
33.0016877539
 11
40.6792585782
 21
32.9963854715
  0
LINE
  5
662
100
AcDbEntity
  8
DEFAULT_2
100
AcDbLine
 62
8
  6
CONTINUOUS
 10
56.2356623085
 20
34.7839786566
 11
56.2311394461
 21
34.7878313338
  0
LINE
  5
663
100
AcDbEntity
  8
DEFAULT_2
100
AcDbLine
 62
8
  6
CONTINUOUS
 10
57.6918427218
 20
35.7275372357
 11
57.705462117
 21
35.7158756586
  0
LINE
  5
664
100
AcDbEntity
  8
DEFAULT_2
100
AcDbLine
 62
8
  6
CONTINUOUS
 10
42.0861993806
 20
34.4054050227
 11
42.0798222002
 21
34.410922555
  0
LINE
  5
665
100
AcDbEntity
  8
0
100
AcDbLine
 62
7
  6
CONTINUOUS
 10
82.1322198854
 20
39.7427561506
 11
82.083675156
 21
39.7852521815
  0
LINE
  5
666
100
AcDbEntity
  8
DEFAULT_2
100
AcDbLine
 62
8
  6
CONTINUOUS
 10
24.429903285
 20
18.9205394454
 11
24.3752511017
 21
18.9689456604
  0
LINE
  5
667
100
AcDbEntity
  8
DEFAULT_2
100
AcDbLine
 62
8
  6
CONTINUOUS
 10
61.2238505618
 20
36.3427433187
 11
61.2489203578
 21
36.3205389756
  0
LINE
  5
668
100
AcDbEntity
  8
0
100
AcDbLine
 62
7
  6
CONTINUOUS
 10
19.3046210763
 20
17.3839318448
 11
18.5792491184
 21
18.0293573001
  0
LINE
  5
669
100
AcDbEntity
  8
DEFAULT_2
100
AcDbLine
 62
8
  6
CONTINUOUS
 10
59.659837073
 20
34.556313347
 11
59.6347493402
 21
34.5787399361
  0
LINE
  5
66A
100
AcDbEntity
  8
DEFAULT_2
100
AcDbLine
 62
8
  6
CONTINUOUS
 10
56.2311394461
 20
34.7878313338
 11
56.2267564704
 21
34.7918351897
  0
LINE
  5
66B
100
AcDbEntity
  8
DEFAULT_2
100
AcDbLine
 62
8
  6
CONTINUOUS
 10
40.6669645174
 20
33.0072309664
 11
40.6730068824
 21
33.0016877539
  0
LINE
  5
66C
100
AcDbEntity
  8
DEFAULT_2
100
AcDbLine
 62
8
  6
CONTINUOUS
 10
57.705462117
 20
35.7158756586
 11
57.7186452033
 21
35.7037228289
  0
LINE
  5
66D
100
AcDbEntity
  8
DEFAULT_2
100
AcDbLine
 62
8
  6
CONTINUOUS
 10
42.0923627163
 20
34.3996471058
 11
42.0861993806
 21
34.4054050227
  0
LINE
  5
66E
100
AcDbEntity
  8
DEFAULT_2
100
AcDbLine
 62
8
  6
CONTINUOUS
 10
61.2489203578
 20
36.3205389756
 11
61.2732840499
 21
36.297562116
  0
LINE
  5
66F
100
AcDbEntity
  8
DEFAULT_2
100
AcDbLine
 62
8
  6
CONTINUOUS
 10
24.3752511017
 20
18.9689456604
 11
24.3222195508
 21
19.019121102
  0
LINE
  5
670
100
AcDbEntity
  8
DEFAULT_2
100
AcDbLine
 62
8
  6
CONTINUOUS
 10
59.6347493402
 20
34.5787399361
 11
59.6103701145
 21
34.6019347269
  0
LINE
  5
671
100
AcDbEntity
  8
0
100
AcDbLine
 62
7
  6
CONTINUOUS
 10
18.5792491184
 20
18.0293573001
 11
17.881570812
 21
18.7046787343
  0
LINE
  5
672
100
AcDbEntity
  8
DEFAULT_2
100
AcDbLine
 62
8
  6
CONTINUOUS
 10
56.2267564704
 20
34.7918351897
 11
56.2225229733
 21
34.7959870388
  0
LINE
  5
673
100
AcDbEntity
  8
DEFAULT_2
100
AcDbLine
 62
8
  6
CONTINUOUS
 10
40.6611415221
 20
33.0130056366
 11
40.6669645174
 21
33.0072309664
  0
LINE
  5
674
100
AcDbEntity
  8
DEFAULT_2
100
AcDbLine
 62
8
  6
CONTINUOUS
 10
57.7186452033
 20
35.7037228289
 11
57.7317975011
 21
35.6906359991
  0
LINE
  5
675
100
AcDbEntity
  8
DEFAULT_2
100
AcDbLine
 62
8
  6
CONTINUOUS
 10
50.1273607124
 20
16.1392482826
 11
50.4954552571
 21
15.7711537379
  0
LINE
  5
676
100
AcDbEntity
  8
DEFAULT_2
100
AcDbLine
 62
8
  6
CONTINUOUS
 10
61.2732840499
 20
36.297562116
 11
61.2969108389
 21
36.2738400982
  0
LINE
  5
677
100
AcDbEntity
  8
DEFAULT_2
100
AcDbLine
 62
8
  6
CONTINUOUS
 10
42.0983079739
 20
34.3936644336
 11
42.0923627163
 21
34.3996471058
  0
LINE
  5
678
100
AcDbEntity
  8
DEFAULT_2
100
AcDbLine
 62
8
  6
CONTINUOUS
 10
24.3222195508
 20
19.019121102
 11
24.270868935
 21
19.0710150713
  0
LINE
  5
679
100
AcDbEntity
  8
DEFAULT_2
100
AcDbLine
 62
8
  6
CONTINUOUS
 10
59.6103701145
 20
34.6019347269
 11
59.5866974608
 21
34.6259024564
  0
LINE
  5
67A
100
AcDbEntity
  8
DEFAULT_1
100
AcDbLine
 62
7
  6
CENTER
 10
61.6256259849
 20
34.2513094515
 11
59.2671665873
 21
36.6390484866
  0
LINE
  5
67B
100
AcDbEntity
  8
0
100
AcDbLine
 62
7
  6
CONTINUOUS
 10
17.881570812
 20
18.7046787343
 11
17.2127951119
 21
19.4087269866
  0
LINE
  5
67C
100
AcDbEntity
  8
DEFAULT_2
100
AcDbLine
 62
8
  6
CONTINUOUS
 10
56.2225229733
 20
34.7959870388
 11
56.2184485467
 21
34.8002836958
  0
LINE
  5
67D
100
AcDbEntity
  8
DEFAULT_2
100
AcDbLine
 62
8
  6
CONTINUOUS
 10
61.2969108389
 20
36.2738400982
 11
61.3197838968
 21
36.2493904614
  0
LINE
  5
67E
100
AcDbEntity
  8
DEFAULT_2
100
AcDbLine
 62
8
  6
CONTINUOUS
 10
40.6555479357
 20
33.0190022924
 11
40.6611415221
 21
33.0130056366
  0
LINE
  5
67F
100
AcDbEntity
  8
DEFAULT_2
100
AcDbLine
 62
8
  6
CONTINUOUS
 10
57.7317975011
 20
35.6906359991
 11
57.7444315668
 21
35.6770442764
  0
LINE
  5
680
100
AcDbEntity
  8
0
100
AcDbLine
 62
7
  6
CONTINUOUS
 10
82.1761248907
 20
39.6954822374
 11
82.1322198854
 21
39.7427561506
  0
LINE
  5
681
100
AcDbEntity
  8
DEFAULT_2
100
AcDbLine
 62
8
  6
CONTINUOUS
 10
59.5866974608
 20
34.6259024564
 11
59.5637807653
 21
34.6505940318
  0
LINE
  5
682
100
AcDbEntity
  8
DEFAULT_2
100
AcDbLine
 62
8
  6
CONTINUOUS
 10
24.270868935
 20
19.0710150713
 11
24.2212576408
 21
19.124574897
  0
LINE
  5
683
100
AcDbEntity
  8
DEFAULT_2
100
AcDbLine
 62
8
  6
CONTINUOUS
 10
42.1037568166
 20
34.3877776904
 11
42.0983079739
 21
34.3936644336
  0
LINE
  5
684
100
AcDbEntity
  8
DEFAULT_2
100
AcDbLine
 62
8
  6
CONTINUOUS
 10
56.2184485467
 20
34.8002836958
 11
56.2145427826
 21
34.8047219754
  0
LINE
  5
685
100
AcDbEntity
  8
DEFAULT_2
100
AcDbLine
 62
8
  6
CONTINUOUS
 10
61.3197838968
 20
36.2493904614
 11
61.3418805633
 21
36.2242369927
  0
LINE
  5
686
100
AcDbEntity
  8
0
100
AcDbLine
 62
7
  6
CONTINUOUS
 10
17.2127951119
 20
19.4087269866
 11
16.5741140536
 21
20.1402590204
  0
LINE
  5
687
100
AcDbEntity
  8
DEFAULT_2
100
AcDbLine
 62
8
  6
CONTINUOUS
 10
59.5637807653
 20
34.6505940318
 11
59.5416416558
 21
34.6759851196
  0
LINE
  5
688
100
AcDbEntity
  8
DEFAULT_2
100
AcDbLine
 62
8
  6
CONTINUOUS
 10
24.2212576408
 20
19.124574897
 11
24.1734363905
 21
19.1797400168
  0
LINE
  5
689
100
AcDbEntity
  8
DEFAULT_2
100
AcDbLine
 62
8
  6
CONTINUOUS
 10
42.108997598
 20
34.3817081183
 11
42.1037568166
 21
34.3877776904
  0
LINE
  5
68A
100
AcDbEntity
  8
DEFAULT_2
100
AcDbLine
 62
8
  6
CONTINUOUS
 10
40.6501937972
 20
33.0252114614
 11
40.6555479357
 21
33.0190022924
  0
LINE
  5
68B
100
AcDbEntity
  8
DEFAULT_2
100
AcDbLine
 62
8
  6
CONTINUOUS
 10
57.7444315668
 20
35.6770442764
 11
57.7565251577
 21
35.6629688012
  0
LINE
  5
68C
100
AcDbEntity
  8
DEFAULT_2
100
AcDbLine
 62
8
  6
CONTINUOUS
 10
61.3418805633
 20
36.2242369927
 11
61.3631799376
 21
36.1984023735
  0
LINE
  5
68D
100
AcDbEntity
  8
DEFAULT_2
100
AcDbLine
 62
8
  6
CONTINUOUS
 10
59.5416416558
 20
34.6759851196
 11
59.5202857865
 21
34.7020705443
  0
LINE
  5
68E
100
AcDbEntity
  8
DEFAULT_2
100
AcDbLine
 62
8
  6
CONTINUOUS
 10
56.2145427826
 20
34.8047219754
 11
56.210815273
 21
34.8092986921
  0
LINE
  5
68F
100
AcDbEntity
  8
DEFAULT_2
100
AcDbLine
 62
8
  6
CONTINUOUS
 10
24.1734363905
 20
19.1797400168
 11
24.1274539905
 21
19.2364478956
  0
LINE
  5
690
100
AcDbEntity
  8
DEFAULT_2
100
AcDbLine
 62
8
  6
CONTINUOUS
 10
42.1140234366
 20
34.3754621367
 11
42.108997598
 21
34.3817081183
  0
LINE
  5
691
100
AcDbEntity
  8
0
100
AcDbLine
 62
7
  6
CONTINUOUS
 10
16.5741140536
 20
20.1402590204
 11
15.9666640531
 21
20.8979776871
  0
LINE
  5
692
100
AcDbEntity
  8
DEFAULT_2
100
AcDbLine
 62
8
  6
CONTINUOUS
 10
40.6450891456
 20
33.0316236714
 11
40.6501937972
 21
33.0252114614
  0
LINE
  5
693
100
AcDbEntity
  8
DEFAULT_2
100
AcDbLine
 62
8
  6
CONTINUOUS
 10
57.7565251577
 20
35.6629688012
 11
57.768056031
 21
35.6484307141
  0
LINE
  5
694
100
AcDbEntity
  8
DEFAULT_2
100
AcDbLine
 62
8
  6
CONTINUOUS
 10
61.3631799376
 20
36.1984023735
 11
61.383660675
 21
36.1719140354
  0
LINE
  5
695
100
AcDbEntity
  8
DEFAULT_2
100
AcDbLine
 62
8
  6
CONTINUOUS
 10
59.5202857865
 20
34.7020705443
 11
59.4997489994
 21
34.7288056213
  0
LINE
  5
696
100
AcDbEntity
  8
DEFAULT_2
100
AcDbLine
 62
8
  6
CONTINUOUS
 10
24.1274539905
 20
19.2364478956
 11
24.083359247
 21
19.2946359987
  0
LINE
  5
697
100
AcDbEntity
  8
0
100
AcDbLine
 62
7
  6
CONTINUOUS
 10
82.2149222055
 20
39.6439345055
 11
82.1761248907
 21
39.6954822374
  0
LINE
  5
698
100
AcDbEntity
  8
DEFAULT_2
100
AcDbLine
 62
8
  6
CONTINUOUS
 10
16.0496993056
 20
36.6117154036
 11
16.1302752041
 21
36.504506481
  0
LINE
  5
699
100
AcDbEntity
  8
DEFAULT_2
100
AcDbLine
 62
8
  6
CONTINUOUS
 10
56.210815273
 20
34.8092986921
 11
56.2072756099
 21
34.8140106606
  0
LINE
  5
69A
100
AcDbEntity
  8
DEFAULT_2
100
AcDbLine
 62
8
  6
CONTINUOUS
 10
42.1188274513
 20
34.3690461647
 11
42.1140234366
 21
34.3754621367
  0
LINE
  5
69B
100
AcDbEntity
  8
0
100
AcDbLine
 62
7
  6
CONTINUOUS
 10
15.9666640531
 20
20.8979776871
 11
15.3915873892
 21
21.6804555757
  0
LINE
  5
69C
100
AcDbEntity
  8
DEFAULT_2
100
AcDbLine
 62
8
  6
CONTINUOUS
 10
40.64024402
 20
33.03822945
 11
40.6450891456
 21
33.0316236714
  0
LINE
  5
69D
100
AcDbEntity
  8
DEFAULT_2
100
AcDbLine
 62
8
  6
CONTINUOUS
 10
57.768056031
 20
35.6484307141
 11
57.7790019441
 21
35.6334511557
  0
LINE
  5
69E
100
AcDbEntity
  8
DEFAULT_2
100
AcDbLine
 62
8
  6
CONTINUOUS
 10
15.9710188773
 20
36.7203231769
 11
16.0496993056
 21
36.6117154036
  0
LINE
  5
69F
100
AcDbEntity
  8
DEFAULT_2
100
AcDbLine
 62
8
  6
CONTINUOUS
 10
61.383660675
 20
36.1719140354
 11
61.4033032842
 21
36.1447983846
  0
LINE
  5
6A0
100
AcDbEntity
  8
DEFAULT_2
100
AcDbLine
 62
8
  6
CONTINUOUS
 10
59.4997489994
 20
34.7288056213
 11
59.4800499812
 21
34.7561638247
  0
LINE
  5
6A1
100
AcDbEntity
  8
DEFAULT_2
100
AcDbLine
 62
8
  6
CONTINUOUS
 10
24.083359247
 20
19.2946359987
 11
24.0412009662
 21
19.354241791
  0
LINE
  5
6A2
100
AcDbEntity
  8
DEFAULT_2
100
AcDbLine
 62
8
  6
CONTINUOUS
 10
15.8942572557
 20
36.8302955524
 11
15.9710188773
 21
36.7203231769
  0
LINE
  5
6A3
100
AcDbEntity
  8
DEFAULT_2
100
AcDbLine
 62
8
  6
CONTINUOUS
 10
42.1234027608
 20
34.3624666217
 11
42.1188274513
 21
34.3690461647
  0
LINE
  5
6A4
100
AcDbEntity
  8
DEFAULT_2
100
AcDbLine
 62
8
  6
CONTINUOUS
 10
56.2072756099
 20
34.8140106606
 11
56.2039333851
 21
34.8188546954
  0
LINE
  5
6A5
100
AcDbEntity
  8
DEFAULT_2
100
AcDbLine
 62
8
  6
CONTINUOUS
 10
61.4033032842
 20
36.1447983846
 11
61.4221065446
 21
36.1170551839
  0
LINE
  5
6A6
100
AcDbEntity
  8
DEFAULT_2
100
AcDbLine
 62
8
  6
CONTINUOUS
 10
59.4800499812
 20
34.7561638247
 11
59.461177385
 21
34.7841636146
  0
LINE
  5
6A7
100
AcDbEntity
  8
DEFAULT_2
100
AcDbLine
 62
8
  6
CONTINUOUS
 10
40.6356684594
 20
33.045019325
 11
40.64024402
 21
33.03822945
  0
LINE
  5
6A8
100
AcDbEntity
  8
0
100
AcDbLine
 62
7
  6
CONTINUOUS
 10
15.3915873892
 20
21.6804555757
 11
14.849878876
 21
22.4863434453
  0
LINE
  5
6A9
100
AcDbEntity
  8
DEFAULT_2
100
AcDbLine
 62
8
  6
CONTINUOUS
 10
15.8194377774
 20
36.941598282
 11
15.8942572557
 21
36.8302955524
  0
LINE
  5
6AA
100
AcDbEntity
  8
DEFAULT_2
100
AcDbLine
 62
8
  6
CONTINUOUS
 10
57.7790019441
 20
35.6334511557
 11
57.7893406541
 21
35.6180512665
  0
LINE
  5
6AB
100
AcDbEntity
  8
DEFAULT_2
100
AcDbLine
 62
8
  6
CONTINUOUS
 10
24.0412009662
 20
19.354241791
 11
24.0010279545
 21
19.4152027375
  0
LINE
  5
6AC
100
AcDbEntity
  8
DEFAULT_2
100
AcDbLine
 62
8
  6
CONTINUOUS
 10
15.7465837791
 20
37.0541971172
 11
15.8194377774
 21
36.941598282
  0
LINE
  5
6AD
100
AcDbEntity
  8
DEFAULT_2
100
AcDbLine
 62
8
  6
CONTINUOUS
 10
42.1277424838
 20
34.3557299271
 11
42.1234027608
 21
34.3624666217
  0
LINE
  5
6AE
100
AcDbEntity
  8
DEFAULT_2
100
AcDbLine
 62
8
  6
CONTINUOUS
 10
61.4221065446
 20
36.1170551839
 11
61.4400345338
 21
36.0887384533
  0
LINE
  5
6AF
100
AcDbEntity
  8
DEFAULT_2
100
AcDbLine
 62
8
  6
CONTINUOUS
 10
56.2039333851
 20
34.8188546954
 11
56.2007981907
 21
34.8238276113
  0
LINE
  5
6B0
100
AcDbEntity
  8
DEFAULT_2
100
AcDbLine
 62
8
  6
CONTINUOUS
 10
59.461177385
 20
34.7841636146
 11
59.4431795664
 21
34.8127335923
  0
LINE
  5
6B1
100
AcDbEntity
  8
DEFAULT_2
100
AcDbLine
 62
8
  6
CONTINUOUS
 10
15.6757185974
 20
37.1680578098
 11
15.7465837791
 21
37.0541971172
  0
LINE
  5
6B2
100
AcDbEntity
  8
DEFAULT_2
100
AcDbLine
 62
8
  6
CONTINUOUS
 10
57.7893406541
 20
35.6180512665
 11
57.7981181905
 21
35.6038372656
  0
LINE
  5
6B3
100
AcDbEntity
  8
DEFAULT_2
100
AcDbLine
 62
8
  6
CONTINUOUS
 10
40.631372503
 20
33.0519838242
 11
40.6356684594
 21
33.045019325
  0
LINE
  5
6B4
100
AcDbEntity
  8
0
100
AcDbLine
 62
7
  6
CONTINUOUS
 10
14.849878876
 20
22.4863434453
 11
14.3424275508
 21
23.3143097538
  0
LINE
  5
6B5
100
AcDbEntity
  8
DEFAULT_2
100
AcDbLine
 62
8
  6
CONTINUOUS
 10
24.0010279545
 20
19.4152027375
 11
23.9628868328
 21
19.4774549556
  0
LINE
  5
6B6
100
AcDbEntity
  8
0
100
AcDbLine
 62
7
  6
CONTINUOUS
 10
82.2481981629
 20
39.5886630822
 11
82.2149222055
 21
39.6439345055
  0
LINE
  5
6B7
100
AcDbEntity
  8
DEFAULT_2
100
AcDbLine
 62
8
  6
CONTINUOUS
 10
15.6068655689
 20
37.2831461114
 11
15.6757185974
 21
37.1680578098
  0
LINE
  5
6B8
100
AcDbEntity
  8
DEFAULT_2
100
AcDbLine
 62
8
  6
CONTINUOUS
 10
42.132109357
 20
34.3483714256
 11
42.1277424838
 21
34.3557299271
  0
LINE
  5
6B9
100
AcDbEntity
  8
DEFAULT_2
100
AcDbLine
 62
8
  6
CONTINUOUS
 10
61.4400345338
 20
36.0887384533
 11
61.4570712537
 21
36.059876728
  0
LINE
  5
6BA
100
AcDbEntity
  8
DEFAULT_2
100
AcDbLine
 62
8
  6
CONTINUOUS
 10
59.4431795664
 20
34.8127335923
 11
59.4260721003
 21
34.8418454309
  0
LINE
  5
6BB
100
AcDbEntity
  8
DEFAULT_2
100
AcDbLine
 62
8
  6
CONTINUOUS
 10
18.1698603718
 20
33.0386471979
 11
16.4146872386
 21
36.0786962407
  0
LINE
  5
6BC
100
AcDbEntity
  8
DEFAULT_2
100
AcDbLine
 62
8
  6
CONTINUOUS
 10
15.5400480302
 20
37.3994277736
 11
15.6068655689
 21
37.2831461114
  0
LINE
  5
6BD
100
AcDbEntity
  8
DEFAULT_2
100
AcDbLine
 62
8
  6
CONTINUOUS
 10
56.2007981907
 20
34.8238276113
 11
56.1978796185
 21
34.8289262229
  0
LINE
  5
6BE
100
AcDbEntity
  8
DEFAULT_2
100
AcDbLine
 62
8
  6
CONTINUOUS
 10
57.7981181905
 20
35.6038372656
 11
57.8063832889
 21
35.5893206819
  0
LINE
  5
6BF
100
AcDbEntity
  8
DEFAULT_2
100
AcDbLine
 62
8
  6
CONTINUOUS
 10
23.9628868328
 20
19.4774549556
 11
23.9268154806
 21
19.540929172
  0
LINE
  5
6C0
100
AcDbEntity
  8
DEFAULT_2
100
AcDbLine
 62
8
  6
CONTINUOUS
 10
40.6273978561
 20
33.0590484293
 11
40.631372503
 21
33.0519838242
  0
LINE
  5
6C1
100
AcDbEntity
  8
0
100
AcDbLine
 62
7
  6
CONTINUOUS
 10
14.3424275508
 20
23.3143097538
 11
13.8701560059
 21
24.1628660679
  0
LINE
  5
6C2
100
AcDbEntity
  8
DEFAULT_2
100
AcDbLine
 62
8
  6
CONTINUOUS
 10
15.4701597362
 20
37.5263813093
 11
15.5400480302
 21
37.3994277736
  0
LINE
  5
6C3
100
AcDbEntity
  8
DEFAULT_2
100
AcDbLine
 62
8
  6
CONTINUOUS
 10
61.4570712537
 20
36.059876728
 11
61.473242498
 21
36.0304209583
  0
LINE
  5
6C4
100
AcDbEntity
  8
DEFAULT_2
100
AcDbLine
 62
8
  6
CONTINUOUS
 10
59.4260721003
 20
34.8418454309
 11
59.4098290651
 21
34.8715482937
  0
LINE
  5
6C5
100
AcDbEntity
  8
DEFAULT_2
100
AcDbLine
 62
8
  6
CONTINUOUS
 10
42.1361972957
 20
34.3408538414
 11
42.132109357
 21
34.3483714256
  0
LINE
  5
6C6
100
AcDbEntity
  8
DEFAULT_2
100
AcDbLine
 62
8
  6
CONTINUOUS
 10
15.4026971544
 20
37.6546406722
 11
15.4701597362
 21
37.5263813093
  0
LINE
  5
6C7
100
AcDbEntity
  8
DEFAULT_2
100
AcDbLine
 62
8
  6
CONTINUOUS
 10
23.9268154806
 20
19.540929172
 11
23.8928495922
 21
19.6055547655
  0
LINE
  5
6C8
100
AcDbEntity
  8
DEFAULT_2
100
AcDbLine
 62
8
  6
CONTINUOUS
 10
57.8063832889
 20
35.5893206819
 11
57.8141342983
 21
35.5745228704
  0
LINE
  5
6C9
100
AcDbEntity
  8
DEFAULT_2
100
AcDbLine
 62
8
  6
CONTINUOUS
 10
56.1978796185
 20
34.8289262229
 11
56.1950952521
 21
34.8343300139
  0
LINE
  5
6CA
100
AcDbEntity
  8
DEFAULT_2
100
AcDbLine
 62
8
  6
CONTINUOUS
 10
40.6237011727
 20
33.0662610942
 11
40.6273978561
 21
33.0590484293
  0
LINE
  5
6CB
100
AcDbEntity
  8
DEFAULT_2
100
AcDbLine
 62
8
  6
CONTINUOUS
 10
61.473242498
 20
36.0304209583
 11
61.4884893645
 21
36.000476227
  0
LINE
  5
6CC
100
AcDbEntity
  8
DEFAULT_2
100
AcDbLine
 62
8
  6
CONTINUOUS
 10
59.4098290651
 20
34.8715482937
 11
59.3945090358
 21
34.9017376104
  0
LINE
  5
6CD
100
AcDbEntity
  8
0
100
AcDbLine
 62
7
  6
CONTINUOUS
 10
13.8701560059
 20
24.1628660679
 11
13.4338532787
 21
25.0305955363
  0
LINE
  5
6CE
100
AcDbEntity
  8
DEFAULT_2
100
AcDbLine
 62
8
  6
CONTINUOUS
 10
15.3376819762
 20
37.7841582339
 11
15.4026971544
 21
37.6546406722
  0
LINE
  5
6CF
100
AcDbEntity
  8
DEFAULT_2
100
AcDbLine
 62
8
  6
CONTINUOUS
 10
42.1400037995
 20
34.3331899395
 11
42.1361972957
 21
34.3408538414
  0
LINE
  5
6D0
100
AcDbEntity
  8
DEFAULT_2
100
AcDbLine
 62
8
  6
CONTINUOUS
 10
23.8928495922
 20
19.6055547655
 11
23.8610248618
 21
19.6712611151
  0
LINE
  5
6D1
100
AcDbEntity
  8
DEFAULT_2
100
AcDbLine
 62
8
  6
CONTINUOUS
 10
57.8141342983
 20
35.5745228704
 11
57.8213695677
 21
35.5594651859
  0
LINE
  5
6D2
100
AcDbEntity
  8
DEFAULT_2
100
AcDbLine
 62
8
  6
CONTINUOUS
 10
15.2751358927
 20
37.9148863658
 11
15.3376819762
 21
37.7841582339
  0
LINE
  5
6D3
100
AcDbEntity
  8
DEFAULT_2
100
AcDbLine
 62
8
  6
CONTINUOUS
 10
61.4884893645
 20
36.000476227
 11
61.5027995156
 21
35.9700727489
  0
LINE
  5
6D4
100
AcDbEntity
  8
DEFAULT_2
100
AcDbLine
 62
8
  6
CONTINUOUS
 10
59.3945090358
 20
34.9017376104
 11
59.3801243722
 21
34.9323836264
  0
LINE
  5
6D5
100
AcDbEntity
  8
0
100
AcDbLine
 62
7
  6
CONTINUOUS
 10
82.2755981333
 20
39.5302582073
 11
82.2481981629
 21
39.5886630822
  0
LINE
  5
6D6
100
AcDbEntity
  8
DEFAULT_2
100
AcDbLine
 62
8
  6
CONTINUOUS
 10
40.6202759108
 20
33.0736076562
 11
40.6237011727
 21
33.0662610942
  0
LINE
  5
6D7
100
AcDbEntity
  8
DEFAULT_2
100
AcDbLine
 62
8
  6
CONTINUOUS
 10
56.1950952521
 20
34.8343300139
 11
56.192549047
 21
34.8398536541
  0
LINE
  5
6D8
100
AcDbEntity
  8
DEFAULT_2
100
AcDbLine
 62
8
  6
CONTINUOUS
 10
15.2150805952
 20
38.0467774394
 11
15.2751358927
 21
37.9148863658
  0
LINE
  5
6D9
100
AcDbEntity
  8
DEFAULT_2
100
AcDbLine
 62
8
  6
CONTINUOUS
 10
42.1435263679
 20
34.3253924849
 11
42.1400037995
 21
34.3331899395
  0
LINE
  5
6DA
100
AcDbEntity
  8
0
100
AcDbLine
 62
7
  6
CONTINUOUS
 10
13.4338532787
 20
25.0305955363
 11
13.0345502436
 21
25.9154150919
  0
LINE
  5
6DB
100
AcDbEntity
  8
DEFAULT_2
100
AcDbLine
 62
8
  6
CONTINUOUS
 10
18.5895748291
 20
32.0416804332
 11
23.6068360611
 21
20.7727272018
  0
LINE
  5
6DC
100
AcDbEntity
  8
DEFAULT_2
100
AcDbLine
 62
8
  6
CONTINUOUS
 10
23.8610248618
 20
19.6712611151
 11
23.8313769837
 21
19.7379775996
  0
LINE
  5
6DD
100
AcDbEntity
  8
DEFAULT_2
100
AcDbLine
 62
8
  6
CONTINUOUS
 10
18.5895748291
 20
32.0416804332
 11
18.5491560316
 21
32.1332162605
  0
LINE
  5
6DE
100
AcDbEntity
  8
DEFAULT_2
100
AcDbLine
 62
8
  6
CONTINUOUS
 10
57.8213695677
 20
35.5594651859
 11
57.8280874461
 21
35.5441689834
  0
LINE
  5
6DF
100
AcDbEntity
  8
DEFAULT_2
100
AcDbLine
 62
8
  6
CONTINUOUS
 10
23.6068360611
 20
20.7727272018
 11
23.6107047791
 21
20.7638297674
  0
LINE
  5
6E0
100
AcDbEntity
  8
DEFAULT_2
100
AcDbLine
 62
8
  6
CONTINUOUS
 10
18.5491560316
 20
32.1332162605
 11
18.5092988171
 21
32.2249980072
  0
LINE
  5
6E1
100
AcDbEntity
  8
DEFAULT_2
100
AcDbLine
 62
8
  6
CONTINUOUS
 10
61.5027995156
 20
35.9700727489
 11
61.5161840805
 21
35.9391858797
  0
LINE
  5
6E2
100
AcDbEntity
  8
DEFAULT_2
100
AcDbLine
 62
8
  6
CONTINUOUS
 10
15.1575377748
 20
38.1797838262
 11
15.2150805952
 21
38.0467774394
  0
LINE
  5
6E3
100
AcDbEntity
  8
DEFAULT_2
100
AcDbLine
 62
8
  6
CONTINUOUS
 10
59.3801243722
 20
34.9323836264
 11
59.366657076
 21
34.9635283859
  0
LINE
  5
6E4
100
AcDbEntity
  8
DEFAULT_2
100
AcDbLine
 62
8
  6
CONTINUOUS
 10
18.5092988171
 20
32.2249980072
 11
18.4700046068
 21
32.3170221983
  0
LINE
  5
6E5
100
AcDbEntity
  8
DEFAULT_2
100
AcDbLine
 62
8
  6
CONTINUOUS
 10
40.6171155289
 20
33.081073953
 11
40.6202759108
 21
33.0736076562
  0
LINE
  5
6E6
100
AcDbEntity
  8
DEFAULT_2
100
AcDbLine
 62
8
  6
CONTINUOUS
 10
18.4700046068
 20
32.3170221983
 11
18.4312748223
 21
32.4092853582
  0
LINE
  5
6E7
100
AcDbEntity
  8
DEFAULT_2
100
AcDbLine
 62
8
  6
CONTINUOUS
 10
23.6107047791
 20
20.7638297674
 11
23.6144178683
 21
20.7548665067
  0
LINE
  5
6E8
100
AcDbEntity
  8
DEFAULT_2
100
AcDbLine
 62
8
  6
CONTINUOUS
 10
18.4312748223
 20
32.4092853582
 11
18.3931108848
 21
32.5017840119
  0
LINE
  5
6E9
100
AcDbEntity
  8
DEFAULT_2
100
AcDbLine
 62
8
  6
CONTINUOUS
 10
56.192549047
 20
34.8398536541
 11
56.1902369219
 21
34.8454858017
  0
LINE
  5
6EA
100
AcDbEntity
  8
DEFAULT_2
100
AcDbLine
 62
8
  6
CONTINUOUS
 10
15.1025291228
 20
38.3138578976
 11
15.1575377748
 21
38.1797838262
  0
LINE
  5
6EB
100
AcDbEntity
  8
DEFAULT_2
100
AcDbLine
 62
8
  6
CONTINUOUS
 10
42.1467625004
 20
34.3174742427
 11
42.1435263679
 21
34.3253924849
  0
LINE
  5
6EC
100
AcDbEntity
  8
DEFAULT_2
100
AcDbLine
 62
8
  6
CONTINUOUS
 10
23.8313769837
 20
19.7379775996
 11
23.803941652
 21
19.805633598
  0
LINE
  5
6ED
100
AcDbEntity
  8
DEFAULT_2
100
AcDbLine
 62
8
  6
CONTINUOUS
 10
18.3931108848
 20
32.5017840119
 11
18.3536015627
 21
32.5992761348
  0
LINE
  5
6EE
100
AcDbEntity
  8
0
100
AcDbLine
 62
7
  6
CONTINUOUS
 10
13.0345502436
 20
25.9154150919
 11
12.6722102054
 21
26.8175520338
  0
LINE
  5
6EF
100
AcDbEntity
  8
DEFAULT_2
100
AcDbLine
 62
8
  6
CONTINUOUS
 10
57.8280874461
 20
35.5441689834
 11
57.8342862827
 21
35.5286556178
  0
LINE
  5
6F0
100
AcDbEntity
  8
DEFAULT_2
100
AcDbLine
 62
8
  6
CONTINUOUS
 10
18.3536015627
 20
32.5992761348
 11
18.3147208319
 21
32.6970206445
  0
LINE
  5
6F1
100
AcDbEntity
  8
DEFAULT_2
100
AcDbLine
 62
8
  6
CONTINUOUS
 10
61.5161840805
 20
35.9391858797
 11
61.5286076971
 21
35.907900088
  0
LINE
  5
6F2
100
AcDbEntity
  8
DEFAULT_2
100
AcDbLine
 62
8
  6
CONTINUOUS
 10
59.366657076
 20
34.9635283859
 11
59.3541509234
 21
34.9950714078
  0
LINE
  5
6F3
100
AcDbEntity
  8
DEFAULT_2
100
AcDbLine
 62
8
  6
CONTINUOUS
 10
23.6144178683
 20
20.7548665067
 11
23.6179746998
 21
20.7458402253
  0
LINE
  5
6F4
100
AcDbEntity
  8
DEFAULT_2
100
AcDbLine
 62
8
  6
CONTINUOUS
 10
18.3147208319
 20
32.6970206445
 11
18.2764703438
 21
32.795013503
  0
LINE
  5
6F5
100
AcDbEntity
  8
DEFAULT_2
100
AcDbLine
 62
8
  6
CONTINUOUS
 10
15.0500763304
 20
38.4489520251
 11
15.1025291228
 21
38.3138578976
  0
LINE
  5
6F6
100
AcDbEntity
  8
DEFAULT_2
100
AcDbLine
 62
8
  6
CONTINUOUS
 10
40.6142134853
 20
33.0886458219
 11
40.6171155289
 21
33.081073953
  0
LINE
  5
6F7
100
AcDbEntity
  8
DEFAULT_2
100
AcDbLine
 62
8
  6
CONTINUOUS
 10
18.2764703438
 20
32.795013503
 11
18.23885175
 21
32.8932506726
  0
LINE
  5
6F8
100
AcDbEntity
  8
DEFAULT_2
100
AcDbLine
 62
8
  6
CONTINUOUS
 10
23.6179746998
 20
20.7458402253
 11
23.6213746446
 21
20.736753729
  0
LINE
  5
6F9
100
AcDbEntity
  8
DEFAULT_2
100
AcDbLine
 62
8
  6
CONTINUOUS
 10
23.803941652
 20
19.805633598
 11
23.7787521319
 21
19.8741575347
  0
LINE
  5
6FA
100
AcDbEntity
  8
DEFAULT_2
100
AcDbLine
 62
8
  6
CONTINUOUS
 10
15.0002010888
 20
38.5850185801
 11
15.0500763304
 21
38.4489520251
  0
LINE
  5
6FB
100
AcDbEntity
  8
DEFAULT_2
100
AcDbLine
 62
8
  6
CONTINUOUS
 10
42.1499610279
 20
34.308731832
 11
42.1467625004
 21
34.3174742427
  0
LINE
  5
6FC
100
AcDbEntity
  8
DEFAULT_2
100
AcDbLine
 62
8
  6
CONTINUOUS
 10
56.1902369219
 20
34.8454858017
 11
56.1881547958
 21
34.8512151153
  0
LINE
  5
6FD
100
AcDbEntity
  8
DEFAULT_2
100
AcDbLine
 62
8
  6
CONTINUOUS
 10
61.5286076971
 20
35.907900088
 11
61.5400618353
 21
35.876246503
  0
LINE
  5
6FE
100
AcDbEntity
  8
DEFAULT_2
100
AcDbLine
 62
8
  6
CONTINUOUS
 10
59.3541509234
 20
34.9950714078
 11
59.3426149691
 21
35.0269820445
  0
LINE
  5
6FF
100
AcDbEntity
  8
DEFAULT_2
100
AcDbLine
 62
8
  6
CONTINUOUS
 10
57.8342862827
 20
35.5286556178
 11
57.8406016646
 21
35.511074596
  0
LINE
  5
700
100
AcDbEntity
  8
DEFAULT_2
100
AcDbLine
 62
8
  6
CONTINUOUS
 10
23.6213746446
 20
20.736753729
 11
23.6246170739
 21
20.7276098235
  0
LINE
  5
701
100
AcDbEntity
  8
0
100
AcDbLine
 62
7
  6
CONTINUOUS
 10
12.6722102054
 20
26.8175520338
 11
12.3493808542
 21
27.7301632647
  0
LINE
  5
702
100
AcDbEntity
  8
0
100
AcDbLine
 62
7
  6
CONTINUOUS
 10
82.2968305852
 20
39.4693436037
 11
82.2755981333
 21
39.5302582073
  0
LINE
  5
703
100
AcDbEntity
  8
DEFAULT_2
100
AcDbLine
 62
8
  6
CONTINUOUS
 10
14.9558131311
 20
38.7133885893
 11
15.0002010888
 21
38.5850185801
  0
LINE
  5
704
100
AcDbEntity
  8
DEFAULT_2
100
AcDbLine
 62
8
  6
CONTINUOUS
 10
40.6115632382
 20
33.0963091006
 11
40.6142134853
 21
33.0886458219
  0
LINE
  5
705
100
AcDbEntity
  8
DEFAULT_2
100
AcDbLine
 62
8
  6
CONTINUOUS
 10
23.6246170739
 20
20.7276098235
 11
23.6277013586
 21
20.7184113143
  0
LINE
  5
706
100
AcDbEntity
  8
DEFAULT_2
100
AcDbLine
 62
8
  6
CONTINUOUS
 10
23.7787521319
 20
19.8741575347
 11
23.7558319719
 21
19.9434740166
  0
LINE
  5
707
100
AcDbEntity
  8
DEFAULT_2
100
AcDbLine
 62
8
  6
CONTINUOUS
 10
61.5400618353
 20
35.876246503
 11
61.55058804
 21
35.8440970452
  0
LINE
  5
708
100
AcDbEntity
  8
DEFAULT_2
100
AcDbLine
 62
8
  6
CONTINUOUS
 10
59.3426149691
 20
35.0269820445
 11
59.3319973838
 21
35.0594238971
  0
LINE
  5
709
100
AcDbEntity
  8
DEFAULT_2
100
AcDbLine
 62
8
  6
CONTINUOUS
 10
14.9137194242
 20
38.842529314
 11
14.9558131311
 21
38.7133885893
  0
LINE
  5
70A
100
AcDbEntity
  8
DEFAULT_2
100
AcDbLine
 62
8
  6
CONTINUOUS
 10
42.1528383283
 20
34.2998791403
 11
42.1499610279
 21
34.308731832
  0
LINE
  5
70B
100
AcDbEntity
  8
0
100
AcDbLine
 62
7
  6
CONTINUOUS
 10
56.9029882578
 20
14.197889274
 11
56.902978465
 21
14.1979196062
  0
LINE
  5
70C
100
AcDbEntity
  8
DEFAULT_2
100
AcDbLine
 62
8
  6
CONTINUOUS
 10
56.1881547958
 20
34.8512151153
 11
56.1862985876
 21
34.8570302532
  0
LINE
  5
70D
100
AcDbEntity
  8
DEFAULT_2
100
AcDbLine
 62
8
  6
CONTINUOUS
 10
57.8406016646
 20
35.511074596
 11
57.8462620631
 21
35.4932744001
  0
LINE
  5
70E
100
AcDbEntity
  8
DEFAULT_2
100
AcDbLine
 62
8
  6
CONTINUOUS
 10
23.6277013586
 20
20.7184113143
 11
23.6306268699
 21
20.7091610072
  0
LINE
  5
70F
100
AcDbEntity
  8
DEFAULT_2
100
AcDbLine
 62
8
  6
CONTINUOUS
 10
40.609158246
 20
33.1040496266
 11
40.6115632382
 21
33.0963091006
  0
LINE
  5
710
100
AcDbEntity
  8
0
100
AcDbLine
 62
7
  6
CONTINUOUS
 10
12.3493808542
 20
27.7301632647
 11
12.0561313171
 21
28.6849987483
  0
LINE
  5
711
100
AcDbEntity
  8
DEFAULT_2
100
AcDbLine
 62
8
  6
CONTINUOUS
 10
14.8739308917
 20
38.9723990717
 11
14.9137194242
 21
38.842529314
  0
LINE
  5
712
100
AcDbEntity
  8
DEFAULT_2
100
AcDbLine
 62
8
  6
CONTINUOUS
 10
23.6306268699
 20
20.7091610072
 11
23.6333929788
 21
20.6998617078
  0
LINE
  5
713
100
AcDbEntity
  8
DEFAULT_2
100
AcDbLine
 62
8
  6
CONTINUOUS
 10
23.7558319719
 20
19.9434740166
 11
23.7352022912
 21
20.0135066959
  0
LINE
  5
714
100
AcDbEntity
  8
DEFAULT_2
100
AcDbLine
 62
8
  6
CONTINUOUS
 10
59.3319973838
 20
35.0594238971
 11
59.3223766789
 21
35.0921752701
  0
LINE
  5
715
100
AcDbEntity
  8
DEFAULT_2
100
AcDbLine
 62
8
  6
CONTINUOUS
 10
61.55058804
 20
35.8440970452
 11
61.5601216642
 21
35.8116393564
  0
LINE
  5
716
100
AcDbEntity
  8
DEFAULT_2
100
AcDbLine
 62
8
  6
CONTINUOUS
 10
42.1554156137
 20
34.2909339119
 11
42.1528383283
 21
34.2998791403
  0
LINE
  5
717
100
AcDbEntity
  8
DEFAULT_2
100
AcDbLine
 62
8
  6
CONTINUOUS
 10
14.836458457
 20
39.10295618
 11
14.8739308917
 21
38.9723990717
  0
LINE
  5
718
100
AcDbEntity
  8
DEFAULT_2
100
AcDbLine
 62
8
  6
CONTINUOUS
 10
23.6333929788
 20
20.6998617078
 11
23.6359990563
 21
20.6905162219
  0
LINE
  5
719
100
AcDbEntity
  8
DEFAULT_2
100
AcDbLine
 62
8
  6
CONTINUOUS
 10
57.8462620631
 20
35.4932744001
 11
57.8512637304
 21
35.475280755
  0
LINE
  5
71A
100
AcDbEntity
  8
DEFAULT_2
100
AcDbLine
 62
8
  6
CONTINUOUS
 10
40.6069919669
 20
33.1118532374
 11
40.609158246
 21
33.1040496266
  0
LINE
  5
71B
100
AcDbEntity
  8
DEFAULT_2
100
AcDbLine
 62
8
  6
CONTINUOUS
 10
56.1862985876
 20
34.8570302532
 11
56.1846642159
 21
34.8629198739
  0
LINE
  5
71C
100
AcDbEntity
  8
0
100
AcDbLine
 62
7
  6
CONTINUOUS
 10
12.0561313171
 20
28.6849987483
 11
11.7615777104
 21
29.7578037225
  0
LINE
  5
71D
100
AcDbEntity
  8
DEFAULT_2
100
AcDbLine
 62
8
  6
CONTINUOUS
 10
14.8013130436
 20
39.2341589563
 11
14.836458457
 21
39.10295618
  0
LINE
  5
71E
100
AcDbEntity
  8
DEFAULT_2
100
AcDbLine
 62
8
  6
CONTINUOUS
 10
59.3223766789
 20
35.0921752701
 11
59.3137587045
 21
35.1252046641
  0
LINE
  5
71F
100
AcDbEntity
  8
DEFAULT_2
100
AcDbLine
 62
8
  6
CONTINUOUS
 10
61.5601216642
 20
35.8116393564
 11
61.5686578481
 21
35.7789052129
  0
LINE
  5
720
100
AcDbEntity
  8
DEFAULT_2
100
AcDbLine
 62
8
  6
CONTINUOUS
 10
23.6359990563
 20
20.6905162219
 11
23.6384444737
 21
20.681127355
  0
LINE
  5
721
100
AcDbEntity
  8
DEFAULT_2
100
AcDbLine
 62
8
  6
CONTINUOUS
 10
23.7352022912
 20
20.0135066959
 11
23.7168842093
 21
20.084179225
  0
LINE
  5
722
100
AcDbEntity
  8
DEFAULT_2
100
AcDbLine
 62
8
  6
CONTINUOUS
 10
42.1577140961
 20
34.2819138909
 11
42.1554156137
 21
34.2909339119
  0
LINE
  5
723
100
AcDbEntity
  8
DEFAULT_2
100
AcDbLine
 62
8
  6
CONTINUOUS
 10
14.7685055751
 20
39.3659657181
 11
14.8013130436
 21
39.2341589563
  0
LINE
  5
724
100
AcDbEntity
  8
0
100
AcDbLine
 62
7
  6
CONTINUOUS
 10
11.7615777104
 20
29.7578037225
 11
11.4594628
 21
30.9840556683
  0
LINE
  5
725
100
AcDbEntity
  8
DEFAULT_2
100
AcDbLine
 62
8
  6
CONTINUOUS
 10
40.6047100121
 20
33.1212004801
 11
40.6069919669
 21
33.1118532374
  0
LINE
  5
726
100
AcDbEntity
  8
DEFAULT_2
100
AcDbLine
 62
8
  6
CONTINUOUS
 10
23.6384444737
 20
20.681127355
 11
23.6407286018
 21
20.6716979129
  0
LINE
  5
727
100
AcDbEntity
  8
DEFAULT_2
100
AcDbLine
 62
8
  6
CONTINUOUS
 10
57.8512637304
 20
35.475280755
 11
57.8556029183
 21
35.4571193856
  0
LINE
  5
728
100
AcDbEntity
  8
DEFAULT_2
100
AcDbLine
 62
8
  6
CONTINUOUS
 10
56.1846642159
 20
34.8629198739
 11
56.1832475998
 21
34.8688726359
  0
LINE
  5
729
100
AcDbEntity
  8
0
100
AcDbLine
 62
7
  6
CONTINUOUS
 10
82.3116699015
 20
39.4065696569
 11
82.2968305852
 21
39.4693436037
  0
LINE
  5
72A
100
AcDbEntity
  8
DEFAULT_2
100
AcDbLine
 62
8
  6
CONTINUOUS
 10
14.738046975
 20
39.498334783
 11
14.7685055751
 21
39.3659657181
  0
LINE
  5
72B
100
AcDbEntity
  8
DEFAULT_2
100
AcDbLine
 62
8
  6
CONTINUOUS
 10
59.3137587045
 20
35.1252046641
 11
59.3061296134
 21
35.1585706414
  0
LINE
  5
72C
100
AcDbEntity
  8
DEFAULT_2
100
AcDbLine
 62
8
  6
CONTINUOUS
 10
61.5686578481
 20
35.7789052129
 11
61.5762173355
 21
35.7458086137
  0
LINE
  5
72D
100
AcDbEntity
  8
DEFAULT_2
100
AcDbLine
 62
8
  6
CONTINUOUS
 10
42.1595851409
 20
34.2736422495
 11
42.1577140961
 21
34.2819138909
  0
LINE
  5
72E
100
AcDbEntity
  8
DEFAULT_2
100
AcDbLine
 62
8
  6
CONTINUOUS
 10
23.7168842093
 20
20.084179225
 11
23.7008988454
 21
20.1554152562
  0
LINE
  5
72F
100
AcDbEntity
  8
DEFAULT_2
100
AcDbLine
 62
8
  6
CONTINUOUS
 10
23.6407286018
 20
20.6716979129
 11
23.6428508118
 21
20.6622307013
  0
LINE
  5
730
100
AcDbEntity
  8
0
100
AcDbLine
 62
7
  6
CONTINUOUS
 10
11.4594628
 20
30.9840556683
 11
11.1560078389
 21
32.3975413921
  0
LINE
  5
731
100
AcDbEntity
  8
DEFAULT_2
100
AcDbLine
 62
8
  6
CONTINUOUS
 10
40.6027043185
 20
33.1306046409
 11
40.6047100121
 21
33.1212004801
  0
LINE
  5
732
100
AcDbEntity
  8
DEFAULT_2
100
AcDbLine
 62
8
  6
CONTINUOUS
 10
14.7099481668
 20
39.6312244686
 11
14.738046975
 21
39.498334783
  0
LINE
  5
733
100
AcDbEntity
  8
DEFAULT_2
100
AcDbLine
 62
8
  6
CONTINUOUS
 10
23.6428508118
 20
20.6622307013
 11
23.6448104748
 21
20.6527285257
  0
LINE
  5
734
100
AcDbEntity
  8
DEFAULT_2
100
AcDbLine
 62
8
  6
CONTINUOUS
 10
42.1612654374
 20
34.265330825
 11
42.1595851409
 21
34.2736422495
  0
LINE
  5
735
100
AcDbEntity
  8
DEFAULT_2
100
AcDbLine
 62
8
  6
CONTINUOUS
 10
57.8556029183
 20
35.4571193856
 11
57.8592758788
 21
35.4388160168
  0
LINE
  5
736
100
AcDbEntity
  8
DEFAULT_2
100
AcDbLine
 62
8
  6
CONTINUOUS
 10
56.1832475998
 20
34.8688726359
 11
56.182044658
 21
34.8748771976
  0
LINE
  5
737
100
AcDbEntity
  8
DEFAULT_2
100
AcDbLine
 62
8
  6
CONTINUOUS
 10
59.3061296134
 20
35.1585706414
 11
59.2995171623
 21
35.1921528925
  0
LINE
  5
738
100
AcDbEntity
  8
DEFAULT_2
100
AcDbLine
 62
8
  6
CONTINUOUS
 10
61.5762173355
 20
35.7458086137
 11
61.582766073
 21
35.7124972578
  0
LINE
  5
739
100
AcDbEntity
  8
DEFAULT_2
100
AcDbLine
 62
8
  6
CONTINUOUS
 10
14.684220074
 20
39.7645930922
 11
14.7099481668
 21
39.6312244686
  0
LINE
  5
73A
100
AcDbEntity
  8
DEFAULT_2
100
AcDbLine
 62
8
  6
CONTINUOUS
 10
23.7008988454
 20
20.1554152562
 11
23.687267319
 21
20.2271384418
  0
LINE
  5
73B
100
AcDbEntity
  8
DEFAULT_2
100
AcDbLine
 62
8
  6
CONTINUOUS
 10
40.6009226186
 20
33.1400534112
 11
40.6027043185
 21
33.1306046409
  0
LINE
  5
73C
100
AcDbEntity
  8
DEFAULT_2
100
AcDbLine
 62
8
  6
CONTINUOUS
 10
23.6448104748
 20
20.6527285257
 11
23.6466069619
 21
20.6431941919
  0
LINE
  5
73D
100
AcDbEntity
  8
DEFAULT_2
100
AcDbLine
 62
8
  6
CONTINUOUS
 10
42.1627781885
 20
34.2569872178
 11
42.1612654374
 21
34.265330825
  0
LINE
  5
73E
100
AcDbEntity
  8
DEFAULT_2
100
AcDbLine
 62
8
  6
CONTINUOUS
 10
23.6466069619
 20
20.6431941919
 11
23.648239644
 21
20.6336305055
  0
LINE
  5
73F
100
AcDbEntity
  8
DEFAULT_2
100
AcDbLine
 62
8
  6
CONTINUOUS
 10
40.5993126451
 20
33.1495344828
 11
40.6009226186
 21
33.1400534112
  0
LINE
  5
740
100
AcDbEntity
  8
DEFAULT_2
100
AcDbLine
 62
8
  6
CONTINUOUS
 10
59.2995171623
 20
35.1921528925
 11
59.2939239644
 21
35.2259198384
  0
LINE
  5
741
100
AcDbEntity
  8
DEFAULT_2
100
AcDbLine
 62
8
  6
CONTINUOUS
 10
61.582766073
 20
35.7124972578
 11
61.5883027535
 21
35.6790028104
  0
LINE
  5
742
100
AcDbEntity
  8
DEFAULT_2
100
AcDbLine
 62
8
  6
CONTINUOUS
 10
56.182044658
 20
34.8748771976
 11
56.1810513094
 21
34.8809222175
  0
LINE
  5
743
100
AcDbEntity
  8
DEFAULT_2
100
AcDbLine
 62
8
  6
CONTINUOUS
 10
57.8592758788
 20
35.4388160168
 11
57.8622311833
 21
35.4207684425
  0
LINE
  5
744
100
AcDbEntity
  8
DEFAULT_2
100
AcDbLine
 62
8
  6
CONTINUOUS
 10
42.1641465969
 20
34.2486190285
 11
42.1627781885
 21
34.2569872178
  0
LINE
  5
745
100
AcDbEntity
  8
0
100
AcDbLine
 62
7
  6
CONTINUOUS
 10
82.3693453909
 20
39.0444613331
 11
82.3116701749
 21
39.4065699227
  0
LINE
  5
746
100
AcDbEntity
  8
DEFAULT_2
100
AcDbLine
 62
8
  6
CONTINUOUS
 10
23.687267319
 20
20.2271384418
 11
23.6769546666
 21
20.2925504905
  0
LINE
  5
747
100
AcDbEntity
  8
DEFAULT_2
100
AcDbLine
 62
8
  6
CONTINUOUS
 10
40.5978221302
 20
33.1590355472
 11
40.5993126451
 21
33.1495344828
  0
LINE
  5
748
100
AcDbEntity
  8
DEFAULT_2
100
AcDbLine
 62
8
  6
CONTINUOUS
 10
23.648239644
 20
20.6336305055
 11
23.6497078923
 21
20.6240402722
  0
LINE
  5
749
100
AcDbEntity
  8
DEFAULT_2
100
AcDbLine
 62
8
  6
CONTINUOUS
 10
40.5963988067
 20
33.168544296
 11
40.5978221302
 21
33.1590355472
  0
LINE
  5
74A
100
AcDbEntity
  8
DEFAULT_2
100
AcDbLine
 62
8
  6
CONTINUOUS
 10
42.165671332
 20
34.2382882246
 11
42.1641465969
 21
34.2486190285
  0
LINE
  5
74B
100
AcDbEntity
  8
DEFAULT_2
100
AcDbLine
 62
8
  6
CONTINUOUS
 10
40.569973434
 20
33.347877266
 11
40.5963988067
 21
33.168544296
  0
LINE
  5
74C
100
AcDbEntity
  8
DEFAULT_2
100
AcDbLine
 62
8
  6
CONTINUOUS
 10
40.5671807264
 20
33.3671366506
 11
40.569973434
 21
33.347877266
  0
LINE
  5
74D
100
AcDbEntity
  8
DEFAULT_2
100
AcDbLine
 62
8
  6
CONTINUOUS
 10
42.2637278588
 20
33.5237650702
 11
42.2624441592
 21
33.5326832212
  0
LINE
  5
74E
100
AcDbEntity
  8
DEFAULT_2
100
AcDbLine
 62
8
  6
CONTINUOUS
 10
40.5644929509
 20
33.3864164617
 11
40.5671807264
 21
33.3671366506
  0
LINE
  5
74F
100
AcDbEntity
  8
DEFAULT_2
100
AcDbLine
 62
8
  6
CONTINUOUS
 10
42.2624441592
 20
33.5326832212
 11
42.1684209784
 21
34.2175853676
  0
LINE
  5
750
100
AcDbEntity
  8
DEFAULT_2
100
AcDbLine
 62
8
  6
CONTINUOUS
 10
42.2649408739
 20
33.5148367499
 11
42.2637278588
 21
33.5237650702
  0
LINE
  5
751
100
AcDbEntity
  8
DEFAULT_2
100
AcDbLine
 62
8
  6
CONTINUOUS
 10
23.6497078923
 20
20.6240402722
 11
23.6510110778
 21
20.6144262978
  0
LINE
  5
752
100
AcDbEntity
  8
DEFAULT_2
100
AcDbLine
 62
8
  6
CONTINUOUS
 10
42.1670751636
 20
34.2279406674
 11
42.165671332
 21
34.2382882246
  0
LINE
  5
753
100
AcDbEntity
  8
DEFAULT_2
100
AcDbLine
 62
8
  6
CONTINUOUS
 10
59.2939239644
 20
35.2259198384
 11
59.2893479944
 21
35.2598745266
  0
LINE
  5
754
100
AcDbEntity
  8
DEFAULT_2
100
AcDbLine
 62
8
  6
CONTINUOUS
 10
61.5883027535
 20
35.6790028104
 11
61.5928493638
 21
35.6451657428
  0
LINE
  5
755
100
AcDbEntity
  8
DEFAULT_2
100
AcDbLine
 62
8
  6
CONTINUOUS
 10
40.5619813909
 20
33.4057205899
 11
40.5644929509
 21
33.3864164617
  0
LINE
  5
756
100
AcDbEntity
  8
DEFAULT_2
100
AcDbLine
 62
8
  6
CONTINUOUS
 10
42.1684209784
 20
34.2175853676
 11
42.1670751636
 21
34.2279406674
  0
LINE
  5
757
100
AcDbEntity
  8
DEFAULT_2
100
AcDbLine
 62
8
  6
CONTINUOUS
 10
56.1810513094
 20
34.8809222175
 11
56.1802634728
 21
34.8869963539
  0
LINE
  5
758
100
AcDbEntity
  8
DEFAULT_2
100
AcDbLine
 62
8
  6
CONTINUOUS
 10
57.8622311833
 20
35.4207684425
 11
57.864577212
 21
35.4026308025
  0
LINE
  5
759
100
AcDbEntity
  8
DEFAULT_2
100
AcDbLine
 62
8
  6
CONTINUOUS
 10
23.6769546666
 20
20.2925504905
 11
23.6686001849
 21
20.358241641
  0
LINE
  5
75A
100
AcDbEntity
  8
DEFAULT_2
100
AcDbLine
 62
8
  6
CONTINUOUS
 10
42.2660207552
 20
33.5058916645
 11
42.2649408739
 21
33.5148367499
  0
LINE
  5
75B
100
AcDbEntity
  8
DEFAULT_2
100
AcDbLine
 62
8
  6
CONTINUOUS
 10
23.6510110778
 20
20.6144262978
 11
23.6521485716
 21
20.6047913878
  0
LINE
  5
75C
100
AcDbEntity
  8
DEFAULT_2
100
AcDbLine
 62
8
  6
CONTINUOUS
 10
40.5597173295
 20
33.4250529262
 11
40.5619813909
 21
33.4057205899
  0
LINE
  5
75D
100
AcDbEntity
  8
0
100
AcDbLine
 62
7
  6
CONTINUOUS
 10
82.4106116065
 20
38.680181987
 11
82.3693453909
 21
39.0444613331
  0
ARC
  5
75E
100
AcDbEntity
  8
0
100
AcDbCircle
 62
7
  6
CONTINUOUS
 10
12.5775463884
 20
39.3768938571
 40
2.0
100
AcDbArc
 50
82.8194889348
 51
169.2971164799
  0
ARC
  5
75F
100
AcDbEntity
  8
DEFAULT_2
100
AcDbCircle
 62
8
  6
CONTINUOUS
 10
61.3197366862
 20
18.5056393652
 40
2.0
100
AcDbArc
 50
272.3363097923
 51
350.0001665694
  0
ARC
  5
760
100
AcDbEntity
  8
DEFAULT_2
100
AcDbCircle
 62
8
  6
CONTINUOUS
 10
12.7786071896
 20
39.4145641251
 40
1.9374942905
100
AcDbArc
 50
10.4082476758
 51
82.8195269086
  0
ARC
  5
761
100
AcDbEntity
  8
DEFAULT_2
100
AcDbCircle
 62
8
  6
CONTINUOUS
 10
17.3038349784
 20
32.5386471802
 40
1.0000000001
100
AcDbArc
 50
20.7691452915
 51
30.0000021155
  0
ARC
  5
762
100
AcDbEntity
  8
DEFAULT_2
100
AcDbCircle
 62
8
  6
CONTINUOUS
 10
64.4174756385
 20
20.9570172828
 40
0.6250000197
100
AcDbArc
 50
91.0000294415
 51
170.0000031942
  0
ARC
  5
763
100
AcDbEntity
  8
0
100
AcDbCircle
 62
7
  6
CONTINUOUS
 10
24.9108402795
 20
14.4493542563
 40
0.5000000006
100
AcDbArc
 50
265.1995913534
 51
270.0279347106
  0
ARC
  5
764
100
AcDbEntity
  8
0
100
AcDbCircle
 62
7
  6
CONTINUOUS
 10
62.3827035775
 20
16.4183275454
 40
0.5
100
AcDbArc
 50
271.9995961893
 51
292.7128669021
  0
ARC
  5
765
100
AcDbEntity
  8
DEFAULT_2
100
AcDbCircle
 62
8
  6
CONTINUOUS
 10
47.7548187959
 20
17.5042433939
 40
0.5
100
AcDbArc
 50
4.9999992437
 51
89.0000153674
  0
ARC
  5
766
100
AcDbEntity
  8
DEFAULT_2
100
AcDbCircle
 62
8
  6
CONTINUOUS
 10
48.6968461908
 20
16.7763213605
 40
0.3750000001
100
AcDbArc
 50
185.0000318822
 51
261.7279260156
  0
ARC
  5
767
100
AcDbEntity
  8
DEFAULT_2
100
AcDbCircle
 62
8
  6
CONTINUOUS
 10
53.2151251712
 20
15.9479304332
 40
0.25
100
AcDbArc
 50
270.0
 51
315.0
  0
ARC
  5
768
100
AcDbEntity
  8
DEFAULT_2
100
AcDbCircle
 62
8
  6
CONTINUOUS
 10
50.6722319524
 20
15.9479304332
 40
0.25
100
AcDbArc
 50
225.0
 51
270.0
  0
ARC
  5
769
100
AcDbEntity
  8
DEFAULT_2
100
AcDbCircle
 62
8
  6
CONTINUOUS
 10
53.9264198139
 20
15.9521183066
 40
0.2499999992
100
AcDbArc
 50
92.3363829128
 51
134.9999980723
  0
ARC
  5
76A
100
AcDbEntity
  8
DEFAULT_2
100
AcDbCircle
 62
8
  6
CONTINUOUS
 10
49.9505840341
 20
15.9624715859
 40
0.249999999
100
AcDbArc
 50
45.0000029764
 51
81.7278337013
  0
ENDSEC
  0
SECTION
  2
OBJECTS
  0
DICTIONARY
  5
C
100
AcDbDictionary
280
0
281
1
  3
ACAD_GROUP
350
D
  3
ACAD_MLINESTYLE
350
17
  3
ACAD_LAYOUT
350
1A
  3
ACAD_PLOTSETTINGS
350
19
  3
ACAD_PLOTSTYLENAME
350
E
  0
DICTIONARY
  5
D
102
{ACAD_REACTORS
330
C
102
}
100
AcDbDictionary
280
0
281
1
  0
ACDBDICTIONARYWDFLT
  5
E
102
{ACAD_REACTORS
330
C
102
}
100
AcDbDictionary
281
1
  3
Normal
350
F
100
AcDbDictionaryWithDefault
340
F
  0
DICTIONARY
  5
17
102
{ACAD_REACTORS
330
C
102
}
100
AcDbDictionary
280
0
281
1
  3
Standard
350
18
  0
DICTIONARY
  5
19
102
{ACAD_REACTORS
330
C
102
}
100
AcDbDictionary
281
1
  0
DICTIONARY
  5
1A
102
{ACAD_REACTORS
330
C
102
}
100
AcDbDictionary
281
1
  3
Model
350
76B
  3
Layout1
350
76C
  0
ACDBPLACEHOLDER
  5
F
102
{ACAD_REACTORS
330
E
102
}
  0
MLINESTYLE
  5
18
102
{ACAD_REACTORS
330
17
102
}
100
AcDbMlineStyle
  2
STANDARD
 70
0
  3

 62
256
 51
90.0
 52
90.0
 71
2
 49
0.5
 62
256
  6
BYLAYER
 49
-0.5
 62
256
  6
BYLAYER
  0
LAYOUT
  5
76B
102
{ACAD_REACTORS
330
1A
102
}
100
AcDbPlotSettings
  1

  2
none_device
  4
ANSI_B_(17.00_x_11.00_Inches)
  6

 40
0.0
 41
0.0
 42
0.0
 43
0.0
 44
431.8
 45
279.4
 46
0.0
 47
0.0
 48
0.0
 49
0.0
140
0.0
141
0.0
142
1.0
143
1.0
 70
1024
 72
0
 73
0
 74
0
  7

 75
0
147
1.0
148
0.0
149
0.0
100
AcDbLayout
  1
Model
 70
0
 71
0
 10
0.0
 20
0.0
 11
17.0
 21
11.0
 12
0.0
 22
0.0
 32
0.0
 14
0.0
 24
0.0
 34
0.0
 15
0.0
 25
0.0
 35
0.0
146
0.0
 13
0.0
 23
0.0
 33
0.0
 16
1.0
 26
0.0
 36
0.0
 17
0.0
 27
1.0
 37
0.0
 76
0
330
219
345
0
346
0
  0
LAYOUT
  5
76C
102
{ACAD_REACTORS
330
1A
102
}
100
AcDbPlotSettings
  1

  2
none_device
  4
ANSI_B_(17.00_x_11.00_Inches)
  6

 40
0.0
 41
0.0
 42
0.0
 43
0.0
 44
431.8
 45
279.4
 46
0.0
 47
0.0
 48
0.0
 49
0.0
140
0.0
141
0.0
142
1.0
143
1.0
 70
0
 72
0
 73
0
 74
0
  7

 75
0
147
1.0
148
0.0
149
0.0
100
AcDbLayout
  1
Layout1
 70
0
 71
1
 10
0.0
 20
0.0
 11
17.0
 21
11.0
 12
0.0
 22
0.0
 32
0.0
 14
0.0
 24
0.0
 34
0.0
 15
0.0
 25
0.0
 35
0.0
146
0.0
 13
0.0
 23
0.0
 33
0.0
 16
1.0
 26
0.0
 36
0.0
 17
0.0
 27
1.0
 37
0.0
 76
0
330
21A
345
0
346
0
  0
ENDSEC
  0
EOF
