  0
SECTION
  2
HEADER
  9
$ACADVER
  1
AC1018
  9
$ACADMAINTVER
 70
   104
  9
$DWGCODEPAGE
  3
ANSI_1252
  9
$LASTSAVEDBY
  1
daniele
  9
$INSBASE
 10
0.0
 20
0.0
 30
0.0
  9
$EXTMIN
 10
21.46965083125975
 20
26.1190199214
 30
0.0
  9
$EXTMAX
 10
87.20713949475559
 20
46.9690199214
 30
0.0
  9
$LIMMIN
 10
0.0
 20
0.0
  9
$LIMMAX
 10
181.3333333333
 20
117.3333333333
  9
$ORTHOMODE
 70
     0
  9
$REGENMODE
 70
     1
  9
$FILLMODE
 70
     1
  9
$QTEXTMODE
 70
     0
  9
$MIRRTEXT
 70
     0
  9
$LTSCALE
 40
9.973333333300001
  9
$ATTMODE
 70
     1
  9
$TEXTSIZE
 40
0.2
  9
$TRACEWID
 40
0.05
  9
$TEXTSTYLE
  7
STANDARD
  9
$CLAYER
  8
0
  9
$CELTYPE
  6
BYLAYER
  9
$CECOLOR
 62
   256
  9
$CELTSCALE
 40
1.0
  9
$DISPSILH
 70
     0
  9
$DIMSCALE
 40
1.0
  9
$DIMASZ
 40
2.0
  9
$DIMEXO
 40
0.0625
  9
$DIMDLI
 40
6.890666666699999
  9
$DIMRND
 40
0.0
  9
$DIMDLE
 40
0.0
  9
$DIMEXE
 40
0.125
  9
$DIMTP
 40
0.00001
  9
$DIMTM
 40
0.00001
  9
$DIMTXT
 40
1.333333333299999
  9
$DIMCEN
 40
1.631999999999999
  9
$DIMTSZ
 40
0.0
  9
$DIMTOL
 70
     1
  9
$DIMLIM
 70
     0
  9
$DIMTIH
 70
     1
  9
$DIMTOH
 70
     1
  9
$DIMSE1
 70
     0
  9
$DIMSE2
 70
     0
  9
$DIMTAD
 70
     0
  9
$DIMZIN
 70
     0
  9
$DIMBLK
  1
_FILLED
  9
$DIMASO
 70
     1
  9
$DIMSHO
 70
     1
  9
$DIMPOST
  1

  9
$DIMAPOST
  1

  9
$DIMALT
 70
     0
  9
$DIMALTD
 70
     2
  9
$DIMALTF
 40
25.4
  9
$DIMLFAC
 40
1.0
  9
$DIMTOFL
 70
     0
  9
$DIMTVP
 40
0.0
  9
$DIMTIX
 70
     0
  9
$DIMSOXD
 70
     0
  9
$DIMSAH
 70
     0
  9
$DIMBLK1
  1

  9
$DIMBLK2
  1

  9
$DIMSTYLE
  2
STANDARD
  9
$DIMCLRD
 70
     0
  9
$DIMCLRE
 70
     0
  9
$DIMCLRT
 70
     0
  9
$DIMTFAC
 40
1.0
  9
$DIMGAP
 40
0.09
  9
$DIMJUST
 70
     0
  9
$DIMSD1
 70
     0
  9
$DIMSD2
 70
     0
  9
$DIMTOLJ
 70
     1
  9
$DIMTZIN
 70
     0
  9
$DIMALTZ
 70
     0
  9
$DIMALTTZ
 70
     0
  9
$DIMUPT
 70
     0
  9
$DIMDEC
 70
     4
  9
$DIMTDEC
 70
     4
  9
$DIMALTU
 70
     2
  9
$DIMALTTD
 70
     2
  9
$DIMTXSTY
  7
STANDARD
  9
$DIMAUNIT
 70
     0
  9
$DIMADEC
 70
     0
  9
$DIMALTRND
 40
0.0
  9
$DIMAZIN
 70
     0
  9
$DIMDSEP
 70
    46
  9
$DIMATFIT
 70
     3
  9
$DIMFRAC
 70
     0
  9
$DIMLDRBLK
  1

  9
$DIMLUNIT
 70
     2
  9
$DIMLWD
 70
    -2
  9
$DIMLWE
 70
    -2
  9
$DIMTMOVE
 70
     0
  9
$LUNITS
 70
     2
  9
$LUPREC
 70
     4
  9
$SKETCHINC
 40
0.1
  9
$FILLETRAD
 40
0.0
  9
$AUNITS
 70
     0
  9
$AUPREC
 70
     0
  9
$MENU
  1
.
  9
$ELEVATION
 40
0.0
  9
$PELEVATION
 40
0.0
  9
$THICKNESS
 40
0.0
  9
$LIMCHECK
 70
     0
  9
$CHAMFERA
 40
0.0
  9
$CHAMFERB
 40
0.0
  9
$CHAMFERC
 40
0.0
  9
$CHAMFERD
 40
0.0
  9
$SKPOLY
 70
     0
  9
$TDCREATE
 40
2456966.645808854
  9
$TDUCREATE
 40
2456966.812475521
  9
$TDUPDATE
 40
2457220.485873496
  9
$TDUUPDATE
 40
2457220.652540162
  9
$TDINDWG
 40
0.0127761111
  9
$TDUSRTIMER
 40
0.0127761111
  9
$USRTIMER
 70
     1
  9
$ANGBASE
 50
0.0
  9
$ANGDIR
 70
     0
  9
$PDMODE
 70
     3
  9
$PDSIZE
 40
0.03125
  9
$PLINEWID
 40
0.0
  9
$SPLFRAME
 70
     0
  9
$SPLINETYPE
 70
     6
  9
$SPLINESEGS
 70
     8
  9
$HANDSEED
  5
18C8
  9
$SURFTAB1
 70
     6
  9
$SURFTAB2
 70
     6
  9
$SURFTYPE
 70
     6
  9
$SURFU
 70
     6
  9
$SURFV
 70
     6
  9
$UCSBASE
  2

  9
$UCSNAME
  2

  9
$UCSORG
 10
0.0
 20
0.0
 30
0.0
  9
$UCSXDIR
 10
1.0
 20
0.0
 30
0.0
  9
$UCSYDIR
 10
0.0
 20
1.0
 30
0.0
  9
$UCSORTHOREF
  2

  9
$UCSORTHOVIEW
 70
     0
  9
$UCSORGTOP
 10
0.0
 20
0.0
 30
0.0
  9
$UCSORGBOTTOM
 10
0.0
 20
0.0
 30
0.0
  9
$UCSORGLEFT
 10
0.0
 20
0.0
 30
0.0
  9
$UCSORGRIGHT
 10
0.0
 20
0.0
 30
0.0
  9
$UCSORGFRONT
 10
0.0
 20
0.0
 30
0.0
  9
$UCSORGBACK
 10
0.0
 20
0.0
 30
0.0
  9
$PUCSBASE
  2

  9
$PUCSNAME
  2

  9
$PUCSORG
 10
0.0
 20
0.0
 30
0.0
  9
$PUCSXDIR
 10
1.0
 20
0.0
 30
0.0
  9
$PUCSYDIR
 10
0.0
 20
1.0
 30
0.0
  9
$PUCSORTHOREF
  2

  9
$PUCSORTHOVIEW
 70
     0
  9
$PUCSORGTOP
 10
0.0
 20
0.0
 30
0.0
  9
$PUCSORGBOTTOM
 10
0.0
 20
0.0
 30
0.0
  9
$PUCSORGLEFT
 10
0.0
 20
0.0
 30
0.0
  9
$PUCSORGRIGHT
 10
0.0
 20
0.0
 30
0.0
  9
$PUCSORGFRONT
 10
0.0
 20
0.0
 30
0.0
  9
$PUCSORGBACK
 10
0.0
 20
0.0
 30
0.0
  9
$USERI1
 70
     0
  9
$USERI2
 70
     0
  9
$USERI3
 70
     0
  9
$USERI4
 70
     0
  9
$USERI5
 70
     0
  9
$USERR1
 40
0.0
  9
$USERR2
 40
0.0
  9
$USERR3
 40
0.0
  9
$USERR4
 40
0.0
  9
$USERR5
 40
0.0
  9
$WORLDVIEW
 70
     1
  9
$SHADEDGE
 70
     3
  9
$SHADEDIF
 70
    70
  9
$TILEMODE
 70
     1
  9
$MAXACTVP
 70
    64
  9
$PINSBASE
 10
0.0
 20
0.0
 30
0.0
  9
$PLIMCHECK
 70
     0
  9
$PEXTMIN
 10
1.000000000000000E+20
 20
1.000000000000000E+20
 30
1.000000000000000E+20
  9
$PEXTMAX
 10
-1.000000000000000E+20
 20
-1.000000000000000E+20
 30
-1.000000000000000E+20
  9
$PLIMMIN
 10
0.0
 20
0.0
  9
$PLIMMAX
 10
12.0
 20
9.0
  9
$UNITMODE
 70
     0
  9
$VISRETAIN
 70
     1
  9
$PLINEGEN
 70
     0
  9
$PSLTSCALE
 70
     1
  9
$TREEDEPTH
 70
  3020
  9
$CMLSTYLE
  2
Standard
  9
$CMLJUST
 70
     0
  9
$CMLSCALE
 40
1.0
  9
$PROXYGRAPHICS
 70
     1
  9
$MEASUREMENT
 70
     0
  9
$CELWEIGHT
370
    -1
  9
$ENDCAPS
280
     0
  9
$JOINSTYLE
280
     0
  9
$LWDISPLAY
290
     0
  9
$INSUNITS
 70
     1
  9
$HYPERLINKBASE
  1

  9
$STYLESHEET
  1

  9
$XEDIT
290
     1
  9
$CEPSNTYPE
380
     0
  9
$PSTYLEMODE
290
     1
  9
$FINGERPRINTGUID
  2
{BAA30D28-64B2-4947-87E6-43843D4E312F}
  9
$VERSIONGUID
  2
{A690AF87-7E10-4365-9A2F-7CD0968AD57A}
  9
$EXTNAMES
290
     1
  9
$PSVPSCALE
 40
0.0
  9
$OLESTARTUP
290
     0
  9
$SORTENTS
280
   127
  9
$INDEXCTL
280
     0
  9
$HIDETEXT
280
     0
  9
$XCLIPFRAME
290
     0
  9
$HALOGAP
280
     0
  9
$OBSCOLOR
 70
   257
  9
$OBSLTYPE
280
     0
  9
$INTERSECTIONDISPLAY
280
     0
  9
$INTERSECTIONCOLOR
 70
   257
  9
$DIMASSOC
280
     1
  9
$PROJECTNAME
  1

  0
ENDSEC
  0
SECTION
  2
CLASSES
  0
CLASS
  1
ACDBDICTIONARYWDFLT
  2
AcDbDictionaryWithDefault
  3
ObjectDBX Classes
 90
        0
 91
        1
280
     0
281
     0
  0
CLASS
  1
MATERIAL
  2
AcDbMaterial
  3
ObjectDBX Classes
 90
     1153
 91
        3
280
     0
281
     0
  0
CLASS
  1
VISUALSTYLE
  2
AcDbVisualStyle
  3
ObjectDBX Classes
 90
     4095
 91
       26
280
     0
281
     0
  0
CLASS
  1
TABLESTYLE
  2
AcDbTableStyle
  3
ObjectDBX Classes
 90
     4095
 91
        1
280
     0
281
     0
  0
CLASS
  1
SCALE
  2
AcDbScale
  3
ObjectDBX Classes
 90
     1153
 91
       33
280
     0
281
     0
  0
CLASS
  1
MLEADERSTYLE
  2
AcDbMLeaderStyle
  3
ACDB_MLEADERSTYLE_CLASS
 90
     4095
 91
        1
280
     0
281
     0
  0
CLASS
  1
CELLSTYLEMAP
  2
AcDbCellStyleMap
  3
ObjectDBX Classes
 90
     1152
 91
        3
280
     0
281
     0
  0
CLASS
  1
DICTIONARYVAR
  2
AcDbDictionaryVar
  3
ObjectDBX Classes
 90
        0
 91
       19
280
     0
281
     0
  0
CLASS
  1
ACDBSECTIONVIEWSTYLE
  2
AcDbSectionViewStyle
  3
ObjectDBX Classes
 90
     1025
 91
        1
280
     0
281
     0
  0
CLASS
  1
ACDBDETAILVIEWSTYLE
  2
AcDbDetailViewStyle
  3
ObjectDBX Classes
 90
     1025
 91
        1
280
     0
281
     0
  0
ENDSEC
  0
SECTION
  2
TABLES
  0
TABLE
  2
VPORT
  5
8
102
{ACAD_XDICTIONARY
360
177C
102
}
330
0
100
AcDbSymbolTable
 70
     1
  0
VPORT
  5
1F4
330
8
100
AcDbSymbolTableRecord
100
AcDbViewportTableRecord
  2
*ACTIVE
 70
     0
 10
0.0
 20
0.0
 11
1.0
 21
1.0
 12
66.97412841887413
 22
35.91479825583913
 13
0.0
 23
0.0
 14
1.0
 24
1.0
 15
0.0
 25
0.0
 16
0.0
 26
0.0
 36
1.0
 17
0.0
 27
0.0
 37
0.0
 40
53.15963820013656
 41
2.246690734055354
 42
50.0
 43
0.0
 44
0.0
 50
0.0
 51
0.0
 71
     0
 72
   100
 73
     1
 74
     1
 75
     0
 76
     0
 77
     0
 78
     0
281
     0
 65
     1
110
0.0
120
0.0
130
0.0
111
1.0
121
0.0
131
0.0
112
0.0
122
1.0
132
0.0
 79
     0
146
0.0
1001
ACAD_NAV_VCDISPLAY
1070
     3
  0
ENDTAB
  0
TABLE
  2
LTYPE
  5
5
330
0
100
AcDbSymbolTable
 70
     6
  0
LTYPE
  5
14
330
5
100
AcDbSymbolTableRecord
100
AcDbLinetypeTableRecord
  2
BYBLOCK
 70
     0
  3

 72
    65
 73
     0
 40
0.0
  0
LTYPE
  5
15
330
5
100
AcDbSymbolTableRecord
100
AcDbLinetypeTableRecord
  2
BYLAYER
 70
     0
  3

 72
    65
 73
     0
 40
0.0
  0
LTYPE
  5
16
330
5
100
AcDbSymbolTableRecord
100
AcDbLinetypeTableRecord
  2
CONTINUOUS
 70
     0
  3
Solid line
 72
    65
 73
     0
 40
0.0
  0
LTYPE
  5
1F5
330
5
100
AcDbSymbolTableRecord
100
AcDbLinetypeTableRecord
  2
CENTER
 70
     0
  3
____ _ ____ _ ____ _ ____ _ ____ _ ____ _ ____
 72
    65
 73
     4
 40
0.6
 49
0.375
 74
     0
 49
-0.075
 74
     0
 49
0.075
 74
     0
 49
-0.075
 74
     0
  0
LTYPE
  5
1F6
330
5
100
AcDbSymbolTableRecord
100
AcDbLinetypeTableRecord
  2
HIDDEN
 70
     0
  3
- - - - - - - - - - - - - - - - - - - -
 72
    65
 73
     2
 40
0.2
 49
0.1
 74
     0
 49
-0.1
 74
     0
  0
LTYPE
  5
1F7
330
5
100
AcDbSymbolTableRecord
100
AcDbLinetypeTableRecord
  2
PHANTOM
 70
     0
  3
_____ _ _ _____ _ _ _____ _ _ _____
 72
    65
 73
     6
 40
0.8
 49
0.45
 74
     0
 49
-0.05
 74
     0
 49
0.1
 74
     0
 49
-0.05
 74
     0
 49
0.1
 74
     0
 49
-0.05
 74
     0
  0
LTYPE
  5
1F8
330
5
100
AcDbSymbolTableRecord
100
AcDbLinetypeTableRecord
  2
DOT
 70
     0
  3
. . . . . . . . . . . . . . . . . . . .
 72
    65
 73
     2
 40
0.2
 49
0.1
 74
     0
 49
-0.1
 74
     0
  0
LTYPE
  5
1F9
330
5
100
AcDbSymbolTableRecord
100
AcDbLinetypeTableRecord
  2
DASHED
 70
     0
  3
- - - - - - - - - - - - - - - - - - - -
 72
    65
 73
     2
 40
0.2
 49
0.1
 74
     0
 49
-0.1
 74
     0
  0
ENDTAB
  0
TABLE
  2
LAYER
  5
2
330
0
100
AcDbSymbolTable
 70
    36
  0
LAYER
  5
10
102
{ACAD_XDICTIONARY
360
17BC
102
}
330
2
100
AcDbSymbolTableRecord
100
AcDbLayerTableRecord
  2
0
 70
     0
 62
     7
  6
CONTINUOUS
370
    -3
390
F
  0
LAYER
  5
1FA
102
{ACAD_XDICTIONARY
360
17BE
102
}
330
2
100
AcDbSymbolTableRecord
100
AcDbLayerTableRecord
  2
DEFAULT_1
 70
     0
 62
     7
  6
CENTER
370
    -3
390
F
  0
LAYER
  5
1FB
102
{ACAD_XDICTIONARY
360
17C0
102
}
330
2
100
AcDbSymbolTableRecord
100
AcDbLayerTableRecord
  2
DEFAULT_2
 70
     0
 62
     7
  6
HIDDEN
370
    -3
390
F
  0
LAYER
  5
1FC
102
{ACAD_XDICTIONARY
360
17C2
102
}
330
2
100
AcDbSymbolTableRecord
100
AcDbLayerTableRecord
  2
DEFAULT_3
 70
     0
 62
     7
  6
PHANTOM
370
    -3
390
F
  0
LAYER
  5
1FD
102
{ACAD_XDICTIONARY
360
17C4
102
}
330
2
100
AcDbSymbolTableRecord
100
AcDbLayerTableRecord
  2
1_CURVES
 70
     0
 62
     7
  6
CONTINUOUS
370
    -3
390
F
  0
LAYER
  5
1FE
102
{ACAD_XDICTIONARY
360
17C6
102
}
330
2
100
AcDbSymbolTableRecord
100
AcDbLayerTableRecord
  2
1_CURVES-DEGAGEMENT-COIL
 70
     0
 62
     7
  6
CONTINUOUS
370
    -3
390
F
  0
LAYER
  5
1FF
102
{ACAD_XDICTIONARY
360
17C8
102
}
330
2
100
AcDbSymbolTableRecord
100
AcDbLayerTableRecord
  2
1_CURVES-TRAJECTOIRE-COIL
 70
     0
 62
     7
  6
CONTINUOUS
370
    -3
390
F
  0
LAYER
  5
200
102
{ACAD_XDICTIONARY
360
17CA
102
}
330
2
100
AcDbSymbolTableRecord
100
AcDbLayerTableRecord
  2
1_CURVES_CONDUIT
 70
     0
 62
     7
  6
CONTINUOUS
370
    -3
390
F
  0
LAYER
  5
201
102
{ACAD_XDICTIONARY
360
17CC
102
}
330
2
100
AcDbSymbolTableRecord
100
AcDbLayerTableRecord
  2
1_CURVES_IMPORT
 70
     0
 62
     7
  6
CONTINUOUS
370
    -3
390
F
  0
LAYER
  5
202
102
{ACAD_XDICTIONARY
360
17CE
102
}
330
2
100
AcDbSymbolTableRecord
100
AcDbLayerTableRecord
  2
1_CURVES_JETS
 70
     0
 62
     7
  6
CONTINUOUS
370
    -3
390
F
  0
LAYER
  5
203
102
{ACAD_XDICTIONARY
360
17D0
102
}
330
2
100
AcDbSymbolTableRecord
100
AcDbLayerTableRecord
  2
1_CURVES_PATINS
 70
     0
 62
     7
  6
CONTINUOUS
370
    -3
390
F
  0
LAYER
  5
204
102
{ACAD_XDICTIONARY
360
17D2
102
}
330
2
100
AcDbSymbolTableRecord
100
AcDbLayerTableRecord
  2
1_CURVES_SPEC_FRONT
 70
     0
 62
     7
  6
CONTINUOUS
370
    -3
390
F
  0
LAYER
  5
205
102
{ACAD_XDICTIONARY
360
17D4
102
}
330
2
100
AcDbSymbolTableRecord
100
AcDbLayerTableRecord
  2
1_CURVES_SPEC_RIGHT
 70
     0
 62
     7
  6
CONTINUOUS
370
    -3
390
F
  0
LAYER
  5
206
102
{ACAD_XDICTIONARY
360
17D6
102
}
330
2
100
AcDbSymbolTableRecord
100
AcDbLayerTableRecord
  2
1_CURVES_ZONE-ROBINETTERIE
 70
     0
 62
     7
  6
CONTINUOUS
370
    -3
390
F
  0
LAYER
  5
207
102
{ACAD_XDICTIONARY
360
17D8
102
}
330
2
100
AcDbSymbolTableRecord
100
AcDbLayerTableRecord
  2
2_PLANES
 70
     0
 62
     7
  6
CONTINUOUS
370
    -3
390
F
  0
LAYER
  5
208
102
{ACAD_XDICTIONARY
360
17DA
102
}
330
2
100
AcDbSymbolTableRecord
100
AcDbLayerTableRecord
  2
2_PLANES_JETS
 70
     0
 62
     7
  6
CONTINUOUS
370
    -3
390
F
  0
LAYER
  5
209
102
{ACAD_XDICTIONARY
360
17DC
102
}
330
2
100
AcDbSymbolTableRecord
100
AcDbLayerTableRecord
  2
3_POINTS
 70
     0
 62
     7
  6
CONTINUOUS
370
    -3
390
F
  0
LAYER
  5
20A
102
{ACAD_XDICTIONARY
360
17DE
102
}
330
2
100
AcDbSymbolTableRecord
100
AcDbLayerTableRecord
  2
3_POINTS_JETS
 70
     0
 62
     7
  6
CONTINUOUS
370
    -3
390
F
  0
LAYER
  5
20B
102
{ACAD_XDICTIONARY
360
17E0
102
}
330
2
100
AcDbSymbolTableRecord
100
AcDbLayerTableRecord
  2
4_CSYS
 70
     0
 62
     7
  6
CONTINUOUS
370
    -3
390
F
  0
LAYER
  5
20C
102
{ACAD_XDICTIONARY
360
17E2
102
}
330
2
100
AcDbSymbolTableRecord
100
AcDbLayerTableRecord
  2
5_AXIS
 70
     0
 62
     7
  6
CONTINUOUS
370
    -3
390
F
  0
LAYER
  5
20D
102
{ACAD_XDICTIONARY
360
17E4
102
}
330
2
100
AcDbSymbolTableRecord
100
AcDbLayerTableRecord
  2
5_AXIS_JETS
 70
     0
 62
     7
  6
CONTINUOUS
370
    -3
390
F
  0
LAYER
  5
20E
102
{ACAD_XDICTIONARY
360
17E6
102
}
330
2
100
AcDbSymbolTableRecord
100
AcDbLayerTableRecord
  2
6_AIRE_CONDUIT
 70
     0
 62
     7
  6
CONTINUOUS
370
    -3
390
F
  0
LAYER
  5
20F
102
{ACAD_XDICTIONARY
360
17E8
102
}
330
2
100
AcDbSymbolTableRecord
100
AcDbLayerTableRecord
  2
6_SURFACES
 70
     0
 62
     7
  6
CONTINUOUS
370
    -3
390
F
  0
LAYER
  5
210
102
{ACAD_XDICTIONARY
360
17EA
102
}
330
2
100
AcDbSymbolTableRecord
100
AcDbLayerTableRecord
  2
6_SURFACES_AIRE
 70
     0
 62
     7
  6
CONTINUOUS
370
    -3
390
F
  0
LAYER
  5
211
102
{ACAD_XDICTIONARY
360
17EC
102
}
330
2
100
AcDbSymbolTableRecord
100
AcDbLayerTableRecord
  2
6_SURFACES_DROP_IN
 70
     0
 62
     7
  6
CONTINUOUS
370
    -3
390
F
  0
LAYER
  5
212
102
{ACAD_XDICTIONARY
360
17EE
102
}
330
2
100
AcDbSymbolTableRecord
100
AcDbLayerTableRecord
  2
6_SURFACES_FS
 70
     0
 62
     7
  6
CONTINUOUS
370
    -3
390
F
  0
LAYER
  5
213
102
{ACAD_XDICTIONARY
360
17F0
102
}
330
2
100
AcDbSymbolTableRecord
100
AcDbLayerTableRecord
  2
6_SURFACES_OFFSET_FIBRE_ACRYLIQ
 70
     0
 62
     7
  6
CONTINUOUS
370
    -3
390
F
  0
LAYER
  5
214
102
{ACAD_XDICTIONARY
360
17F2
102
}
330
2
100
AcDbSymbolTableRecord
100
AcDbLayerTableRecord
  2
6_SURFACES_PATINS_SPECS
 70
     0
 62
     7
  6
CONTINUOUS
370
    -3
390
F
  0
LAYER
  5
215
102
{ACAD_XDICTIONARY
360
17F4
102
}
330
2
100
AcDbSymbolTableRecord
100
AcDbLayerTableRecord
  2
6_SURFACES_POUR_CONDUIT
 70
     0
 62
     7
  6
CONTINUOUS
370
    -3
390
F
  0
LAYER
  5
216
102
{ACAD_XDICTIONARY
360
17F6
102
}
330
2
100
AcDbSymbolTableRecord
100
AcDbLayerTableRecord
  2
6_SURFACES_POUR_HFL
 70
     0
 62
     7
  6
CONTINUOUS
370
    -3
390
F
  0
LAYER
  5
217
102
{ACAD_XDICTIONARY
360
17F8
102
}
330
2
100
AcDbSymbolTableRecord
100
AcDbLayerTableRecord
  2
6_SURFACES_TOOLING
 70
     0
 62
     7
  6
CONTINUOUS
370
    -3
390
F
  0
LAYER
  5
218
102
{ACAD_XDICTIONARY
360
17FA
102
}
330
2
100
AcDbSymbolTableRecord
100
AcDbLayerTableRecord
  2
7_NOTES
 70
     0
 62
     7
  6
CONTINUOUS
370
    -3
390
F
  0
LAYER
  5
219
102
{ACAD_XDICTIONARY
360
17FC
102
}
330
2
100
AcDbSymbolTableRecord
100
AcDbLayerTableRecord
  2
8_TOL_GEOM
 70
     0
 62
     7
  6
CONTINUOUS
370
    -3
390
F
  0
LAYER
  5
21A
102
{ACAD_XDICTIONARY
360
17FE
102
}
330
2
100
AcDbSymbolTableRecord
100
AcDbLayerTableRecord
  2
DEGAGEMENT_SERIGRAPHIE
 70
     0
 62
     7
  6
CONTINUOUS
370
    -3
390
F
  0
LAYER
  5
21B
102
{ACAD_XDICTIONARY
360
1800
102
}
330
2
100
AcDbSymbolTableRecord
100
AcDbLayerTableRecord
  2
NONE
 70
     0
 62
     7
  6
CONTINUOUS
370
    -3
390
F
  0
LAYER
  5
21C
102
{ACAD_XDICTIONARY
360
1802
102
}
330
2
100
AcDbSymbolTableRecord
100
AcDbLayerTableRecord
  2
XSEC_DATUMS
 70
     0
 62
     7
  6
CONTINUOUS
370
    -3
390
F
  0
ENDTAB
  0
TABLE
  2
STYLE
  5
3
330
0
100
AcDbSymbolTable
 70
     8
  0
STYLE
  5
11
330
3
100
AcDbSymbolTableRecord
100
AcDbTextStyleTableRecord
  2
STANDARD
 70
     0
 40
0.0
 41
0.8
 50
0.0
 71
     0
 42
0.2
  3
txt
  4

  0
STYLE
  5
21D
330
3
100
AcDbSymbolTableRecord
100
AcDbTextStyleTableRecord
  2
TEXTSTYLE_1
 70
     0
 40
0.0
 41
0.8
 50
0.0
 71
     0
 42
0.2
  3
gdt
  4

  0
STYLE
  5
21E
330
3
100
AcDbSymbolTableRecord
100
AcDbTextStyleTableRecord
  2
TEXTSTYLE_2
 70
     0
 40
0.0
 41
1.0
 50
0.0
 71
     0
 42
0.2
  3
trium.ttf
  4

  0
STYLE
  5
21F
330
3
100
AcDbSymbolTableRecord
100
AcDbTextStyleTableRecord
  2
TEXTSTYLE_3
 70
     0
 40
0.0
 41
1.0
 50
0.0
 71
     0
 42
0.2
  3
trium.ttf
  4

  0
STYLE
  5
220
330
3
100
AcDbSymbolTableRecord
100
AcDbTextStyleTableRecord
  2
TEXTSTYLE_4
 70
     0
 40
0.0
 41
1.0
 50
0.0
 71
     0
 42
0.2
  3
txt_____.ttf
  4

1001
ACAD
1000
txt
1071
        2
  0
STYLE
  5
221
330
3
100
AcDbSymbolTableRecord
100
AcDbTextStyleTableRecord
  2
TEXTSTYLE_5
 70
     0
 40
0.0
 41
1.0
 50
0.0
 71
     0
 42
0.2
  3
txt
  4

  0
STYLE
  5
222
330
3
100
AcDbSymbolTableRecord
100
AcDbTextStyleTableRecord
  2
TEXTSTYLE_6
 70
     0
 40
0.0
 41
1.0
 50
0.0
 71
     0
 42
0.2
  3
trium.ttf
  4

  0
STYLE
  5
223
330
3
100
AcDbSymbolTableRecord
100
AcDbTextStyleTableRecord
  2
TEXTSTYLE_7
 70
     0
 40
0.0
 41
0.8
 50
0.0
 71
     0
 42
0.2
  3
txt_____.ttf
  4

1001
ACAD
1000
txt
1071
        2
  0
ENDTAB
  0
TABLE
  2
VIEW
  5
6
330
0
100
AcDbSymbolTable
 70
     0
  0
ENDTAB
  0
TABLE
  2
UCS
  5
7
330
0
100
AcDbSymbolTable
 70
     0
  0
ENDTAB
  0
TABLE
  2
APPID
  5
9
330
0
100
AcDbSymbolTable
 70
     3
  0
APPID
  5
224
330
9
100
AcDbSymbolTableRecord
100
AcDbRegAppTableRecord
  2
ACAD
 70
     0
  0
APPID
  5
17AC
330
9
100
AcDbSymbolTableRecord
100
AcDbRegAppTableRecord
  2
ACAD_MLEADERVER
 70
     0
  0
APPID
  5
1842
330
9
100
AcDbSymbolTableRecord
100
AcDbRegAppTableRecord
  2
ACAD_NAV_VCDISPLAY
 70
     0
  0
ENDTAB
  0
TABLE
  2
DIMSTYLE
  5
A
330
0
100
AcDbSymbolTable
 70
     4
100
AcDbDimStyleTable
 71
     0
  0
DIMSTYLE
105
23F
330
A
100
AcDbSymbolTableRecord
100
AcDbDimStyleTableRecord
  2
STANDARD
 70
     0
 41
2.0
 44
0.125
 47
0.00001
 48
0.00001
 71
     1
 78
     4
140
1.333333333299999
271
     5
272
     5
284
     4
340
11
341
227
342
227
343
227
344
227
  0
DIMSTYLE
105
240
330
A
100
AcDbSymbolTableRecord
100
AcDbDimStyleTableRecord
  2
DIMSTYLE_1
 70
     0
 41
2.0
 44
0.125
 47
0.00001
 48
0.00001
 78
     4
140
1.333333333299999
147
0.0625
271
     3
272
     3
284
     4
340
11
341
227
342
227
343
227
344
227
  0
DIMSTYLE
105
241
330
A
100
AcDbSymbolTableRecord
100
AcDbDimStyleTableRecord
  2
DIMSTYLE_2
 70
     0
 41
2.0
 44
0.125
 47
0.00001
 48
0.00001
 78
     4
140
1.333333333299999
147
0.0625
271
     6
272
     6
284
     4
340
11
341
227
342
227
343
227
344
227
  0
DIMSTYLE
105
242
330
A
100
AcDbSymbolTableRecord
100
AcDbDimStyleTableRecord
  2
DIMSTYLE_3
 70
     0
 41
2.0
 44
0.125
 47
0.5
 48
0.5
 78
     4
140
1.333333333299999
271
     0
272
     0
284
     4
340
11
341
227
342
227
343
227
344
227
  0
ENDTAB
  0
TABLE
  2
BLOCK_RECORD
  5
1
330
0
100
AcDbSymbolTable
 70
     9
  0
BLOCK_RECORD
  5
225
330
1
100
AcDbSymbolTableRecord
100
AcDbBlockTableRecord
  2
*Model_Space
340
1721
  0
BLOCK_RECORD
  5
226
330
1
100
AcDbSymbolTableRecord
100
AcDbBlockTableRecord
  2
*Paper_Space
340
1722
  0
BLOCK_RECORD
  5
227
330
1
100
AcDbSymbolTableRecord
100
AcDbBlockTableRecord
  2
_FILLED
340
0
  0
BLOCK_RECORD
  5
237
330
1
100
AcDbSymbolTableRecord
100
AcDbBlockTableRecord
  2
SYMBOL_8_BL7
340
0
  0
BLOCK_RECORD
  5
238
330
1
100
AcDbSymbolTableRecord
100
AcDbBlockTableRecord
  2
SYMBOL_12_BL6
340
0
  0
BLOCK_RECORD
  5
239
330
1
100
AcDbSymbolTableRecord
100
AcDbBlockTableRecord
  2
SYMBOL_11_BL5
340
0
  0
BLOCK_RECORD
  5
23A
330
1
100
AcDbSymbolTableRecord
100
AcDbBlockTableRecord
  2
SYMBOL_10_BL4
340
0
  0
BLOCK_RECORD
  5
23B
330
1
100
AcDbSymbolTableRecord
100
AcDbBlockTableRecord
  2
SYMBOL_5_BL3
340
0
  0
BLOCK_RECORD
  5
23C
330
1
100
AcDbSymbolTableRecord
100
AcDbBlockTableRecord
  2
SYMBOL_4_BL2
340
0
  0
BLOCK_RECORD
  5
23D
330
1
100
AcDbSymbolTableRecord
100
AcDbBlockTableRecord
  2
SYMBOL_3_BL1
340
0
  0
BLOCK_RECORD
  5
23E
330
1
100
AcDbSymbolTableRecord
100
AcDbBlockTableRecord
  2
SYMBOL_0_BL0
340
0
  0
ENDTAB
  0
ENDSEC
  0
SECTION
  2
BLOCKS
  0
BLOCK
  5
20
330
225
100
AcDbEntity
  8
0
100
AcDbBlockBegin
  2
*Model_Space
 70
     0
 10
0.0
 20
0.0
 30
0.0
  3
*Model_Space
  1

  0
ENDBLK
  5
21
330
225
100
AcDbEntity
  8
0
100
AcDbBlockEnd
  0
BLOCK
  5
1C
330
226
100
AcDbEntity
 67
     1
  8
0
100
AcDbBlockBegin
  2
*Paper_Space
 70
     0
 10
0.0
 20
0.0
 30
0.0
  3
*Paper_Space
  1

  0
ENDBLK
  5
1D
330
226
100
AcDbEntity
 67
     1
  8
0
100
AcDbBlockEnd
  0
BLOCK
  5
32A
330
227
100
AcDbEntity
  8
0
100
AcDbBlockBegin
  2
_FILLED
 70
     0
 10
0.0
 20
0.0
 30
0.0
  3
_FILLED
  1

  0
SOLID
  5
32B
330
227
100
AcDbEntity
  8
0
  6
ByBlock
 62
     0
100
AcDbTrace
 10
0.0
 20
0.0
 30
0.0
 11
-1.0
 21
0.1666666667
 31
0.0
 12
-1.0
 22
-0.1666666667
 32
0.0
 13
-1.0
 23
-0.1666666667
 33
0.0
  0
ENDBLK
  5
32C
330
227
100
AcDbEntity
  8
0
  6
ByBlock
 62
     0
100
AcDbBlockEnd
  0
BLOCK
  5
243
330
237
100
AcDbEntity
  8
0
  6
Continuous
 62
     7
100
AcDbBlockBegin
  2
SYMBOL_8_BL7
 70
     0
 10
123.4755144253
 20
51.6510813909
 30
0.0
  3
SYMBOL_8_BL7
  1

  0
TEXT
  5
244
330
237
100
AcDbEntity
  8
0
  6
Continuous
 62
     7
100
AcDbText
 10
117.1614541235
 20
53.8961153767
 30
0.0
 40
1.1626666667
  1
INTERNAL USE 
 50
10.0
  7
TEXTSTYLE_3
100
AcDbText
  0
TEXT
  5
245
330
237
100
AcDbEntity
  8
0
  6
Continuous
 62
     7
100
AcDbText
 10
116.4177699195
 20
51.894594199
 30
0.0
 40
1.1626666667
  1
DOCUMENT ONLY
 50
10.0
  7
TEXTSTYLE_3
100
AcDbText
  0
TEXT
  5
246
330
237
100
AcDbEntity
  8
0
  6
Continuous
 62
     7
100
AcDbText
 10
122.2024974827
 20
51.64616614839999
 30
0.0
 40
1.1626666667
  1
 
 50
10.0
  7
TEXTSTYLE_5
100
AcDbText
  0
TEXT
  5
247
330
237
100
AcDbEntity
  8
0
  6
Continuous
 62
     7
100
AcDbText
 10
113.7578495997
 20
47.4690717421
 30
0.0
 40
1.1626666667
  1
DOCUMENT POUR USAGE
 50
10.0
  7
TEXTSTYLE_3
100
AcDbText
  0
TEXT
  5
248
330
237
100
AcDbEntity
  8
0
  6
Continuous
 62
     7
100
AcDbText
 10
114.1869490457
 20
45.4523232817
 30
0.0
 40
1.1626666667
  1
A L'INTERNE SEULEMENT
 50
10.0
  7
TEXTSTYLE_3
100
AcDbText
  0
LINE
  5
249
330
237
100
AcDbEntity
  8
0
  6
Continuous
 62
     7
100
AcDbLine
 10
137.3320661486
 20
47.3075477729
 30
0.0
 11
137.3388250812
 21
47.31430670549999
 31
0.0
  0
LINE
  5
24A
330
237
100
AcDbEntity
  8
0
  6
Continuous
 62
     7
100
AcDbLine
 10
136.5994965822
 20
47.17837599310001
 30
0.0
 11
137.2483780273
 21
47.8272574382
 31
0.0
  0
LINE
  5
24B
330
237
100
AcDbEntity
  8
0
  6
Continuous
 62
     7
100
AcDbLine
 10
135.8669270158
 20
47.0492042133
 30
0.0
 11
137.1579309733
 21
48.34020817089999
 31
0.0
  0
LINE
  5
24C
330
237
100
AcDbEntity
  8
0
  6
Continuous
 62
     7
100
AcDbLine
 10
135.1343574493
 20
46.9200324335
 30
0.0
 11
137.0674839194
 21
48.8531589035
 31
0.0
  0
LINE
  5
24D
330
237
100
AcDbEntity
  8
0
  6
Continuous
 62
     7
100
AcDbLine
 10
134.4017878829
 20
46.79086065369999
 30
0.0
 11
136.9770368655
 21
49.3661096362
 31
0.0
  0
LINE
  5
24E
330
237
100
AcDbEntity
  8
0
  6
Continuous
 62
     7
100
AcDbLine
 10
133.6692183165
 20
46.6616888739
 30
0.0
 11
135.2102221313
 21
48.20269268859999
 31
0.0
  0
LINE
  5
24F
330
237
100
AcDbEntity
  8
0
  6
Continuous
 62
     7
100
AcDbLine
 10
135.807567324
 20
48.8000378814
 30
0.0
 11
136.8865898115
 21
49.87906036890001
 31
0.0
  0
LINE
  5
250
330
237
100
AcDbEntity
  8
0
  6
Continuous
 62
     7
100
AcDbLine
 10
132.9366487501
 20
46.5325170941
 30
0.0
 11
134.4776525649
 21
48.0735209088
 31
0.0
  0
LINE
  5
251
330
237
100
AcDbEntity
  8
0
  6
Continuous
 62
     7
100
AcDbLine
 10
135.7171202701
 20
49.312988614
 30
0.0
 11
136.7961427576
 21
50.3920111016
 31
0.0
  0
LINE
  5
252
330
237
100
AcDbEntity
  8
0
  6
Continuous
 62
     7
100
AcDbLine
 10
132.2040791837
 20
46.4033453143
 30
0.0
 11
133.7450829984
 21
47.94434912899999
 31
0.0
  0
LINE
  5
253
330
237
100
AcDbEntity
  8
0
  6
Continuous
 62
     7
100
AcDbLine
 10
135.6266732161
 20
49.8259393467
 30
0.0
 11
136.7056957036
 21
50.9049618342
 31
0.0
  0
LINE
  5
254
330
237
100
AcDbEntity
  8
0
  6
Continuous
 62
     7
100
AcDbLine
 10
131.4715096171999
 20
46.2741735344
 30
0.0
 11
133.012513432
 21
47.8151773492
 31
0.0
  0
LINE
  5
255
330
237
100
AcDbEntity
  8
0
  6
Continuous
 62
     7
100
AcDbLine
 10
135.5362261622
 20
50.3388900794
 30
0.0
 11
136.6152486497
 21
51.41791256689999
 31
0.0
  0
LINE
  5
256
330
237
100
AcDbEntity
  8
0
  6
Continuous
 62
     7
100
AcDbLine
 10
130.7389400508
 20
46.1450017546
 30
0.0
 11
132.2799438656
 21
47.6860055694
 31
0.0
  0
LINE
  5
257
330
237
100
AcDbEntity
  8
0
  6
Continuous
 62
     7
100
AcDbLine
 10
135.4457791082
 20
50.851840812
 30
0.0
 11
136.5248015957
 21
51.93086329959999
 31
0.0
  0
LINE
  5
258
330
237
100
AcDbEntity
  8
0
  6
Continuous
 62
     7
100
AcDbLine
 10
130.0063704844
 20
46.01582997479999
 30
0.0
 11
131.5473742992
 21
47.55683378959999
 31
0.0
  0
LINE
  5
259
330
237
100
AcDbEntity
  8
0
  6
Continuous
 62
     7
100
AcDbLine
 10
135.3553320543
 20
51.3647915447
 30
0.0
 11
136.4343545418
 21
52.4438140322
 31
0.0
  0
LINE
  5
25A
330
237
100
AcDbEntity
  8
0
  6
Continuous
 62
     7
100
AcDbLine
 10
129.273800918
 20
45.886658195
 30
0.0
 11
130.8148047328
 21
47.42766200979999
 31
0.0
  0
LINE
  5
25B
330
237
100
AcDbEntity
  8
0
  6
Continuous
 62
     7
100
AcDbLine
 10
135.2648850003
 20
51.8777422774
 30
0.0
 11
136.3439074879
 21
52.9567647649
 31
0.0
  0
LINE
  5
25C
330
237
100
AcDbEntity
  8
0
  6
Continuous
 62
     7
100
AcDbLine
 10
128.5412313516
 20
45.7574864152
 30
0.0
 11
130.0822351664
 21
47.29849022999999
 31
0.0
  0
LINE
  5
25D
330
237
100
AcDbEntity
  8
0
  6
Continuous
 62
     7
100
AcDbLine
 10
135.1744379464
 20
52.39069301
 30
0.0
 11
136.2534604339
 21
53.4697154976
 31
0.0
  0
LINE
  5
25E
330
237
100
AcDbEntity
  8
0
  6
Continuous
 62
     7
100
AcDbLine
 10
127.8086617852
 20
45.6283146354
 30
0.0
 11
129.3496655999
 21
47.1693184502
 31
0.0
  0
LINE
  5
25F
330
237
100
AcDbEntity
  8
0
  6
Continuous
 62
     7
100
AcDbLine
 10
135.0839908925
 20
52.90364374270001
 30
0.0
 11
136.16301338
 21
53.9826662302
 31
0.0
  0
LINE
  5
260
330
237
100
AcDbEntity
  8
0
  6
Continuous
 62
     7
100
AcDbLine
 10
127.0760922187
 20
45.4991428556
 30
0.0
 11
128.6170960335
 21
47.0401466704
 31
0.0
  0
LINE
  5
261
330
237
100
AcDbEntity
  8
0
  6
Continuous
 62
     7
100
AcDbLine
 10
134.7811112926
 20
53.20416192949999
 30
0.0
 11
136.072566326
 21
54.4956169629
 31
0.0
  0
LINE
  5
262
330
237
100
AcDbEntity
  8
0
  6
Continuous
 62
     7
100
AcDbLine
 10
126.3435226523
 20
45.3699710758
 30
0.0
 11
127.8845264671
 21
46.9109748906
 31
0.0
  0
LINE
  5
263
330
237
100
AcDbEntity
  8
0
  6
Continuous
 62
     7
100
AcDbLine
 10
134.0485417262
 20
53.0749901497
 30
0.0
 11
135.9821192721
 21
55.00856769560001
 31
0.0
  0
LINE
  5
264
330
237
100
AcDbEntity
  8
0
  6
Continuous
 62
     7
100
AcDbLine
 10
125.6109530859
 20
45.240799296
 30
0.0
 11
127.1519569007
 21
46.7818031108
 31
0.0
  0
LINE
  5
265
330
237
100
AcDbEntity
  8
0
  6
Continuous
 62
     7
100
AcDbLine
 10
133.3159721598
 20
52.94581836989999
 30
0.0
 11
134.343314458
 21
53.9731606682
 31
0.0
  0
LINE
  5
266
330
237
100
AcDbEntity
  8
0
  6
Continuous
 62
     7
100
AcDbLine
 10
134.8126497306
 20
54.4424959407
 30
0.0
 11
135.8916722181
 21
55.52151842819999
 31
0.0
  0
LINE
  5
267
330
237
100
AcDbEntity
  8
0
  6
Continuous
 62
     7
100
AcDbLine
 10
124.8783835195
 20
45.1116275162
 30
0.0
 11
126.4193873343
 21
46.652631331
 31
0.0
  0
LINE
  5
268
330
237
100
AcDbEntity
  8
0
  6
Continuous
 62
     7
100
AcDbLine
 10
132.5834025934
 20
52.8166465901
 30
0.0
 11
133.610744682
 21
53.8439886787
 31
0.0
  0
LINE
  5
269
330
237
100
AcDbEntity
  8
0
  6
Continuous
 62
     7
100
AcDbLine
 10
134.7222026767
 20
54.9554466734
 30
0.0
 11
135.8012251642
 21
56.0344691609
 31
0.0
  0
LINE
  5
26A
330
237
100
AcDbEntity
  8
0
  6
Continuous
 62
     7
100
AcDbLine
 10
124.1458139531
 20
44.98245573640001
 30
0.0
 11
125.6868177678
 21
46.5234595512
 31
0.0
  0
LINE
  5
26B
330
237
100
AcDbEntity
  8
0
  6
Continuous
 62
     7
100
AcDbLine
 10
131.850833027
 20
52.6874748103
 30
0.0
 11
132.878174906
 21
53.7148166893
 31
0.0
  0
LINE
  5
26C
330
237
100
AcDbEntity
  8
0
  6
Continuous
 62
     7
100
AcDbLine
 10
134.6317556227
 20
55.4683974061
 30
0.0
 11
135.7107781102
 21
56.54741989359999
 31
0.0
  0
LINE
  5
26D
330
237
100
AcDbEntity
  8
0
  6
Continuous
 62
     7
100
AcDbLine
 10
123.4132443866
 20
44.85328395659999
 30
0.0
 11
124.9542482014
 21
46.3942877714
 31
0.0
  0
LINE
  5
26E
330
237
100
AcDbEntity
  8
0
  6
Continuous
 62
     7
100
AcDbLine
 10
131.1182634605
 20
52.5583030305
 30
0.0
 11
132.14560513
 21
53.5856446999
 31
0.0
  0
LINE
  5
26F
330
237
100
AcDbEntity
  8
0
  6
Continuous
 62
     7
100
AcDbLine
 10
134.5413085688
 20
55.9813481387
 30
0.0
 11
135.6203310563
 21
57.0603706262
 31
0.0
  0
LINE
  5
270
330
237
100
AcDbEntity
  8
0
  6
Continuous
 62
     7
100
AcDbLine
 10
122.6806748202
 20
44.7241121768
 30
0.0
 11
124.221678635
 21
46.26511599159999
 31
0.0
  0
LINE
  5
271
330
237
100
AcDbEntity
  8
0
  6
Continuous
 62
     7
100
AcDbLine
 10
130.3856938941
 20
52.4291312507
 30
0.0
 11
131.4130353539
 21
53.4564727105
 31
0.0
  0
LINE
  5
272
330
237
100
AcDbEntity
  8
0
  6
Continuous
 62
     7
100
AcDbLine
 10
134.4508615148
 20
56.49429887140001
 30
0.0
 11
135.5298840024
 21
57.5733213589
 31
0.0
  0
LINE
  5
273
330
237
100
AcDbEntity
  8
0
  6
Continuous
 62
     7
100
AcDbLine
 10
121.9481052538
 20
44.594940397
 30
0.0
 11
123.4891090686
 21
46.1359442118
 31
0.0
  0
LINE
  5
274
330
237
100
AcDbEntity
  8
0
  6
Continuous
 62
     7
100
AcDbLine
 10
129.6531243277
 20
52.29995947089999
 30
0.0
 11
130.6804655779
 21
53.32730072109999
 31
0.0
  0
LINE
  5
275
330
237
100
AcDbEntity
  8
0
  6
Continuous
 62
     7
100
AcDbLine
 10
134.3604144609
 20
57.00724960409999
 30
0.0
 11
135.4394369484
 21
58.0862720916
 31
0.0
  0
LINE
  5
276
330
237
100
AcDbEntity
  8
0
  6
Continuous
 62
     7
100
AcDbLine
 10
121.2155356874
 20
44.4657686172
 30
0.0
 11
122.7565395022
 21
46.00677243199999
 31
0.0
  0
LINE
  5
277
330
237
100
AcDbEntity
  8
0
  6
Continuous
 62
     7
100
AcDbLine
 10
128.9205547613
 20
52.17078769109999
 30
0.0
 11
129.9478958019
 21
53.1981287317
 31
0.0
  0
LINE
  5
278
330
237
100
AcDbEntity
  8
0
  6
Continuous
 62
     7
100
AcDbLine
 10
134.269967407
 20
57.5202003367
 30
0.0
 11
135.3489898945
 21
58.5992228243
 31
0.0
  0
LINE
  5
279
330
237
100
AcDbEntity
  8
0
  6
Continuous
 62
     7
100
AcDbLine
 10
120.482966121
 20
44.33659683739999
 30
0.0
 11
122.0239699358
 21
45.8776006521
 31
0.0
  0
LINE
  5
27A
330
237
100
AcDbEntity
  8
0
  6
Continuous
 62
     7
100
AcDbLine
 10
128.1879851949
 20
52.0416159113
 30
0.0
 11
129.2153260258
 21
53.0689567422
 31
0.0
  0
LINE
  5
27B
330
237
100
AcDbEntity
  8
0
  6
Continuous
 62
     7
100
AcDbLine
 10
134.179520353
 20
58.0331510694
 30
0.0
 11
135.2585428405
 21
59.11217355689999
 31
0.0
  0
LINE
  5
27C
330
237
100
AcDbEntity
  8
0
  6
Continuous
 62
     7
100
AcDbLine
 10
119.7503965546
 20
44.2074250576
 30
0.0
 11
121.2914003693
 21
45.74842887229999
 31
0.0
  0
LINE
  5
27D
330
237
100
AcDbEntity
  8
0
  6
Continuous
 62
     7
100
AcDbLine
 10
127.4554156284
 20
51.9124441314
 30
0.0
 11
128.4827562498
 21
52.93978475279999
 31
0.0
  0
LINE
  5
27E
330
237
100
AcDbEntity
  8
0
  6
Continuous
 62
     7
100
AcDbLine
 10
134.0890732991
 20
58.54610180209999
 30
0.0
 11
135.1680957866
 21
59.6251242896
 31
0.0
  0
LINE
  5
27F
330
237
100
AcDbEntity
  8
0
  6
Continuous
 62
     7
100
AcDbLine
 10
119.0178269881
 20
44.07825327779999
 30
0.0
 11
120.5588308029
 21
45.6192570925
 31
0.0
  0
LINE
  5
280
330
237
100
AcDbEntity
  8
0
  6
Continuous
 62
     7
100
AcDbLine
 10
126.722846062
 20
51.7832723516
 30
0.0
 11
127.7501864738
 21
52.8106127634
 31
0.0
  0
LINE
  5
281
330
237
100
AcDbEntity
  8
0
  6
Continuous
 62
     7
100
AcDbLine
 10
133.9141971977
 20
58.97462348729999
 30
0.0
 11
135.0776487326
 21
60.13807502229999
 31
0.0
  0
LINE
  5
282
330
237
100
AcDbEntity
  8
0
  6
Continuous
 62
     7
100
AcDbLine
 10
118.2852574217
 20
43.949081498
 30
0.0
 11
119.8262612365
 21
45.4900853127
 31
0.0
  0
LINE
  5
283
330
237
100
AcDbEntity
  8
0
  6
Continuous
 62
     7
100
AcDbLine
 10
125.9902764956
 20
51.6541005718
 30
0.0
 11
127.0176166978
 21
52.68144077399999
 31
0.0
  0
LINE
  5
284
330
237
100
AcDbEntity
  8
0
  6
Continuous
 62
     7
100
AcDbLine
 10
133.1816276312
 20
58.8454517075
 30
0.0
 11
134.722631446
 21
60.3864555222
 31
0.0
  0
LINE
  5
285
330
237
100
AcDbEntity
  8
0
  6
Continuous
 62
     7
100
AcDbLine
 10
117.5526878553
 20
43.8199097181
 30
0.0
 11
119.0936916701
 21
45.36091353289999
 31
0.0
  0
LINE
  5
286
330
237
100
AcDbEntity
  8
0
  6
Continuous
 62
     7
100
AcDbLine
 10
125.2577069292
 20
51.524928792
 30
0.0
 11
126.2850469217
 21
52.5522687846
 31
0.0
  0
LINE
  5
287
330
237
100
AcDbEntity
  8
0
  6
Continuous
 62
     7
100
AcDbLine
 10
132.4490580648
 20
58.71627992770001
 30
0.0
 11
133.9900618796
 21
60.25728374239999
 31
0.0
  0
LINE
  5
288
330
237
100
AcDbEntity
  8
0
  6
Continuous
 62
     7
100
AcDbLine
 10
116.8201182889
 20
43.6907379383
 30
0.0
 11
118.3611221037
 21
45.2317417531
 31
0.0
  0
LINE
  5
289
330
237
100
AcDbEntity
  8
0
  6
Continuous
 62
     7
100
AcDbLine
 10
124.5251373628
 20
51.3957570122
 30
0.0
 11
125.5524771457
 21
52.4230967952
 31
0.0
  0
LINE
  5
28A
330
237
100
AcDbEntity
  8
0
  6
Continuous
 62
     7
100
AcDbLine
 10
131.7164884984
 20
58.5871081479
 30
0.0
 11
133.2574923132
 21
60.1281119626
 31
0.0
  0
LINE
  5
28B
330
237
100
AcDbEntity
  8
0
  6
Continuous
 62
     7
100
AcDbLine
 10
116.0875487225
 20
43.5615661585
 30
0.0
 11
117.6285525372
 21
45.10256997329999
 31
0.0
  0
LINE
  5
28C
330
237
100
AcDbEntity
  8
0
  6
Continuous
 62
     7
100
AcDbLine
 10
123.7925677964
 20
51.26658523239999
 30
0.0
 11
124.8199073697
 21
52.29392480569999
 31
0.0
  0
LINE
  5
28D
330
237
100
AcDbEntity
  8
0
  6
Continuous
 62
     7
100
AcDbLine
 10
130.983918932
 20
58.45793636799999
 30
0.0
 11
132.5249227468
 21
59.9989401828
 31
0.0
  0
LINE
  5
28E
330
237
100
AcDbEntity
  8
0
  6
Continuous
 62
     7
100
AcDbLine
 10
115.3549791561
 20
43.43239437869999
 30
0.0
 11
116.8959829708
 21
44.9733981935
 31
0.0
  0
LINE
  5
28F
330
237
100
AcDbEntity
  8
0
  6
Continuous
 62
     7
100
AcDbLine
 10
123.0599982299
 20
51.1374134526
 30
0.0
 11
124.0873375936
 21
52.1647528163
 31
0.0
  0
LINE
  5
290
330
237
100
AcDbEntity
  8
0
  6
Continuous
 62
     7
100
AcDbLine
 10
130.2513493656
 20
58.32876458819999
 30
0.0
 11
131.7923531803
 21
59.869768403
 31
0.0
  0
LINE
  5
291
330
237
100
AcDbEntity
  8
0
  6
Continuous
 62
     7
100
AcDbLine
 10
114.6224095896
 20
43.3032225989
 30
0.0
 11
116.1634134044
 21
44.8442264137
 31
0.0
  0
LINE
  5
292
330
237
100
AcDbEntity
  8
0
  6
Continuous
 62
     7
100
AcDbLine
 10
122.3274286635
 20
51.00824167279999
 30
0.0
 11
123.3547678176
 21
52.03558082689999
 31
0.0
  0
LINE
  5
293
330
237
100
AcDbEntity
  8
0
  6
Continuous
 62
     7
100
AcDbLine
 10
129.5187797991
 20
58.1995928084
 30
0.0
 11
131.0597836139
 21
59.7405966232
 31
0.0
  0
LINE
  5
294
330
237
100
AcDbEntity
  8
0
  6
Continuous
 62
     7
100
AcDbLine
 10
113.8898400232
 20
43.17405081909999
 30
0.0
 11
115.430843838
 21
44.7150546339
 31
0.0
  0
LINE
  5
295
330
237
100
AcDbEntity
  8
0
  6
Continuous
 62
     7
100
AcDbLine
 10
121.5948590971
 20
50.879069893
 30
0.0
 11
122.6221980416
 21
51.9064088375
 31
0.0
  0
LINE
  5
296
330
237
100
AcDbEntity
  8
0
  6
Continuous
 62
     7
100
AcDbLine
 10
128.7862102327
 20
58.07042102859999
 30
0.0
 11
130.3272140475
 21
59.6114248434
 31
0.0
  0
LINE
  5
297
330
237
100
AcDbEntity
  8
0
  6
Continuous
 62
     7
100
AcDbLine
 10
113.1572704568
 20
43.0448790393
 30
0.0
 11
114.6982742716
 21
44.5858828541
 31
0.0
  0
LINE
  5
298
330
237
100
AcDbEntity
  8
0
  6
Continuous
 62
     7
100
AcDbLine
 10
120.8622895307
 20
50.7498981132
 30
0.0
 11
121.8896282656
 21
51.77723684810001
 31
0.0
  0
LINE
  5
299
330
237
100
AcDbEntity
  8
0
  6
Continuous
 62
     7
100
AcDbLine
 10
128.0536406663
 20
57.9412492488
 30
0.0
 11
129.5946444811
 21
59.4822530636
 31
0.0
  0
LINE
  5
29A
330
237
100
AcDbEntity
  8
0
  6
Continuous
 62
     7
100
AcDbLine
 10
112.4247008904
 20
42.91570725949999
 30
0.0
 11
113.9657047052
 21
44.4567110743
 31
0.0
  0
LINE
  5
29B
330
237
100
AcDbEntity
  8
0
  6
Continuous
 62
     7
100
AcDbLine
 10
120.1297199643
 20
50.6207263334
 30
0.0
 11
121.1570584895
 21
51.64806485869999
 31
0.0
  0
LINE
  5
29C
330
237
100
AcDbEntity
  8
0
  6
Continuous
 62
     7
100
AcDbLine
 10
127.3210710999
 20
57.81207746899999
 30
0.0
 11
128.8620749147
 21
59.3530812838
 31
0.0
  0
LINE
  5
29D
330
237
100
AcDbEntity
  8
0
  6
Continuous
 62
     7
100
AcDbLine
 10
111.8733801179
 20
42.96778427359999
 30
0.0
 11
113.2331351387
 21
44.3275392945
 31
0.0
  0
LINE
  5
29E
330
237
100
AcDbEntity
  8
0
  6
Continuous
 62
     7
100
AcDbLine
 10
119.3971503978
 20
50.4915545536
 30
0.0
 11
120.4244887135
 21
51.5188928692
 31
0.0
  0
LINE
  5
29F
330
237
100
AcDbEntity
  8
0
  6
Continuous
 62
     7
100
AcDbLine
 10
126.5885015335
 20
57.6829056892
 30
0.0
 11
128.1295053483
 21
59.223909504
 31
0.0
  0
LINE
  5
2A0
330
237
100
AcDbEntity
  8
0
  6
Continuous
 62
     7
100
AcDbLine
 10
111.7829330639
 20
43.48073500629999
 30
0.0
 11
112.8619555514
 21
44.5597574938
 31
0.0
  0
LINE
  5
2A1
330
237
100
AcDbEntity
  8
0
  6
Continuous
 62
     7
100
AcDbLine
 10
118.6645808314
 20
50.3623827738
 30
0.0
 11
119.6919189375
 21
51.3897208798
 31
0.0
  0
LINE
  5
2A2
330
237
100
AcDbEntity
  8
0
  6
Continuous
 62
     7
100
AcDbLine
 10
125.8559319671
 20
57.5537339094
 30
0.0
 11
127.3969357818
 21
59.0947377242
 31
0.0
  0
LINE
  5
2A3
330
237
100
AcDbEntity
  8
0
  6
Continuous
 62
     7
100
AcDbLine
 10
111.69248601
 20
43.9936857389
 30
0.0
 11
112.7715084975
 21
45.07270822649999
 31
0.0
  0
LINE
  5
2A4
330
237
100
AcDbEntity
  8
0
  6
Continuous
 62
     7
100
AcDbLine
 10
117.932011265
 20
50.233210994
 30
0.0
 11
118.9593491615
 21
51.2605488904
 31
0.0
  0
LINE
  5
2A5
330
237
100
AcDbEntity
  8
0
  6
Continuous
 62
     7
100
AcDbLine
 10
125.1233624006
 20
57.4245621296
 30
0.0
 11
126.6643662154
 21
58.96556594439999
 31
0.0
  0
LINE
  5
2A6
330
237
100
AcDbEntity
  8
0
  6
Continuous
 62
     7
100
AcDbLine
 10
111.602038956
 20
44.50663647159999
 30
0.0
 11
112.6810614435
 21
45.5856589591
 31
0.0
  0
LINE
  5
2A7
330
237
100
AcDbEntity
  8
0
  6
Continuous
 62
     7
100
AcDbLine
 10
117.1994416986
 20
50.1040392142
 30
0.0
 11
118.2267793854
 21
51.131376901
 31
0.0
  0
LINE
  5
2A8
330
237
100
AcDbEntity
  8
0
  6
Continuous
 62
     7
100
AcDbLine
 10
124.3907928342
 20
57.2953903498
 30
0.0
 11
125.931796649
 21
58.8363941646
 31
0.0
  0
LINE
  5
2A9
330
237
100
AcDbEntity
  8
0
  6
Continuous
 62
     7
100
AcDbLine
 10
111.5115919021
 20
45.0195872043
 30
0.0
 11
112.5906143896
 21
46.0986096918
 31
0.0
  0
LINE
  5
2AA
330
237
100
AcDbEntity
  8
0
  6
Continuous
 62
     7
100
AcDbLine
 10
116.4668721322
 20
49.97486743439999
 30
0.0
 11
117.4942096094
 21
51.00220491159999
 31
0.0
  0
LINE
  5
2AB
330
237
100
AcDbEntity
  8
0
  6
Continuous
 62
     7
100
AcDbLine
 10
123.6582232678
 20
57.16621856999999
 30
0.0
 11
125.1992270826
 21
58.70722238479999
 31
0.0
  0
LINE
  5
2AC
330
237
100
AcDbEntity
  8
0
  6
Continuous
 62
     7
100
AcDbLine
 10
111.4211448481
 20
45.53253793689999
 30
0.0
 11
112.5001673357
 21
46.6115604245
 31
0.0
  0
LINE
  5
2AD
330
237
100
AcDbEntity
  8
0
  6
Continuous
 62
     7
100
AcDbLine
 10
115.7343025658
 20
49.8456956546
 30
0.0
 11
116.7616398334
 21
50.8730329222
 31
0.0
  0
LINE
  5
2AE
330
237
100
AcDbEntity
  8
0
  6
Continuous
 62
     7
100
AcDbLine
 10
122.9256537014
 20
57.0370467902
 30
0.0
 11
124.4666575162
 21
58.578050605
 31
0.0
  0
LINE
  5
2AF
330
237
100
AcDbEntity
  8
0
  6
Continuous
 62
     7
100
AcDbLine
 10
111.3306977942
 20
46.0454886696
 30
0.0
 11
112.4097202817
 21
47.1245111571
 31
0.0
  0
LINE
  5
2B0
330
237
100
AcDbEntity
  8
0
  6
Continuous
 62
     7
100
AcDbLine
 10
115.0017329993
 20
49.71652387479999
 30
0.0
 11
116.0290700573
 21
50.7438609328
 31
0.0
  0
LINE
  5
2B1
330
237
100
AcDbEntity
  8
0
  6
Continuous
 62
     7
100
AcDbLine
 10
122.193084135
 20
56.90787501039999
 30
0.0
 11
123.7340879497
 21
58.44887882520001
 31
0.0
  0
LINE
  5
2B2
330
237
100
AcDbEntity
  8
0
  6
Continuous
 62
     7
100
AcDbLine
 10
111.2402507403
 20
46.55843940229999
 30
0.0
 11
112.3192732278
 21
47.63746188979999
 31
0.0
  0
LINE
  5
2B3
330
237
100
AcDbEntity
  8
0
  6
Continuous
 62
     7
100
AcDbLine
 10
114.2691634329
 20
49.587352095
 30
0.0
 11
115.2965002813
 21
50.6146889433
 31
0.0
  0
LINE
  5
2B4
330
237
100
AcDbEntity
  8
0
  6
Continuous
 62
     7
100
AcDbLine
 10
121.4605145685
 20
56.7787032306
 30
0.0
 11
123.0015183833
 21
58.3197070454
 31
0.0
  0
LINE
  5
2B5
330
237
100
AcDbEntity
  8
0
  6
Continuous
 62
     7
100
AcDbLine
 10
111.1498036863
 20
47.07139013499999
 30
0.0
 11
112.2288261738
 21
48.1504126225
 31
0.0
  0
LINE
  5
2B6
330
237
100
AcDbEntity
  8
0
  6
Continuous
 62
     7
100
AcDbLine
 10
113.5365938665
 20
49.4581803151
 30
0.0
 11
114.5639305053
 21
50.4855169539
 31
0.0
  0
LINE
  5
2B7
330
237
100
AcDbEntity
  8
0
  6
Continuous
 62
     7
100
AcDbLine
 10
120.7279450021
 20
56.6495314508
 30
0.0
 11
122.2689488169
 21
58.1905352655
 31
0.0
  0
LINE
  5
2B8
330
237
100
AcDbEntity
  8
0
  6
Continuous
 62
     7
100
AcDbLine
 10
111.0593566324
 20
47.5843408676
 30
0.0
 11
112.1383791199
 21
48.6633633551
 31
0.0
  0
LINE
  5
2B9
330
237
100
AcDbEntity
  8
0
  6
Continuous
 62
     7
100
AcDbLine
 10
112.8040243001
 20
49.3290085353
 30
0.0
 11
113.8313607293
 21
50.3563449645
 31
0.0
  0
LINE
  5
2BA
330
237
100
AcDbEntity
  8
0
  6
Continuous
 62
     7
100
AcDbLine
 10
119.9953754357
 20
56.520359671
 30
0.0
 11
121.5363792505
 21
58.06136348569999
 31
0.0
  0
LINE
  5
2BB
330
237
100
AcDbEntity
  8
0
  6
Continuous
 62
     7
100
AcDbLine
 10
110.9689095784
 20
48.09729160029999
 30
0.0
 11
112.0479320659
 21
49.1763140878
 31
0.0
  0
LINE
  5
2BC
330
237
100
AcDbEntity
  8
0
  6
Continuous
 62
     7
100
AcDbLine
 10
112.0714547337
 20
49.1998367555
 30
0.0
 11
113.0987909532
 21
50.2271729751
 31
0.0
  0
LINE
  5
2BD
330
237
100
AcDbEntity
  8
0
  6
Continuous
 62
     7
100
AcDbLine
 10
119.2628058693
 20
56.3911878912
 30
0.0
 11
120.8038096841
 21
57.9321917059
 31
0.0
  0
LINE
  5
2BE
330
237
100
AcDbEntity
  8
0
  6
Continuous
 62
     7
100
AcDbLine
 10
110.8784625245
 20
48.610242333
 30
0.0
 11
112.3662211772
 21
50.0980009857
 31
0.0
  0
LINE
  5
2BF
330
237
100
AcDbEntity
  8
0
  6
Continuous
 62
     7
100
AcDbLine
 10
118.5302363029
 20
56.2620161114
 30
0.0
 11
120.0712401177
 21
57.8030199261
 31
0.0
  0
LINE
  5
2C0
330
237
100
AcDbEntity
  8
0
  6
Continuous
 62
     7
100
AcDbLine
 10
110.7880154705
 20
49.1231930656
 30
0.0
 11
111.8670379581
 21
50.2022155531
 31
0.0
  0
LINE
  5
2C1
330
237
100
AcDbEntity
  8
0
  6
Continuous
 62
     7
100
AcDbLine
 10
117.7976667365
 20
56.1328443316
 30
0.0
 11
119.3386705512
 21
57.6738481463
 31
0.0
  0
LINE
  5
2C2
330
237
100
AcDbEntity
  8
0
  6
Continuous
 62
     7
100
AcDbLine
 10
110.6975684166
 20
49.6361437983
 30
0.0
 11
111.7765909041
 21
50.7151662858
 31
0.0
  0
LINE
  5
2C3
330
237
100
AcDbEntity
  8
0
  6
Continuous
 62
     7
100
AcDbLine
 10
117.06509717
 20
56.0036725517
 30
0.0
 11
118.6061009848
 21
57.5446763665
 31
0.0
  0
LINE
  5
2C4
330
237
100
AcDbEntity
  8
0
  6
Continuous
 62
     7
100
AcDbLine
 10
110.6071213626
 20
50.149094531
 30
0.0
 11
111.6861438502
 21
51.2281170185
 31
0.0
  0
LINE
  5
2C5
330
237
100
AcDbEntity
  8
0
  6
Continuous
 62
     7
100
AcDbLine
 10
116.3325276036
 20
55.87450077189999
 30
0.0
 11
117.8735314184
 21
57.4155045867
 31
0.0
  0
LINE
  5
2C6
330
237
100
AcDbEntity
  8
0
  6
Continuous
 62
     7
100
AcDbLine
 10
110.5166743087
 20
50.66204526359999
 30
0.0
 11
111.5956967962
 21
51.7410677512
 31
0.0
  0
LINE
  5
2C7
330
237
100
AcDbEntity
  8
0
  6
Continuous
 62
     7
100
AcDbLine
 10
115.5999580372
 20
55.7453289921
 30
0.0
 11
117.140961852
 21
57.2863328069
 31
0.0
  0
LINE
  5
2C8
330
237
100
AcDbEntity
  8
0
  6
Continuous
 62
     7
100
AcDbLine
 10
110.4262272548
 20
51.1749959963
 30
0.0
 11
111.5052497423
 21
52.2540184838
 31
0.0
  0
LINE
  5
2C9
330
237
100
AcDbEntity
  8
0
  6
Continuous
 62
     7
100
AcDbLine
 10
114.8673884708
 20
55.61615721229999
 30
0.0
 11
116.4083922856
 21
57.1571610271
 31
0.0
  0
LINE
  5
2CA
330
237
100
AcDbEntity
  8
0
  6
Continuous
 62
     7
100
AcDbLine
 10
110.3357802008
 20
51.68794672899999
 30
0.0
 11
111.4148026883
 21
52.7669692165
 31
0.0
  0
LINE
  5
2CB
330
237
100
AcDbEntity
  8
0
  6
Continuous
 62
     7
100
AcDbLine
 10
114.1348189044
 20
55.4869854325
 30
0.0
 11
115.6758227191
 21
57.0279892473
 31
0.0
  0
LINE
  5
2CC
330
237
100
AcDbEntity
  8
0
  6
Continuous
 62
     7
100
AcDbLine
 10
110.2453331469
 20
52.2008974616
 30
0.0
 11
111.3243556344
 21
53.2799199492
 31
0.0
  0
LINE
  5
2CD
330
237
100
AcDbEntity
  8
0
  6
Continuous
 62
     7
100
AcDbLine
 10
113.402249338
 20
55.3578136527
 30
0.0
 11
114.9432531527
 21
56.8988174675
 31
0.0
  0
LINE
  5
2CE
330
237
100
AcDbEntity
  8
0
  6
Continuous
 62
     7
100
AcDbLine
 10
110.1548860929
 20
52.7138481943
 30
0.0
 11
111.2339085804
 21
53.7928706818
 31
0.0
  0
LINE
  5
2CF
330
237
100
AcDbEntity
  8
0
  6
Continuous
 62
     7
100
AcDbLine
 10
112.6696797715
 20
55.2286418729
 30
0.0
 11
114.2106835863
 21
56.7696456877
 31
0.0
  0
LINE
  5
2D0
330
237
100
AcDbEntity
  8
0
  6
Continuous
 62
     7
100
AcDbLine
 10
110.064439039
 20
53.226798927
 30
0.0
 11
111.1434615265
 21
54.30582141449999
 31
0.0
  0
LINE
  5
2D1
330
237
100
AcDbEntity
  8
0
  6
Continuous
 62
     7
100
AcDbLine
 10
111.9371102051
 20
55.0994700931
 30
0.0
 11
113.4781140199
 21
56.6404739079
 31
0.0
  0
LINE
  5
2D2
330
237
100
AcDbEntity
  8
0
  6
Continuous
 62
     7
100
AcDbLine
 10
109.973991985
 20
53.7397496596
 30
0.0
 11
111.0530144726
 21
54.8187721472
 31
0.0
  0
LINE
  5
2D3
330
237
100
AcDbEntity
  8
0
  6
Continuous
 62
     7
100
AcDbLine
 10
111.2045406387
 20
54.97029831329999
 30
0.0
 11
112.7455444535
 21
56.5113021281
 31
0.0
  0
LINE
  5
2D4
330
237
100
AcDbEntity
  8
0
  6
Continuous
 62
     7
100
AcDbLine
 10
109.8835449311
 20
54.25270039229999
 30
0.0
 11
112.0129748871
 21
56.3821303483
 31
0.0
  0
LINE
  5
2D5
330
237
100
AcDbEntity
  8
0
  6
Continuous
 62
     7
100
AcDbLine
 10
109.7930978772
 20
54.765651125
 30
0.0
 11
111.2804053206
 21
56.25295856850001
 31
0.0
  0
LINE
  5
2D6
330
237
100
AcDbEntity
  8
0
  6
Continuous
 62
     7
100
AcDbLine
 10
109.7026508232
 20
55.2786018577
 30
0.0
 11
110.5478357542
 21
56.1237867887
 31
0.0
  0
LINE
  5
2D7
330
237
100
AcDbEntity
  8
0
  6
Continuous
 62
     7
100
AcDbLine
 10
109.6122037693
 20
55.7915525903
 30
0.0
 11
109.8152661878
 21
55.99461500890001
 31
0.0
  0
ENDBLK
  5
2D8
330
237
100
AcDbEntity
  8
0
  6
ByBlock
 62
     0
100
AcDbBlockEnd
  0
BLOCK
  5
2D9
330
238
100
AcDbEntity
  8
0
  6
Continuous
 62
     7
100
AcDbBlockBegin
  2
SYMBOL_12_BL6
 70
     0
 10
82.208124535
 20
67.16850450449999
 30
0.0
  3
SYMBOL_12_BL6
  1

  0
TEXT
  5
2DA
330
238
100
AcDbEntity
  8
0
  6
Continuous
 62
     7
100
AcDbText
 10
81.64516135300001
 20
66.5018375785
 30
0.0
 40
1.333333852099999
  1
T
  7
TEXTSTYLE_2
100
AcDbText
  0
ELLIPSE
  5
2DB
330
238
100
AcDbEntity
  8
0
  6
Continuous
 62
     7
100
AcDbEllipse
 10
82.208124535
 20
67.16850450449999
 30
0.0
 11
-1.942887567899999
 21
0.0
 31
0.0
210
0.0
220
0.0
230
1.0
 40
0.6606458385
 41
0.0
 42
6.283185307179586
  0
ENDBLK
  5
2DC
330
238
100
AcDbEntity
  8
0
  6
ByBlock
 62
     0
100
AcDbBlockEnd
  0
BLOCK
  5
2DD
330
239
100
AcDbEntity
  8
0
  6
Continuous
 62
     7
100
AcDbBlockBegin
  2
SYMBOL_11_BL5
 70
     0
 10
27.1949707525
 20
92.398927477
 30
0.0
  3
SYMBOL_11_BL5
  1

  0
TEXT
  5
2DE
330
239
100
AcDbEntity
  8
0
  6
Continuous
 62
     7
100
AcDbText
 10
27.1525203367
 20
91.49303548389999
 30
0.0
 40
1.333333852099999
  1
A
 50
40.0
  7
TEXTSTYLE_2
100
AcDbText
  0
ELLIPSE
  5
2DF
330
239
100
AcDbEntity
  8
0
  6
Continuous
 62
     7
100
AcDbEllipse
 10
27.1949707525
 20
92.398927477
 30
0.0
 11
-1.488338224999999
 21
-1.248864055699999
 31
0.0
210
0.0
220
0.0
230
1.0
 40
0.6606458385
 41
0.0
 42
6.283185307179586
  0
ENDBLK
  5
2E0
330
239
100
AcDbEntity
  8
0
  6
ByBlock
 62
     0
100
AcDbBlockEnd
  0
BLOCK
  5
2E1
330
23A
100
AcDbEntity
  8
0
  6
Continuous
 62
     7
100
AcDbBlockBegin
  2
SYMBOL_10_BL4
 70
     0
 10
27.1547778297
 20
68.5958118308
 30
0.0
  3
SYMBOL_10_BL4
  1

  0
TEXT
  5
2E2
330
23A
100
AcDbEntity
  8
0
  6
Continuous
 62
     7
100
AcDbText
 10
26.2155560958
 20
68.51364057649999
 30
0.0
 40
1.333333852099999
  1
C
 50
320.0
  7
TEXTSTYLE_2
100
AcDbText
  0
ELLIPSE
  5
2E3
330
23A
100
AcDbEntity
  8
0
  6
Continuous
 62
     7
100
AcDbEllipse
 10
27.1547778297
 20
68.5958118308
 30
0.0
 11
-1.488338224999999
 21
1.248864055699999
 31
0.0
210
0.0
220
0.0
230
1.0
 40
0.6606458385
 41
0.0
 42
6.283185307179586
  0
ENDBLK
  5
2E4
330
23A
100
AcDbEntity
  8
0
  6
ByBlock
 62
     0
100
AcDbBlockEnd
  0
BLOCK
  5
2E5
330
23B
100
AcDbEntity
  8
0
  6
Continuous
 62
     7
100
AcDbBlockBegin
  2
SYMBOL_5_BL3
 70
     0
 10
54.3291931305
 20
67.4676680454
 30
0.0
  3
SYMBOL_5_BL3
  1

  0
TEXT
  5
2E6
330
23B
100
AcDbEntity
  8
0
  6
Continuous
 62
     7
100
AcDbText
 10
53.80079786319999
 20
66.80100111939999
 30
0.0
 40
1.333333852099999
  1
L
  7
TEXTSTYLE_2
100
AcDbText
  0
ELLIPSE
  5
2E7
330
23B
100
AcDbEntity
  8
0
  6
Continuous
 62
     7
100
AcDbEllipse
 10
54.3291931305
 20
67.4676680454
 30
0.0
 11
-1.942887567899999
 21
0.0
 31
0.0
210
0.0
220
0.0
230
1.0
 40
0.6606458385
 41
0.0
 42
6.283185307179586
  0
ENDBLK
  5
2E8
330
23B
100
AcDbEntity
  8
0
  6
ByBlock
 62
     0
100
AcDbBlockEnd
  0
BLOCK
  5
2E9
330
23C
100
AcDbEntity
  8
0
  6
Continuous
 62
     7
100
AcDbBlockBegin
  2
SYMBOL_4_BL2
 70
     0
 10
42.0959052332
 20
92.3651430427
 30
0.0
  3
SYMBOL_4_BL2
  1

  0
TEXT
  5
2EA
330
23C
100
AcDbEntity
  8
0
  6
Continuous
 62
     7
100
AcDbText
 10
41.6996255887
 20
91.586662449
 30
0.0
 40
1.333333852099999
  1
L
 50
12.0
  7
TEXTSTYLE_2
100
AcDbText
  0
TEXT
  5
2EB
330
23C
100
AcDbEntity
  8
0
  6
Continuous
 62
     7
100
AcDbText
 10
38.0929760046
 20
90.83273350749999
 30
0.0
 40
1.333333852099999
  1
5
 50
12.0
  7
TEXTSTYLE_2
100
AcDbText
  0
TEXT
  5
2EC
330
23C
100
AcDbEntity
  8
0
  6
Continuous
 62
     7
100
AcDbText
 10
45.3761655543
 20
92.38082323620002
 30
0.0
 40
1.333333852099999
  1
4
 50
12.0
  7
TEXTSTYLE_2
100
AcDbText
  0
ELLIPSE
  5
2ED
330
23C
100
AcDbEntity
  8
0
  6
Continuous
 62
     7
100
AcDbEllipse
 10
42.0778663038
 20
92.34862065660001
 30
0.0
 11
-1.900430813
 21
-0.4039490393
 31
0.0
210
0.0
220
0.0
230
1.0
 40
0.6606458385
 41
0.0
 42
6.283185307179586
  0
ENDBLK
  5
2EE
330
23C
100
AcDbEntity
  8
0
  6
ByBlock
 62
     0
100
AcDbBlockEnd
  0
BLOCK
  5
2EF
330
23D
100
AcDbEntity
  8
0
  6
Continuous
 62
     7
100
AcDbBlockBegin
  2
SYMBOL_3_BL1
 70
     0
 10
66.5742716315
 20
92.2559773537
 30
0.0
  3
SYMBOL_3_BL1
  1

  0
TEXT
  5
2F0
330
23D
100
AcDbEntity
  8
0
  6
Continuous
 62
     7
100
AcDbText
 10
65.8956155789
 20
91.7059813957
 30
0.0
 40
1.333333852099999
  1
L
 50
348.0
  7
TEXTSTYLE_2
100
AcDbText
  0
TEXT
  5
2F1
330
23D
100
AcDbEntity
  8
0
  6
Continuous
 62
     7
100
AcDbText
 10
62.29412670729999
 20
92.48418958049999
 30
0.0
 40
1.333333852099999
  1
4
 50
348.0
  7
TEXTSTYLE_2
100
AcDbText
  0
TEXT
  5
2F2
330
23D
100
AcDbEntity
  8
0
  6
Continuous
 62
     7
100
AcDbText
 10
69.57731625699999
 20
90.9360998518
 30
0.0
 40
1.333333852099999
  1
5
 50
348.0
  7
TEXTSTYLE_2
100
AcDbText
  0
ELLIPSE
  5
2F3
330
23D
100
AcDbEntity
  8
0
  6
Continuous
 62
     7
100
AcDbEllipse
 10
66.5510719896
 20
92.24822049649999
 30
0.0
 11
-1.900430813
 21
0.4039490393
 31
0.0
210
0.0
220
0.0
230
1.0
 40
0.6606458385
 41
0.0
 42
6.283185307179586
  0
ENDBLK
  5
2F4
330
23D
100
AcDbEntity
  8
0
  6
ByBlock
 62
     0
100
AcDbBlockEnd
  0
BLOCK
  5
2F5
330
23E
100
AcDbEntity
  8
0
  6
Continuous
 62
     7
100
AcDbBlockBegin
  2
SYMBOL_0_BL0
 70
     0
 10
160.6671083252
 20
55.3337800379
 30
0.0
  3
SYMBOL_0_BL0
  1

  0
TEXT
  5
2F6
330
23E
100
AcDbEntity
  8
0
  6
Continuous
 62
     7
100
AcDbText
 10
144.4193232491
 20
63.10721342899999
 30
0.0
 40
0.5
  1
Infomations Techniques/Technical Infomations
  7
TEXTSTYLE_2
100
AcDbText
  0
TEXT
  5
2F7
330
23E
100
AcDbEntity
  8
0
  6
Continuous
 62
     7
100
AcDbText
 10
144.6671083252
 20
61.66711337119999
 30
0.0
 40
0.6666666667
  1
NOMBRE DE JETS:     
  7
TEXTSTYLE_2
100
AcDbText
  0
TEXT
  5
2F8
330
23E
100
AcDbEntity
  8
0
  6
Continuous
 62
     7
100
AcDbText
 10
154.5115527697
 20
61.66711337119999
 30
0.0
 40
0.6666666667
  1
38
  7
TEXTSTYLE_2
100
AcDbText
  0
TEXT
  5
2F9
330
23E
100
AcDbEntity
  8
0
  6
Continuous
 62
     7
100
AcDbText
 10
144.6671083252
 20
60.6671133712
 30
0.0
 40
0.6666666667
  1
 
  7
TEXTSTYLE_2
100
AcDbText
  0
TEXT
  5
2FA
330
23E
100
AcDbEntity
  8
0
  6
Continuous
 62
     7
100
AcDbText
 10
144.6671083252
 20
59.66711337119999
 30
0.0
 40
0.6666666667
  1
NIVEAU D'EAU              GALLONS(US)        LITRES        GALLONS(UK)
  7
TEXTSTYLE_2
100
AcDbText
  0
TEXT
  5
2FB
330
23E
100
AcDbEntity
  8
0
  6
Continuous
 62
     7
100
AcDbText
 10
144.6671083252
 20
58.66711337119999
 30
0.0
 40
0.6666666667
  1
PLEIN
  7
TEXTSTYLE_2
100
AcDbText
  0
TEXT
  5
2FC
330
23E
100
AcDbEntity
  8
0
  6
Continuous
 62
     7
100
AcDbText
 10
144.6671083252
 20
57.6671133712
 30
0.0
 40
0.6666666667
  1
HAUT T.PLEIN
  7
TEXTSTYLE_2
100
AcDbText
  0
TEXT
  5
2FD
330
23E
100
AcDbEntity
  8
0
  6
Continuous
 62
     7
100
AcDbText
 10
144.6671083252
 20
56.66711337119999
 30
0.0
 40
0.6666666667
  1
MILIEU T.PLEIN
  7
TEXTSTYLE_2
100
AcDbText
  0
TEXT
  5
2FE
330
23E
100
AcDbEntity
  8
0
  6
Continuous
 62
     7
100
AcDbText
 10
144.6671083252
 20
55.6671133712
 30
0.0
 40
0.6666666667
  1
BAS T.PLEIN
  7
TEXTSTYLE_2
100
AcDbText
  0
TEXT
  5
2FF
330
23E
100
AcDbEntity
  8
0
  6
Continuous
 62
     7
100
AcDbText
 10
144.6671083252
 20
54.66711337119999
 30
0.0
 40
0.6666666667
  1
3" EN BAS T.PLEIN
  7
TEXTSTYLE_2
100
AcDbText
  0
TEXT
  5
300
330
23E
100
AcDbEntity
  8
0
  6
Continuous
 62
     7
100
AcDbText
 10
144.6671083252
 20
53.66711337119999
 30
0.0
 40
0.6666666667
  1
 
  7
TEXTSTYLE_2
100
AcDbText
  0
TEXT
  5
301
330
23E
100
AcDbEntity
  8
0
  6
Continuous
 62
     7
100
AcDbText
 10
144.4669468196
 20
53.1203264464
 30
0.0
 40
0.5
  1
Legende/Legend
  7
TEXTSTYLE_2
100
AcDbText
  0
TEXT
  5
302
330
23E
100
AcDbEntity
  8
0
  6
Continuous
 62
     7
100
AcDbText
 10
150.9957817637
 20
51.6090614687
 30
0.0
 40
0.6666666667
  1
ZONE DE ROBINETTERIE
  7
TEXTSTYLE_2
100
AcDbText
  0
TEXT
  5
303
330
23E
100
AcDbEntity
  8
0
  6
Continuous
 62
     7
100
AcDbText
 10
145.9160571967
 20
50.1138169543
 30
0.0
 40
0.6666666667
  1
L   :  SYSTEME LED       DC   :  DOUBLE DOSSIER CHAUFFANT
  7
TEXTSTYLE_2
100
AcDbText
  0
TEXT
  5
304
330
23E
100
AcDbEntity
  8
0
  6
Continuous
 62
     7
100
AcDbText
 10
145.9160571967
 20
48.780483621
 30
0.0
 40
0.6666666667
  1
C   :  CONTROLE
  7
TEXTSTYLE_2
100
AcDbText
  0
TEXT
  5
305
330
23E
100
AcDbEntity
  8
0
  6
Continuous
 62
     7
100
AcDbText
 10
145.9160571967
 20
47.4471502877
 30
0.0
 40
0.6666666667
  1
T   :  MOTEUR
  7
TEXTSTYLE_2
100
AcDbText
  0
TEXT
  5
306
330
23E
100
AcDbEntity
  8
0
  6
Continuous
 62
     7
100
AcDbText
 10
157.244249469
 20
58.66711337119999
 30
0.0
 40
0.6666666667
  1
102
  7
TEXTSTYLE_2
100
AcDbText
  0
TEXT
  5
307
330
23E
100
AcDbEntity
  8
0
  6
Continuous
 62
     7
100
AcDbText
 10
157.4998050245
 20
57.6671133712
 30
0.0
 40
0.6666666667
  1
79
  7
TEXTSTYLE_2
100
AcDbText
  0
TEXT
  5
308
330
23E
100
AcDbEntity
  8
0
  6
Continuous
 62
     7
100
AcDbText
 10
157.4998050245
 20
56.66711337119999
 30
0.0
 40
0.6666666667
  1
78
  7
TEXTSTYLE_2
100
AcDbText
  0
TEXT
  5
309
330
23E
100
AcDbEntity
  8
0
  6
Continuous
 62
     7
100
AcDbText
 10
157.4998050245
 20
55.6671133712
 30
0.0
 40
0.6666666667
  1
76
  7
TEXTSTYLE_2
100
AcDbText
  0
TEXT
  5
30A
330
23E
100
AcDbEntity
  8
0
  6
Continuous
 62
     7
100
AcDbText
 10
157.4998050245
 20
54.66711337119999
 30
0.0
 40
0.6666666667
  1
59
  7
TEXTSTYLE_2
100
AcDbText
  0
TEXT
  5
30B
330
23E
100
AcDbEntity
  8
0
  6
Continuous
 62
     7
100
AcDbText
 10
164.4200109682
 20
58.6841927734
 30
0.0
 40
0.6666666667
  1
385
  7
TEXTSTYLE_2
100
AcDbText
  0
TEXT
  5
30C
330
23E
100
AcDbEntity
  8
0
  6
Continuous
 62
     7
100
AcDbText
 10
164.4200109682
 20
57.6841927734
 30
0.0
 40
0.6666666667
  1
299
  7
TEXTSTYLE_2
100
AcDbText
  0
TEXT
  5
30D
330
23E
100
AcDbEntity
  8
0
  6
Continuous
 62
     7
100
AcDbText
 10
164.4200109682
 20
56.68419277339999
 30
0.0
 40
0.6666666667
  1
294
  7
TEXTSTYLE_2
100
AcDbText
  0
TEXT
  5
30E
330
23E
100
AcDbEntity
  8
0
  6
Continuous
 62
     7
100
AcDbText
 10
164.4200109682
 20
55.6841927734
 30
0.0
 40
0.6666666667
  1
290
  7
TEXTSTYLE_2
100
AcDbText
  0
TEXT
  5
30F
330
23E
100
AcDbEntity
  8
0
  6
Continuous
 62
     7
100
AcDbText
 10
164.4200109682
 20
54.6841927734
 30
0.0
 40
0.6666666667
  1
223
  7
TEXTSTYLE_2
100
AcDbText
  0
TEXT
  5
310
330
23E
100
AcDbEntity
  8
0
  6
Continuous
 62
     7
100
AcDbText
 10
171.3646499057
 20
58.66711337119999
 30
0.0
 40
0.6666666667
  1
85
  7
TEXTSTYLE_2
100
AcDbText
  0
TEXT
  5
311
330
23E
100
AcDbEntity
  8
0
  6
Continuous
 62
     7
100
AcDbText
 10
171.3646499057
 20
57.6671133712
 30
0.0
 40
0.6666666667
  1
66
  7
TEXTSTYLE_2
100
AcDbText
  0
TEXT
  5
312
330
23E
100
AcDbEntity
  8
0
  6
Continuous
 62
     7
100
AcDbText
 10
171.3646499057
 20
56.66711337119999
 30
0.0
 40
0.6666666667
  1
65
  7
TEXTSTYLE_2
100
AcDbText
  0
TEXT
  5
313
330
23E
100
AcDbEntity
  8
0
  6
Continuous
 62
     7
100
AcDbText
 10
171.3646499057
 20
55.6671133712
 30
0.0
 40
0.6666666667
  1
64
  7
TEXTSTYLE_2
100
AcDbText
  0
TEXT
  5
314
330
23E
100
AcDbEntity
  8
0
  6
Continuous
 62
     7
100
AcDbText
 10
171.3646499057
 20
54.66711337119999
 30
0.0
 40
0.6666666667
  1
49
  7
TEXTSTYLE_2
100
AcDbText
  0
LINE
  5
315
330
23E
100
AcDbEntity
  8
0
  6
Continuous
 62
     7
100
AcDbLine
 10
144.0004416585
 20
64.00044670459999
 30
0.0
 11
144.0004416585
 21
46.66711337119999
 31
0.0
  0
LINE
  5
316
330
23E
100
AcDbEntity
  8
0
  6
Continuous
 62
     7
100
AcDbLine
 10
144.0004416585
 20
64.00044670459999
 30
0.0
 11
177.3337749919
 21
64.00044670459999
 31
0.0
  0
LINE
  5
317
330
23E
100
AcDbEntity
  8
0
  6
Continuous
 62
     7
100
AcDbLine
 10
177.3337749919
 20
64.00044670459999
 30
0.0
 11
177.3337749919
 21
46.66711337119999
 31
0.0
  0
LINE
  5
318
330
23E
100
AcDbEntity
  8
0
  6
Continuous
 62
     7
100
AcDbLine
 10
144.0004416585
 20
46.66711337119999
 30
0.0
 11
177.3337749919
 21
46.66711337119999
 31
0.0
  0
LINE
  5
319
330
23E
100
AcDbEntity
  8
0
  6
Continuous
 62
     7
100
AcDbLine
 10
145.3337749919
 20
54.0004467046
 30
0.0
 11
176.0004416585
 21
54.0004467046
 31
0.0
  0
LINE
  5
31A
330
23E
100
AcDbEntity
  8
0
  6
Continuous
 62
     7
100
AcDbLine
 10
145.3337749919
 20
61.0004467046
 30
0.0
 11
176.0004416585
 21
61.0004467046
 31
0.0
  0
LINE
  5
31B
330
23E
100
AcDbEntity
  8
0
  6
Continuous
 62
     7
100
AcDbLine
 10
144.8093482178
 20
52.3786112089
 30
0.0
 11
144.4403274755
 21
52.00959046659999
 31
0.0
  0
LINE
  5
31C
330
23E
100
AcDbEntity
  8
0
  6
Continuous
 62
     7
100
AcDbLine
 10
145.4760148845
 20
52.3786112089
 30
0.0
 11
144.6779990941
 21
51.58059541850001
 31
0.0
  0
LINE
  5
31D
330
23E
100
AcDbEntity
  8
0
  6
Continuous
 62
     7
100
AcDbLine
 10
146.1426815512
 20
52.3786112089
 30
0.0
 11
145.3446657607
 21
51.58059541850001
 31
0.0
  0
LINE
  5
31E
330
23E
100
AcDbEntity
  8
0
  6
Continuous
 62
     7
100
AcDbLine
 10
146.8093482178
 20
52.3786112089
 30
0.0
 11
146.0113324274
 21
51.58059541850001
 31
0.0
  0
LINE
  5
31F
330
23E
100
AcDbEntity
  8
0
  6
Continuous
 62
     7
100
AcDbLine
 10
147.4760148845
 20
52.3786112089
 30
0.0
 11
146.6779990941
 21
51.58059541850001
 31
0.0
  0
LINE
  5
320
330
23E
100
AcDbEntity
  8
0
  6
Continuous
 62
     7
100
AcDbLine
 10
148.1426815512
 20
52.3786112089
 30
0.0
 11
147.3446657607
 21
51.58059541850001
 31
0.0
  0
LINE
  5
321
330
23E
100
AcDbEntity
  8
0
  6
Continuous
 62
     7
100
AcDbLine
 10
148.8093482178
 20
52.3786112089
 30
0.0
 11
148.0113324274
 21
51.58059541850001
 31
0.0
  0
LINE
  5
322
330
23E
100
AcDbEntity
  8
0
  6
Continuous
 62
     7
100
AcDbLine
 10
149.4760148845
 20
52.3786112089
 30
0.0
 11
148.6779990941
 21
51.58059541850001
 31
0.0
  0
LINE
  5
323
330
23E
100
AcDbEntity
  8
0
  6
Continuous
 62
     7
100
AcDbLine
 10
150.1426815512
 20
52.3786112089
 30
0.0
 11
149.3446657607
 21
51.58059541850001
 31
0.0
  0
LINE
  5
324
330
23E
100
AcDbEntity
  8
0
  6
Continuous
 62
     7
100
AcDbLine
 10
150.5861689853
 20
52.1554319764
 30
0.0
 11
150.0113324274
 21
51.58059541850001
 31
0.0
  0
ELLIPSE
  5
325
330
23E
100
AcDbEntity
  8
0
  6
Continuous
 62
     7
100
AcDbEllipse
 10
146.1458441407
 20
50.4313944115
 30
0.0
 11
1.0473539356
 21
0.0
 31
0.0
210
0.0
220
0.0
230
1.0
 40
0.4938647983
 41
0.0
 42
6.283185307179586
  0
ELLIPSE
  5
326
330
23E
100
AcDbEntity
  8
0
  6
Continuous
 62
     7
100
AcDbEllipse
 10
146.1458441407
 20
49.09806107819999
 30
0.0
 11
1.0473539356
 21
0.0
 31
0.0
210
0.0
220
0.0
230
1.0
 40
0.4938647983
 41
0.0
 42
6.283185307179586
  0
ELLIPSE
  5
327
330
23E
100
AcDbEntity
  8
0
  6
Continuous
 62
     7
100
AcDbEllipse
 10
146.1458441407
 20
47.7647277449
 30
0.0
 11
1.0473539356
 21
0.0
 31
0.0
210
0.0
220
0.0
230
1.0
 40
0.4938647983
 41
0.0
 42
6.283185307179586
  0
ELLIPSE
  5
328
330
23E
100
AcDbEntity
  8
0
  6
Continuous
 62
     7
100
AcDbEllipse
 10
157.1644797218
 20
50.45091576859999
 30
0.0
 11
1.0473539356
 21
0.0
 31
0.0
210
0.0
220
0.0
230
1.0
 40
0.4938647983
 41
0.0
 42
6.283185307179586
  0
ENDBLK
  5
329
330
23E
100
AcDbEntity
  8
0
  6
ByBlock
 62
     0
100
AcDbBlockEnd
  0
ENDSEC
  0
SECTION
  2
ENTITIES
  0
LWPOLYLINE
  5
447
330
225
100
AcDbEntity
  8
DEFAULT_2
  6
HIDDEN
 62
     7
100
AcDbPolyline
 90
       23
 70
     0
 43
0.0
 10
23.9753801052
 20
46.69112615119999
 10
24.2398795456
 20
45.703893177
 10
24.4092897986
 20
45.0713040513
 10
24.5811662156
 20
44.43938963519999
 10
24.7580111167
 20
43.80884632449999
 10
24.9401111553
 20
43.1797954638
 10
25.1272530383
 20
42.5522281602
 10
25.319439355
 20
41.9261896228
 10
25.5836017631
 20
41.0939434082
 10
25.8567826596
 20
40.2646120706
 10
26.1389321002
 20
39.4382882636
 10
26.4300034128
 20
38.615065426
 10
26.7299630135
 20
37.7950401372
 10
27.0387805907
 20
36.9783097616
 10
27.3564242669
 20
36.1649711858
 10
27.6828559017
 20
35.3551193856
 10
28.0180357889
 20
34.548848859
 10
28.361924116
 20
33.7462540295
 10
28.7144806452
 20
32.9474290231
 10
29.0756650322
 20
32.1524678913
 10
29.4946174691
 20
31.2579145558
 10
29.9244941385
 20
30.3685591881
 10
30.3652288851
 20
29.4845343619
  0
LINE
  5
454
330
225
100
AcDbEntity
  8
DEFAULT_2
  6
HIDDEN
 62
     7
100
AcDbLine
 10
52.5332885479
 20
27.3991265365
 30
0.0
 11
52.8901718583
 21
27.0422432261
 31
0.0
  0
LINE
  5
4ED
330
225
100
AcDbEntity
  8
DEFAULT_2
  6
HIDDEN
 62
     7
100
AcDbLine
 10
53.06694855359999
 20
26.9690199214
 30
0.0
 11
55.60984177239999
 21
26.9690199214
 31
0.0
  0
LINE
  5
4EF
330
225
100
AcDbEntity
  8
DEFAULT_2
  6
HIDDEN
 62
     7
100
AcDbLine
 10
32.514808379
 20
28.1149676744
 30
0.0
 11
52.3646027688
 21
27.4722188811
 31
0.0
  0
LINE
  5
542
330
225
100
AcDbEntity
  8
DEFAULT_2
  6
HIDDEN
 62
     7
100
AcDbLine
 10
56.3121875572
 20
27.4722188811
 30
0.0
 11
74.212753867
 21
28.0518504465
 31
0.0
  0
LWPOLYLINE
  5
5D5
330
225
100
AcDbEntity
  8
DEFAULT_2
  6
HIDDEN
 62
     7
100
AcDbPolyline
 90
      121
 70
     0
 43
0.0
 10
55.900895163
 20
43.0459373231
 10
55.9123469358
 20
43.04608230270001
 10
55.9237921439
 20
43.0465171431
 10
55.9352203629
 20
43.047241494
 10
55.94662636569999
 20
43.0482550139
 10
55.9579990955
 20
43.0495567007
 10
55.96933524149999
 20
43.051146172
 10
55.9806214962
 20
43.05302157899999
 10
55.9918565277
 20
43.055182693
 10
56.0030253541
 20
43.0576266355
 10
56.0141284952
 20
43.0603535131
 10
56.0251493248
 20
43.06335925239999
 10
56.036090098
 20
43.0666444594
 10
56.0469327588
 20
43.07020372220001
 10
56.0576811409
 20
43.0740382889
 10
56.0683159581
 20
43.07814129109999
 10
56.0788424443
 20
43.0825147355
 10
56.08924031589999
 20
43.08715020949999
 10
56.0995160066
 20
43.09205056609999
 10
56.1096484832
 20
43.09720579199999
 10
56.119645163
 20
43.1026196434
 10
56.1294845242
 20
43.108280485
 10
56.1391747408
 20
43.11419299839999
 10
56.1486940705
 20
43.12034394149999
 10
56.1580512109
 20
43.1267389094
 10
56.1672244692
 20
43.1333631046
 10
56.1762228341
 20
43.1402229888
 10
56.18502492800001
 20
43.1473022977
 10
56.1936398033
 20
43.1546082777
 10
56.20204665380001
 20
43.1621233221
 10
56.2102543798
 20
43.1698553472
 10
56.21824298699999
 20
43.1777855617
 10
56.2260210241
 20
43.1859224059
 10
56.233569529
 20
43.1942460937
 10
56.2408965211
 20
43.20276541520001
 10
56.2479842643
 20
43.21145980659999
 10
56.254840098
 20
43.2203382096
 10
56.2614476759
 20
43.2293795234
 10
56.26781353649999
 20
43.2385926233
 10
56.2739228535
 20
43.2479561306
 10
56.2797812772
 20
43.2574786223
 10
56.28537559489999
 20
43.2671387131
 10
56.29071051729999
 20
43.2769444412
 10
56.2957745001
 20
43.2868746934
 10
56.30057130069999
 20
43.2969367256
 10
56.3050910577
 20
43.30710997579999
 10
56.3093365996
 20
43.31740067819999
 10
56.31329972279999
 20
43.32778909439999
 10
56.3169823889
 20
43.3382802085
 10
56.3203779879
 20
43.34885536579999
 10
56.323487712
 20
43.35951808729999
 10
56.32630644439999
 20
43.3702510436
 10
56.32883473829999
 20
43.381056103
 10
56.331068836
 20
43.3919174778
 10
56.333008812
 20
43.4028352215
 10
56.3346521038
 20
43.4137952748
 10
56.33599849220001
 20
43.4247957476
 10
56.3370464219
 20
43.4358244611
 10
56.3377955845
 20
43.4468774891
 10
56.3382452246
 20
43.45794464759999
 10
56.338395163
 20
43.4690199214
 10
56.3382452246
 20
43.4800951952
 10
56.3377955845
 20
43.4911623538
 10
56.3370464219
 20
43.50221538169999
 10
56.33599849220001
 20
43.5132440952
 10
56.3346521038
 20
43.524244568
 10
56.333008812
 20
43.5352046213
 10
56.331068836
 20
43.546122365
 10
56.32883473829999
 20
43.5569837398
 10
56.32630644439999
 20
43.5677887992
 10
56.323487712
 20
43.57852175549999
 10
56.3203779879
 20
43.58918447699999
 10
56.3169823889
 20
43.5997596343
 10
56.31329972279999
 20
43.61025074839999
 10
56.3093365996
 20
43.6206391646
 10
56.3050910577
 20
43.63092986699999
 10
56.30057130069999
 20
43.6411031172
 10
56.2957745001
 20
43.65116514939999
 10
56.29071051729999
 20
43.6610954016
 10
56.28537559489999
 20
43.6709011297
 10
56.2797812772
 20
43.6805612205
 10
56.2739228535
 20
43.6900837122
 10
56.26781353649999
 20
43.6994472195
 10
56.2614476759
 20
43.70866031939999
 10
56.254840098
 20
43.71770163319999
 10
56.2479842643
 20
43.72658003619999
 10
56.2408965211
 20
43.7352744276
 10
56.233569529
 20
43.7437937491
 10
56.2260210241
 20
43.75211743689999
 10
56.21824298699999
 20
43.7602542811
 10
56.2102543798
 20
43.7681844956
 10
56.20204665380001
 20
43.77591652069999
 10
56.1936398033
 20
43.7834315651
 10
56.18502492800001
 20
43.7907375452
 10
56.1762228341
 20
43.797816854
 10
56.1672244692
 20
43.80467673819999
 10
56.1580512109
 20
43.8113009334
 10
56.1486940705
 20
43.8176959013
 10
56.1391747408
 20
43.82384684439999
 10
56.1294845242
 20
43.8297593578
 10
56.119645163
 20
43.8354201994
 10
56.1096484832
 20
43.8408340508
 10
56.0995160066
 20
43.8459892767
 10
56.08924031589999
 20
43.8508896333
 10
56.0788424443
 20
43.8555251073
 10
56.0683159581
 20
43.8598985517
 10
56.0576811409
 20
43.8640015539
 10
56.0469327588
 20
43.8678361206
 10
56.036090098
 20
43.8713953834
 10
56.0251493248
 20
43.87468059039999
 10
56.0141284952
 20
43.8776863297
 10
56.0030253541
 20
43.88041320729999
 10
55.9918565277
 20
43.88285714979999
 10
55.9806214962
 20
43.88501826379999
 10
55.96933524149999
 20
43.8868936708
 10
55.9579990955
 20
43.8884831421
 10
55.94662636569999
 20
43.8897848289
 10
55.9352203629
 20
43.8907983488
 10
55.9237921439
 20
43.8915226997
 10
55.9123469358
 20
43.8919575402
 10
55.900895163
 20
43.8921025197
  0
LINE
  5
5D7
330
225
100
AcDbEntity
  8
DEFAULT_2
  6
HIDDEN
 62
     7
100
AcDbLine
 10
55.900895163
 20
43.0459373231
 30
0.0
 11
52.775895163
 21
43.0459373231
 31
0.0
  0
LINE
  5
5D8
330
225
100
AcDbEntity
  8
DEFAULT_2
  6
HIDDEN
 62
     7
100
AcDbLine
 10
55.650895163
 20
43.30392968209999
 30
0.0
 11
53.025895163
 21
43.30392968209999
 31
0.0
  0
LINE
  5
5DA
330
225
100
AcDbEntity
  8
DEFAULT_2
  6
HIDDEN
 62
     7
100
AcDbLine
 10
53.025895163
 20
43.66657190909999
 30
0.0
 11
55.650895163
 21
43.66657190909999
 31
0.0
  0
LINE
  5
5DB
330
225
100
AcDbEntity
  8
DEFAULT_2
  6
HIDDEN
 62
     7
100
AcDbLine
 10
52.775895163
 20
43.8921025197
 30
0.0
 11
55.900895163
 21
43.8921025197
 31
0.0
  0
LWPOLYLINE
  5
5E1
330
225
100
AcDbEntity
  8
DEFAULT_2
  6
HIDDEN
 62
     7
100
AcDbPolyline
 90
      121
 70
     0
 43
0.0
 10
52.775895163
 20
43.0459373231
 10
52.76444339020001
 20
43.04608230270001
 10
52.7529981821
 20
43.0465171431
 10
52.74156996310001
 20
43.047241494
 10
52.7301639603
 20
43.0482550139
 10
52.7187912305
 20
43.0495567007
 10
52.7074550845
 20
43.051146172
 10
52.69616882979999
 20
43.05302157899999
 10
52.6849337983
 20
43.055182693
 10
52.67376497189999
 20
43.0576266355
 10
52.66266183079999
 20
43.0603535131
 10
52.65164100119999
 20
43.06335925239999
 10
52.640700228
 20
43.0666444594
 10
52.6298575672
 20
43.07020372220001
 10
52.6191091851
 20
43.0740382889
 10
52.6084743679
 20
43.07814129109999
 10
52.5979478817
 20
43.0825147355
 10
52.5875500101
 20
43.08715020949999
 10
52.5772743194
 20
43.09205056609999
 10
52.56714184279999
 20
43.09720579199999
 10
52.557145163
 20
43.1026196434
 10
52.5473058018
 20
43.108280485
 10
52.5376155852
 20
43.11419299839999
 10
52.5280962555
 20
43.12034394149999
 10
52.5187391151
 20
43.1267389094
 10
52.5095658568
 20
43.1333631046
 10
52.50056749189999
 20
43.1402229888
 10
52.491765398
 20
43.1473022977
 10
52.48315052270001
 20
43.1546082777
 10
52.4747436722
 20
43.1621233221
 10
52.46653594619999
 20
43.1698553472
 10
52.45854733899999
 20
43.1777855617
 10
52.45076930189999
 20
43.1859224059
 10
52.44322079699999
 20
43.1942460937
 10
52.4358938049
 20
43.20276541520001
 10
52.4288060617
 20
43.21145980659999
 10
52.421950228
 20
43.2203382096
 10
52.4153426501
 20
43.2293795234
 10
52.40897678949999
 20
43.2385926233
 10
52.40286747249999
 20
43.2479561306
 10
52.3970090488
 20
43.2574786223
 10
52.3914147311
 20
43.2671387131
 10
52.3860798087
 20
43.2769444412
 10
52.3810158259
 20
43.2868746934
 10
52.37621902529999
 20
43.2969367256
 10
52.3716992684
 20
43.30710997579999
 10
52.3674537264
 20
43.31740067819999
 10
52.3634906032
 20
43.32778909439999
 10
52.3598079371
 20
43.3382802085
 10
52.3564123381
 20
43.34885536579999
 10
52.35330261399999
 20
43.35951808729999
 10
52.3504838816
 20
43.3702510436
 10
52.34795558770001
 20
43.381056103
 10
52.34572149
 20
43.3919174778
 10
52.34378151399999
 20
43.4028352215
 10
52.3421382222
 20
43.4137952748
 10
52.3407918338
 20
43.4247957476
 10
52.3397439041
 20
43.4358244611
 10
52.3389947415
 20
43.4468774891
 10
52.3385451014
 20
43.45794464759999
 10
52.338395163
 20
43.4690199214
 10
52.3385451014
 20
43.4800951952
 10
52.3389947415
 20
43.4911623538
 10
52.3397439041
 20
43.50221538169999
 10
52.3407918338
 20
43.5132440952
 10
52.3421382222
 20
43.524244568
 10
52.34378151399999
 20
43.5352046213
 10
52.34572149
 20
43.546122365
 10
52.34795558770001
 20
43.5569837398
 10
52.3504838816
 20
43.5677887992
 10
52.35330261399999
 20
43.57852175549999
 10
52.3564123381
 20
43.58918447699999
 10
52.3598079371
 20
43.5997596343
 10
52.3634906032
 20
43.61025074839999
 10
52.3674537264
 20
43.6206391646
 10
52.3716992684
 20
43.63092986699999
 10
52.37621902529999
 20
43.6411031172
 10
52.3810158259
 20
43.65116514939999
 10
52.3860798087
 20
43.6610954016
 10
52.3914147311
 20
43.6709011297
 10
52.3970090488
 20
43.6805612205
 10
52.40286747249999
 20
43.6900837122
 10
52.40897678949999
 20
43.6994472195
 10
52.4153426501
 20
43.70866031939999
 10
52.421950228
 20
43.71770163319999
 10
52.4288060617
 20
43.72658003619999
 10
52.4358938049
 20
43.7352744276
 10
52.44322079699999
 20
43.7437937491
 10
52.45076930189999
 20
43.75211743689999
 10
52.45854733899999
 20
43.7602542811
 10
52.46653594619999
 20
43.7681844956
 10
52.4747436722
 20
43.77591652069999
 10
52.48315052270001
 20
43.7834315651
 10
52.491765398
 20
43.7907375452
 10
52.50056749189999
 20
43.797816854
 10
52.5095658568
 20
43.80467673819999
 10
52.5187391151
 20
43.8113009334
 10
52.5280962555
 20
43.8176959013
 10
52.5376155852
 20
43.82384684439999
 10
52.5473058018
 20
43.8297593578
 10
52.557145163
 20
43.8354201994
 10
52.56714184279999
 20
43.8408340508
 10
52.5772743194
 20
43.8459892767
 10
52.5875500101
 20
43.8508896333
 10
52.5979478817
 20
43.8555251073
 10
52.6084743679
 20
43.8598985517
 10
52.6191091851
 20
43.8640015539
 10
52.6298575672
 20
43.8678361206
 10
52.640700228
 20
43.8713953834
 10
52.65164100119999
 20
43.87468059039999
 10
52.66266183079999
 20
43.8776863297
 10
52.67376497189999
 20
43.88041320729999
 10
52.6849337983
 20
43.88285714979999
 10
52.69616882979999
 20
43.88501826379999
 10
52.7074550845
 20
43.8868936708
 10
52.7187912305
 20
43.8884831421
 10
52.7301639603
 20
43.8897848289
 10
52.74156996310001
 20
43.8907983488
 10
52.7529981821
 20
43.8915226997
 10
52.76444339020001
 20
43.8919575402
 10
52.775895163
 20
43.8921025197
  0
LWPOLYLINE
  5
5E2
330
225
100
AcDbEntity
  8
DEFAULT_2
  6
HIDDEN
 62
     7
100
AcDbPolyline
 90
       97
 70
     0
 43
0.0
 10
53.025895163
 20
43.30392968209999
 10
53.0197608722
 20
43.3040267633
 10
53.01363207579999
 20
43.30431790449999
 10
53.0075174941
 20
43.3048027391
 10
53.0014215011
 20
43.30548090939999
 10
52.9953533183
 20
43.3063513696
 10
52.9893157264
 20
43.3074137167
 10
52.9833197632
 20
43.3086660271
 10
52.9773665904
 20
43.3101080496
 10
52.9714685268
 20
43.3117368052
 10
52.96562526189999
 20
43.3135523705
 10
52.9598503032
 20
43.3155505613
 10
52.9541420185
 20
43.3177319304
 10
52.9485148493
 20
43.3200909726
 10
52.94296603270001
 20
43.3226288318
 10
52.9375106972
 20
43.325338606
 10
52.93214516199999
 20
43.3282221056
 10
52.9268849669
 20
43.3312710004
 10
52.9217257434
 20
43.3344878002
 10
52.9166831584
 20
43.3378627627
 10
52.9117523943
 20
43.341399085
 10
52.90694895859999
 20
43.3450856769
 10
52.902267822
 20
43.348926365
 10
52.8977240543
 20
43.3529088235
 10
52.893312641
 20
43.3570374072
 10
52.8890479532
 20
43.3612987122
 10
52.8849251986
 20
43.3656974787
 10
52.8809578148
 20
43.3702194246
 10
52.8771414113
 20
43.3748694959
 10
52.87348829119999
 20
43.3796327678
 10
52.8699946104
 20
43.3845141828
 10
52.8666713779
 20
43.3894984376
 10
52.8635153995
 20
43.39459023929999
 10
52.8605362771
 20
43.3997741908
 10
52.8577315238
 20
43.40505451819999
 10
52.8551092717
 20
43.41041602579999
 10
52.85266775050001
 20
43.4158622099
 10
52.8504136125
 20
43.4213783711
 10
52.84834576359999
 20
43.42696703409999
 10
52.84646941810001
 20
43.4326142805
 10
52.8447840705
 20
43.4383214384
 10
52.84329358819999
 20
43.44407563399999
 10
52.84199792289999
 20
43.4498768014
 10
52.84089973109999
 20
43.4557133443
 10
52.83999925149999
 20
43.46158364119999
 10
52.8392981046
 20
43.46747756729999
 10
52.8387966149
 20
43.47339182739999
 10
52.8384955718
 20
43.47931791569999
 10
52.838395163
 20
43.4852507956
 10
52.8384955718
 20
43.4911836755
 10
52.8387966149
 20
43.4971097638
 10
52.8392981046
 20
43.5030240239
 10
52.83999925149999
 20
43.50891794999999
 10
52.84089973109999
 20
43.5147882469
 10
52.84199792289999
 20
43.52062478979999
 10
52.84329358819999
 20
43.5264259572
 10
52.8447840705
 20
43.53218015279999
 10
52.84646941810001
 20
43.53788731069999
 10
52.84834576359999
 20
43.5435345571
 10
52.8504136125
 20
43.5491232201
 10
52.85266775050001
 20
43.55463938129999
 10
52.8551092717
 20
43.56008556539999
 10
52.8577315238
 20
43.565447073
 10
52.8605362771
 20
43.5707274004
 10
52.8635153995
 20
43.57591135189999
 10
52.8666713779
 20
43.58100315359999
 10
52.8699946104
 20
43.5859874084
 10
52.87348829119999
 20
43.5908688234
 10
52.8771414113
 20
43.5956320953
 10
52.8809578148
 20
43.60028216659999
 10
52.8849251986
 20
43.6048041125
 10
52.8890479532
 20
43.60920287899999
 10
52.893312641
 20
43.61346418399999
 10
52.8977240543
 20
43.6175927677
 10
52.902267822
 20
43.6215752262
 10
52.90694895859999
 20
43.6254159143
 10
52.9117523943
 20
43.62910250619999
 10
52.9166831584
 20
43.6326388285
 10
52.9217257434
 20
43.636013791
 10
52.9268849669
 20
43.6392305908
 10
52.93214516199999
 20
43.6422794856
 10
52.9375106972
 20
43.6451629852
 10
52.94296603270001
 20
43.64787275939999
 10
52.9485148493
 20
43.6504106186
 10
52.9541420185
 20
43.65276966079999
 10
52.9598503032
 20
43.65495102999999
 10
52.96562526189999
 20
43.6569492207
 10
52.9714685268
 20
43.658764786
 10
52.9773665904
 20
43.6603935416
 10
52.9833197632
 20
43.66183556409999
 10
52.9893157264
 20
43.6630878746
 10
52.9953533183
 20
43.66415022159999
 10
53.0014215011
 20
43.66502068179999
 10
53.0075174941
 20
43.6656988521
 10
53.01363207579999
 20
43.6661836867
 10
53.0197608722
 20
43.66647482789999
 10
53.025895163
 20
43.66657190909999
  0
LWPOLYLINE
  5
5E3
330
225
100
AcDbEntity
  8
DEFAULT_2
  6
HIDDEN
 62
     7
100
AcDbPolyline
 90
       97
 70
     0
 43
0.0
 10
55.650895163
 20
43.66657190909999
 10
55.65702945379999
 20
43.66647482789999
 10
55.66315825020001
 20
43.6661836867
 10
55.6692728319
 20
43.6656988521
 10
55.67536882489999
 20
43.66502068179999
 10
55.68143700770001
 20
43.66415022159999
 10
55.6874745996
 20
43.6630878746
 10
55.69347056279999
 20
43.66183556409999
 10
55.6994237356
 20
43.6603935416
 10
55.7053217992
 20
43.658764786
 10
55.71116506420001
 20
43.6569492207
 10
55.7169400228
 20
43.65495102999999
 10
55.7226483075
 20
43.65276966079999
 10
55.7282754767
 20
43.6504106186
 10
55.73382429329999
 20
43.64787275939999
 10
55.7392796288
 20
43.6451629852
 10
55.74464516399999
 20
43.6422794856
 10
55.7499053591
 20
43.6392305908
 10
55.7550645826
 20
43.636013791
 10
55.7601071676
 20
43.6326388285
 10
55.7650379317
 20
43.62910250619999
 10
55.7698413674
 20
43.6254159143
 10
55.774522504
 20
43.6215752262
 10
55.7790662717
 20
43.6175927677
 10
55.783477685
 20
43.61346418399999
 10
55.7877423728
 20
43.60920287899999
 10
55.7918651274
 20
43.6048041125
 10
55.79583251119999
 20
43.60028216659999
 10
55.7996489147
 20
43.5956320953
 10
55.80330203479999
 20
43.5908688234
 10
55.80679571560001
 20
43.5859874084
 10
55.8101189481
 20
43.58100315359999
 10
55.81327492649999
 20
43.57591135189999
 10
55.81625404890001
 20
43.5707274004
 10
55.8190588022
 20
43.565447073
 10
55.8216810543
 20
43.56008556539999
 10
55.8241225755
 20
43.55463938129999
 10
55.8263767135
 20
43.5491232201
 10
55.8284445624
 20
43.5435345571
 10
55.8303209079
 20
43.53788731069999
 10
55.8320062555
 20
43.53218015279999
 10
55.83349673779999
 20
43.5264259572
 10
55.8347924031
 20
43.52062478979999
 10
55.8358905949
 20
43.5147882469
 10
55.8367910745
 20
43.50891794999999
 10
55.8374922214
 20
43.5030240239
 10
55.8379937111
 20
43.4971097638
 10
55.83829475419999
 20
43.4911836755
 10
55.838395163
 20
43.4852507956
 10
55.83829475419999
 20
43.47931791569999
 10
55.8379937111
 20
43.47339182739999
 10
55.8374922214
 20
43.46747756729999
 10
55.8367910745
 20
43.46158364119999
 10
55.8358905949
 20
43.4557133443
 10
55.8347924031
 20
43.4498768014
 10
55.83349673779999
 20
43.44407563399999
 10
55.8320062555
 20
43.4383214384
 10
55.8303209079
 20
43.4326142805
 10
55.8284445624
 20
43.42696703409999
 10
55.8263767135
 20
43.4213783711
 10
55.8241225755
 20
43.4158622099
 10
55.8216810543
 20
43.41041602579999
 10
55.8190588022
 20
43.40505451819999
 10
55.81625404890001
 20
43.3997741908
 10
55.81327492649999
 20
43.39459023929999
 10
55.8101189481
 20
43.3894984376
 10
55.80679571560001
 20
43.3845141828
 10
55.80330203479999
 20
43.3796327678
 10
55.7996489147
 20
43.3748694959
 10
55.79583251119999
 20
43.3702194246
 10
55.7918651274
 20
43.3656974787
 10
55.7877423728
 20
43.3612987122
 10
55.783477685
 20
43.3570374072
 10
55.7790662717
 20
43.3529088235
 10
55.774522504
 20
43.348926365
 10
55.7698413674
 20
43.3450856769
 10
55.7650379317
 20
43.341399085
 10
55.7601071676
 20
43.3378627627
 10
55.7550645826
 20
43.3344878002
 10
55.7499053591
 20
43.3312710004
 10
55.74464516399999
 20
43.3282221056
 10
55.7392796288
 20
43.325338606
 10
55.73382429329999
 20
43.3226288318
 10
55.7282754767
 20
43.3200909726
 10
55.7226483075
 20
43.3177319304
 10
55.7169400228
 20
43.3155505613
 10
55.7111650641
 20
43.3135523705
 10
55.7053217992
 20
43.3117368052
 10
55.6994237356
 20
43.3101080496
 10
55.69347056279999
 20
43.3086660271
 10
55.6874745996
 20
43.3074137167
 10
55.68143700770001
 20
43.3063513696
 10
55.67536882489999
 20
43.30548090939999
 10
55.6692728319
 20
43.3048027391
 10
55.66315825020001
 20
43.30431790449999
 10
55.65702945379999
 20
43.3040267633
 10
55.650895163
 20
43.30392968209999
  0
LINE
  5
6A2
330
225
100
AcDbEntity
  8
DEFAULT_2
  6
HIDDEN
 62
     7
100
AcDbLine
 10
55.7866184677
 20
27.0422432261
 30
0.0
 11
56.1435017782
 21
27.3991265366
 31
0.0
  0
LWPOLYLINE
  5
705
330
225
100
AcDbEntity
  8
DEFAULT_2
  6
HIDDEN
 62
     7
100
AcDbPolyline
 90
       22
 70
     0
 43
0.0
 10
77.26033737839999
 20
30.8443228263
 10
77.63320990210001
 20
31.4652764307
 10
78.00049062939999
 20
32.089553707
 10
78.4538346248
 20
32.8782928487
 10
78.89825276729999
 20
33.6720956649
 10
79.3336897202
 20
34.4708605152
 10
79.76009017439999
 20
35.2744856909
 10
80.1773989335
 20
36.0828692092
 10
80.58556082930001
 20
36.8959090191
 10
80.9845228068
 20
37.7135022233
 10
81.37424026620001
 20
38.5355425402
 10
81.7546707211
 20
39.36192284190001
 10
82.1257667014
 20
40.1925377084
 10
82.4874608012
 20
41.0272885503
 10
82.83968063080001
 20
41.8660784856
 10
83.09760430829999
 20
42.4977562951
 10
83.3502465027
 20
43.1315686268
 10
83.59761049520001
 20
43.76746252189999
 10
83.83935864100001
 20
44.4055050731
 10
84.07567509439999
 20
45.0455771643
 10
84.30917213249999
 20
45.6866947926
 10
84.6860856786
 20
46.7223071261
  0
LWPOLYLINE
  5
706
330
225
100
AcDbEntity
  8
DEFAULT_2
  6
HIDDEN
 62
     7
100
AcDbPolyline
 90
        7
 70
     0
 43
0.0
 10
76.2376245568
 20
29.2030649774
 10
76.39979720630001
 20
29.457548911
 10
76.56101676209999
 20
29.7126377112
 10
76.72128098129999
 20
29.9683277981
 10
76.88058762109999
 20
30.224615592
 10
77.0389344387
 20
30.4814975132
 10
77.19631919120001
 20
30.738969982
  0
LINE
  5
14C4
330
225
100
AcDbEntity
  8
0
  6
Continuous
 62
     7
100
AcDbLine
 10
21.493429282
 20
46.7408088571
 30
0.0
 11
21.46965083125975
 21
46.4690199214
 31
0.0
  0
LINE
  5
14C5
330
225
100
AcDbEntity
  8
0
  6
Continuous
 62
     7
100
AcDbLine
 10
22.9442183107
 20
46.7408088571
 30
0.0
 11
22.92088969056115
 21
46.4690199214
 31
0.0
  0
LWPOLYLINE
  5
14C6
330
225
100
AcDbEntity
  8
0
  6
Continuous
 62
     7
100
AcDbPolyline
 90
       11
 70
     0
 43
0.0
 10
30.2537042422
 20
29.4280786655
 10
29.4590932798
 20
31.0421131305
 10
28.70066458530001
 20
32.6733488262
 10
27.9787628263
 20
34.3210456318
 10
27.2937200936
 20
35.9844324544
 10
26.6458188371
 20
37.6628592633
 10
26.0354746476
 20
39.3552329962
 10
25.4639483464
 20
41.0577041088
 10
24.9277114295
 20
42.7817189025
 10
24.4023545148
 20
44.6187002279
 10
23.90558418274125
 20
46.4690199214
  0
LINE
  5
14C7
330
225
100
AcDbEntity
  8
0
  6
Continuous
 62
     7
100
AcDbLine
 10
34.02999008630001
 20
27.3067673205
 30
0.0
 11
34.0413355289
 21
27.2989726105
 31
0.0
  0
LWPOLYLINE
  5
14C8
330
225
100
AcDbEntity
  8
0
  6
Continuous
 62
     7
100
AcDbPolyline
 90
       15
 70
     0
 43
0.0
 10
33.7735995825
 20
27.4908633676
 10
33.7942255496
 20
27.475770552
 10
33.8160065577
 20
27.4598662661
 10
33.8386012566
 20
27.4434079375
 10
33.8616301703
 20
27.4266799527
 10
33.8847404237
 20
27.4099460947
 10
33.9075119618
 20
27.39351693090001
 10
33.9294472344
 20
27.377755586
 10
33.9497158873
 20
27.3632575453
 10
33.96751940610001
 20
27.3505841969
 10
33.9827274377
 20
27.3398120529
 10
33.9956238886
 20
27.3307226837
 10
34.0066252205
 20
27.3230073973
 10
34.015939068
 20
27.3165074992
 10
34.02999008630001
 20
27.3067673205
  0
LINE
  5
14C9
330
225
100
AcDbEntity
  8
0
  6
Continuous
 62
     7
100
AcDbLine
 10
33.7372335409
 20
27.5175422713
 30
0.0
 11
33.7735995825
 21
27.4908633676
 31
0.0
  0
LWPOLYLINE
  5
14CA
330
225
100
AcDbEntity
  8
0
  6
Continuous
 62
     7
100
AcDbPolyline
 90
        3
 70
     0
 43
0.0
 10
33.685847702
 20
27.5553719376
 10
33.6873485183
 20
27.554265047
 10
33.7372335409
 20
27.5175422713
  0
LWPOLYLINE
  5
14CB
330
225
100
AcDbEntity
  8
0
  6
Continuous
 62
     7
100
AcDbPolyline
 90
        6
 70
     0
 43
0.0
 10
39.3939333525
 20
26.4353630125
 10
39.3493544002
 20
26.4897179307
 10
39.3090041992
 20
26.5472565354
 10
39.2729964966
 20
26.607796395
 10
39.2416065085
 20
26.670889679
 10
39.2151466102
 20
26.735876037
  0
LWPOLYLINE
  5
14CC
330
225
100
AcDbEntity
  8
0
  6
Continuous
 62
     7
100
AcDbPolyline
 90
        6
 70
     0
 43
0.0
 10
38.8845862433
 20
27.6129982578
 10
38.8576187994
 20
27.6486489239
 10
38.8265951485
 20
27.6808350508
 10
38.7919566391
 20
27.7090987523
 10
38.7541960452
 20
27.7330379435
 10
38.7138505563
 20
27.7523120609
  0
LINE
  5
14CD
330
225
100
AcDbEntity
  8
0
  6
Continuous
 62
     7
100
AcDbLine
 10
38.907113836
 20
27.5743902256
 30
0.0
 11
38.8845862433
 21
27.6129982578
 31
0.0
  0
LINE
  5
14CE
330
225
100
AcDbEntity
  8
0
  6
Continuous
 62
     7
100
AcDbLine
 10
38.9248810958
 20
27.5333740728
 30
0.0
 11
38.907113836
 21
27.5743902256
 31
0.0
  0
LINE
  5
14CF
330
225
100
AcDbEntity
  8
0
  6
Continuous
 62
     7
100
AcDbLine
 10
39.2151466102
 20
26.735876037
 30
0.0
 11
38.92488106710001
 21
27.5333740623
 31
0.0
  0
LINE
  5
14D0
330
225
100
AcDbEntity
  8
0
  6
Continuous
 62
     7
100
AcDbLine
 10
38.7699993019
 20
27.7230153168
 30
0.0
 11
38.7923952582
 21
27.7082034156
 31
0.0
  0
LWPOLYLINE
  5
14D1
330
225
100
AcDbEntity
  8
0
  6
Continuous
 62
     7
100
AcDbPolyline
 90
        5
 70
     0
 43
0.0
 10
38.5831788152
 20
27.77975624010001
 10
38.5892844559
 20
27.7756675957
 10
38.604443783
 20
27.7714082928
 10
38.6284098618
 20
27.7670028019
 10
38.6609402434
 20
27.7624766726
  0
LINE
  5
14D2
330
225
100
AcDbEntity
  8
0
  6
Continuous
 62
     7
100
AcDbLine
 10
39.7327424855
 20
26.1979083168
 30
0.0
 11
39.7525698937
 21
26.184243
 31
0.0
  0
LINE
  5
14D3
330
225
100
AcDbEntity
  8
0
  6
Continuous
 62
     7
100
AcDbLine
 10
39.7137852835
 20
26.2110414973
 30
0.0
 11
39.7327424855
 21
26.1979083168
 31
0.0
  0
LINE
  5
14D4
330
225
100
AcDbEntity
  8
0
  6
Continuous
 62
     7
100
AcDbLine
 10
39.6876276101
 20
26.2292410166
 30
0.0
 11
39.7137852835
 21
26.2110414973
 31
0.0
  0
LWPOLYLINE
  5
14D5
330
225
100
AcDbEntity
  8
0
  6
Continuous
 62
     7
100
AcDbPolyline
 90
        3
 70
     0
 43
0.0
 10
39.6326482575
 20
26.2676578336
 10
39.6529874513
 20
26.253424351
 10
39.6876276101
 20
26.2292410166
  0
LINE
  5
14D6
330
225
100
AcDbEntity
  8
0
  6
Continuous
 62
     7
100
AcDbLine
 10
39.3939333525
 20
26.4353630125
 30
0.0
 11
39.4068028775
 21
26.4263526907
 31
0.0
  0
LINE
  5
14D7
330
225
100
AcDbEntity
  8
0
  6
Continuous
 62
     7
100
AcDbLine
 10
39.58831372050001
 20
26.2987556613
 30
0.0
 11
39.6326482575
 21
26.2676578336
 31
0.0
  0
LWPOLYLINE
  5
14D8
330
225
100
AcDbEntity
  8
0
  6
Continuous
 62
     7
100
AcDbPolyline
 90
        4
 70
     0
 43
0.0
 10
39.4068028775
 20
26.4263526907
 10
39.4436814393
 20
26.4004371014
 10
39.4604737586
 20
26.3886244604
 10
39.4992439354
 20
26.3613527343
  0
LINE
  5
14D9
330
225
100
AcDbEntity
  8
0
  6
Continuous
 62
     7
100
AcDbLine
 10
39.4992439354
 20
26.3613527343
 30
0.0
 11
39.58831372050001
 21
26.2987556613
 31
0.0
  0
LINE
  5
14DA
330
225
100
AcDbEntity
  8
0
  6
Continuous
 62
     7
100
AcDbLine
 10
38.7920128211
 20
27.7084767513
 30
0.0
 11
38.8148840162
 21
27.69074868340001
 31
0.0
  0
LINE
  5
14DB
330
225
100
AcDbEntity
  8
0
  6
Continuous
 62
     7
100
AcDbLine
 10
38.8145564777
 20
27.6910235646
 30
0.0
 11
38.8373175819
 21
27.67026495630001
 31
0.0
  0
LWPOLYLINE
  5
14DC
330
225
100
AcDbEntity
  8
0
  6
Continuous
 62
     7
100
AcDbPolyline
 90
        6
 70
     0
 43
0.0
 10
38.8370489331
 20
27.6705310548
 10
38.8591193581
 20
27.6466867685
 10
38.8796975768
 20
27.6200388266
 10
38.8985189378
 20
27.5903474863
 10
38.9150544261
 20
27.5576780845
 10
38.9248807512
 20
27.5333750268
  0
LWPOLYLINE
  5
14DD
330
225
100
AcDbEntity
  8
0
  6
Continuous
 62
     7
100
AcDbPolyline
 90
        3
 70
     0
 43
0.0
 10
67.5477406014
 20
26.14270551300001
 10
67.61560975430001
 20
26.1609429196
 10
67.6322487115
 20
26.1662642661
  0
LWPOLYLINE
  5
14DE
330
225
100
AcDbEntity
  8
0
  6
Continuous
 62
     7
100
AcDbPolyline
 90
        5
 70
     0
 43
0.0
 10
39.8022548935
 20
26.1662642661
 10
39.8525741494
 20
26.1512087995
 10
39.93290543110001
 20
26.1333551629
 10
40.0141920558
 20
26.1226195371
 10
40.0957399339
 20
26.11901999440001
  0
LINE
  5
14DF
330
225
100
AcDbEntity
  8
0
  6
Continuous
 62
     7
100
AcDbLine
 10
39.8022548935
 20
26.1662642661
 30
0.0
 11
39.7525698937
 21
26.184243
 31
0.0
  0
LINE
  5
14E0
330
225
100
AcDbEntity
  8
0
  6
Continuous
 62
     7
100
AcDbLine
 10
38.7009040815
 20
27.7554542102
 30
0.0
 11
38.71462902
 21
27.7504671667
 31
0.0
  0
LINE
  5
14E1
330
225
100
AcDbEntity
  8
0
  6
Continuous
 62
     7
100
AcDbLine
 10
38.7142687647
 20
27.7506070276
 30
0.0
 11
38.7308907419
 21
27.7436490622
 31
0.0
  0
LINE
  5
14E2
330
225
100
AcDbEntity
  8
0
  6
Continuous
 62
     7
100
AcDbLine
 10
38.7304638542
 20
27.7438407718
 30
0.0
 11
38.7496806905
 21
27.7345112329
 31
0.0
  0
LINE
  5
14E3
330
225
100
AcDbEntity
  8
0
  6
Continuous
 62
     7
100
AcDbLine
 10
38.749232064
 20
27.7347456701
 30
0.0
 11
38.7704281983
 21
27.7227535217
 31
0.0
  0
LWPOLYLINE
  5
14E4
330
225
100
AcDbEntity
  8
0
  6
Continuous
 62
     7
100
AcDbPolyline
 90
        5
 70
     0
 43
0.0
 10
68.7308921696
 20
27.7229830883
 10
68.73863941340001
 20
27.7251405529
 10
68.7438978067
 20
27.7264409259
 10
68.74675150199999
 20
27.7270729271
 10
68.74735650959999
 20
27.7271956971
  0
LINE
  5
14E5
330
225
100
AcDbEntity
  8
0
  6
Continuous
 62
     7
100
AcDbLine
 10
67.50159817800001
 20
26.1333551636
 30
0.0
 11
67.5819294616
 21
26.1512088011
 31
0.0
  0
LINE
  5
14E6
330
225
100
AcDbEntity
  8
0
  6
Continuous
 62
     7
100
AcDbLine
 10
68.7467617864
 20
27.7270750141
 30
0.0
 11
68.74735755439999
 21
27.7271958998
 31
0.0
  0
LINE
  5
14E7
330
225
100
AcDbEntity
  8
0
  6
Continuous
 62
     7
100
AcDbLine
 10
67.47853641520001
 20
26.1295752049
 30
0.0
 11
67.5477406014
 21
26.14270551300001
 31
0.0
  0
LINE
  5
14E8
330
225
100
AcDbEntity
  8
0
  6
Continuous
 62
     7
100
AcDbLine
 10
68.74735755439999
 20
27.7271958998
 30
0.0
 11
68.74685644989999
 21
27.7271063073
 31
0.0
  0
LINE
  5
14E9
330
225
100
AcDbEntity
  8
0
  6
Continuous
 62
     7
100
AcDbLine
 10
67.4203115519
 20
26.1226195373
 30
0.0
 11
67.50159817800001
 21
26.1333551636
 31
0.0
  0
LINE
  5
14EA
330
225
100
AcDbEntity
  8
0
  6
Continuous
 62
     7
100
AcDbLine
 10
67.40851214770001
 20
26.1216574465
 30
0.0
 11
67.47853641520001
 21
26.1295752049
 31
0.0
  0
LWPOLYLINE
  5
14EB
330
225
100
AcDbEntity
  8
0
  6
Continuous
 62
     7
100
AcDbPolyline
 90
        6
 70
     0
 43
0.0
 10
38.6729243228
 20
27.7632910132
 10
38.6724127032
 20
27.7633836654
 10
38.6734382996
 20
27.7631759576
 10
38.676724887
 20
27.7624442682
 10
38.68236619400001
 20
27.7610405875
 10
38.6904736319
 20
27.7587676702
  0
LWPOLYLINE
  5
14EC
330
225
100
AcDbEntity
  8
0
  6
Continuous
 62
     7
100
AcDbPolyline
 90
        3
 70
     0
 43
0.0
 10
38.6714941353
 20
27.7666469072
 10
38.62772935280001
 20
27.775838552
 10
38.5831788332
 20
27.7797562327
  0
LINE
  5
14ED
330
225
100
AcDbEntity
  8
0
  6
Continuous
 62
     7
100
AcDbLine
 10
38.6902671006
 20
27.7588289738
 30
0.0
 11
38.7011836523
 21
27.7553596574
 31
0.0
  0
LINE
  5
14EE
330
225
100
AcDbEntity
  8
0
  6
Continuous
 62
     7
100
AcDbLine
 10
38.7138505563
 20
27.7523120609
 30
0.0
 11
38.6714941353
 21
27.7666469072
 31
0.0
  0
LWPOLYLINE
  5
14EF
330
225
100
AcDbEntity
  8
0
  6
Continuous
 62
     7
100
AcDbPolyline
 90
        6
 70
     0
 43
0.0
 10
68.7309191928
 20
27.7229906138
 10
68.7601485557
 20
27.7263662075
 10
68.79294923729999
 20
27.73102616820001
 10
68.8171259618
 20
27.7355739276
 10
68.83238080699999
 20
27.7399698134
 10
68.8385185162
 20
27.7441788459
  0
LINE
  5
14F0
330
225
100
AcDbEntity
  8
0
  6
Continuous
 62
     7
100
AcDbLine
 10
67.3387636712
 20
26.11901999440001
 30
0.0
 11
67.4203115525
 21
26.1226195373
 31
0.0
  0
LINE
  5
14F1
330
225
100
AcDbEntity
  8
0
  6
Continuous
 62
     7
100
AcDbLine
 10
67.338395163
 20
26.1190199214
 30
0.0
 11
67.40851214770001
 21
26.1216574465
 31
0.0
  0
LINE
  5
14F2
330
225
100
AcDbEntity
  8
0
  6
Continuous
 62
     7
100
AcDbLine
 10
68.3331572163
 20
27.0485395753
 30
0.0
 11
72.33010158519999
 21
27.1779631411
 31
0.0
  0
LINE
  5
14F3
330
225
100
AcDbEntity
  8
0
  6
Continuous
 62
     7
100
AcDbLine
 10
72.33010158519999
 20
27.1779631411
 30
0.0
 11
72.3613352152
 21
27.1789745057
 31
0.0
  0
LINE
  5
14F4
330
225
100
AcDbEntity
  8
0
  6
Continuous
 62
     7
100
AcDbLine
 10
68.8214054629
 20
27.752209689
 30
0.0
 11
74.2167993251
 21
27.9269159266
 31
0.0
  0
LWPOLYLINE
  5
14F5
330
225
100
AcDbEntity
  8
0
  6
Continuous
 62
     7
100
AcDbPolyline
 90
        4
 70
     0
 43
0.0
 10
72.31182276990001
 20
27.7444804045
 10
70.87331785199999
 20
27.6981664986
 10
69.57196491720001
 20
27.6562970555
 10
68.574592341
 20
27.6242311779
  0
LWPOLYLINE
  5
14F6
330
225
100
AcDbEntity
  8
0
  6
Continuous
 62
     7
100
AcDbPolyline
 90
       13
 70
     0
 43
0.0
 10
73.1534357149
 20
27.7689864141
 10
73.0980420362
 20
27.7675315716
 10
73.03828076810001
 20
27.7659369925
 10
72.97513572879999
 20
27.7642239908
 10
72.9094081021
 20
27.7624103338
 10
72.8417224264
 20
27.7605100437
 10
72.77225581439999
 20
27.7585253256
 10
72.70077121949999
 20
27.7564464765
 10
72.62705892619999
 20
27.7542639906
 10
72.55117477849999
 20
27.7519757955
 10
72.4732543474
 20
27.7495822337
 10
72.3934358803
 20
27.747083939
 10
72.31182277229999
 20
27.7444803317
  0
LWPOLYLINE
  5
14F7
330
225
100
AcDbEntity
  8
0
  6
Continuous
 62
     7
100
AcDbPolyline
 90
       19
 70
     0
 43
0.0
 10
67.32866819759999
 20
27.7601277482
 10
66.4477581064
 20
27.7370861529
 10
65.60226242839999
 20
27.7153540178
 10
64.784493611
 20
27.6947372072
 10
63.9863091043
 20
27.675045855
 10
63.2029805308
 20
27.6561915136
 10
62.4340240422
 20
27.6381997599
 10
61.67796157689999
 20
27.6210812143
 10
60.9321405625
 20
27.6048336059
 10
60.19547754560001
 20
27.5895066554
 10
59.4680229822
 20
27.5751902878
 10
58.7505701307
 20
27.562004778
 10
58.04525451149999
 20
27.5501078459
 10
57.3557587777
 20
27.5396872197
 10
56.6873947855
 20
27.5309435345
 10
56.04606566010001
 20
27.52405210800001
 10
55.43809768
 20
27.5191362254
 10
54.8694959696
 20
27.5162353141
 10
54.338395163
 20
27.5152844787
  0
LINE
  5
14F8
330
225
100
AcDbEntity
  8
0
  6
Continuous
 62
     7
100
AcDbLine
 10
73.2474690472
 20
27.7714044507
 30
0.0
 11
73.1534357149
 21
27.7689864141
 31
0.0
  0
LINE
  5
14F9
330
225
100
AcDbEntity
  8
0
  6
Continuous
 62
     7
100
AcDbLine
 10
73.35878446689999
 20
27.7741803946
 30
0.0
 11
73.2474690472
 21
27.7714044507
 31
0.0
  0
LINE
  5
14FA
330
225
100
AcDbEntity
  8
0
  6
Continuous
 62
     7
100
AcDbLine
 10
73.37298819049999
 20
27.7745272567
 30
0.0
 11
73.35878446689999
 21
27.7741803946
 31
0.0
  0
LINE
  5
14FB
330
225
100
AcDbEntity
  8
0
  6
Continuous
 62
     7
100
AcDbLine
 10
65.9992001504
 20
27.8797427575
 30
0.0
 11
66.3999468144
 21
27.8853144604
 31
0.0
  0
LINE
  5
14FC
330
225
100
AcDbEntity
  8
0
  6
Continuous
 62
     7
100
AcDbLine
 10
40.0961084421
 20
26.1190199214
 30
0.0
 11
67.338395163
 21
26.1190199214
 31
0.0
  0
LWPOLYLINE
  5
14FD
330
225
100
AcDbEntity
  8
0
  6
Continuous
 62
     7
100
AcDbPolyline
 90
       21
 70
     0
 43
0.0
 10
54.338395163
 20
27.5152844784
 10
53.82537637409999
 20
27.5161733176
 10
53.2756595066
 20
27.5188946119
 10
52.6886939034
 20
27.523511017
 10
52.07015014159999
 20
27.5299895456
 10
51.4253531533
 20
27.538228417
 10
50.759911016
 20
27.548070861
 10
50.0788681862
 20
27.5593342821
 10
49.3858628129
 20
27.571843492
 10
48.6831660556
 20
27.585447062
 10
47.97184661
 20
27.6000250166
 10
47.2520123918
 20
27.61548979760001
 10
46.5229264247
 20
27.63178610280001
 10
45.78316422199999
 20
27.6488879359
 10
45.0308247168
 20
27.6667931757
 10
44.26368719
 20
27.6855186816
 10
43.47916344279999
 20
27.7051002524
 10
42.67429913339999
 20
27.7255916072
 10
41.8461929111
 20
27.7470526448
 10
40.99149848599999
 20
27.76956118260001
 10
40.1060385366
 20
27.7932231117
  0
LINE
  5
14FE
330
225
100
AcDbEntity
  8
0
  6
Continuous
 62
     7
100
AcDbLine
 10
39.2485572231
 20
27.9424957507
 30
0.0
 11
39.7987084839
 21
27.9342591376
 31
0.0
  0
LINE
  5
14FF
330
225
100
AcDbEntity
  8
0
  6
Continuous
 62
     7
100
AcDbLine
 10
39.7987084839
 20
27.9342591376
 30
0.0
 11
40.17430798689999
 21
27.9285518936
 31
0.0
  0
LINE
  5
1500
330
225
100
AcDbEntity
  8
0
  6
Continuous
 62
     7
100
AcDbLine
 10
40.17430798689999
 20
27.9285518936
 30
0.0
 11
40.6900298511
 21
27.9206198191
 31
0.0
  0
LWPOLYLINE
  5
1501
330
225
100
AcDbEntity
  8
0
  6
Continuous
 62
     7
100
AcDbPolyline
 90
        5
 70
     0
 43
0.0
 10
40.6900298511
 20
27.9206198191
 10
41.1234663839
 20
27.9138803876
 10
41.3762484336
 20
27.9099237373
 10
41.65392891399999
 20
27.9055580837
 10
41.9607100905
 20
27.9007145888
  0
LWPOLYLINE
  5
1502
330
225
100
AcDbEntity
  8
0
  6
Continuous
 62
     7
100
AcDbPolyline
 90
       15
 70
     0
 43
0.0
 10
41.9607100905
 20
27.9007145888
 10
43.09888858369999
 20
27.8826193066
 10
43.56653882129999
 20
27.8751579277
 10
44.0884606107
 20
27.8668362723
 10
44.67271390649999
 20
27.8575514013
 10
45.3281795514
 20
27.8472079559
 10
46.0663002114
 20
27.8357052082
 10
46.90004039979999
 20
27.8229808387
 10
47.8455675547
 20
27.8090319136
 10
48.9320144992
 20
27.793877218
 10
50.1548124106
 20
27.7783698901
 10
51.35729264560001
 20
27.7653418206
 10
52.44759375770001
 20
27.7561433494
 10
53.4318730701
 20
27.7507115192
 10
54.338395163
 20
27.7488901416
  0
LINE
  5
1503
330
225
100
AcDbEntity
  8
0
  6
Continuous
 62
     7
100
AcDbLine
 10
33.3669131971
 20
27.8376905419
 30
0.0
 11
33.3048497419
 21
27.8392545859
 31
0.0
  0
LINE
  5
1504
330
225
100
AcDbEntity
  8
0
  6
Continuous
 62
     7
100
AcDbLine
 10
33.4427765665
 20
27.8357406886
 30
0.0
 11
33.3669131971
 21
27.8376905419
 31
0.0
  0
LWPOLYLINE
  5
1505
330
225
100
AcDbEntity
  8
0
  6
Continuous
 62
     7
100
AcDbPolyline
 90
       25
 70
     0
 43
0.0
 10
40.1060385365
 20
27.7932231115
 10
40.03233403329999
 20
27.7951383964
 10
39.9588198344
 20
27.7969139048
 10
39.885014574
 20
27.7985605162
 10
39.8104588624
 20
27.8000840185
 10
39.7347426607
 20
27.8014844413
 10
39.6574974968
 20
27.8027557852
 10
39.5784450894
 20
27.8038863431
 10
39.4972097438
 20
27.8048547647
 10
39.4132687407
 20
27.805642703
 10
39.3260980286
 20
27.8062070248
 10
39.2363888231
 20
27.8064952568
 10
39.1465786892
 20
27.8064472241
 10
39.0608127828
 20
27.8060283369
 10
38.9814151469
 20
27.80525374030001
 10
38.9080521195
 20
27.8041213276
 10
38.8409789304
 20
27.8026347593
 10
38.78082458610001
 20
27.8008105657
 10
38.728189882
 20
27.7986612536
 10
38.6834465759
 20
27.7962098243
 10
38.6466473295
 20
27.7934538551
 10
38.6179700654
 20
27.7904037808
 10
38.5977171017
 20
27.7870851004
 10
38.58608851360001
 20
27.7835253344
 10
38.5831788332
 20
27.7797562327
  0
LWPOLYLINE
  5
1506
330
225
100
AcDbEntity
  8
0
  6
Continuous
 62
     7
100
AcDbPolyline
 90
       13
 70
     0
 43
0.0
 10
34.3660140114
 20
27.8088845964
 10
34.2799762383
 20
27.8116320659
 10
34.19561839510001
 20
27.8142761831
 10
34.1133617612
 20
27.8168076046
 10
34.0336164163
 20
27.8192177806
 10
33.9565481879
 20
27.8215061718
 10
33.8816953719
 20
27.8236904662
 10
33.8089263551
 20
27.8257778642
 10
33.7383586852
 20
27.827768186
 10
33.6704566623
 20
27.8296517887
 10
33.6059494621
 20
27.8314125271
 10
33.5457501373
 20
27.8330303781
 10
33.4427765665
 20
27.8357406886
  0
LWPOLYLINE
  5
1507
330
225
100
AcDbEntity
  8
0
  6
Continuous
 62
     7
100
AcDbPolyline
 90
        3
 70
     0
 43
0.0
 10
38.8424246053
 20
27.6647418119
 10
36.4832328505
 20
27.740671363
 10
34.3660140136
 20
27.8088846639
  0
LINE
  5
1508
330
225
100
AcDbEntity
  8
0
  6
Continuous
 62
     7
100
AcDbLine
 10
39.0865307022
 20
27.0892453398
 30
0.0
 11
34.347736422
 21
27.2426904711
 31
0.0
  0
LINE
  5
1509
330
225
100
AcDbEntity
  8
0
  6
Continuous
 62
     7
100
AcDbLine
 10
34.347736422
 20
27.2426904711
 30
0.0
 11
34.316502792
 21
27.2437018356
 31
0.0
  0
LINE
  5
150A
330
225
100
AcDbEntity
  8
0
  6
Continuous
 62
     7
100
AcDbLine
 10
38.6314786835
 20
27.7918405388
 30
0.0
 11
32.5107629209
 21
27.9900331545
 31
0.0
  0
LWPOLYLINE
  5
150B
330
225
100
AcDbEntity
  8
0
  6
Continuous
 62
     7
100
AcDbPolyline
 90
        6
 70
     0
 43
0.0
 10
40.0961084421
 20
26.1190199214
 10
40.02599145739999
 20
26.1216574465
 10
39.95596719
 20
26.1295752049
 10
39.8867630037
 20
26.14270551300001
 10
39.81889385090001
 20
26.1609429196
 10
39.8022548934
 20
26.1662642662
  0
LINE
  5
150C
330
225
100
AcDbEntity
  8
0
  6
Continuous
 62
     7
100
AcDbLine
 10
38.6609402434
 20
27.7624766726
 30
0.0
 11
38.6883019853
 21
27.7593764905
 31
0.0
  0
LWPOLYLINE
  5
150D
330
225
100
AcDbEntity
  8
0
  6
Continuous
 62
     7
100
AcDbPolyline
 90
       40
 70
     0
 43
0.0
 10
32.5107629209
 20
27.9900331545
 10
32.51855233340001
 20
27.9902080991
 10
32.5413807121
 20
27.9906654261
 10
32.5746645004
 20
27.9912558327
 10
32.6145311081
 20
27.9918834455
 10
32.6585462317
 20
27.9925006707
 10
32.7046158753
 20
27.9930792309
 10
32.7513410454
 20
27.9936054609
 10
32.7976416483
 20
27.9940736613
 10
32.8430127184
 20
27.9944866145
 10
32.8896918229
 20
27.9948689367
 10
32.9405673655
 20
27.9952413727
 10
32.9954042539
 20
27.9955962948
 10
33.0531102961
 20
27.9959229957
 10
33.1139945538
 20
27.9962207606
 10
33.1792690001
 20
27.996490486
 10
33.24855325770001
 20
27.9967245798
 10
33.3199757841
 20
27.9969136699
 10
33.3963399899
 20
27.9970615295
 10
33.4845369984
 20
27.9971679206
 10
33.5895774117
 20
27.997212378
 10
33.7146751298
 20
27.9971600484
 10
33.8641439661
 20
27.9969620034
 10
34.04496767739999
 20
27.9965441993
 10
34.2652351379
 20
27.99580082
 10
34.5333485526
 20
27.9945925428
 10
34.8444979565
 20
27.9928270871
 10
35.16427805030001
 20
27.9906549466
 10
35.4621846936
 20
27.9883432425
 10
35.732841155
 20
27.986026442
 10
35.9798800997
 20
27.9837458371
 10
36.2060465095
 20
27.9815283154
 10
36.4122046322
 20
27.979405612
 10
36.601041694
 20
27.9773810851
 10
36.7757618925
 20
27.9754428073
 10
36.9364367736
 20
27.9736071596
 10
37.0826963808
 20
27.9718933299
 10
37.2162350607
 20
27.9702939213
 10
37.3394625021
 20
27.9687894624
 10
37.45458043380001
 20
27.9673598824
  0
LINE
  5
150E
330
225
100
AcDbEntity
  8
0
  6
Continuous
 62
     7
100
AcDbLine
 10
66.3999468144
 20
27.8853144604
 30
0.0
 11
66.7398331196
 21
27.8899831669
 31
0.0
  0
LINE
  5
150F
330
225
100
AcDbEntity
  8
0
  6
Continuous
 62
     7
100
AcDbLine
 10
66.7398331196
 20
27.8899831669
 30
0.0
 11
67.0257106712
 21
27.8938641056
 31
0.0
  0
LWPOLYLINE
  5
1510
330
225
100
AcDbEntity
  8
0
  6
Continuous
 62
     7
100
AcDbPolyline
 90
        3
 70
     0
 43
0.0
 10
67.0257106712
 20
27.8938641056
 10
67.2713450096
 20
27.8971615015
 10
67.38677674839999
 20
27.8986982517
  0
LINE
  5
1511
330
225
100
AcDbEntity
  8
0
  6
Continuous
 62
     7
100
AcDbLine
 10
67.38677674839999
 20
27.8986982517
 30
0.0
 11
67.60450635009999
 21
27.9015731488
 31
0.0
  0
LWPOLYLINE
  5
1512
330
225
100
AcDbEntity
  8
0
  6
Continuous
 62
     7
100
AcDbPolyline
 90
        3
 70
     0
 43
0.0
 10
67.60450635009999
 20
27.9015731488
 10
67.7990701301
 20
27.9041144264
 10
67.8915578978
 20
27.9053128016
  0
LINE
  5
1513
330
225
100
AcDbEntity
  8
0
  6
Continuous
 62
     7
100
AcDbLine
 10
67.8915578978
 20
27.9053128016
 30
0.0
 11
68.0740840438
 21
27.9076586879
 31
0.0
  0
LINE
  5
1514
330
225
100
AcDbEntity
  8
0
  6
Continuous
 62
     7
100
AcDbLine
 10
68.0740840438
 20
27.9076586879
 30
0.0
 11
68.2584992794
 21
27.9100017439
 31
0.0
  0
LWPOLYLINE
  5
1515
330
225
100
AcDbEntity
  8
0
  6
Continuous
 62
     7
100
AcDbPolyline
 90
        3
 70
     0
 43
0.0
 10
68.2584992794
 20
27.9100017439
 10
68.44095761369999
 20
27.9122917209
 10
68.5278359067
 20
27.9133719651
  0
LINE
  5
1516
330
225
100
AcDbEntity
  8
0
  6
Continuous
 62
     7
100
AcDbLine
 10
68.5278359067
 20
27.9133719651
 30
0.0
 11
68.6912113193
 21
27.9153842906
 31
0.0
  0
LINE
  5
1517
330
225
100
AcDbEntity
  8
0
  6
Continuous
 62
     7
100
AcDbLine
 10
68.6912113193
 20
27.9153842906
 30
0.0
 11
68.8463024799
 21
27.9172626747
 31
0.0
  0
LINE
  5
1518
330
225
100
AcDbEntity
  8
0
  6
Continuous
 62
     7
100
AcDbLine
 10
68.8463024799
 20
27.9172626747
 30
0.0
 11
68.9991882776
 21
27.9190711702
 31
0.0
  0
LINE
  5
1519
330
225
100
AcDbEntity
  8
0
  6
Continuous
 62
     7
100
AcDbLine
 10
68.9991882776
 20
27.9190711702
 30
0.0
 11
69.1582436908
 21
27.9209016683
 31
0.0
  0
LWPOLYLINE
  5
151A
330
225
100
AcDbEntity
  8
0
  6
Continuous
 62
     7
100
AcDbPolyline
 90
       31
 70
     0
 43
0.0
 10
69.1582436908
 20
27.9209016683
 10
69.3475931562
 20
27.923013277
 10
69.45783116140001
 20
27.9242080882
 10
69.5783260081
 20
27.9254838866
 10
69.70873792659999
 20
27.926828085
 10
69.8499806808
 20
27.9282396806
 10
70.0044983554
 20
27.9297294569
 10
70.17449255629999
 20
27.9313001552
 10
70.36067151240001
 20
27.9329347404
 10
70.56445936029999
 20
27.9346162187
 10
70.78924684659999
 20
27.9363330213
 10
71.03778832479999
 20
27.93805115650001
 10
71.3117361871
 20
27.9397072302
 10
71.6028984747
 20
27.9411673468
 10
71.8912922607
 20
27.9422751172
 10
72.16193598550001
 20
27.9429687885
 10
72.41111288669999
 20
27.943270543
 10
72.64006929779999
 20
27.943224161
 10
72.8505334277
 20
27.9428678381
 10
73.04412071689999
 20
27.9422331183
 10
73.22192467189999
 20
27.9413509441
 10
73.3844964804
 20
27.9402534371
 10
73.53251413629999
 20
27.9389687789
 10
73.66674624149999
 20
27.9375244725
 10
73.7873835146
 20
27.9359581233
 10
73.89408325579999
 20
27.9343167424
 10
73.98685125819999
 20
27.9326456194
 10
74.0653871401
 20
27.931007771
 10
74.12743043759999
 20
27.929529416
 10
74.1708289457
 20
27.9283624521
 10
74.19810476000001
 20
27.9275444534
  0
LWPOLYLINE
  5
151B
330
225
100
AcDbEntity
  8
0
  6
Continuous
 62
     7
100
AcDbPolyline
 90
       21
 70
     0
 43
0.0
 10
54.338395163
 20
27.7488901416
 10
55.1475652255
 20
27.7503179654
 10
56.05701430989999
 20
27.7548042883
 10
57.0852833429
 20
27.7626869331
 10
58.1212963464
 20
27.7728930639
 10
59.0586507557
 20
27.7835868629
 10
59.89608323689999
 20
27.794019148
 10
60.6501349938
 20
27.8039483474
 10
61.3309625522
 20
27.8132418697
 10
61.94772356579999
 20
27.8218607756
 10
62.507643138
 20
27.8298037437
 10
63.0165777995
 20
27.8370891852
 10
63.4798460142
 20
27.8437529224
 10
63.9020367124
 20
27.849836403
 10
64.2872430516
 20
27.855383955
 10
64.639084646
 20
27.8604396348
 10
64.9606892508
 20
27.8650447866
 10
65.2550732727
 20
27.8692418168
 10
65.52491384149999
 20
27.8730697537
 10
65.7722679859
 20
27.8765595504
 10
65.9992001504
 20
27.8797427575
  0
LINE
  5
151C
330
225
100
AcDbEntity
  8
0
  6
Continuous
 62
     7
100
AcDbLine
 10
37.45458043380001
 20
27.9673598824
 30
0.0
 11
37.66027553340001
 21
27.9647491932
 31
0.0
  0
LINE
  5
151D
330
225
100
AcDbEntity
  8
0
  6
Continuous
 62
     7
100
AcDbLine
 10
37.66027553340001
 20
27.9647491932
 30
0.0
 11
37.8273731609
 21
27.96257698030001
 31
0.0
  0
LINE
  5
151E
330
225
100
AcDbEntity
  8
0
  6
Continuous
 62
     7
100
AcDbLine
 10
37.8273731609
 20
27.96257698030001
 30
0.0
 11
38.01738756800001
 21
27.9600528498
 31
0.0
  0
LINE
  5
151F
330
225
100
AcDbEntity
  8
0
  6
Continuous
 62
     7
100
AcDbLine
 10
38.01738756800001
 20
27.9600528498
 30
0.0
 11
38.2133052262
 21
27.9573914992
 31
0.0
  0
LINE
  5
1520
330
225
100
AcDbEntity
  8
0
  6
Continuous
 62
     7
100
AcDbLine
 10
38.2133052262
 20
27.9573914992
 30
0.0
 11
38.4503360525
 21
27.9540952476
 31
0.0
  0
LINE
  5
1521
330
225
100
AcDbEntity
  8
0
  6
Continuous
 62
     7
100
AcDbLine
 10
38.4503360525
 20
27.9540952476
 30
0.0
 11
38.5939049749
 21
27.9520589689
 31
0.0
  0
LINE
  5
1522
330
225
100
AcDbEntity
  8
0
  6
Continuous
 62
     7
100
AcDbLine
 10
38.5939049749
 20
27.9520589689
 30
0.0
 11
38.8724615968
 21
27.9480292541
 31
0.0
  0
LWPOLYLINE
  5
1523
330
225
100
AcDbEntity
  8
0
  6
Continuous
 62
     7
100
AcDbPolyline
 90
        4
 70
     0
 43
0.0
 10
38.8724615968
 20
27.9480292541
 10
39.11310269699999
 20
27.9444994877
 10
39.1798250998
 20
27.9435139372
 10
39.2485572231
 20
27.9424957507
  0
LINE
  5
1524
330
225
100
AcDbEntity
  8
0
  6
Continuous
 62
     7
100
AcDbLine
 10
74.19810476000001
 20
27.9275444534
 30
0.0
 11
74.2167993251
 21
27.9269159266
 31
0.0
  0
LWPOLYLINE
  5
1525
330
225
100
AcDbEntity
  8
0
  6
Continuous
 62
     7
100
AcDbPolyline
 90
       25
 70
     0
 43
0.0
 10
68.8385184973
 20
27.7441788341
 10
68.8357285078
 20
27.7480374109
 10
68.8244032441
 20
27.7516909051
 10
68.8046796455
 20
27.75510419110001
 10
68.77680755829999
 20
27.7582499289
 10
68.7410085045
 20
27.7611127116
 10
68.6974454777
 20
27.7636798535
 10
68.6462927003
 20
27.765949319
 10
68.58775758829999
 20
27.7679041038
 10
68.522366619
 20
27.7695308688
 10
68.45076608140001
 20
27.7708116855
 10
68.37314047399999
 20
27.7717382753
 10
68.29013295979999
 20
27.7723137752
 10
68.20332805159999
 20
27.7725244185
 10
68.1149937108
 20
27.7723972866
 10
68.0276029708
 20
27.7719720908
 10
67.9424401528
 20
27.7712946056
 10
67.8596129697
 20
27.7704116621
 10
67.77914968499999
 20
27.7693503893
 10
67.70087547039999
 20
27.7681388706
 10
67.62449629789999
 20
27.7667931257
 10
67.54962094699999
 20
27.7653219687
 10
67.47575909689999
 20
27.7637264636
 10
67.40231515959999
 20
27.7619995481
 10
67.32866819759999
 20
27.7601277485
  0
LINE
  5
1526
330
225
100
AcDbEntity
  8
0
  6
Continuous
 62
     7
100
AcDbLine
 10
68.6916273805
 20
27.7084202421
 30
0.0
 11
68.7075974188
 21
27.71504649320001
 31
0.0
  0
LINE
  5
1527
330
225
100
AcDbEntity
  8
0
  6
Continuous
 62
     7
100
AcDbLine
 10
68.7075095445
 20
27.7150126554
 30
0.0
 11
68.720635591
 21
27.7197454067
 31
0.0
  0
LINE
  5
1528
330
225
100
AcDbEntity
  8
0
  6
Continuous
 62
     7
100
AcDbLine
 10
68.72055801630001
 20
27.7197193536
 30
0.0
 11
68.7309208425
 21
27.7229908043
 31
0.0
  0
LINE
  5
1529
330
225
100
AcDbEntity
  8
0
  6
Continuous
 62
     7
100
AcDbLine
 10
67.5819294603
 20
26.1512088008
 30
0.0
 11
67.6322487115
 21
26.1662642661
 31
0.0
  0
LINE
  5
152A
330
225
100
AcDbEntity
  8
0
  6
Continuous
 62
     7
100
AcDbLine
 10
21.46965083125975
 20
46.4690199214
 30
0.0
 11
87.20713949475559
 21
46.4690199214
 31
0.0
  0
LINE
  5
152B
330
225
100
AcDbEntity
  8
0
  6
Continuous
 62
     7
100
AcDbLine
 10
68.6078662658
 20
27.6561460935
 30
0.0
 11
68.6305632272
 21
27.6735893145
 31
0.0
  0
LINE
  5
152C
330
225
100
AcDbEntity
  8
0
  6
Continuous
 62
     7
100
AcDbLine
 10
67.8461898846
 20
26.2987556613
 30
0.0
 11
67.8018553477
 21
26.2676578336
 31
0.0
  0
LINE
  5
152D
330
225
100
AcDbEntity
  8
0
  6
Continuous
 62
     7
100
AcDbLine
 10
67.8018553477
 20
26.2676578336
 30
0.0
 11
67.76309069479999
 21
26.2405513236
 31
0.0
  0
LINE
  5
152E
330
225
100
AcDbEntity
  8
0
  6
Continuous
 62
     7
100
AcDbLine
 10
68.0405702526
 20
26.4353630125
 30
0.0
 11
68.02770072760001
 21
26.4263526907
 31
0.0
  0
LINE
  5
152F
330
225
100
AcDbEntity
  8
0
  6
Continuous
 62
     7
100
AcDbLine
 10
67.76309069479999
 20
26.2405513236
 30
0.0
 11
67.73281838549999
 21
26.2194513637
 31
0.0
  0
LINE
  5
1530
330
225
100
AcDbEntity
  8
0
  6
Continuous
 62
     7
100
AcDbLine
 10
67.73281838549999
 20
26.2194513637
 30
0.0
 11
67.71040575659999
 21
26.2038896627
 31
0.0
  0
LINE
  5
1531
330
225
100
AcDbEntity
  8
0
  6
Continuous
 62
     7
100
AcDbLine
 10
67.71040575659999
 20
26.2038896627
 30
0.0
 11
67.6946956283
 21
26.1930305719
 31
0.0
  0
LWPOLYLINE
  5
1532
330
225
100
AcDbEntity
  8
0
  6
Continuous
 62
     7
100
AcDbPolyline
 90
        3
 70
     0
 43
0.0
 10
67.6946956283
 20
26.1930305719
 10
67.68514977969999
 20
26.1864568103
 10
67.68193371149999
 20
26.184243
  0
LINE
  5
1533
330
225
100
AcDbEntity
  8
0
  6
Continuous
 62
     7
100
AcDbLine
 10
68.6304766371
 20
27.6735279859
 30
0.0
 11
68.6525620789
 21
27.6879996662
 31
0.0
  0
LINE
  5
1534
330
225
100
AcDbEntity
  8
0
  6
Continuous
 62
     7
100
AcDbLine
 10
68.65246746629999
 20
27.6879424715
 30
0.0
 11
68.6731957693
 21
27.6995571131
 31
0.0
  0
LINE
  5
1535
330
225
100
AcDbEntity
  8
0
  6
Continuous
 62
     7
100
AcDbLine
 10
68.6730981235
 20
27.6995065835
 30
0.0
 11
68.69172267260001
 21
27.7084626406
 31
0.0
  0
LINE
  5
1536
330
225
100
AcDbEntity
  8
0
  6
Continuous
 62
     7
100
AcDbLine
 10
67.6322487115
 20
26.1662642661
 30
0.0
 11
67.68193371149999
 21
26.184243
 31
0.0
  0
LINE
  5
1537
330
225
100
AcDbEntity
  8
0
  6
Continuous
 62
     7
100
AcDbLine
 10
21.7424779565
 20
46.9690199214
 30
0.0
 11
86.93431236950001
 21
46.9690199214
 31
0.0
  0
LINE
  5
1538
330
225
100
AcDbEntity
  8
0
  6
Continuous
 62
     7
100
AcDbLine
 10
68.219356995
 20
26.735876037
 30
0.0
 11
68.4966776805
 21
27.4978083585
 31
0.0
  0
LWPOLYLINE
  5
1539
330
225
100
AcDbEntity
  8
0
  6
Continuous
 62
     7
100
AcDbPolyline
 90
        5
 70
     0
 43
0.0
 10
68.49667801619999
 20
27.497809379
 10
68.50664516640001
 20
27.5224270148
 10
68.52336875919999
 20
27.5553538337
 10
68.5424096703
 20
27.5852425384
 10
68.5632211505
 20
27.6120245416
  0
LWPOLYLINE
  5
153A
330
225
100
AcDbEntity
  8
0
  6
Continuous
 62
     7
100
AcDbPolyline
 90
       11
 70
     0
 43
0.0
 10
68.49667764899999
 20
27.49780837
 10
68.5144506912
 20
27.5388353839
 10
68.53698705229999
 20
27.5774525705
 10
68.563965919
 20
27.6131102001
 10
68.59500323729999
 20
27.6453006735
 10
68.6296571797
 20
27.6735657475
 10
68.6674344348
 20
27.69750305860001
 10
68.7077972298
 20
27.7167718506
 10
68.7501709855
 20
27.7310978251
 10
68.79395249619999
 20
27.7402770467
 10
68.8385185162
 20
27.7441788459
  0
LWPOLYLINE
  5
153B
330
225
100
AcDbEntity
  8
0
  6
Continuous
 62
     7
100
AcDbPolyline
 90
        6
 70
     0
 43
0.0
 10
68.0405702526
 20
26.4353630125
 10
68.08514920489999
 20
26.4897179307
 10
68.125499406
 20
26.5472565354
 10
68.1615071085
 20
26.607796395
 10
68.19289709669999
 20
26.670889679
 10
68.219356995
 20
26.735876037
  0
LINE
  5
153C
330
225
100
AcDbEntity
  8
0
  6
Continuous
 62
     7
100
AcDbLine
 10
68.5632211505
 20
27.6120245416
 30
0.0
 11
68.58530843310001
 21
27.6357290023
 31
0.0
  0
LINE
  5
153D
330
225
100
AcDbEntity
  8
0
  6
Continuous
 62
     7
100
AcDbLine
 10
68.58524648709999
 20
27.6356680883
 30
0.0
 11
68.6079415552
 21
27.656208761
 31
0.0
  0
LINE
  5
153E
330
225
100
AcDbEntity
  8
0
  6
Continuous
 62
     7
100
AcDbLine
 10
72.9919903052
 20
27.4906446076
 30
0.0
 11
72.96849789390001
 21
27.473331858
 31
0.0
  0
LINE
  5
153F
330
225
100
AcDbEntity
  8
0
  6
Continuous
 62
     7
100
AcDbLine
 10
72.96849789390001
 20
27.473331858
 30
0.0
 11
72.9406044663
 21
27.4528149413
 31
0.0
  0
LWPOLYLINE
  5
1540
330
225
100
AcDbEntity
  8
0
  6
Continuous
 62
     7
100
AcDbPolyline
 90
       15
 70
     0
 43
0.0
 10
72.9406044663
 20
27.4528149413
 10
72.9042384247
 20
27.4261360377
 10
72.8836124576
 20
27.411043222
 10
72.8618314495
 20
27.3951389361
 10
72.83923675060001
 20
27.3786806076
 10
72.81620783689999
 20
27.3619526227
 10
72.7930975835
 20
27.3452187647
 10
72.7703260454
 20
27.328789601
 10
72.74839077279999
 20
27.3130282561
 10
72.72812211989999
 20
27.2985302154
 10
72.7103186012
 20
27.285856867
 10
72.6951105695
 20
27.275084723
 10
72.6822141186
 20
27.2659953537
 10
72.6712127867
 20
27.2582800674
 10
72.6618989392
 20
27.2517801693
  0
LINE
  5
1541
330
225
100
AcDbEntity
  8
0
  6
Continuous
 62
     7
100
AcDbLine
 10
67.8917231497
 20
26.3307444174
 30
0.0
 11
67.8461898846
 21
26.2987556613
 31
0.0
  0
LINE
  5
1542
330
225
100
AcDbEntity
  8
0
  6
Continuous
 62
     7
100
AcDbLine
 10
68.02770072760001
 20
26.4263526907
 30
0.0
 11
67.8917231497
 21
26.3307444174
 31
0.0
  0
LINE
  5
1543
330
225
100
AcDbEntity
  8
0
  6
Continuous
 62
     7
100
AcDbLine
 10
72.6618989392
 20
27.2517801693
 30
0.0
 11
72.64784792090001
 21
27.2420399906
 31
0.0
  0
LINE
  5
1544
330
225
100
AcDbEntity
  8
0
  6
Continuous
 62
     7
100
AcDbLine
 10
72.6365024783
 20
27.2342452806
 30
0.0
 11
72.64784792090001
 21
27.2420399906
 31
0.0
  0
LINE
  5
1545
330
225
100
AcDbEntity
  8
0
  6
Continuous
 62
     7
100
AcDbLine
 10
72.63721768729999
 20
27.234734511
 30
0.0
 11
72.6365024783
 21
27.2342452806
 31
0.0
  0
LWPOLYLINE
  5
1546
330
225
100
AcDbEntity
  8
0
  6
Continuous
 62
     7
100
AcDbPolyline
 90
       12
 70
     0
 43
0.0
 10
23.1885555884
 20
46.9690199214
 10
23.1555770251
 20
46.9667497493
 10
23.1231973976
 20
46.9599804622
 10
23.0920047646
 20
46.9488349996
 10
23.0625656273
 20
46.93351577819999
 10
23.035414641
 20
46.91430101609999
 10
23.0110449052
 20
46.8915396795
 10
22.9898990081
 20
46.8656451457
 10
22.9723609886
 20
46.83708769499999
 10
22.9587493615
 20
46.80638597
 10
22.9493113329
 20
46.7740975567
 10
22.9442183107
 20
46.7408088571
  0
LWPOLYLINE
  5
1547
330
225
100
AcDbEntity
  8
0
  6
Continuous
 62
     7
100
AcDbPolyline
 90
       12
 70
     0
 43
0.0
 10
85.4882346912
 20
46.9690199214
 10
85.52121325459999
 20
46.9667497489
 10
85.5535928818
 20
46.959980461
 10
85.58478551410001
 20
46.9488349972
 10
85.61422465019999
 20
46.93351577449999
 10
85.6413756348
 20
46.91430101119999
 10
85.66574536860001
 20
46.89153967399999
 10
85.68689126370001
 20
46.86564513999999
 10
85.70442928129999
 20
46.83708768979999
 10
85.718040907
 20
46.80638596609999
 10
85.72747893489999
 20
46.77409755449999
 10
85.73257195729999
 20
46.7408088571
  0
LINE
  5
1548
330
225
100
AcDbEntity
  8
0
  6
Continuous
 62
     7
100
AcDbLine
 10
77.3033281228
 20
30.6743613374
 30
0.0
 11
77.3669771546
 21
30.7791066706
 31
0.0
  0
LWPOLYLINE
  5
1549
330
225
100
AcDbEntity
  8
0
  6
Continuous
 62
     7
100
AcDbPolyline
 90
        3
 70
     0
 43
0.0
 10
77.3033281228
 20
30.6743613374
 10
76.8274438816
 20
29.9023393158
 10
76.3429138157
 20
29.1356916714
  0
LWPOLYLINE
  5
154A
330
225
100
AcDbEntity
  8
0
  6
Continuous
 62
     7
100
AcDbPolyline
 90
       10
 70
     0
 43
0.0
 10
84.72673605751049
 20
46.4690199214
 10
84.03300437810001
 20
44.56754377439999
 10
83.3045873522
 20
42.6776823787
 10
82.5751056492
 20
40.9142538128
 10
81.8082155933
 20
39.1776715746
 10
80.9994472854
 20
37.4568790981
 10
80.1504544948
 20
35.7556863288
 10
79.2617627986
 20
34.07514925840001
 10
78.3337794989
 20
32.4160017965
 10
77.3669771546
 20
30.7791066706
  0
LINE
  5
154B
330
225
100
AcDbEntity
  8
0
  6
Continuous
 62
     7
100
AcDbLine
 10
87.183361044
 20
46.7408088571
 30
0.0
 11
87.20713949475559
 21
46.4690199214
 31
0.0
  0
LINE
  5
154C
330
225
100
AcDbEntity
  8
0
  6
Continuous
 62
     7
100
AcDbLine
 10
85.73257195729999
 20
46.7408088571
 30
0.0
 11
85.75590057633437
 21
46.4690199214
 31
0.0
  0
ARC
  5
16E9
330
225
100
AcDbEntity
  8
DEFAULT_2
  6
HIDDEN
 62
     7
100
AcDbCircle
 10
74.1318447045
 20
30.550540845
 30
0.0
 40
2.5
100
AcDbArc
 50
271.8546252662
 51
327.3850661868999
  0
ARC
  5
16EA
330
225
100
AcDbEntity
  8
DEFAULT_2
  6
HIDDEN
 62
     7
100
AcDbCircle
 10
32.59571754119999
 20
30.6136580729
 30
0.0
 40
2.5
100
AcDbArc
 50
206.8495625016
 51
268.1453747393
  0
ARC
  5
16F0
330
225
100
AcDbEntity
  8
DEFAULT_2
  6
HIDDEN
 62
     7
100
AcDbCircle
 10
85.0384596179
 20
46.5940199214
 30
0.0
 40
0.375
100
AcDbArc
 50
89.9999995035
 51
159.9951788858
  0
ARC
  5
16F1
330
225
100
AcDbEntity
  8
DEFAULT_2
  6
HIDDEN
 62
     7
100
AcDbCircle
 10
23.613171077
 20
46.5940199214
 30
0.0
 40
0.375
100
AcDbArc
 50
15.0077647878
 51
90.000000049
  0
ARC
  5
16F4
330
225
100
AcDbEntity
  8
DEFAULT_2
  6
HIDDEN
 62
     7
100
AcDbCircle
 10
56.3202784734
 20
27.2223498412
 30
0.0
 40
0.25
100
AcDbArc
 50
91.85462527620002
 51
134.9999999923
  0
ARC
  5
16F5
330
225
100
AcDbEntity
  8
DEFAULT_2
  6
HIDDEN
 62
     7
100
AcDbCircle
 10
55.60984177239999
 20
27.2190199214
 30
0.0
 40
0.25
100
AcDbArc
 50
270.0
 51
315.0
  0
ARC
  5
16F6
330
225
100
AcDbEntity
  8
DEFAULT_2
  6
HIDDEN
 62
     7
100
AcDbCircle
 10
53.06694855359999
 20
27.2190199214
 30
0.0
 40
0.25
100
AcDbArc
 50
225.0
 51
270.0
  0
ARC
  5
16F7
330
225
100
AcDbEntity
  8
DEFAULT_2
  6
HIDDEN
 62
     7
100
AcDbCircle
 10
52.3565118526
 20
27.2223498412
 30
0.0
 40
0.25
100
AcDbArc
 50
45.0000000118
 51
88.14537472379999
  0
ARC
  5
16FE
330
225
100
AcDbEntity
  8
0
  6
Continuous
 62
     7
100
AcDbCircle
 10
74.1318447045
 20
30.550540845
 30
0.0
 40
2.625
100
AcDbArc
 50
271.8546252672
 51
327.3850664339
  0
ARC
  5
16FF
330
225
100
AcDbEntity
  8
0
  6
Continuous
 62
     7
100
AcDbCircle
 10
32.59571754119999
 20
30.6136580729
 30
0.0
 40
2.625
100
AcDbArc
 50
206.8495625015
 51
268.1453747382
  0
ARC
  5
1700
330
225
100
AcDbEntity
  8
0
  6
Continuous
 62
     7
100
AcDbCircle
 10
72.33382609999999
 20
28.0285292411
 30
0.0
 40
0.85
100
AcDbArc
 50
271.8546252664
 51
290.8602534253
  0
ARC
  5
1701
330
225
100
AcDbEntity
  8
0
  6
Continuous
 62
     7
100
AcDbCircle
 10
72.33382609999999
 20
28.0285292411
 30
0.0
 40
0.85
100
AcDbArc
 50
320.7425931509
 51
329.1153965562
  0
ARC
  5
1702
330
225
100
AcDbEntity
  8
0
  6
Continuous
 62
     7
100
AcDbCircle
 10
34.3440119072
 20
28.09325657110001
 30
0.0
 40
0.85
100
AcDbArc
 50
210.8846036466
 51
219.2574068491
  0
ARC
  5
1703
330
225
100
AcDbEntity
  8
0
  6
Continuous
 62
     7
100
AcDbCircle
 10
34.3440119072
 20
28.09325657110001
 30
0.0
 40
0.85
100
AcDbArc
 50
249.1397465747
 51
268.1453747336
  0
ARC
  5
1704
330
225
100
AcDbEntity
  8
0
  6
Continuous
 62
     7
100
AcDbCircle
 10
73.38512459589999
 20
27.3997237202
 30
0.0
 40
0.3749999892
100
AcDbArc
 50
91.8546187059
 51
149.1153947581
  0
ARC
  5
1705
330
225
100
AcDbEntity
  8
0
  6
Continuous
 62
     7
100
AcDbCircle
 10
33.2927134442
 20
27.4644510495
 30
0.0
 40
0.3749999809
100
AcDbArc
 50
30.8846079035
 51
88.14538632600001
  0
ARC
  5
1706
330
225
100
AcDbEntity
  8
0
  6
Continuous
 62
     7
100
AcDbCircle
 10
86.93431236950001
 20
46.7190199214
 30
0.0
 40
0.25
100
AcDbArc
 50
5.0
 51
90.0
  0
ARC
  5
1707
330
225
100
AcDbEntity
  8
0
  6
Continuous
 62
     7
100
AcDbCircle
 10
21.7424779565
 20
46.7190199214
 30
0.0
 40
0.25
100
AcDbArc
 50
90.0
 51
175.0
  0
ENDSEC
  0
SECTION
  2
OBJECTS
  0
DICTIONARY
  5
C
330
0
100
AcDbDictionary
281
     1
  3
ACAD_CIP_PREVIOUS_PRODUCT_INFO
350
1841
  3
ACAD_COLOR
350
1752
  3
ACAD_DETAILVIEWSTYLE
350
183A
  3
ACAD_GROUP
350
D
  3
ACAD_LAYOUT
350
1A
  3
ACAD_MATERIAL
350
1725
  3
ACAD_MLEADERSTYLE
350
1777
  3
ACAD_MLINESTYLE
350
17
  3
ACAD_PLOTSETTINGS
350
19
  3
ACAD_PLOTSTYLENAME
350
E
  3
ACAD_SCALELIST
350
1755
  3
ACAD_SECTIONVIEWSTYLE
350
1838
  3
ACAD_TABLESTYLE
350
1753
  3
ACAD_VISUALSTYLE
350
173E
  3
ACDB_RECOMPOSE_DATA
350
188B
  3
AcDbVariableDictionary
350
17AD
  0
DICTIONARY
  5
177C
330
8
100
AcDbDictionary
280
     1
281
     1
  0
DICTIONARY
  5
17BC
330
10
100
AcDbDictionary
280
     1
281
     1
  3
ADSK_XREC_LAYER_RECONCILED
360
17BD
  0
DICTIONARY
  5
17BE
330
1FA
100
AcDbDictionary
280
     1
281
     1
  3
ADSK_XREC_LAYER_RECONCILED
360
17BF
  0
DICTIONARY
  5
17C0
330
1FB
100
AcDbDictionary
280
     1
281
     1
  3
ADSK_XREC_LAYER_RECONCILED
360
17C1
  0
DICTIONARY
  5
17C2
330
1FC
100
AcDbDictionary
280
     1
281
     1
  3
ADSK_XREC_LAYER_RECONCILED
360
17C3
  0
DICTIONARY
  5
17C4
330
1FD
100
AcDbDictionary
280
     1
281
     1
  3
ADSK_XREC_LAYER_RECONCILED
360
17C5
  0
DICTIONARY
  5
17C6
330
1FE
100
AcDbDictionary
280
     1
281
     1
  3
ADSK_XREC_LAYER_RECONCILED
360
17C7
  0
DICTIONARY
  5
17C8
330
1FF
100
AcDbDictionary
280
     1
281
     1
  3
ADSK_XREC_LAYER_RECONCILED
360
17C9
  0
DICTIONARY
  5
17CA
330
200
100
AcDbDictionary
280
     1
281
     1
  3
ADSK_XREC_LAYER_RECONCILED
360
17CB
  0
DICTIONARY
  5
17CC
330
201
100
AcDbDictionary
280
     1
281
     1
  3
ADSK_XREC_LAYER_RECONCILED
360
17CD
  0
DICTIONARY
  5
17CE
330
202
100
AcDbDictionary
280
     1
281
     1
  3
ADSK_XREC_LAYER_RECONCILED
360
17CF
  0
DICTIONARY
  5
17D0
330
203
100
AcDbDictionary
280
     1
281
     1
  3
ADSK_XREC_LAYER_RECONCILED
360
17D1
  0
DICTIONARY
  5
17D2
330
204
100
AcDbDictionary
280
     1
281
     1
  3
ADSK_XREC_LAYER_RECONCILED
360
17D3
  0
DICTIONARY
  5
17D4
330
205
100
AcDbDictionary
280
     1
281
     1
  3
ADSK_XREC_LAYER_RECONCILED
360
17D5
  0
DICTIONARY
  5
17D6
330
206
100
AcDbDictionary
280
     1
281
     1
  3
ADSK_XREC_LAYER_RECONCILED
360
17D7
  0
DICTIONARY
  5
17D8
330
207
100
AcDbDictionary
280
     1
281
     1
  3
ADSK_XREC_LAYER_RECONCILED
360
17D9
  0
DICTIONARY
  5
17DA
330
208
100
AcDbDictionary
280
     1
281
     1
  3
ADSK_XREC_LAYER_RECONCILED
360
17DB
  0
DICTIONARY
  5
17DC
330
209
100
AcDbDictionary
280
     1
281
     1
  3
ADSK_XREC_LAYER_RECONCILED
360
17DD
  0
DICTIONARY
  5
17DE
330
20A
100
AcDbDictionary
280
     1
281
     1
  3
ADSK_XREC_LAYER_RECONCILED
360
17DF
  0
DICTIONARY
  5
17E0
330
20B
100
AcDbDictionary
280
     1
281
     1
  3
ADSK_XREC_LAYER_RECONCILED
360
17E1
  0
DICTIONARY
  5
17E2
330
20C
100
AcDbDictionary
280
     1
281
     1
  3
ADSK_XREC_LAYER_RECONCILED
360
17E3
  0
DICTIONARY
  5
17E4
330
20D
100
AcDbDictionary
280
     1
281
     1
  3
ADSK_XREC_LAYER_RECONCILED
360
17E5
  0
DICTIONARY
  5
17E6
330
20E
100
AcDbDictionary
280
     1
281
     1
  3
ADSK_XREC_LAYER_RECONCILED
360
17E7
  0
DICTIONARY
  5
17E8
330
20F
100
AcDbDictionary
280
     1
281
     1
  3
ADSK_XREC_LAYER_RECONCILED
360
17E9
  0
DICTIONARY
  5
17EA
330
210
100
AcDbDictionary
280
     1
281
     1
  3
ADSK_XREC_LAYER_RECONCILED
360
17EB
  0
DICTIONARY
  5
17EC
330
211
100
AcDbDictionary
280
     1
281
     1
  3
ADSK_XREC_LAYER_RECONCILED
360
17ED
  0
DICTIONARY
  5
17EE
330
212
100
AcDbDictionary
280
     1
281
     1
  3
ADSK_XREC_LAYER_RECONCILED
360
17EF
  0
DICTIONARY
  5
17F0
330
213
100
AcDbDictionary
280
     1
281
     1
  3
ADSK_XREC_LAYER_RECONCILED
360
17F1
  0
DICTIONARY
  5
17F2
330
214
100
AcDbDictionary
280
     1
281
     1
  3
ADSK_XREC_LAYER_RECONCILED
360
17F3
  0
DICTIONARY
  5
17F4
330
215
100
AcDbDictionary
280
     1
281
     1
  3
ADSK_XREC_LAYER_RECONCILED
360
17F5
  0
DICTIONARY
  5
17F6
330
216
100
AcDbDictionary
280
     1
281
     1
  3
ADSK_XREC_LAYER_RECONCILED
360
17F7
  0
DICTIONARY
  5
17F8
330
217
100
AcDbDictionary
280
     1
281
     1
  3
ADSK_XREC_LAYER_RECONCILED
360
17F9
  0
DICTIONARY
  5
17FA
330
218
100
AcDbDictionary
280
     1
281
     1
  3
ADSK_XREC_LAYER_RECONCILED
360
17FB
  0
DICTIONARY
  5
17FC
330
219
100
AcDbDictionary
280
     1
281
     1
  3
ADSK_XREC_LAYER_RECONCILED
360
17FD
  0
DICTIONARY
  5
17FE
330
21A
100
AcDbDictionary
280
     1
281
     1
  3
ADSK_XREC_LAYER_RECONCILED
360
17FF
  0
DICTIONARY
  5
1800
330
21B
100
AcDbDictionary
280
     1
281
     1
  3
ADSK_XREC_LAYER_RECONCILED
360
1801
  0
DICTIONARY
  5
1802
330
21C
100
AcDbDictionary
280
     1
281
     1
  3
ADSK_XREC_LAYER_RECONCILED
360
1803
  0
XRECORD
  5
1841
102
{ACAD_REACTORS
330
C
102
}
330
C
100
AcDbXrecord
280
     1
300
ACDLT
300
2016
300
ACDLT_F_S
  0
DICTIONARY
  5
1752
102
{ACAD_REACTORS
330
C
102
}
330
C
100
AcDbDictionary
281
     1
  0
DICTIONARY
  5
183A
102
{ACAD_REACTORS
330
C
102
}
330
C
100
AcDbDictionary
281
     1
  3
Imperial24
350
183B
  0
DICTIONARY
  5
D
102
{ACAD_REACTORS
330
C
102
}
330
C
100
AcDbDictionary
281
     1
  0
DICTIONARY
  5
1A
102
{ACAD_REACTORS
330
C
102
}
330
C
100
AcDbDictionary
281
     1
  3
Layout1
350
1722
  3
Model
350
1721
  0
DICTIONARY
  5
1725
102
{ACAD_REACTORS
330
C
102
}
330
C
100
AcDbDictionary
281
     1
  3
ByBlock
350
172E
  3
ByLayer
350
1726
  3
Global
350
1736
  0
DICTIONARY
  5
1777
102
{ACAD_REACTORS
330
C
102
}
330
C
100
AcDbDictionary
281
     1
  3
Standard
350
1778
  0
DICTIONARY
  5
17
102
{ACAD_REACTORS
330
C
102
}
330
C
100
AcDbDictionary
281
     1
  3
Standard
350
18
  0
DICTIONARY
  5
19
102
{ACAD_REACTORS
330
C
102
}
330
C
100
AcDbDictionary
281
     1
  0
ACDBDICTIONARYWDFLT
  5
E
102
{ACAD_REACTORS
330
C
102
}
330
C
100
AcDbDictionary
281
     1
  3
Normal
350
F
100
AcDbDictionaryWithDefault
340
F
  0
DICTIONARY
  5
1755
102
{ACAD_REACTORS
330
C
102
}
330
C
100
AcDbDictionary
281
     1
  3
A0
350
1756
  3
A1
350
1757
  3
A2
350
1758
  3
A3
350
1759
  3
A4
350
175A
  3
A5
350
175B
  3
A6
350
175C
  3
A7
350
175D
  3
A8
350
175E
  3
A9
350
175F
  3
B0
350
1760
  3
B1
350
1761
  3
B2
350
1762
  3
B3
350
1763
  3
B4
350
1764
  3
B5
350
1765
  3
B6
350
1766
  3
B7
350
1767
  3
B8
350
1768
  3
B9
350
1769
  3
C0
350
176A
  3
C1
350
176B
  3
C2
350
176C
  3
C3
350
176D
  3
C4
350
176E
  3
C5
350
176F
  3
C6
350
1770
  3
C7
350
1771
  3
C8
350
1772
  3
C9
350
1773
  3
D0
350
1774
  3
D1
350
1775
  3
D2
350
1776
  0
DICTIONARY
  5
1838
102
{ACAD_REACTORS
330
C
102
}
330
C
100
AcDbDictionary
281
     1
  3
Imperial24
350
1839
  0
DICTIONARY
  5
1753
102
{ACAD_REACTORS
330
C
102
}
330
C
100
AcDbDictionary
281
     1
  3
Standard
350
1754
  0
DICTIONARY
  5
173E
102
{ACAD_REACTORS
330
C
102
}
330
C
100
AcDbDictionary
281
     1
  3
2dWireframe
350
1744
  3
3D Hidden
350
1746
  3
3dWireframe
350
1745
  3
Basic
350
1743
  3
Brighten
350
174A
  3
ColorChange
350
174E
  3
Conceptual
350
1747
  3
Dim
350
1749
  3
EdgeColorOff
350
1751
  3
Facepattern
350
174D
  3
Flat
350
173F
  3
FlatWithEdges
350
1740
  3
Gouraud
350
1741
  3
GouraudWithEdges
350
1742
  3
Hidden
350
1832
  3
JitterOff
350
174F
  3
Linepattern
350
174C
  3
OverhangOff
350
1750
  3
Realistic
350
1748
  3
Shaded
350
1837
  3
Shaded with edges
350
1836
  3
Shades of Gray
350
1833
  3
Sketchy
350
1834
  3
Thicken
350
174B
  3
Wireframe
350
1831
  3
X-Ray
350
1835
  0
XRECORD
  5
188B
102
{ACAD_REACTORS
330
C
102
}
330
C
100
AcDbXrecord
280
     1
 90
        1
330
1754
  0
DICTIONARY
  5
17AD
102
{ACAD_REACTORS
330
C
102
}
330
C
100
AcDbDictionary
281
     1
  3
CANNOSCALE
350
17B0
  3
CMLEADERSTYLE
350
17AF
  3
CTABLESTYLE
350
17AE
  3
CVIEWDETAILSTYLE
350
1886
  3
CVIEWSECTIONSTYLE
350
1887
  3
DIMASSOC
350
17B3
  3
INDEXCTL
350
17B2
  3
LAYEREVAL
350
1820
  3
LAYERNOTIFY
350
1821
  3
LIGHTINGUNITS
350
181F
  3
MSLTSCALE
350
181E
  3
SOLIDHIST
350
1888
  3
SORTENTS
350
17B1
  3
XCLIPFRAME
350
1889
  0
XRECORD
  5
17BD
102
{ACAD_REACTORS
330
17BC
102
}
330
17BC
100
AcDbXrecord
280
     1
290
     1
  0
XRECORD
  5
17BF
102
{ACAD_REACTORS
330
17BE
102
}
330
17BE
100
AcDbXrecord
280
     1
290
     1
  0
XRECORD
  5
17C1
102
{ACAD_REACTORS
330
17C0
102
}
330
17C0
100
AcDbXrecord
280
     1
290
     1
  0
XRECORD
  5
17C3
102
{ACAD_REACTORS
330
17C2
102
}
330
17C2
100
AcDbXrecord
280
     1
290
     1
  0
XRECORD
  5
17C5
102
{ACAD_REACTORS
330
17C4
102
}
330
17C4
100
AcDbXrecord
280
     1
290
     1
  0
XRECORD
  5
17C7
102
{ACAD_REACTORS
330
17C6
102
}
330
17C6
100
AcDbXrecord
280
     1
290
     1
  0
XRECORD
  5
17C9
102
{ACAD_REACTORS
330
17C8
102
}
330
17C8
100
AcDbXrecord
280
     1
290
     1
  0
XRECORD
  5
17CB
102
{ACAD_REACTORS
330
17CA
102
}
330
17CA
100
AcDbXrecord
280
     1
290
     1
  0
XRECORD
  5
17CD
102
{ACAD_REACTORS
330
17CC
102
}
330
17CC
100
AcDbXrecord
280
     1
290
     1
  0
XRECORD
  5
17CF
102
{ACAD_REACTORS
330
17CE
102
}
330
17CE
100
AcDbXrecord
280
     1
290
     1
  0
XRECORD
  5
17D1
102
{ACAD_REACTORS
330
17D0
102
}
330
17D0
100
AcDbXrecord
280
     1
290
     1
  0
XRECORD
  5
17D3
102
{ACAD_REACTORS
330
17D2
102
}
330
17D2
100
AcDbXrecord
280
     1
290
     1
  0
XRECORD
  5
17D5
102
{ACAD_REACTORS
330
17D4
102
}
330
17D4
100
AcDbXrecord
280
     1
290
     1
  0
XRECORD
  5
17D7
102
{ACAD_REACTORS
330
17D6
102
}
330
17D6
100
AcDbXrecord
280
     1
290
     1
  0
XRECORD
  5
17D9
102
{ACAD_REACTORS
330
17D8
102
}
330
17D8
100
AcDbXrecord
280
     1
290
     1
  0
XRECORD
  5
17DB
102
{ACAD_REACTORS
330
17DA
102
}
330
17DA
100
AcDbXrecord
280
     1
290
     1
  0
XRECORD
  5
17DD
102
{ACAD_REACTORS
330
17DC
102
}
330
17DC
100
AcDbXrecord
280
     1
290
     1
  0
XRECORD
  5
17DF
102
{ACAD_REACTORS
330
17DE
102
}
330
17DE
100
AcDbXrecord
280
     1
290
     1
  0
XRECORD
  5
17E1
102
{ACAD_REACTORS
330
17E0
102
}
330
17E0
100
AcDbXrecord
280
     1
290
     1
  0
XRECORD
  5
17E3
102
{ACAD_REACTORS
330
17E2
102
}
330
17E2
100
AcDbXrecord
280
     1
290
     1
  0
XRECORD
  5
17E5
102
{ACAD_REACTORS
330
17E4
102
}
330
17E4
100
AcDbXrecord
280
     1
290
     1
  0
XRECORD
  5
17E7
102
{ACAD_REACTORS
330
17E6
102
}
330
17E6
100
AcDbXrecord
280
     1
290
     1
  0
XRECORD
  5
17E9
102
{ACAD_REACTORS
330
17E8
102
}
330
17E8
100
AcDbXrecord
280
     1
290
     1
  0
XRECORD
  5
17EB
102
{ACAD_REACTORS
330
17EA
102
}
330
17EA
100
AcDbXrecord
280
     1
290
     1
  0
XRECORD
  5
17ED
102
{ACAD_REACTORS
330
17EC
102
}
330
17EC
100
AcDbXrecord
280
     1
290
     1
  0
XRECORD
  5
17EF
102
{ACAD_REACTORS
330
17EE
102
}
330
17EE
100
AcDbXrecord
280
     1
290
     1
  0
XRECORD
  5
17F1
102
{ACAD_REACTORS
330
17F0
102
}
330
17F0
100
AcDbXrecord
280
     1
290
     1
  0
XRECORD
  5
17F3
102
{ACAD_REACTORS
330
17F2
102
}
330
17F2
100
AcDbXrecord
280
     1
290
     1
  0
XRECORD
  5
17F5
102
{ACAD_REACTORS
330
17F4
102
}
330
17F4
100
AcDbXrecord
280
     1
290
     1
  0
XRECORD
  5
17F7
102
{ACAD_REACTORS
330
17F6
102
}
330
17F6
100
AcDbXrecord
280
     1
290
     1
  0
XRECORD
  5
17F9
102
{ACAD_REACTORS
330
17F8
102
}
330
17F8
100
AcDbXrecord
280
     1
290
     1
  0
XRECORD
  5
17FB
102
{ACAD_REACTORS
330
17FA
102
}
330
17FA
100
AcDbXrecord
280
     1
290
     1
  0
XRECORD
  5
17FD
102
{ACAD_REACTORS
330
17FC
102
}
330
17FC
100
AcDbXrecord
280
     1
290
     1
  0
XRECORD
  5
17FF
102
{ACAD_REACTORS
330
17FE
102
}
330
17FE
100
AcDbXrecord
280
     1
290
     1
  0
XRECORD
  5
1801
102
{ACAD_REACTORS
330
1800
102
}
330
1800
100
AcDbXrecord
280
     1
290
     1
  0
XRECORD
  5
1803
102
{ACAD_REACTORS
330
1802
102
}
330
1802
100
AcDbXrecord
280
     1
290
     1
  0
ACDBDETAILVIEWSTYLE
  5
183B
102
{ACAD_XDICTIONARY
360
18C6
102
}
102
{ACAD_REACTORS
330
183A
102
}
330
183A
100
AcDbModelDocViewStyle
 70
     0
  3
Imperial24
290
     0
100
AcDbDetailViewStyle
 70
     0
 71
     0
 90
        3
 71
     1
340
11
 62
   256
 40
0.24
340
0
 62
   256
 40
0.24
300

 40
0.36
280
     3
 71
     2
340
16
 90
       25
 62
   256
 71
     3
340
11
 62
   256
 40
0.24
 90
        1
 40
0.75
 90
        1
300
%<\AcVar ViewType \f "%tc1">% %<\AcVar ViewDetailId>%\PSCALE %<\AcVar ViewScale \f "%sn">%
 71
     4
340
16
 90
       25
 62
   256
340
16
 90
       25
 62
   256
280
     0
  0
LAYOUT
  5
1722
102
{ACAD_REACTORS
330
1A
102
}
330
1A
100
AcDbPlotSettings
  1

  2
none_device
  4
ANSI_B_(17.00_x_11.00_Inches)
  6

 40
0.0
 41
0.0
 42
0.0
 43
0.0
 44
431.8
 45
279.4
 46
0.0
 47
0.0
 48
0.0
 49
0.0
140
0.0
141
0.0
142
1.0
143
1.0
 70
     0
 72
     0
 73
     0
 74
     0
  7

 75
     0
147
1.0
 76
     0
 77
     2
 78
   300
148
0.0
149
0.0
100
AcDbLayout
  1
Layout1
 70
     1
 71
     1
 10
0.0
 20
0.0
 11
12.0
 21
9.0
 12
0.0
 22
0.0
 32
0.0
 14
1.000000000000000E+20
 24
1.000000000000000E+20
 34
1.000000000000000E+20
 15
-1.000000000000000E+20
 25
-1.000000000000000E+20
 35
-1.000000000000000E+20
146
0.0
 13
0.0
 23
0.0
 33
0.0
 16
1.0
 26
0.0
 36
0.0
 17
0.0
 27
1.0
 37
0.0
 76
     0
330
226
  0
LAYOUT
  5
1721
102
{ACAD_REACTORS
330
1A
102
}
330
1A
100
AcDbPlotSettings
  1

  2
none_device
  4
ANSI_B_(17.00_x_11.00_Inches)
  6

 40
0.0
 41
0.0
 42
0.0
 43
0.0
 44
431.8
 45
279.4
 46
0.0
 47
0.0
 48
0.0
 49
0.0
140
0.0
141
0.0
142
1.0
143
1.0
 70
  1024
 72
     0
 73
     0
 74
     0
  7

 75
     0
147
1.0
 76
     0
 77
     2
 78
   300
148
0.0
149
0.0
100
AcDbLayout
  1
Model
 70
     0
 71
     0
 10
0.0
 20
0.0
 11
17.0
 21
11.0
 12
0.0
 22
0.0
 32
0.0
 14
0.0
 24
0.0
 34
0.0
 15
0.0
 25
0.0
 35
0.0
146
0.0
 13
0.0
 23
0.0
 33
0.0
 16
1.0
 26
0.0
 36
0.0
 17
0.0
 27
1.0
 37
0.0
 76
     0
330
225
331
1F4
  0
MATERIAL
  5
172E
102
{ACAD_XDICTIONARY
360
172F
102
}
102
{ACAD_REACTORS
330
1725
102
}
330
1725
100
AcDbMaterial
  1
ByBlock
 72
     0
 43
0.0208333333333333
 43
0.0
 43
0.0
 43
0.0
 43
0.0
 43
0.0208333333333333
 43
0.0
 43
0.0
 43
0.0
 43
0.0
 43
1.0
 43
0.0
 43
0.0
 43
0.0
 43
0.0
 43
1.0
 77
     0
 47
0.0208333333333333
 47
0.0
 47
0.0
 47
0.0
 47
0.0
 47
0.0208333333333333
 47
0.0
 47
0.0
 47
0.0
 47
0.0
 47
1.0
 47
0.0
 47
0.0
 47
0.0
 47
0.0
 47
1.0
171
     0
 49
0.0208333333333333
 49
0.0
 49
0.0
 49
0.0
 49
0.0
 49
0.0208333333333333
 49
0.0
 49
0.0
 49
0.0
 49
0.0
 49
1.0
 49
0.0
 49
0.0
 49
0.0
 49
0.0
 49
1.0
175
     0
142
0.0208333333333333
142
0.0
142
0.0
142
0.0
142
0.0
142
0.0208333333333333
142
0.0
142
0.0
142
0.0
142
0.0
142
1.0
142
0.0
142
0.0
142
0.0
142
0.0
142
1.0
179
     0
144
0.0208333333333333
144
0.0
144
0.0
144
0.0
144
0.0
144
0.0208333333333333
144
0.0
144
0.0
144
0.0
144
0.0
144
1.0
144
0.0
144
0.0
144
0.0
144
0.0
144
1.0
147
0.0208333333333333
147
0.0
147
0.0
147
0.0
147
0.0
147
0.0208333333333333
147
0.0
147
0.0
147
0.0
147
0.0
147
1.0
147
0.0
147
0.0
147
0.0
147
0.0
147
1.0
  0
MATERIAL
  5
1726
102
{ACAD_XDICTIONARY
360
1727
102
}
102
{ACAD_REACTORS
330
1725
102
}
330
1725
100
AcDbMaterial
  1
ByLayer
 72
     0
 43
0.0208333333333333
 43
0.0
 43
0.0
 43
0.0
 43
0.0
 43
0.0208333333333333
 43
0.0
 43
0.0
 43
0.0
 43
0.0
 43
1.0
 43
0.0
 43
0.0
 43
0.0
 43
0.0
 43
1.0
 77
     0
 47
0.0208333333333333
 47
0.0
 47
0.0
 47
0.0
 47
0.0
 47
0.0208333333333333
 47
0.0
 47
0.0
 47
0.0
 47
0.0
 47
1.0
 47
0.0
 47
0.0
 47
0.0
 47
0.0
 47
1.0
171
     0
 49
0.0208333333333333
 49
0.0
 49
0.0
 49
0.0
 49
0.0
 49
0.0208333333333333
 49
0.0
 49
0.0
 49
0.0
 49
0.0
 49
1.0
 49
0.0
 49
0.0
 49
0.0
 49
0.0
 49
1.0
175
     0
142
0.0208333333333333
142
0.0
142
0.0
142
0.0
142
0.0
142
0.0208333333333333
142
0.0
142
0.0
142
0.0
142
0.0
142
1.0
142
0.0
142
0.0
142
0.0
142
0.0
142
1.0
179
     0
144
0.0208333333333333
144
0.0
144
0.0
144
0.0
144
0.0
144
0.0208333333333333
144
0.0
144
0.0
144
0.0
144
0.0
144
1.0
144
0.0
144
0.0
144
0.0
144
0.0
144
1.0
147
0.0208333333333333
147
0.0
147
0.0
147
0.0
147
0.0
147
0.0208333333333333
147
0.0
147
0.0
147
0.0
147
0.0
147
1.0
147
0.0
147
0.0
147
0.0
147
0.0
147
1.0
  0
MATERIAL
  5
1736
102
{ACAD_XDICTIONARY
360
1737
102
}
102
{ACAD_REACTORS
330
1725
102
}
330
1725
100
AcDbMaterial
  1
Global
 72
     0
 43
0.0208333333333333
 43
0.0
 43
0.0
 43
0.0
 43
0.0
 43
0.0208333333333333
 43
0.0
 43
0.0
 43
0.0
 43
0.0
 43
1.0
 43
0.0
 43
0.0
 43
0.0
 43
0.0
 43
1.0
 77
     0
 47
0.0208333333333333
 47
0.0
 47
0.0
 47
0.0
 47
0.0
 47
0.0208333333333333
 47
0.0
 47
0.0
 47
0.0
 47
0.0
 47
1.0
 47
0.0
 47
0.0
 47
0.0
 47
0.0
 47
1.0
171
     0
 49
0.0208333333333333
 49
0.0
 49
0.0
 49
0.0
 49
0.0
 49
0.0208333333333333
 49
0.0
 49
0.0
 49
0.0
 49
0.0
 49
1.0
 49
0.0
 49
0.0
 49
0.0
 49
0.0
 49
1.0
175
     0
142
0.0208333333333333
142
0.0
142
0.0
142
0.0
142
0.0
142
0.0208333333333333
142
0.0
142
0.0
142
0.0
142
0.0
142
1.0
142
0.0
142
0.0
142
0.0
142
0.0
142
1.0
179
     0
144
0.0208333333333333
144
0.0
144
0.0
144
0.0
144
0.0
144
0.0208333333333333
144
0.0
144
0.0
144
0.0
144
0.0
144
1.0
144
0.0
144
0.0
144
0.0
144
0.0
144
1.0
147
0.0208333333333333
147
0.0
147
0.0
147
0.0
147
0.0
147
0.0208333333333333
147
0.0
147
0.0
147
0.0
147
0.0
147
1.0
147
0.0
147
0.0
147
0.0
147
0.0
147
1.0
  0
MLEADERSTYLE
  5
1778
102
{ACAD_REACTORS
330
1777
102
}
330
1777
100
AcDbMLeaderStyle
170
     2
171
     1
172
     0
 90
        2
 40
0.0
 41
0.0
173
     1
 91
-1056964608
340
14
 92
       -2
290
     1
 42
0.09
291
     1
 43
0.36
  3
Standard
 44
0.18
300

342
11
174
     1
178
     6
175
     1
176
     0
 93
-1056964608
 45
0.18
292
     0
297
     0
 46
0.18
 94
-1056964608
 47
1.0
 49
1.0
140
1.0
293
     1
141
0.0
294
     1
177
     0
142
1.0
295
     0
296
     0
143
0.125
1001
ACAD_MLEADERVER
1070
     2
  0
MLINESTYLE
  5
18
102
{ACAD_REACTORS
330
17
102
}
330
17
100
AcDbMlineStyle
  2
STANDARD
 70
     0
  3

 62
   256
 51
90.0
 52
90.0
 71
     2
 49
0.5
 62
   256
  6
BYLAYER
 49
-0.5
 62
   256
  6
BYLAYER
  0
ACDBPLACEHOLDER
  5
F
102
{ACAD_REACTORS
330
E
102
}
330
E
  0
SCALE
  5
1756
102
{ACAD_REACTORS
330
1755
102
}
330
1755
100
AcDbScale
 70
     0
300
1:1
140
1.0
141
1.0
290
     1
  0
SCALE
  5
1757
102
{ACAD_REACTORS
330
1755
102
}
330
1755
100
AcDbScale
 70
     0
300
1:2
140
1.0
141
2.0
290
     0
  0
SCALE
  5
1758
102
{ACAD_REACTORS
330
1755
102
}
330
1755
100
AcDbScale
 70
     0
300
1:4
140
1.0
141
4.0
290
     0
  0
SCALE
  5
1759
102
{ACAD_REACTORS
330
1755
102
}
330
1755
100
AcDbScale
 70
     0
300
1:5
140
1.0
141
5.0
290
     0
  0
SCALE
  5
175A
102
{ACAD_REACTORS
330
1755
102
}
330
1755
100
AcDbScale
 70
     0
300
1:8
140
1.0
141
8.0
290
     0
  0
SCALE
  5
175B
102
{ACAD_REACTORS
330
1755
102
}
330
1755
100
AcDbScale
 70
     0
300
1:10
140
1.0
141
10.0
290
     0
  0
SCALE
  5
175C
102
{ACAD_REACTORS
330
1755
102
}
330
1755
100
AcDbScale
 70
     0
300
1:16
140
1.0
141
16.0
290
     0
  0
SCALE
  5
175D
102
{ACAD_REACTORS
330
1755
102
}
330
1755
100
AcDbScale
 70
     0
300
1:20
140
1.0
141
20.0
290
     0
  0
SCALE
  5
175E
102
{ACAD_REACTORS
330
1755
102
}
330
1755
100
AcDbScale
 70
     0
300
1:30
140
1.0
141
30.0
290
     0
  0
SCALE
  5
175F
102
{ACAD_REACTORS
330
1755
102
}
330
1755
100
AcDbScale
 70
     0
300
1:40
140
1.0
141
40.0
290
     0
  0
SCALE
  5
1760
102
{ACAD_REACTORS
330
1755
102
}
330
1755
100
AcDbScale
 70
     0
300
1:50
140
1.0
141
50.0
290
     0
  0
SCALE
  5
1761
102
{ACAD_REACTORS
330
1755
102
}
330
1755
100
AcDbScale
 70
     0
300
1:100
140
1.0
141
100.0
290
     0
  0
SCALE
  5
1762
102
{ACAD_REACTORS
330
1755
102
}
330
1755
100
AcDbScale
 70
     0
300
2:1
140
2.0
141
1.0
290
     0
  0
SCALE
  5
1763
102
{ACAD_REACTORS
330
1755
102
}
330
1755
100
AcDbScale
 70
     0
300
4:1
140
4.0
141
1.0
290
     0
  0
SCALE
  5
1764
102
{ACAD_REACTORS
330
1755
102
}
330
1755
100
AcDbScale
 70
     0
300
8:1
140
8.0
141
1.0
290
     0
  0
SCALE
  5
1765
102
{ACAD_REACTORS
330
1755
102
}
330
1755
100
AcDbScale
 70
     0
300
10:1
140
10.0
141
1.0
290
     0
  0
SCALE
  5
1766
102
{ACAD_REACTORS
330
1755
102
}
330
1755
100
AcDbScale
 70
     0
300
100:1
140
100.0
141
1.0
290
     0
  0
SCALE
  5
1767
102
{ACAD_REACTORS
330
1755
102
}
330
1755
100
AcDbScale
 70
     0
300
1/128" = 1'-0"
140
0.0078125
141
12.0
290
     0
  0
SCALE
  5
1768
102
{ACAD_REACTORS
330
1755
102
}
330
1755
100
AcDbScale
 70
     0
300
1/64" = 1'-0"
140
0.015625
141
12.0
290
     0
  0
SCALE
  5
1769
102
{ACAD_REACTORS
330
1755
102
}
330
1755
100
AcDbScale
 70
     0
300
1/32" = 1'-0"
140
0.03125
141
12.0
290
     0
  0
SCALE
  5
176A
102
{ACAD_REACTORS
330
1755
102
}
330
1755
100
AcDbScale
 70
     0
300
1/16" = 1'-0"
140
0.0625
141
12.0
290
     0
  0
SCALE
  5
176B
102
{ACAD_REACTORS
330
1755
102
}
330
1755
100
AcDbScale
 70
     0
300
3/32" = 1'-0"
140
0.09375
141
12.0
290
     0
  0
SCALE
  5
176C
102
{ACAD_REACTORS
330
1755
102
}
330
1755
100
AcDbScale
 70
     0
300
1/8" = 1'-0"
140
0.125
141
12.0
290
     0
  0
SCALE
  5
176D
102
{ACAD_REACTORS
330
1755
102
}
330
1755
100
AcDbScale
 70
     0
300
3/16" = 1'-0"
140
0.1875
141
12.0
290
     0
  0
SCALE
  5
176E
102
{ACAD_REACTORS
330
1755
102
}
330
1755
100
AcDbScale
 70
     0
300
1/4" = 1'-0"
140
0.25
141
12.0
290
     0
  0
SCALE
  5
176F
102
{ACAD_REACTORS
330
1755
102
}
330
1755
100
AcDbScale
 70
     0
300
3/8" = 1'-0"
140
0.375
141
12.0
290
     0
  0
SCALE
  5
1770
102
{ACAD_REACTORS
330
1755
102
}
330
1755
100
AcDbScale
 70
     0
300
1/2" = 1'-0"
140
0.5
141
12.0
290
     0
  0
SCALE
  5
1771
102
{ACAD_REACTORS
330
1755
102
}
330
1755
100
AcDbScale
 70
     0
300
3/4" = 1'-0"
140
0.75
141
12.0
290
     0
  0
SCALE
  5
1772
102
{ACAD_REACTORS
330
1755
102
}
330
1755
100
AcDbScale
 70
     0
300
1" = 1'-0"
140
1.0
141
12.0
290
     0
  0
SCALE
  5
1773
102
{ACAD_REACTORS
330
1755
102
}
330
1755
100
AcDbScale
 70
     0
300
1-1/2" = 1'-0"
140
1.5
141
12.0
290
     0
  0
SCALE
  5
1774
102
{ACAD_REACTORS
330
1755
102
}
330
1755
100
AcDbScale
 70
     0
300
3" = 1'-0"
140
3.0
141
12.0
290
     0
  0
SCALE
  5
1775
102
{ACAD_REACTORS
330
1755
102
}
330
1755
100
AcDbScale
 70
     0
300
6" = 1'-0"
140
6.0
141
12.0
290
     0
  0
SCALE
  5
1776
102
{ACAD_REACTORS
330
1755
102
}
330
1755
100
AcDbScale
 70
     0
300
1'-0" = 1'-0"
140
12.0
141
12.0
290
     0
  0
ACDBSECTIONVIEWSTYLE
  5
1839
102
{ACAD_XDICTIONARY
360
18C4
102
}
102
{ACAD_REACTORS
330
1838
102
}
330
1838
100
AcDbModelDocViewStyle
 70
     0
  3
Imperial24
290
     0
100
AcDbSectionViewStyle
 70
     0
 71
     0
 90
       78
 71
     1
340
11
 62
   256
 40
0.24
340
0
340
0
 62
   256
 40
0.24
300
I, O, Q, S, X, Z
 40
0.48
 90
        3
 40
0.18
 90
        1
 71
     2
340
16
 90
       25
 62
   256
340
16
 90
       50
 62
   256
 40
0.24
 40
0.0
 40
0.24
 71
     3
340
11
 62
   256
 40
0.24
 90
        1
 40
0.75
 90
        1
300
%<\AcVar ViewType \f "%tc1">% %<\AcVar ViewSectionStartId>%-%<\AcVar ViewSectionEndId>%\PSCALE %<\AcVar ViewScale \f "%sn">%
 71
     4
 62
   256
 62
   257
300
ANSI31
 40
1.0
 90
        0
290
     0
290
     0
 90
        6
 40
0.0
 40
1.570796326794896
 40
0.2617993877991494
 40
1.308996938995747
 40
-0.2617993877991494
 40
1.832595714594046
  0
TABLESTYLE
  5
1754
102
{ACAD_XDICTIONARY
360
1779
102
}
102
{ACAD_REACTORS
330
1753
102
}
330
1753
100
AcDbTableStyle
  3
Standard
 70
     0
 71
     0
 40
0.06
 41
0.06
280
     0
281
     0
  7
STANDARD
140
0.18
170
     2
 62
     0
 63
     7
283
     0
274
    -2
284
     1
 64
     0
275
    -2
285
     1
 65
     0
276
    -2
286
     1
 66
     0
277
    -2
287
     1
 67
     0
278
    -2
288
     1
 68
     0
279
    -2
289
     1
 69
     0
  7
STANDARD
140
0.25
170
     5
 62
     0
 63
     7
283
     0
274
    -2
284
     1
 64
     0
275
    -2
285
     1
 65
     0
276
    -2
286
     1
 66
     0
277
    -2
287
     1
 67
     0
278
    -2
288
     1
 68
     0
279
    -2
289
     1
 69
     0
  7
STANDARD
140
0.18
170
     5
 62
     0
 63
     7
283
     0
274
    -2
284
     1
 64
     0
275
    -2
285
     1
 65
     0
276
    -2
286
     1
 66
     0
277
    -2
287
     1
 67
     0
278
    -2
288
     1
 68
     0
279
    -2
289
     1
 69
     0
  0
VISUALSTYLE
  5
1744
102
{ACAD_XDICTIONARY
360
1899
102
}
102
{ACAD_REACTORS
330
173E
102
}
330
173E
100
AcDbVisualStyle
  2
2dWireframe
 70
     4
 71
     0
 72
     2
 73
     0
 90
        0
 40
-0.6
 41
-30.0
 62
     5
 63
     7
 74
     1
 91
        4
 64
     7
 65
   257
 75
     1
175
     1
 42
1.0
 92
        0
 66
   257
 43
1.0
 76
     1
 77
     6
 78
     2
 67
     7
 79
     5
170
     0
171
     0
290
     0
174
     0
 93
        1
 44
0.0
173
     0
291
     0
 45
0.0
1001
ACAD
1000
AcDbSavedByObjectVersion
1070
     0
  0
VISUALSTYLE
  5
1746
102
{ACAD_XDICTIONARY
360
189D
102
}
102
{ACAD_REACTORS
330
173E
102
}
330
173E
100
AcDbVisualStyle
  2
3D Hidden
 70
     6
 71
     1
 72
     2
 73
     2
 90
        0
 40
-0.6
 41
-30.0
 62
     5
 63
     7
 74
     2
 91
        2
 64
     7
 65
   257
 75
     2
175
     1
 42
179.0
 92
        0
 66
   257
 43
1.0
 76
     1
 77
     6
 78
     2
 67
     7
 79
     3
170
     0
171
     0
290
     0
174
     0
 93
        1
 44
0.0
173
     0
291
     0
 45
0.0
1001
ACAD
1000
AcDbSavedByObjectVersion
1070
     0
  0
VISUALSTYLE
  5
1745
102
{ACAD_XDICTIONARY
360
189B
102
}
102
{ACAD_REACTORS
330
173E
102
}
330
173E
100
AcDbVisualStyle
  2
3dWireframe
 70
     5
 71
     0
 72
     2
 73
     0
 90
        0
 40
-0.6
 41
-30.0
 62
     5
 63
     7
 74
     1
 91
        4
 64
     7
 65
   257
 75
     1
175
     1
 42
1.0
 92
        0
 66
   257
 43
1.0
 76
     1
 77
     6
 78
     2
 67
     7
 79
     5
170
     0
171
     0
290
     0
174
     0
 93
        1
 44
0.0
173
     0
291
     0
 45
0.0
1001
ACAD
1000
AcDbSavedByObjectVersion
1070
     0
  0
VISUALSTYLE
  5
1743
102
{ACAD_XDICTIONARY
360
1897
102
}
102
{ACAD_REACTORS
330
173E
102
}
330
173E
100
AcDbVisualStyle
  2
Basic
 70
     7
 71
     1
 72
     0
 73
     1
 90
        0
 40
-0.6
 41
-30.0
 62
     5
 63
     7
 74
     0
 91
        4
 64
     7
 65
   257
 75
     1
175
     1
 42
1.0
 92
        8
 66
     7
 43
1.0
 76
     1
 77
     6
 78
     2
 67
     7
 79
     5
170
     0
171
     0
290
     0
174
     0
 93
        1
 44
0.0
173
     0
291
     1
 45
0.0
1001
ACAD
1000
AcDbSavedByObjectVersion
1070
     0
  0
VISUALSTYLE
  5
174A
102
{ACAD_XDICTIONARY
360
18A5
102
}
102
{ACAD_REACTORS
330
173E
102
}
330
173E
100
AcDbVisualStyle
  2
Brighten
 70
    12
 71
     2
 72
     2
 73
     0
 90
        0
 40
-0.6
 41
-30.0
 62
     5
 63
     7
 74
     1
 91
        4
 64
     7
 65
   257
 75
     1
175
     1
 42
1.0
 92
        8
 66
     7
 43
1.0
 76
     1
 77
     6
 78
     2
 67
     7
 79
     5
170
     0
171
     0
290
     0
174
     0
 93
        1
 44
50.0
173
     0
291
     1
 45
0.0
1001
ACAD
1000
AcDbSavedByObjectVersion
1070
     0
  0
VISUALSTYLE
  5
174E
102
{ACAD_XDICTIONARY
360
18AD
102
}
102
{ACAD_REACTORS
330
173E
102
}
330
173E
100
AcDbVisualStyle
  2
ColorChange
 70
    16
 71
     2
 72
     2
 73
     3
 90
        0
 40
-0.6
 41
-30.0
 62
     5
 63
     8
 74
     1
 91
        4
 64
     7
 65
   257
 75
     1
175
     1
 42
1.0
 92
        8
 66
     8
 43
1.0
 76
     1
 77
     6
 78
     2
 67
     7
 79
     5
170
     0
171
     0
290
     0
174
     0
 93
        1
 44
0.0
173
     0
291
     1
 45
0.0
1001
ACAD
1000
AcDbSavedByObjectVersion
1070
     0
  0
VISUALSTYLE
  5
1747
102
{ACAD_XDICTIONARY
360
189F
102
}
102
{ACAD_REACTORS
330
173E
102
}
330
173E
100
AcDbVisualStyle
  2
Conceptual
 70
     9
 71
     3
 72
     2
 73
     0
 90
        0
 40
-0.6
 41
-30.0
 62
     5
 63
     7
 74
     2
 91
        2
 64
     7
 65
   257
 75
     1
175
     1
 42
179.0
 92
        8
 66
     7
 43
1.0
 76
     1
 77
     6
 78
     2
 67
     7
 79
     3
170
     0
171
     0
290
     0
174
     0
 93
        1
 44
0.0
173
     0
291
     0
 45
0.0
1001
ACAD
1000
AcDbSavedByObjectVersion
1070
     0
  0
VISUALSTYLE
  5
1749
102
{ACAD_XDICTIONARY
360
18A3
102
}
102
{ACAD_REACTORS
330
173E
102
}
330
173E
100
AcDbVisualStyle
  2
Dim
 70
    11
 71
     2
 72
     2
 73
     0
 90
        0
 40
-0.6
 41
-30.0
 62
     5
 63
     7
 74
     1
 91
        4
 64
     7
 65
   257
 75
     1
175
     1
 42
1.0
 92
        8
 66
     7
 43
1.0
 76
     1
 77
     6
 78
     2
 67
     7
 79
     5
170
     0
171
     0
290
     0
174
     0
 93
        1
 44
-50.0
173
     0
291
     1
 45
0.0
1001
ACAD
1000
AcDbSavedByObjectVersion
1070
     0
  0
VISUALSTYLE
  5
1751
102
{ACAD_XDICTIONARY
360
18B3
102
}
102
{ACAD_REACTORS
330
173E
102
}
330
173E
100
AcDbVisualStyle
  2
EdgeColorOff
 70
    22
 71
     2
 72
     2
 73
     0
 90
        0
 40
-0.6
 41
-30.0
 62
     5
 63
     7
 74
     1
 91
        4
 64
     7
 65
   257
 75
     1
175
     1
 42
1.0
 92
        8
 66
     7
 43
1.0
 76
     1
 77
     6
 78
     2
 67
     7
 79
     5
170
     0
171
     0
290
     0
174
     0
 93
        1
 44
0.0
173
     0
291
     1
 45
0.0
1001
ACAD
1000
AcDbSavedByObjectVersion
1070
     0
  0
VISUALSTYLE
  5
174D
102
{ACAD_XDICTIONARY
360
18AB
102
}
102
{ACAD_REACTORS
330
173E
102
}
330
173E
100
AcDbVisualStyle
  2
Facepattern
 70
    15
 71
     2
 72
     2
 73
     0
 90
        0
 40
-0.6
 41
-30.0
 62
     5
 63
     7
 74
     1
 91
        4
 64
     7
 65
   257
 75
     1
175
     1
 42
1.0
 92
        8
 66
     7
 43
1.0
 76
     1
 77
     6
 78
     2
 67
     7
 79
     5
170
     0
171
     0
290
     0
174
     0
 93
        1
 44
0.0
173
     0
291
     1
 45
0.0
1001
ACAD
1000
AcDbSavedByObjectVersion
1070
     0
  0
VISUALSTYLE
  5
173F
102
{ACAD_XDICTIONARY
360
188F
102
}
102
{ACAD_REACTORS
330
173E
102
}
330
173E
100
AcDbVisualStyle
  2
Flat
 70
     0
 71
     2
 72
     1
 73
     1
 90
        2
 40
-0.6
 41
30.0
 62
     5
 63
     7
 74
     0
 91
        4
 64
     7
 65
   257
 75
     1
175
     1
 42
1.0
 92
        8
 66
     7
 43
1.0
 76
     1
 77
     6
 78
     2
 67
     7
 79
     5
170
     0
171
     0
290
     0
174
     0
 93
       13
 44
0.0
173
     0
291
     1
 45
0.0
1001
ACAD
1000
AcDbSavedByObjectVersion
1070
     0
  0
VISUALSTYLE
  5
1740
102
{ACAD_XDICTIONARY
360
1891
102
}
102
{ACAD_REACTORS
330
173E
102
}
330
173E
100
AcDbVisualStyle
  2
FlatWithEdges
 70
     1
 71
     2
 72
     1
 73
     1
 90
        2
 40
-0.6
 41
30.0
 62
     5
 63
     7
 74
     1
 91
        4
 64
     7
 65
   257
 75
     1
175
     1
 42
1.0
 92
        0
 66
   257
 43
1.0
 76
     1
 77
     6
 78
     2
 67
     7
 79
     5
170
     0
171
     0
290
     0
174
     0
 93
       13
 44
0.0
173
     0
291
     1
 45
0.0
1001
ACAD
1000
AcDbSavedByObjectVersion
1070
     0
  0
VISUALSTYLE
  5
1741
102
{ACAD_XDICTIONARY
360
1893
102
}
102
{ACAD_REACTORS
330
173E
102
}
330
173E
100
AcDbVisualStyle
  2
Gouraud
 70
     2
 71
     2
 72
     2
 73
     1
 90
        2
 40
-0.6
 41
30.0
 62
     5
 63
     7
 74
     0
 91
        4
 64
     7
 65
   257
 75
     1
175
     1
 42
1.0
 92
        0
 66
     7
 43
1.0
 76
     1
 77
     6
 78
     2
 67
     7
 79
     5
170
     0
171
     0
290
     0
174
     0
 93
       13
 44
0.0
173
     0
291
     1
 45
0.0
1001
ACAD
1000
AcDbSavedByObjectVersion
1070
     0
  0
VISUALSTYLE
  5
1742
102
{ACAD_XDICTIONARY
360
1895
102
}
102
{ACAD_REACTORS
330
173E
102
}
330
173E
100
AcDbVisualStyle
  2
GouraudWithEdges
 70
     3
 71
     2
 72
     2
 73
     1
 90
        2
 40
-0.6
 41
30.0
 62
     5
 63
     7
 74
     1
 91
        4
 64
     7
 65
   257
 75
     1
175
     1
 42
1.0
 92
        0
 66
   257
 43
1.0
 76
     1
 77
     6
 78
     2
 67
     7
 79
     5
170
     0
171
     0
290
     0
174
     0
 93
       13
 44
0.0
173
     0
291
     1
 45
0.0
1001
ACAD
1000
AcDbSavedByObjectVersion
1070
     0
  0
VISUALSTYLE
  5
1832
102
{ACAD_XDICTIONARY
360
18B8
102
}
102
{ACAD_REACTORS
330
173E
102
}
330
173E
100
AcDbVisualStyle
  2
Hidden
 70
     6
 71
     1
 72
     2
 73
     2
 90
        0
 40
-0.6
 41
-30.0
 62
     5
 63
     7
421
 16777215
 74
     2
 91
        2
 64
     7
 65
   257
 75
     2
175
     1
 42
40.0
 92
        0
 66
   257
 43
1.0
 76
     1
 77
     6
 78
     2
 67
     7
 79
     3
170
     0
171
     0
290
     0
174
     0
 93
        1
 44
0.0
173
     0
291
     0
 45
0.0
1001
ACAD
1000
AcDbSavedByObjectVersion
1070
     0
  0
VISUALSTYLE
  5
174F
102
{ACAD_XDICTIONARY
360
18AF
102
}
102
{ACAD_REACTORS
330
173E
102
}
330
173E
100
AcDbVisualStyle
  2
JitterOff
 70
    20
 71
     2
 72
     2
 73
     0
 90
        0
 40
-0.6
 41
-30.0
 62
     5
 63
     7
 74
     1
 91
        4
 64
     7
 65
   257
 75
     1
175
     1
 42
1.0
 92
       10
 66
     7
 43
1.0
 76
     1
 77
     6
 78
     2
 67
     7
 79
     5
170
     0
171
     0
290
     0
174
     0
 93
        1
 44
0.0
173
     0
291
     1
 45
0.0
1001
ACAD
1000
AcDbSavedByObjectVersion
1070
     0
  0
VISUALSTYLE
  5
174C
102
{ACAD_XDICTIONARY
360
18A9
102
}
102
{ACAD_REACTORS
330
173E
102
}
330
173E
100
AcDbVisualStyle
  2
Linepattern
 70
    14
 71
     2
 72
     2
 73
     0
 90
        0
 40
-0.6
 41
-30.0
 62
     5
 63
     7
 74
     1
 91
        4
 64
     7
 65
   257
 75
     7
175
     7
 42
1.0
 92
        8
 66
     7
 43
1.0
 76
     1
 77
     6
 78
     2
 67
     7
 79
     5
170
     0
171
     0
290
     0
174
     0
 93
        1
 44
0.0
173
     0
291
     1
 45
0.0
1001
ACAD
1000
AcDbSavedByObjectVersion
1070
     0
  0
VISUALSTYLE
  5
1750
102
{ACAD_XDICTIONARY
360
18B1
102
}
102
{ACAD_REACTORS
330
173E
102
}
330
173E
100
AcDbVisualStyle
  2
OverhangOff
 70
    21
 71
     2
 72
     2
 73
     0
 90
        0
 40
-0.6
 41
-30.0
 62
     5
 63
     7
 74
     1
 91
        4
 64
     7
 65
   257
 75
     1
175
     1
 42
1.0
 92
        9
 66
     7
 43
1.0
 76
     1
 77
     6
 78
     2
 67
     7
 79
     5
170
     0
171
     0
290
     0
174
     0
 93
        1
 44
0.0
173
     0
291
     1
 45
0.0
1001
ACAD
1000
AcDbSavedByObjectVersion
1070
     0
  0
VISUALSTYLE
  5
1748
102
{ACAD_XDICTIONARY
360
18A1
102
}
102
{ACAD_REACTORS
330
173E
102
}
330
173E
100
AcDbVisualStyle
  2
Realistic
 70
     8
 71
     2
 72
     2
 73
     0
 90
        0
 40
-0.6
 41
-30.0
 62
     5
 63
     7
 74
     1
 91
        0
 64
     7
 65
   257
 75
     1
175
     1
 42
1.0
 92
        8
 66
     8
 43
1.0
 76
     1
 77
     6
 78
     2
 67
     7
 79
     5
170
     0
171
     0
290
     0
174
     0
 93
       13
 44
0.0
173
     0
291
     0
 45
0.0
1001
ACAD
1000
AcDbSavedByObjectVersion
1070
     0
  0
VISUALSTYLE
  5
1837
102
{ACAD_XDICTIONARY
360
18C2
102
}
102
{ACAD_REACTORS
330
173E
102
}
330
173E
100
AcDbVisualStyle
  2
Shaded
 70
    27
 71
     2
 72
     2
 73
     1
 90
        2
 40
-0.6
 41
30.0
 62
     5
 63
     7
421
 16777215
 74
     0
 91
        4
 64
     7
 65
   257
 75
     1
175
     1
 42
1.0
 92
        8
 66
   257
 43
1.0
 76
     1
 77
     6
 78
     2
 67
     8
425
  7895160
 79
     3
170
     0
171
     0
290
     0
174
     0
 93
        5
 44
0.0
173
     0
291
     0
 45
0.0
1001
ACAD
1000
AcDbSavedByObjectVersion
1070
     0
  0
VISUALSTYLE
  5
1836
102
{ACAD_XDICTIONARY
360
18C0
102
}
102
{ACAD_REACTORS
330
173E
102
}
330
173E
100
AcDbVisualStyle
  2
Shaded with edges
 70
    26
 71
     2
 72
     2
 73
     1
 90
        2
 40
-0.6
 41
30.0
 62
     5
 63
     7
421
 16777215
 74
     1
 91
       10
 64
     7
 65
   257
 75
     2
175
     1
 42
1.0
 92
        8
 66
   257
 43
1.0
 76
     1
 77
     6
 78
     2
 67
     7
 79
     3
170
     0
171
     0
290
     0
174
     0
 93
        5
 44
0.0
173
     0
291
     0
 45
0.0
1001
ACAD
1000
AcDbSavedByObjectVersion
1070
     0
  0
VISUALSTYLE
  5
1833
102
{ACAD_XDICTIONARY
360
18BA
102
}
102
{ACAD_REACTORS
330
173E
102
}
330
173E
100
AcDbVisualStyle
  2
Shades of Gray
 70
    23
 71
     2
 72
     2
 73
     3
 90
        0
 40
-0.6
 41
-30.0
 62
     5
 63
     7
421
 16777215
 74
     2
 91
        2
 64
     7
 65
     7
 75
     1
175
     1
 42
40.0
 92
        8
 66
     7
 43
1.0
 76
     1
 77
     6
 78
     2
 67
     7
 79
     3
170
     0
171
     0
290
     0
174
     0
 93
        1
 44
0.0
173
     0
291
     0
 45
0.0
1001
ACAD
1000
AcDbSavedByObjectVersion
1070
     0
  0
VISUALSTYLE
  5
1834
102
{ACAD_XDICTIONARY
360
18BC
102
}
102
{ACAD_REACTORS
330
173E
102
}
330
173E
100
AcDbVisualStyle
  2
Sketchy
 70
    24
 71
     1
 72
     2
 73
     2
 90
        0
 40
-0.6
 41
-30.0
 62
     5
 63
     7
421
 16777215
 74
     2
 91
        2
 64
     7
 65
     7
 75
     1
175
     1
 42
40.0
 92
       11
 66
     7
 43
1.0
 76
     1
 77
     6
 78
     2
 67
     7
 79
     6
170
     0
171
     0
290
     0
174
     0
 93
        1
 44
0.0
173
     0
291
     0
 45
0.0
1001
ACAD
1000
AcDbSavedByObjectVersion
1070
     0
  0
VISUALSTYLE
  5
174B
102
{ACAD_XDICTIONARY
360
18A7
102
}
102
{ACAD_REACTORS
330
173E
102
}
330
173E
100
AcDbVisualStyle
  2
Thicken
 70
    13
 71
     2
 72
     2
 73
     0
 90
        0
 40
-0.6
 41
-30.0
 62
     5
 63
     7
 74
     1
 91
        4
 64
     7
 65
   257
 75
     1
175
     1
 42
1.0
 92
       12
 66
     7
 43
1.0
 76
     1
 77
     6
 78
     2
 67
     7
 79
     5
170
     0
171
     0
290
     0
174
     0
 93
        1
 44
0.0
173
     0
291
     1
 45
0.0
1001
ACAD
1000
AcDbSavedByObjectVersion
1070
     0
  0
VISUALSTYLE
  5
1831
102
{ACAD_XDICTIONARY
360
18B6
102
}
102
{ACAD_REACTORS
330
173E
102
}
330
173E
100
AcDbVisualStyle
  2
Wireframe
 70
     5
 71
     0
 72
     2
 73
     0
 90
        0
 40
-0.6
 41
-30.0
 62
     5
 63
     7
421
 16777215
 74
     1
 91
        4
 64
     7
 65
   257
 75
     1
175
     1
 42
1.0
 92
        0
 66
   257
 43
1.0
 76
     1
 77
     6
 78
     2
 67
     7
 79
     3
170
     0
171
     0
290
     0
174
     0
 93
        1
 44
0.0
173
     0
291
     0
 45
0.0
1001
ACAD
1000
AcDbSavedByObjectVersion
1070
     0
  0
VISUALSTYLE
  5
1835
102
{ACAD_XDICTIONARY
360
18BE
102
}
102
{ACAD_REACTORS
330
173E
102
}
330
173E
100
AcDbVisualStyle
  2
X-Ray
 70
    25
 71
     2
 72
     2
 73
     1
 90
        1
 40
0.5
 41
-30.0
 62
     5
 63
     7
421
 16777215
 74
     1
 91
        0
 64
     7
 65
   257
 75
     1
175
     1
 42
1.0
 92
        8
 66
     7
 43
1.0
 76
     1
 77
     6
 78
     2
 67
     7
 79
     3
170
     0
171
     0
290
     0
174
     0
 93
       13
 44
0.0
173
     0
291
     0
 45
0.0
1001
ACAD
1000
AcDbSavedByObjectVersion
1070
     0
  0
DICTIONARYVAR
  5
17B0
102
{ACAD_REACTORS
330
17AD
102
}
330
17AD
100
DictionaryVariables
280
     0
  1
1:1
  0
DICTIONARYVAR
  5
17AF
102
{ACAD_REACTORS
330
17AD
102
}
330
17AD
100
DictionaryVariables
280
     0
  1
STANDARD
  0
DICTIONARYVAR
  5
17AE
102
{ACAD_REACTORS
330
17AD
102
}
330
17AD
100
DictionaryVariables
280
     0
  1
STANDARD
  0
DICTIONARYVAR
  5
1886
102
{ACAD_REACTORS
330
17AD
102
}
330
17AD
100
DictionaryVariables
280
     0
  1
Imperial24
  0
DICTIONARYVAR
  5
1887
102
{ACAD_REACTORS
330
17AD
102
}
330
17AD
100
DictionaryVariables
280
     0
  1
Imperial24
  0
DICTIONARYVAR
  5
17B3
102
{ACAD_REACTORS
330
17AD
102
}
330
17AD
100
DictionaryVariables
280
     0
  1
1
  0
DICTIONARYVAR
  5
17B2
102
{ACAD_REACTORS
330
17AD
102
}
330
17AD
100
DictionaryVariables
280
     0
  1
0
  0
DICTIONARYVAR
  5
1820
102
{ACAD_REACTORS
330
17AD
102
}
330
17AD
100
DictionaryVariables
280
     0
  1
1
  0
DICTIONARYVAR
  5
1821
102
{ACAD_REACTORS
330
17AD
102
}
330
17AD
100
DictionaryVariables
280
     0
  1
15
  0
DICTIONARYVAR
  5
181F
102
{ACAD_REACTORS
330
17AD
102
}
330
17AD
100
DictionaryVariables
280
     0
  1
0
  0
DICTIONARYVAR
  5
181E
102
{ACAD_REACTORS
330
17AD
102
}
330
17AD
100
DictionaryVariables
280
     0
  1
0
  0
DICTIONARYVAR
  5
1888
102
{ACAD_REACTORS
330
17AD
102
}
330
17AD
100
DictionaryVariables
280
     0
  1
1
  0
DICTIONARYVAR
  5
17B1
102
{ACAD_REACTORS
330
17AD
102
}
330
17AD
100
DictionaryVariables
280
     0
  1
127
  0
DICTIONARYVAR
  5
1889
102
{ACAD_REACTORS
330
17AD
102
}
330
17AD
100
DictionaryVariables
280
     0
  1
2
  0
DICTIONARY
  5
18C6
330
183B
100
AcDbDictionary
280
     1
281
     1
  3
ACAD_XREC_ROUNDTRIP
360
18C7
  0
DICTIONARY
  5
172F
330
172E
100
AcDbDictionary
280
     1
281
     1
  3
ACAD_XREC_ROUNDTRIP
360
188D
  3
BUMPTILE
360
1731
  3
DIFFUSETILE
360
1730
  3
OPACITYTILE
360
1734
  3
REFLECTIONTILE
360
1733
  3
REFRACTIONTILE
360
1735
  3
SPECULARTILE
360
1732
  0
DICTIONARY
  5
1727
330
1726
100
AcDbDictionary
280
     1
281
     1
  3
ACAD_XREC_ROUNDTRIP
360
188C
  3
BUMPTILE
360
1729
  3
DIFFUSETILE
360
1728
  3
OPACITYTILE
360
172C
  3
REFLECTIONTILE
360
172B
  3
REFRACTIONTILE
360
172D
  3
SPECULARTILE
360
172A
  0
DICTIONARY
  5
1737
330
1736
100
AcDbDictionary
280
     1
281
     1
  3
ACAD_XREC_ROUNDTRIP
360
188E
  3
BUMPTILE
360
1739
  3
DIFFUSETILE
360
1738
  3
OPACITYTILE
360
173C
  3
REFLECTIONTILE
360
173B
  3
REFRACTIONTILE
360
173D
  3
SPECULARTILE
360
173A
  0
DICTIONARY
  5
18C4
330
1839
100
AcDbDictionary
280
     1
281
     1
  3
ACAD_XREC_ROUNDTRIP
360
18C5
  0
DICTIONARY
  5
1779
330
1754
100
AcDbDictionary
280
     1
281
     1
  3
ACAD_ROUNDTRIP_2008_TABLESTYLE_CELLSTYLEMAP
360
188A
  3
ACAD_XREC_ROUNDTRIP
360
18B5
  0
DICTIONARY
  5
1899
330
1744
100
AcDbDictionary
280
     1
281
     1
  3
ACAD_XREC_ROUNDTRIP
360
189A
  0
DICTIONARY
  5
189D
330
1746
100
AcDbDictionary
280
     1
281
     1
  3
ACAD_XREC_ROUNDTRIP
360
189E
  0
DICTIONARY
  5
189B
330
1745
100
AcDbDictionary
280
     1
281
     1
  3
ACAD_XREC_ROUNDTRIP
360
189C
  0
DICTIONARY
  5
1897
330
1743
100
AcDbDictionary
280
     1
281
     1
  3
ACAD_XREC_ROUNDTRIP
360
1898
  0
DICTIONARY
  5
18A5
330
174A
100
AcDbDictionary
280
     1
281
     1
  3
ACAD_XREC_ROUNDTRIP
360
18A6
  0
DICTIONARY
  5
18AD
330
174E
100
AcDbDictionary
280
     1
281
     1
  3
ACAD_XREC_ROUNDTRIP
360
18AE
  0
DICTIONARY
  5
189F
330
1747
100
AcDbDictionary
280
     1
281
     1
  3
ACAD_XREC_ROUNDTRIP
360
18A0
  0
DICTIONARY
  5
18A3
330
1749
100
AcDbDictionary
280
     1
281
     1
  3
ACAD_XREC_ROUNDTRIP
360
18A4
  0
DICTIONARY
  5
18B3
330
1751
100
AcDbDictionary
280
     1
281
     1
  3
ACAD_XREC_ROUNDTRIP
360
18B4
  0
DICTIONARY
  5
18AB
330
174D
100
AcDbDictionary
280
     1
281
     1
  3
ACAD_XREC_ROUNDTRIP
360
18AC
  0
DICTIONARY
  5
188F
330
173F
100
AcDbDictionary
280
     1
281
     1
  3
ACAD_XREC_ROUNDTRIP
360
1890
  0
DICTIONARY
  5
1891
330
1740
100
AcDbDictionary
280
     1
281
     1
  3
ACAD_XREC_ROUNDTRIP
360
1892
  0
DICTIONARY
  5
1893
330
1741
100
AcDbDictionary
280
     1
281
     1
  3
ACAD_XREC_ROUNDTRIP
360
1894
  0
DICTIONARY
  5
1895
330
1742
100
AcDbDictionary
280
     1
281
     1
  3
ACAD_XREC_ROUNDTRIP
360
1896
  0
DICTIONARY
  5
18B8
330
1832
100
AcDbDictionary
280
     1
281
     1
  3
ACAD_XREC_ROUNDTRIP
360
18B9
  0
DICTIONARY
  5
18AF
330
174F
100
AcDbDictionary
280
     1
281
     1
  3
ACAD_XREC_ROUNDTRIP
360
18B0
  0
DICTIONARY
  5
18A9
330
174C
100
AcDbDictionary
280
     1
281
     1
  3
ACAD_XREC_ROUNDTRIP
360
18AA
  0
DICTIONARY
  5
18B1
330
1750
100
AcDbDictionary
280
     1
281
     1
  3
ACAD_XREC_ROUNDTRIP
360
18B2
  0
DICTIONARY
  5
18A1
330
1748
100
AcDbDictionary
280
     1
281
     1
  3
ACAD_XREC_ROUNDTRIP
360
18A2
  0
DICTIONARY
  5
18C2
330
1837
100
AcDbDictionary
280
     1
281
     1
  3
ACAD_XREC_ROUNDTRIP
360
18C3
  0
DICTIONARY
  5
18C0
330
1836
100
AcDbDictionary
280
     1
281
     1
  3
ACAD_XREC_ROUNDTRIP
360
18C1
  0
DICTIONARY
  5
18BA
330
1833
100
AcDbDictionary
280
     1
281
     1
  3
ACAD_XREC_ROUNDTRIP
360
18BB
  0
DICTIONARY
  5
18BC
330
1834
100
AcDbDictionary
280
     1
281
     1
  3
ACAD_XREC_ROUNDTRIP
360
18BD
  0
DICTIONARY
  5
18A7
330
174B
100
AcDbDictionary
280
     1
281
     1
  3
ACAD_XREC_ROUNDTRIP
360
18A8
  0
DICTIONARY
  5
18B6
330
1831
100
AcDbDictionary
280
     1
281
     1
  3
ACAD_XREC_ROUNDTRIP
360
18B7
  0
DICTIONARY
  5
18BE
330
1835
100
AcDbDictionary
280
     1
281
     1
  3
ACAD_XREC_ROUNDTRIP
360
18BF
  0
XRECORD
  5
18C7
102
{ACAD_REACTORS
330
18C6
102
}
330
18C6
100
AcDbXrecord
280
     1
102
DISPLAYNAME
  1
Imperial24
102
FLAGS
 90
        0
  0
XRECORD
  5
188D
102
{ACAD_REACTORS
330
172F
102
}
330
172F
100
AcDbXrecord
280
     1
102
MATERIAL
148
0.0
149
0.0
149
0.0
 93
        0
 94
      127
282
     0
 72
     0
 77
     0
171
     0
175
     0
179
     0
273
     0
  0
XRECORD
  5
1731
102
{ACAD_REACTORS
330
172F
102
}
330
172F
100
AcDbXrecord
280
     1
270
     1
271
     1
  0
XRECORD
  5
1730
102
{ACAD_REACTORS
330
172F
102
}
330
172F
100
AcDbXrecord
280
     1
270
     1
271
     1
  0
XRECORD
  5
1734
102
{ACAD_REACTORS
330
172F
102
}
330
172F
100
AcDbXrecord
280
     1
270
     1
271
     1
  0
XRECORD
  5
1733
102
{ACAD_REACTORS
330
172F
102
}
330
172F
100
AcDbXrecord
280
     1
270
     1
271
     1
  0
XRECORD
  5
1735
102
{ACAD_REACTORS
330
172F
102
}
330
172F
100
AcDbXrecord
280
     1
270
     1
271
     1
  0
XRECORD
  5
1732
102
{ACAD_REACTORS
330
172F
102
}
330
172F
100
AcDbXrecord
280
     1
270
     1
271
     1
  0
XRECORD
  5
188C
102
{ACAD_REACTORS
330
1727
102
}
330
1727
100
AcDbXrecord
280
     1
102
MATERIAL
148
0.0
149
0.0
149
0.0
 93
        0
 94
      127
282
     0
 72
     0
 77
     0
171
     0
175
     0
179
     0
273
     0
  0
XRECORD
  5
1729
102
{ACAD_REACTORS
330
1727
102
}
330
1727
100
AcDbXrecord
280
     1
270
     1
271
     1
  0
XRECORD
  5
1728
102
{ACAD_REACTORS
330
1727
102
}
330
1727
100
AcDbXrecord
280
     1
270
     1
271
     1
  0
XRECORD
  5
172C
102
{ACAD_REACTORS
330
1727
102
}
330
1727
100
AcDbXrecord
280
     1
270
     1
271
     1
  0
XRECORD
  5
172B
102
{ACAD_REACTORS
330
1727
102
}
330
1727
100
AcDbXrecord
280
     1
270
     1
271
     1
  0
XRECORD
  5
172D
102
{ACAD_REACTORS
330
1727
102
}
330
1727
100
AcDbXrecord
280
     1
270
     1
271
     1
  0
XRECORD
  5
172A
102
{ACAD_REACTORS
330
1727
102
}
330
1727
100
AcDbXrecord
280
     1
270
     1
271
     1
  0
XRECORD
  5
188E
102
{ACAD_REACTORS
330
1737
102
}
330
1737
100
AcDbXrecord
280
     1
102
MATERIAL
148
0.0
149
0.0
149
0.0
 93
        0
 94
      127
282
     0
 72
     0
 77
     0
171
     0
175
     0
179
     0
273
     0
  0
XRECORD
  5
1739
102
{ACAD_REACTORS
330
1737
102
}
330
1737
100
AcDbXrecord
280
     1
270
     1
271
     1
  0
XRECORD
  5
1738
102
{ACAD_REACTORS
330
1737
102
}
330
1737
100
AcDbXrecord
280
     1
270
     1
271
     1
  0
XRECORD
  5
173C
102
{ACAD_REACTORS
330
1737
102
}
330
1737
100
AcDbXrecord
280
     1
270
     1
271
     1
  0
XRECORD
  5
173B
102
{ACAD_REACTORS
330
1737
102
}
330
1737
100
AcDbXrecord
280
     1
270
     1
271
     1
  0
XRECORD
  5
173D
102
{ACAD_REACTORS
330
1737
102
}
330
1737
100
AcDbXrecord
280
     1
270
     1
271
     1
  0
XRECORD
  5
173A
102
{ACAD_REACTORS
330
1737
102
}
330
1737
100
AcDbXrecord
280
     1
270
     1
271
     1
  0
XRECORD
  5
18C5
102
{ACAD_REACTORS
330
18C4
102
}
330
18C4
100
AcDbXrecord
280
     1
102
DISPLAYNAME
  1
Imperial24
102
FLAGS
 90
        0
  0
CELLSTYLEMAP
  5
188A
102
{ACAD_REACTORS
330
1779
102
}
330
1779
100
AcDbCellStyleMap
 90
        3
300
CELLSTYLE
  1
TABLEFORMAT_BEGIN
 90
        5
170
     1
 91
        0
 92
    32768
 62
   257
 93
        1
300
CONTENTFORMAT
  1
CONTENTFORMAT_BEGIN
 90
        0
 91
        0
 92
      512
 93
        0
300

 40
0.0
140
1.0
 94
        5
 62
     0
340
11
144
0.25
309
CONTENTFORMAT_END
171
     0
 94
        0
309
TABLEFORMAT_END
  1
CELLSTYLE_BEGIN
 90
        1
 91
        1
300
_TITLE
309
CELLSTYLE_END
300
CELLSTYLE
  1
TABLEFORMAT_BEGIN
 90
        5
170
     1
 91
        0
 92
        0
 62
   257
 93
        1
300
CONTENTFORMAT
  1
CONTENTFORMAT_BEGIN
 90
        0
 91
        0
 92
      512
 93
        0
300

 40
0.0
140
1.0
 94
        5
 62
     0
340
11
144
0.18
309
CONTENTFORMAT_END
171
     0
 94
        0
309
TABLEFORMAT_END
  1
CELLSTYLE_BEGIN
 90
        2
 91
        1
300
_HEADER
309
CELLSTYLE_END
300
CELLSTYLE
  1
TABLEFORMAT_BEGIN
 90
        5
170
     1
 91
        0
 92
        0
 62
   257
 93
        1
300
CONTENTFORMAT
  1
CONTENTFORMAT_BEGIN
 90
        0
 91
        0
 92
      512
 93
        0
300

 40
0.0
140
1.0
 94
        2
 62
     0
340
11
144
0.18
309
CONTENTFORMAT_END
171
     0
 94
        0
309
TABLEFORMAT_END
  1
CELLSTYLE_BEGIN
 90
        3
 91
        2
300
_DATA
309
CELLSTYLE_END
  0
XRECORD
  5
18B5
102
{ACAD_REACTORS
330
1779
102
}
330
1779
100
AcDbXrecord
280
     1
102
ACAD_ROUNDTRIP_PRE2007_TABLESTYLE
 90
      512
 91
        0
  1

 92
      512
 93
        0
  2

 94
      512
 95
        0
  3

  0
XRECORD
  5
189A
102
{ACAD_REACTORS
330
1899
102
}
330
1899
100
AcDbXrecord
280
     1
102
RTVSPost2010Prop28
280
     1
102
RTVSPost2010PropOp28
 70
     1
102
RTVSPost2010Prop29
280
     1
102
RTVSPost2010PropOp29
 70
     1
102
RTVSPost2010Prop30
280
     0
102
RTVSPost2010PropOp30
 70
     1
102
RTVSPost2010Prop31
280
     0
102
RTVSPost2010PropOp31
 70
     1
102
RTVSPost2010Prop32
280
     0
102
RTVSPost2010PropOp32
 70
     1
102
RTVSPost2010Prop33
280
     0
102
RTVSPost2010PropOp33
 70
     1
102
RTVSPost2010Prop34
280
     0
102
RTVSPost2010PropOp34
 70
     1
102
RTVSPost2010Prop35
280
     0
102
RTVSPost2010PropOp35
 70
     1
102
RTVSPost2010Prop36
280
     0
102
RTVSPost2010PropOp36
 70
     1
102
RTVSPost2010Prop37
 90
       50
102
RTVSPost2010PropOp37
 70
     1
102
RTVSPost2010Prop38
140
0.0
102
RTVSPost2010PropOp38
 70
     1
102
RTVSPost2010Prop39
140
1.0
102
RTVSPost2010PropOp39
 70
     1
102
RTVSPost2010Prop40
 90
        0
102
RTVSPost2010PropOp40
 70
     1
102
RTVSPost2010Prop41ColorIndex
 90
       18
102
RTVSPost2010Prop41ColorRGB
 90
        0
102
RTVSPost2010PropOp41
 70
     1
102
RTVSPost2010Prop42
 90
       50
102
RTVSPost2010PropOp42
 70
     1
102
RTVSPost2010Prop43
 90
        3
102
RTVSPost2010PropOp43
 70
     1
102
RTVSPost2010Prop44ColorIndex
 90
        5
102
RTVSPost2010Prop44ColorRGB
 90
      255
102
RTVSPost2010PropOp44
 70
     1
102
RTVSPost2010Prop45
280
     0
102
RTVSPost2010PropOp45
 70
     1
102
RTVSPost2010Prop46
 90
       50
102
RTVSPost2010PropOp46
 70
     1
102
RTVSPost2010Prop47
 90
       50
102
RTVSPost2010PropOp47
 70
     1
102
RTVSPost2010Prop48
 90
       50
102
RTVSPost2010PropOp48
 70
     1
102
RTVSPost2010Prop49
280
     0
102
RTVSPost2010PropOp49
 70
     1
102
RTVSPost2010Prop50
 90
       50
102
RTVSPost2010PropOp50
 70
     1
102
RTVSPost2010Prop51ColorIndex
 90
      256
102
RTVSPost2010Prop51ColorRGB
 90
-16777216
102
RTVSPost2010PropOp51
 70
     0
102
RTVSPost2010Prop52
140
1.0
102
RTVSPost2010PropOp52
 70
     0
102
RTVSPost2010Prop53
 90
        2
102
RTVSPost2010PropOp53
 70
     1
102
RTVSPost2010Prop54
  1
strokes_ogs.tif
102
RTVSPost2010PropOp54
 70
     1
102
RTVSPost2010Prop55
280
     0
102
RTVSPost2010PropOp55
 70
     1
102
RTVSPost2010Prop56
140
1.0
102
RTVSPost2010PropOp56
 70
     1
102
RTVSPost2010Prop57
140
1.0
102
RTVSPost2010PropOp57
 70
     1
102
RTVSPropertyOp0
 70
     1
102
RTVSPropertyOp1
 70
     1
102
RTVSPropertyOp2
 70
     1
102
RTVSPropertyOp3
 70
     1
102
RTVSPropertyOp4
 70
     1
102
RTVSPropertyOp5
 70
     1
102
RTVSPropertyOp6
 70
     1
102
RTVSPropertyOp7
 70
     1
102
RTVSPropertyOp8
 70
     1
102
RTVSPropertyOp9
 70
     1
102
RTVSPropertyOp10
 70
     1
102
RTVSPropertyOp11
 70
     1
102
RTVSPropertyOp12
 70
     1
102
RTVSPropertyOp13
 70
     1
102
RTVSPropertyOp14
 70
     1
102
RTVSPropertyOp15
 70
     1
102
RTVSPropertyOp16
 70
     1
102
RTVSPropertyOp17
 70
     1
102
RTVSPropertyOp18
 70
     1
102
RTVSPropertyOp19
 70
     1
102
RTVSPropertyOp20
 70
     1
102
RTVSPropertyOp21
 70
     1
102
RTVSPropertyOp22
 70
     1
102
RTVSPropertyOp23
 70
     1
102
RTVSPropertyOp24
 70
     1
102
RTVSPropertyOp25
 70
     1
102
RTVSPropertyOp26
 70
     1
102
RTVSPropertyOp27
 70
     1
102
RTVSPropertyOp28
 70
     1
102
RTVSPropertyOp29
 70
     1
102
RTVSPropertyOp30
 70
     1
102
RTVSPropertyOp31
 70
     1
102
RTVSPropertyOp32
 70
     1
102
RTVSPropertyOp33
 70
     1
102
RTVSPropertyOp34
 70
     1
102
RTVSPropertyOp35
 70
     1
102
RTVSPropertyOp36
 70
     1
102
RTVSPropertyOp37
 70
     1
102
RTVSPropertyOp38
 70
     1
102
RTVSPropertyOp39
 70
     1
102
RTVSPropertyOp40
 70
     1
102
RTVSPropertyOp41
 70
     1
102
RTVSPropertyOp42
 70
     1
102
RTVSPropertyOp43
 70
     1
102
RTVSPropertyOp44
 70
     1
102
RTVSPropertyOp45
 70
     1
102
RTVSPropertyOp46
 70
     1
102
RTVSPropertyOp47
 70
     1
102
RTVSPropertyOp48
 70
     1
102
RTVSPropertyOp49
 70
     1
102
RTVSPropertyOp50
 70
     1
102
RTVSPropertyOp51
 70
     0
102
RTVSPropertyOp52
 70
     0
102
RTVSPropertyOp53
 70
     1
102
RTVSPropertyOp54
 70
     1
102
RTVSPropertyOp55
 70
     1
102
RTVSPropertyOp56
 70
     1
102
RTVSPropertyOp57
 70
     1
102
RTVSPropertyOp58
 70
     1
102
RTVSPropertyOp59
 70
     1
102
RTVSPropertyOp60
 70
     1
102
RTVSPropertyOp61
 70
     1
102
RTVSPropertyOp62
 70
     1
  0
XRECORD
  5
189E
102
{ACAD_REACTORS
330
189D
102
}
330
189D
100
AcDbXrecord
280
     1
102
RTVSPost2010Prop28
280
     0
102
RTVSPost2010PropOp28
 70
     1
102
RTVSPost2010Prop29
280
     1
102
RTVSPost2010PropOp29
 70
     1
102
RTVSPost2010Prop30
280
     1
102
RTVSPost2010PropOp30
 70
     1
102
RTVSPost2010Prop31
280
     0
102
RTVSPost2010PropOp31
 70
     1
102
RTVSPost2010Prop32
280
     0
102
RTVSPost2010PropOp32
 70
     1
102
RTVSPost2010Prop33
280
     0
102
RTVSPost2010PropOp33
 70
     1
102
RTVSPost2010Prop34
280
     0
102
RTVSPost2010PropOp34
 70
     1
102
RTVSPost2010Prop35
280
     0
102
RTVSPost2010PropOp35
 70
     1
102
RTVSPost2010Prop36
280
     0
102
RTVSPost2010PropOp36
 70
     1
102
RTVSPost2010Prop37
 90
       50
102
RTVSPost2010PropOp37
 70
     1
102
RTVSPost2010Prop38
140
0.0
102
RTVSPost2010PropOp38
 70
     1
102
RTVSPost2010Prop39
140
1.0
102
RTVSPost2010PropOp39
 70
     1
102
RTVSPost2010Prop40
 90
        0
102
RTVSPost2010PropOp40
 70
     1
102
RTVSPost2010Prop41ColorIndex
 90
       18
102
RTVSPost2010Prop41ColorRGB
 90
        0
102
RTVSPost2010PropOp41
 70
     1
102
RTVSPost2010Prop42
 90
       50
102
RTVSPost2010PropOp42
 70
     1
102
RTVSPost2010Prop43
 90
        3
102
RTVSPost2010PropOp43
 70
     1
102
RTVSPost2010Prop44ColorIndex
 90
        5
102
RTVSPost2010Prop44ColorRGB
 90
      255
102
RTVSPost2010PropOp44
 70
     1
102
RTVSPost2010Prop45
280
     0
102
RTVSPost2010PropOp45
 70
     1
102
RTVSPost2010Prop46
 90
       50
102
RTVSPost2010PropOp46
 70
     1
102
RTVSPost2010Prop47
 90
       50
102
RTVSPost2010PropOp47
 70
     1
102
RTVSPost2010Prop48
 90
       50
102
RTVSPost2010PropOp48
 70
     1
102
RTVSPost2010Prop49
280
     0
102
RTVSPost2010PropOp49
 70
     1
102
RTVSPost2010Prop50
 90
       50
102
RTVSPost2010PropOp50
 70
     1
102
RTVSPost2010Prop51ColorIndex
 90
      256
102
RTVSPost2010Prop51ColorRGB
 90
-16777216
102
RTVSPost2010PropOp51
 70
     0
102
RTVSPost2010Prop52
140
1.0
102
RTVSPost2010PropOp52
 70
     0
102
RTVSPost2010Prop53
 90
        2
102
RTVSPost2010PropOp53
 70
     1
102
RTVSPost2010Prop54
  1
strokes_ogs.tif
102
RTVSPost2010PropOp54
 70
     1
102
RTVSPost2010Prop55
280
     0
102
RTVSPost2010PropOp55
 70
     1
102
RTVSPost2010Prop56
140
1.0
102
RTVSPost2010PropOp56
 70
     1
102
RTVSPost2010Prop57
140
1.0
102
RTVSPost2010PropOp57
 70
     1
102
RTVSPropertyOp0
 70
     1
102
RTVSPropertyOp1
 70
     1
102
RTVSPropertyOp2
 70
     1
102
RTVSPropertyOp3
 70
     1
102
RTVSPropertyOp4
 70
     1
102
RTVSPropertyOp5
 70
     1
102
RTVSPropertyOp6
 70
     1
102
RTVSPropertyOp7
 70
     1
102
RTVSPropertyOp8
 70
     1
102
RTVSPropertyOp9
 70
     1
102
RTVSPropertyOp10
 70
     1
102
RTVSPropertyOp11
 70
     1
102
RTVSPropertyOp12
 70
     1
102
RTVSPropertyOp13
 70
     1
102
RTVSPropertyOp14
 70
     1
102
RTVSPropertyOp15
 70
     1
102
RTVSPropertyOp16
 70
     1
102
RTVSPropertyOp17
 70
     1
102
RTVSPropertyOp18
 70
     1
102
RTVSPropertyOp19
 70
     1
102
RTVSPropertyOp20
 70
     1
102
RTVSPropertyOp21
 70
     1
102
RTVSPropertyOp22
 70
     1
102
RTVSPropertyOp23
 70
     1
102
RTVSPropertyOp24
 70
     1
102
RTVSPropertyOp25
 70
     1
102
RTVSPropertyOp26
 70
     1
102
RTVSPropertyOp27
 70
     1
102
RTVSPropertyOp28
 70
     1
102
RTVSPropertyOp29
 70
     1
102
RTVSPropertyOp30
 70
     1
102
RTVSPropertyOp31
 70
     1
102
RTVSPropertyOp32
 70
     1
102
RTVSPropertyOp33
 70
     1
102
RTVSPropertyOp34
 70
     1
102
RTVSPropertyOp35
 70
     1
102
RTVSPropertyOp36
 70
     1
102
RTVSPropertyOp37
 70
     1
102
RTVSPropertyOp38
 70
     1
102
RTVSPropertyOp39
 70
     1
102
RTVSPropertyOp40
 70
     1
102
RTVSPropertyOp41
 70
     1
102
RTVSPropertyOp42
 70
     1
102
RTVSPropertyOp43
 70
     1
102
RTVSPropertyOp44
 70
     1
102
RTVSPropertyOp45
 70
     1
102
RTVSPropertyOp46
 70
     1
102
RTVSPropertyOp47
 70
     1
102
RTVSPropertyOp48
 70
     1
102
RTVSPropertyOp49
 70
     1
102
RTVSPropertyOp50
 70
     1
102
RTVSPropertyOp51
 70
     0
102
RTVSPropertyOp52
 70
     0
102
RTVSPropertyOp53
 70
     1
102
RTVSPropertyOp54
 70
     1
102
RTVSPropertyOp55
 70
     1
102
RTVSPropertyOp56
 70
     1
102
RTVSPropertyOp57
 70
     1
102
RTVSPropertyOp58
 70
     1
102
RTVSPropertyOp59
 70
     1
102
RTVSPropertyOp60
 70
     1
102
RTVSPropertyOp61
 70
     1
102
RTVSPropertyOp62
 70
     1
  0
XRECORD
  5
189C
102
{ACAD_REACTORS
330
189B
102
}
330
189B
100
AcDbXrecord
280
     1
102
RTVSPost2010Prop28
280
     0
102
RTVSPost2010PropOp28
 70
     1
102
RTVSPost2010Prop29
280
     1
102
RTVSPost2010PropOp29
 70
     1
102
RTVSPost2010Prop30
280
     1
102
RTVSPost2010PropOp30
 70
     1
102
RTVSPost2010Prop31
280
     0
102
RTVSPost2010PropOp31
 70
     1
102
RTVSPost2010Prop32
280
     0
102
RTVSPost2010PropOp32
 70
     1
102
RTVSPost2010Prop33
280
     0
102
RTVSPost2010PropOp33
 70
     1
102
RTVSPost2010Prop34
280
     0
102
RTVSPost2010PropOp34
 70
     1
102
RTVSPost2010Prop35
280
     0
102
RTVSPost2010PropOp35
 70
     1
102
RTVSPost2010Prop36
280
     0
102
RTVSPost2010PropOp36
 70
     1
102
RTVSPost2010Prop37
 90
       50
102
RTVSPost2010PropOp37
 70
     1
102
RTVSPost2010Prop38
140
0.0
102
RTVSPost2010PropOp38
 70
     1
102
RTVSPost2010Prop39
140
1.0
102
RTVSPost2010PropOp39
 70
     1
102
RTVSPost2010Prop40
 90
        0
102
RTVSPost2010PropOp40
 70
     1
102
RTVSPost2010Prop41ColorIndex
 90
       18
102
RTVSPost2010Prop41ColorRGB
 90
        0
102
RTVSPost2010PropOp41
 70
     1
102
RTVSPost2010Prop42
 90
       50
102
RTVSPost2010PropOp42
 70
     1
102
RTVSPost2010Prop43
 90
        3
102
RTVSPost2010PropOp43
 70
     1
102
RTVSPost2010Prop44ColorIndex
 90
        5
102
RTVSPost2010Prop44ColorRGB
 90
      255
102
RTVSPost2010PropOp44
 70
     1
102
RTVSPost2010Prop45
280
     0
102
RTVSPost2010PropOp45
 70
     1
102
RTVSPost2010Prop46
 90
       50
102
RTVSPost2010PropOp46
 70
     1
102
RTVSPost2010Prop47
 90
       50
102
RTVSPost2010PropOp47
 70
     1
102
RTVSPost2010Prop48
 90
       50
102
RTVSPost2010PropOp48
 70
     1
102
RTVSPost2010Prop49
280
     0
102
RTVSPost2010PropOp49
 70
     1
102
RTVSPost2010Prop50
 90
       50
102
RTVSPost2010PropOp50
 70
     1
102
RTVSPost2010Prop51ColorIndex
 90
      256
102
RTVSPost2010Prop51ColorRGB
 90
-16777216
102
RTVSPost2010PropOp51
 70
     0
102
RTVSPost2010Prop52
140
1.0
102
RTVSPost2010PropOp52
 70
     0
102
RTVSPost2010Prop53
 90
        2
102
RTVSPost2010PropOp53
 70
     1
102
RTVSPost2010Prop54
  1
strokes_ogs.tif
102
RTVSPost2010PropOp54
 70
     1
102
RTVSPost2010Prop55
280
     0
102
RTVSPost2010PropOp55
 70
     1
102
RTVSPost2010Prop56
140
1.0
102
RTVSPost2010PropOp56
 70
     1
102
RTVSPost2010Prop57
140
1.0
102
RTVSPost2010PropOp57
 70
     1
102
RTVSPropertyOp0
 70
     1
102
RTVSPropertyOp1
 70
     1
102
RTVSPropertyOp2
 70
     1
102
RTVSPropertyOp3
 70
     1
102
RTVSPropertyOp4
 70
     1
102
RTVSPropertyOp5
 70
     1
102
RTVSPropertyOp6
 70
     1
102
RTVSPropertyOp7
 70
     1
102
RTVSPropertyOp8
 70
     1
102
RTVSPropertyOp9
 70
     1
102
RTVSPropertyOp10
 70
     1
102
RTVSPropertyOp11
 70
     1
102
RTVSPropertyOp12
 70
     1
102
RTVSPropertyOp13
 70
     1
102
RTVSPropertyOp14
 70
     1
102
RTVSPropertyOp15
 70
     1
102
RTVSPropertyOp16
 70
     1
102
RTVSPropertyOp17
 70
     1
102
RTVSPropertyOp18
 70
     1
102
RTVSPropertyOp19
 70
     1
102
RTVSPropertyOp20
 70
     1
102
RTVSPropertyOp21
 70
     1
102
RTVSPropertyOp22
 70
     1
102
RTVSPropertyOp23
 70
     1
102
RTVSPropertyOp24
 70
     1
102
RTVSPropertyOp25
 70
     1
102
RTVSPropertyOp26
 70
     1
102
RTVSPropertyOp27
 70
     1
102
RTVSPropertyOp28
 70
     1
102
RTVSPropertyOp29
 70
     1
102
RTVSPropertyOp30
 70
     1
102
RTVSPropertyOp31
 70
     1
102
RTVSPropertyOp32
 70
     1
102
RTVSPropertyOp33
 70
     1
102
RTVSPropertyOp34
 70
     1
102
RTVSPropertyOp35
 70
     1
102
RTVSPropertyOp36
 70
     1
102
RTVSPropertyOp37
 70
     1
102
RTVSPropertyOp38
 70
     1
102
RTVSPropertyOp39
 70
     1
102
RTVSPropertyOp40
 70
     1
102
RTVSPropertyOp41
 70
     1
102
RTVSPropertyOp42
 70
     1
102
RTVSPropertyOp43
 70
     1
102
RTVSPropertyOp44
 70
     1
102
RTVSPropertyOp45
 70
     1
102
RTVSPropertyOp46
 70
     1
102
RTVSPropertyOp47
 70
     1
102
RTVSPropertyOp48
 70
     1
102
RTVSPropertyOp49
 70
     1
102
RTVSPropertyOp50
 70
     1
102
RTVSPropertyOp51
 70
     0
102
RTVSPropertyOp52
 70
     0
102
RTVSPropertyOp53
 70
     1
102
RTVSPropertyOp54
 70
     1
102
RTVSPropertyOp55
 70
     1
102
RTVSPropertyOp56
 70
     1
102
RTVSPropertyOp57
 70
     1
102
RTVSPropertyOp58
 70
     1
102
RTVSPropertyOp59
 70
     1
102
RTVSPropertyOp60
 70
     1
102
RTVSPropertyOp61
 70
     1
102
RTVSPropertyOp62
 70
     1
  0
XRECORD
  5
1898
102
{ACAD_REACTORS
330
1897
102
}
330
1897
100
AcDbXrecord
280
     1
102
RTVSPost2010Prop28
280
     0
102
RTVSPost2010PropOp28
 70
     1
102
RTVSPost2010Prop29
280
     1
102
RTVSPost2010PropOp29
 70
     1
102
RTVSPost2010Prop30
280
     1
102
RTVSPost2010PropOp30
 70
     1
102
RTVSPost2010Prop31
280
     0
102
RTVSPost2010PropOp31
 70
     1
102
RTVSPost2010Prop32
280
     0
102
RTVSPost2010PropOp32
 70
     1
102
RTVSPost2010Prop33
280
     0
102
RTVSPost2010PropOp33
 70
     1
102
RTVSPost2010Prop34
280
     0
102
RTVSPost2010PropOp34
 70
     1
102
RTVSPost2010Prop35
280
     0
102
RTVSPost2010PropOp35
 70
     1
102
RTVSPost2010Prop36
280
     0
102
RTVSPost2010PropOp36
 70
     1
102
RTVSPost2010Prop37
 90
       50
102
RTVSPost2010PropOp37
 70
     1
102
RTVSPost2010Prop38
140
0.0
102
RTVSPost2010PropOp38
 70
     1
102
RTVSPost2010Prop39
140
1.0
102
RTVSPost2010PropOp39
 70
     1
102
RTVSPost2010Prop40
 90
        0
102
RTVSPost2010PropOp40
 70
     1
102
RTVSPost2010Prop41ColorIndex
 90
       18
102
RTVSPost2010Prop41ColorRGB
 90
        0
102
RTVSPost2010PropOp41
 70
     1
102
RTVSPost2010Prop42
 90
       50
102
RTVSPost2010PropOp42
 70
     1
102
RTVSPost2010Prop43
 90
        3
102
RTVSPost2010PropOp43
 70
     1
102
RTVSPost2010Prop44ColorIndex
 90
        5
102
RTVSPost2010Prop44ColorRGB
 90
      255
102
RTVSPost2010PropOp44
 70
     1
102
RTVSPost2010Prop45
280
     0
102
RTVSPost2010PropOp45
 70
     1
102
RTVSPost2010Prop46
 90
       50
102
RTVSPost2010PropOp46
 70
     1
102
RTVSPost2010Prop47
 90
       50
102
RTVSPost2010PropOp47
 70
     1
102
RTVSPost2010Prop48
 90
       50
102
RTVSPost2010PropOp48
 70
     1
102
RTVSPost2010Prop49
280
     0
102
RTVSPost2010PropOp49
 70
     1
102
RTVSPost2010Prop50
 90
       50
102
RTVSPost2010PropOp50
 70
     1
102
RTVSPost2010Prop51ColorIndex
 90
      256
102
RTVSPost2010Prop51ColorRGB
 90
-16777216
102
RTVSPost2010PropOp51
 70
     0
102
RTVSPost2010Prop52
140
1.0
102
RTVSPost2010PropOp52
 70
     0
102
RTVSPost2010Prop53
 90
        2
102
RTVSPost2010PropOp53
 70
     1
102
RTVSPost2010Prop54
  1
strokes_ogs.tif
102
RTVSPost2010PropOp54
 70
     1
102
RTVSPost2010Prop55
280
     0
102
RTVSPost2010PropOp55
 70
     1
102
RTVSPost2010Prop56
140
1.0
102
RTVSPost2010PropOp56
 70
     1
102
RTVSPost2010Prop57
140
1.0
102
RTVSPost2010PropOp57
 70
     1
102
RTVSPropertyOp0
 70
     1
102
RTVSPropertyOp1
 70
     1
102
RTVSPropertyOp2
 70
     1
102
RTVSPropertyOp3
 70
     1
102
RTVSPropertyOp4
 70
     1
102
RTVSPropertyOp5
 70
     1
102
RTVSPropertyOp6
 70
     1
102
RTVSPropertyOp7
 70
     1
102
RTVSPropertyOp8
 70
     1
102
RTVSPropertyOp9
 70
     1
102
RTVSPropertyOp10
 70
     1
102
RTVSPropertyOp11
 70
     1
102
RTVSPropertyOp12
 70
     1
102
RTVSPropertyOp13
 70
     1
102
RTVSPropertyOp14
 70
     1
102
RTVSPropertyOp15
 70
     1
102
RTVSPropertyOp16
 70
     1
102
RTVSPropertyOp17
 70
     1
102
RTVSPropertyOp18
 70
     1
102
RTVSPropertyOp19
 70
     1
102
RTVSPropertyOp20
 70
     1
102
RTVSPropertyOp21
 70
     1
102
RTVSPropertyOp22
 70
     1
102
RTVSPropertyOp23
 70
     1
102
RTVSPropertyOp24
 70
     1
102
RTVSPropertyOp25
 70
     1
102
RTVSPropertyOp26
 70
     1
102
RTVSPropertyOp27
 70
     1
102
RTVSPropertyOp28
 70
     1
102
RTVSPropertyOp29
 70
     1
102
RTVSPropertyOp30
 70
     1
102
RTVSPropertyOp31
 70
     1
102
RTVSPropertyOp32
 70
     1
102
RTVSPropertyOp33
 70
     1
102
RTVSPropertyOp34
 70
     1
102
RTVSPropertyOp35
 70
     1
102
RTVSPropertyOp36
 70
     1
102
RTVSPropertyOp37
 70
     1
102
RTVSPropertyOp38
 70
     1
102
RTVSPropertyOp39
 70
     1
102
RTVSPropertyOp40
 70
     1
102
RTVSPropertyOp41
 70
     1
102
RTVSPropertyOp42
 70
     1
102
RTVSPropertyOp43
 70
     1
102
RTVSPropertyOp44
 70
     1
102
RTVSPropertyOp45
 70
     1
102
RTVSPropertyOp46
 70
     1
102
RTVSPropertyOp47
 70
     1
102
RTVSPropertyOp48
 70
     1
102
RTVSPropertyOp49
 70
     1
102
RTVSPropertyOp50
 70
     1
102
RTVSPropertyOp51
 70
     0
102
RTVSPropertyOp52
 70
     0
102
RTVSPropertyOp53
 70
     1
102
RTVSPropertyOp54
 70
     1
102
RTVSPropertyOp55
 70
     1
102
RTVSPropertyOp56
 70
     1
102
RTVSPropertyOp57
 70
     1
102
RTVSPropertyOp58
 70
     1
102
RTVSPropertyOp59
 70
     1
102
RTVSPropertyOp60
 70
     1
102
RTVSPropertyOp61
 70
     1
102
RTVSPropertyOp62
 70
     1
  0
XRECORD
  5
18A6
102
{ACAD_REACTORS
330
18A5
102
}
330
18A5
100
AcDbXrecord
280
     1
102
RTVSPost2010Prop28
280
     0
102
RTVSPost2010PropOp28
 70
     1
102
RTVSPost2010Prop29
280
     1
102
RTVSPost2010PropOp29
 70
     1
102
RTVSPost2010Prop30
280
     1
102
RTVSPost2010PropOp30
 70
     1
102
RTVSPost2010Prop31
280
     0
102
RTVSPost2010PropOp31
 70
     1
102
RTVSPost2010Prop32
280
     0
102
RTVSPost2010PropOp32
 70
     1
102
RTVSPost2010Prop33
280
     0
102
RTVSPost2010PropOp33
 70
     1
102
RTVSPost2010Prop34
280
     0
102
RTVSPost2010PropOp34
 70
     1
102
RTVSPost2010Prop35
280
     0
102
RTVSPost2010PropOp35
 70
     1
102
RTVSPost2010Prop36
280
     0
102
RTVSPost2010PropOp36
 70
     1
102
RTVSPost2010Prop37
 90
       50
102
RTVSPost2010PropOp37
 70
     1
102
RTVSPost2010Prop38
140
0.0
102
RTVSPost2010PropOp38
 70
     1
102
RTVSPost2010Prop39
140
1.0
102
RTVSPost2010PropOp39
 70
     1
102
RTVSPost2010Prop40
 90
        0
102
RTVSPost2010PropOp40
 70
     1
102
RTVSPost2010Prop41ColorIndex
 90
       18
102
RTVSPost2010Prop41ColorRGB
 90
        0
102
RTVSPost2010PropOp41
 70
     1
102
RTVSPost2010Prop42
 90
       50
102
RTVSPost2010PropOp42
 70
     1
102
RTVSPost2010Prop43
 90
        3
102
RTVSPost2010PropOp43
 70
     1
102
RTVSPost2010Prop44ColorIndex
 90
        5
102
RTVSPost2010Prop44ColorRGB
 90
      255
102
RTVSPost2010PropOp44
 70
     1
102
RTVSPost2010Prop45
280
     0
102
RTVSPost2010PropOp45
 70
     1
102
RTVSPost2010Prop46
 90
       50
102
RTVSPost2010PropOp46
 70
     1
102
RTVSPost2010Prop47
 90
       50
102
RTVSPost2010PropOp47
 70
     1
102
RTVSPost2010Prop48
 90
       50
102
RTVSPost2010PropOp48
 70
     1
102
RTVSPost2010Prop49
280
     0
102
RTVSPost2010PropOp49
 70
     1
102
RTVSPost2010Prop50
 90
       50
102
RTVSPost2010PropOp50
 70
     1
102
RTVSPost2010Prop51ColorIndex
 90
      256
102
RTVSPost2010Prop51ColorRGB
 90
-16777216
102
RTVSPost2010PropOp51
 70
     0
102
RTVSPost2010Prop52
140
1.0
102
RTVSPost2010PropOp52
 70
     0
102
RTVSPost2010Prop53
 90
        2
102
RTVSPost2010PropOp53
 70
     1
102
RTVSPost2010Prop54
  1
strokes_ogs.tif
102
RTVSPost2010PropOp54
 70
     1
102
RTVSPost2010Prop55
280
     0
102
RTVSPost2010PropOp55
 70
     1
102
RTVSPost2010Prop56
140
1.0
102
RTVSPost2010PropOp56
 70
     1
102
RTVSPost2010Prop57
140
1.0
102
RTVSPost2010PropOp57
 70
     1
102
RTVSPropertyOp0
 70
     1
102
RTVSPropertyOp1
 70
     1
102
RTVSPropertyOp2
 70
     1
102
RTVSPropertyOp3
 70
     1
102
RTVSPropertyOp4
 70
     1
102
RTVSPropertyOp5
 70
     1
102
RTVSPropertyOp6
 70
     1
102
RTVSPropertyOp7
 70
     1
102
RTVSPropertyOp8
 70
     1
102
RTVSPropertyOp9
 70
     1
102
RTVSPropertyOp10
 70
     1
102
RTVSPropertyOp11
 70
     1
102
RTVSPropertyOp12
 70
     1
102
RTVSPropertyOp13
 70
     1
102
RTVSPropertyOp14
 70
     1
102
RTVSPropertyOp15
 70
     1
102
RTVSPropertyOp16
 70
     1
102
RTVSPropertyOp17
 70
     1
102
RTVSPropertyOp18
 70
     1
102
RTVSPropertyOp19
 70
     1
102
RTVSPropertyOp20
 70
     1
102
RTVSPropertyOp21
 70
     1
102
RTVSPropertyOp22
 70
     1
102
RTVSPropertyOp23
 70
     1
102
RTVSPropertyOp24
 70
     1
102
RTVSPropertyOp25
 70
     1
102
RTVSPropertyOp26
 70
     1
102
RTVSPropertyOp27
 70
     1
102
RTVSPropertyOp28
 70
     1
102
RTVSPropertyOp29
 70
     1
102
RTVSPropertyOp30
 70
     1
102
RTVSPropertyOp31
 70
     1
102
RTVSPropertyOp32
 70
     1
102
RTVSPropertyOp33
 70
     1
102
RTVSPropertyOp34
 70
     1
102
RTVSPropertyOp35
 70
     1
102
RTVSPropertyOp36
 70
     1
102
RTVSPropertyOp37
 70
     1
102
RTVSPropertyOp38
 70
     1
102
RTVSPropertyOp39
 70
     1
102
RTVSPropertyOp40
 70
     1
102
RTVSPropertyOp41
 70
     1
102
RTVSPropertyOp42
 70
     1
102
RTVSPropertyOp43
 70
     1
102
RTVSPropertyOp44
 70
     1
102
RTVSPropertyOp45
 70
     1
102
RTVSPropertyOp46
 70
     1
102
RTVSPropertyOp47
 70
     1
102
RTVSPropertyOp48
 70
     1
102
RTVSPropertyOp49
 70
     1
102
RTVSPropertyOp50
 70
     1
102
RTVSPropertyOp51
 70
     0
102
RTVSPropertyOp52
 70
     0
102
RTVSPropertyOp53
 70
     1
102
RTVSPropertyOp54
 70
     1
102
RTVSPropertyOp55
 70
     1
102
RTVSPropertyOp56
 70
     1
102
RTVSPropertyOp57
 70
     1
102
RTVSPropertyOp58
 70
     1
102
RTVSPropertyOp59
 70
     1
102
RTVSPropertyOp60
 70
     1
102
RTVSPropertyOp61
 70
     1
102
RTVSPropertyOp62
 70
     1
  0
XRECORD
  5
18AE
102
{ACAD_REACTORS
330
18AD
102
}
330
18AD
100
AcDbXrecord
280
     1
102
RTVSPost2010Prop28
280
     0
102
RTVSPost2010PropOp28
 70
     1
102
RTVSPost2010Prop29
280
     1
102
RTVSPost2010PropOp29
 70
     1
102
RTVSPost2010Prop30
280
     1
102
RTVSPost2010PropOp30
 70
     1
102
RTVSPost2010Prop31
280
     0
102
RTVSPost2010PropOp31
 70
     1
102
RTVSPost2010Prop32
280
     0
102
RTVSPost2010PropOp32
 70
     1
102
RTVSPost2010Prop33
280
     0
102
RTVSPost2010PropOp33
 70
     1
102
RTVSPost2010Prop34
280
     0
102
RTVSPost2010PropOp34
 70
     1
102
RTVSPost2010Prop35
280
     0
102
RTVSPost2010PropOp35
 70
     1
102
RTVSPost2010Prop36
280
     0
102
RTVSPost2010PropOp36
 70
     1
102
RTVSPost2010Prop37
 90
       50
102
RTVSPost2010PropOp37
 70
     1
102
RTVSPost2010Prop38
140
0.0
102
RTVSPost2010PropOp38
 70
     1
102
RTVSPost2010Prop39
140
1.0
102
RTVSPost2010PropOp39
 70
     1
102
RTVSPost2010Prop40
 90
        0
102
RTVSPost2010PropOp40
 70
     1
102
RTVSPost2010Prop41ColorIndex
 90
       18
102
RTVSPost2010Prop41ColorRGB
 90
        0
102
RTVSPost2010PropOp41
 70
     1
102
RTVSPost2010Prop42
 90
       50
102
RTVSPost2010PropOp42
 70
     1
102
RTVSPost2010Prop43
 90
        3
102
RTVSPost2010PropOp43
 70
     1
102
RTVSPost2010Prop44ColorIndex
 90
        5
102
RTVSPost2010Prop44ColorRGB
 90
      255
102
RTVSPost2010PropOp44
 70
     1
102
RTVSPost2010Prop45
280
     0
102
RTVSPost2010PropOp45
 70
     1
102
RTVSPost2010Prop46
 90
       50
102
RTVSPost2010PropOp46
 70
     1
102
RTVSPost2010Prop47
 90
       50
102
RTVSPost2010PropOp47
 70
     1
102
RTVSPost2010Prop48
 90
       50
102
RTVSPost2010PropOp48
 70
     1
102
RTVSPost2010Prop49
280
     0
102
RTVSPost2010PropOp49
 70
     1
102
RTVSPost2010Prop50
 90
       50
102
RTVSPost2010PropOp50
 70
     1
102
RTVSPost2010Prop51ColorIndex
 90
      256
102
RTVSPost2010Prop51ColorRGB
 90
-16777216
102
RTVSPost2010PropOp51
 70
     0
102
RTVSPost2010Prop52
140
1.0
102
RTVSPost2010PropOp52
 70
     0
102
RTVSPost2010Prop53
 90
        2
102
RTVSPost2010PropOp53
 70
     1
102
RTVSPost2010Prop54
  1
strokes_ogs.tif
102
RTVSPost2010PropOp54
 70
     1
102
RTVSPost2010Prop55
280
     0
102
RTVSPost2010PropOp55
 70
     1
102
RTVSPost2010Prop56
140
1.0
102
RTVSPost2010PropOp56
 70
     1
102
RTVSPost2010Prop57
140
1.0
102
RTVSPost2010PropOp57
 70
     1
102
RTVSPropertyOp0
 70
     1
102
RTVSPropertyOp1
 70
     1
102
RTVSPropertyOp2
 70
     1
102
RTVSPropertyOp3
 70
     1
102
RTVSPropertyOp4
 70
     1
102
RTVSPropertyOp5
 70
     1
102
RTVSPropertyOp6
 70
     1
102
RTVSPropertyOp7
 70
     1
102
RTVSPropertyOp8
 70
     1
102
RTVSPropertyOp9
 70
     1
102
RTVSPropertyOp10
 70
     1
102
RTVSPropertyOp11
 70
     1
102
RTVSPropertyOp12
 70
     1
102
RTVSPropertyOp13
 70
     1
102
RTVSPropertyOp14
 70
     1
102
RTVSPropertyOp15
 70
     1
102
RTVSPropertyOp16
 70
     1
102
RTVSPropertyOp17
 70
     1
102
RTVSPropertyOp18
 70
     1
102
RTVSPropertyOp19
 70
     1
102
RTVSPropertyOp20
 70
     1
102
RTVSPropertyOp21
 70
     1
102
RTVSPropertyOp22
 70
     1
102
RTVSPropertyOp23
 70
     1
102
RTVSPropertyOp24
 70
     1
102
RTVSPropertyOp25
 70
     1
102
RTVSPropertyOp26
 70
     1
102
RTVSPropertyOp27
 70
     1
102
RTVSPropertyOp28
 70
     1
102
RTVSPropertyOp29
 70
     1
102
RTVSPropertyOp30
 70
     1
102
RTVSPropertyOp31
 70
     1
102
RTVSPropertyOp32
 70
     1
102
RTVSPropertyOp33
 70
     1
102
RTVSPropertyOp34
 70
     1
102
RTVSPropertyOp35
 70
     1
102
RTVSPropertyOp36
 70
     1
102
RTVSPropertyOp37
 70
     1
102
RTVSPropertyOp38
 70
     1
102
RTVSPropertyOp39
 70
     1
102
RTVSPropertyOp40
 70
     1
102
RTVSPropertyOp41
 70
     1
102
RTVSPropertyOp42
 70
     1
102
RTVSPropertyOp43
 70
     1
102
RTVSPropertyOp44
 70
     1
102
RTVSPropertyOp45
 70
     1
102
RTVSPropertyOp46
 70
     1
102
RTVSPropertyOp47
 70
     1
102
RTVSPropertyOp48
 70
     1
102
RTVSPropertyOp49
 70
     1
102
RTVSPropertyOp50
 70
     1
102
RTVSPropertyOp51
 70
     0
102
RTVSPropertyOp52
 70
     0
102
RTVSPropertyOp53
 70
     1
102
RTVSPropertyOp54
 70
     1
102
RTVSPropertyOp55
 70
     1
102
RTVSPropertyOp56
 70
     1
102
RTVSPropertyOp57
 70
     1
102
RTVSPropertyOp58
 70
     1
102
RTVSPropertyOp59
 70
     1
102
RTVSPropertyOp60
 70
     1
102
RTVSPropertyOp61
 70
     1
102
RTVSPropertyOp62
 70
     1
  0
XRECORD
  5
18A0
102
{ACAD_REACTORS
330
189F
102
}
330
189F
100
AcDbXrecord
280
     1
102
RTVSPost2010Prop28
280
     0
102
RTVSPost2010PropOp28
 70
     1
102
RTVSPost2010Prop29
280
     1
102
RTVSPost2010PropOp29
 70
     1
102
RTVSPost2010Prop30
280
     1
102
RTVSPost2010PropOp30
 70
     1
102
RTVSPost2010Prop31
280
     0
102
RTVSPost2010PropOp31
 70
     1
102
RTVSPost2010Prop32
280
     0
102
RTVSPost2010PropOp32
 70
     1
102
RTVSPost2010Prop33
280
     0
102
RTVSPost2010PropOp33
 70
     1
102
RTVSPost2010Prop34
280
     0
102
RTVSPost2010PropOp34
 70
     1
102
RTVSPost2010Prop35
280
     0
102
RTVSPost2010PropOp35
 70
     1
102
RTVSPost2010Prop36
280
     0
102
RTVSPost2010PropOp36
 70
     1
102
RTVSPost2010Prop37
 90
       50
102
RTVSPost2010PropOp37
 70
     1
102
RTVSPost2010Prop38
140
0.0
102
RTVSPost2010PropOp38
 70
     1
102
RTVSPost2010Prop39
140
1.0
102
RTVSPost2010PropOp39
 70
     1
102
RTVSPost2010Prop40
 90
        0
102
RTVSPost2010PropOp40
 70
     1
102
RTVSPost2010Prop41ColorIndex
 90
       18
102
RTVSPost2010Prop41ColorRGB
 90
        0
102
RTVSPost2010PropOp41
 70
     1
102
RTVSPost2010Prop42
 90
       50
102
RTVSPost2010PropOp42
 70
     1
102
RTVSPost2010Prop43
 90
        3
102
RTVSPost2010PropOp43
 70
     1
102
RTVSPost2010Prop44ColorIndex
 90
        5
102
RTVSPost2010Prop44ColorRGB
 90
      255
102
RTVSPost2010PropOp44
 70
     1
102
RTVSPost2010Prop45
280
     0
102
RTVSPost2010PropOp45
 70
     1
102
RTVSPost2010Prop46
 90
       50
102
RTVSPost2010PropOp46
 70
     1
102
RTVSPost2010Prop47
 90
       50
102
RTVSPost2010PropOp47
 70
     1
102
RTVSPost2010Prop48
 90
       50
102
RTVSPost2010PropOp48
 70
     1
102
RTVSPost2010Prop49
280
     0
102
RTVSPost2010PropOp49
 70
     1
102
RTVSPost2010Prop50
 90
       50
102
RTVSPost2010PropOp50
 70
     1
102
RTVSPost2010Prop51ColorIndex
 90
      256
102
RTVSPost2010Prop51ColorRGB
 90
-16777216
102
RTVSPost2010PropOp51
 70
     0
102
RTVSPost2010Prop52
140
1.0
102
RTVSPost2010PropOp52
 70
     0
102
RTVSPost2010Prop53
 90
        2
102
RTVSPost2010PropOp53
 70
     1
102
RTVSPost2010Prop54
  1
strokes_ogs.tif
102
RTVSPost2010PropOp54
 70
     1
102
RTVSPost2010Prop55
280
     0
102
RTVSPost2010PropOp55
 70
     1
102
RTVSPost2010Prop56
140
1.0
102
RTVSPost2010PropOp56
 70
     1
102
RTVSPost2010Prop57
140
1.0
102
RTVSPost2010PropOp57
 70
     1
102
RTVSPropertyOp0
 70
     1
102
RTVSPropertyOp1
 70
     1
102
RTVSPropertyOp2
 70
     1
102
RTVSPropertyOp3
 70
     1
102
RTVSPropertyOp4
 70
     1
102
RTVSPropertyOp5
 70
     1
102
RTVSPropertyOp6
 70
     1
102
RTVSPropertyOp7
 70
     1
102
RTVSPropertyOp8
 70
     1
102
RTVSPropertyOp9
 70
     1
102
RTVSPropertyOp10
 70
     1
102
RTVSPropertyOp11
 70
     1
102
RTVSPropertyOp12
 70
     1
102
RTVSPropertyOp13
 70
     1
102
RTVSPropertyOp14
 70
     1
102
RTVSPropertyOp15
 70
     1
102
RTVSPropertyOp16
 70
     1
102
RTVSPropertyOp17
 70
     1
102
RTVSPropertyOp18
 70
     1
102
RTVSPropertyOp19
 70
     1
102
RTVSPropertyOp20
 70
     1
102
RTVSPropertyOp21
 70
     1
102
RTVSPropertyOp22
 70
     1
102
RTVSPropertyOp23
 70
     1
102
RTVSPropertyOp24
 70
     1
102
RTVSPropertyOp25
 70
     1
102
RTVSPropertyOp26
 70
     1
102
RTVSPropertyOp27
 70
     1
102
RTVSPropertyOp28
 70
     1
102
RTVSPropertyOp29
 70
     1
102
RTVSPropertyOp30
 70
     1
102
RTVSPropertyOp31
 70
     1
102
RTVSPropertyOp32
 70
     1
102
RTVSPropertyOp33
 70
     1
102
RTVSPropertyOp34
 70
     1
102
RTVSPropertyOp35
 70
     1
102
RTVSPropertyOp36
 70
     1
102
RTVSPropertyOp37
 70
     1
102
RTVSPropertyOp38
 70
     1
102
RTVSPropertyOp39
 70
     1
102
RTVSPropertyOp40
 70
     1
102
RTVSPropertyOp41
 70
     1
102
RTVSPropertyOp42
 70
     1
102
RTVSPropertyOp43
 70
     1
102
RTVSPropertyOp44
 70
     1
102
RTVSPropertyOp45
 70
     1
102
RTVSPropertyOp46
 70
     1
102
RTVSPropertyOp47
 70
     1
102
RTVSPropertyOp48
 70
     1
102
RTVSPropertyOp49
 70
     1
102
RTVSPropertyOp50
 70
     1
102
RTVSPropertyOp51
 70
     0
102
RTVSPropertyOp52
 70
     0
102
RTVSPropertyOp53
 70
     1
102
RTVSPropertyOp54
 70
     1
102
RTVSPropertyOp55
 70
     1
102
RTVSPropertyOp56
 70
     1
102
RTVSPropertyOp57
 70
     1
102
RTVSPropertyOp58
 70
     1
102
RTVSPropertyOp59
 70
     1
102
RTVSPropertyOp60
 70
     1
102
RTVSPropertyOp61
 70
     1
102
RTVSPropertyOp62
 70
     1
  0
XRECORD
  5
18A4
102
{ACAD_REACTORS
330
18A3
102
}
330
18A3
100
AcDbXrecord
280
     1
102
RTVSPost2010Prop28
280
     0
102
RTVSPost2010PropOp28
 70
     1
102
RTVSPost2010Prop29
280
     1
102
RTVSPost2010PropOp29
 70
     1
102
RTVSPost2010Prop30
280
     1
102
RTVSPost2010PropOp30
 70
     1
102
RTVSPost2010Prop31
280
     0
102
RTVSPost2010PropOp31
 70
     1
102
RTVSPost2010Prop32
280
     0
102
RTVSPost2010PropOp32
 70
     1
102
RTVSPost2010Prop33
280
     0
102
RTVSPost2010PropOp33
 70
     1
102
RTVSPost2010Prop34
280
     0
102
RTVSPost2010PropOp34
 70
     1
102
RTVSPost2010Prop35
280
     0
102
RTVSPost2010PropOp35
 70
     1
102
RTVSPost2010Prop36
280
     0
102
RTVSPost2010PropOp36
 70
     1
102
RTVSPost2010Prop37
 90
       50
102
RTVSPost2010PropOp37
 70
     1
102
RTVSPost2010Prop38
140
0.0
102
RTVSPost2010PropOp38
 70
     1
102
RTVSPost2010Prop39
140
1.0
102
RTVSPost2010PropOp39
 70
     1
102
RTVSPost2010Prop40
 90
        0
102
RTVSPost2010PropOp40
 70
     1
102
RTVSPost2010Prop41ColorIndex
 90
       18
102
RTVSPost2010Prop41ColorRGB
 90
        0
102
RTVSPost2010PropOp41
 70
     1
102
RTVSPost2010Prop42
 90
       50
102
RTVSPost2010PropOp42
 70
     1
102
RTVSPost2010Prop43
 90
        3
102
RTVSPost2010PropOp43
 70
     1
102
RTVSPost2010Prop44ColorIndex
 90
        5
102
RTVSPost2010Prop44ColorRGB
 90
      255
102
RTVSPost2010PropOp44
 70
     1
102
RTVSPost2010Prop45
280
     0
102
RTVSPost2010PropOp45
 70
     1
102
RTVSPost2010Prop46
 90
       50
102
RTVSPost2010PropOp46
 70
     1
102
RTVSPost2010Prop47
 90
       50
102
RTVSPost2010PropOp47
 70
     1
102
RTVSPost2010Prop48
 90
       50
102
RTVSPost2010PropOp48
 70
     1
102
RTVSPost2010Prop49
280
     0
102
RTVSPost2010PropOp49
 70
     1
102
RTVSPost2010Prop50
 90
       50
102
RTVSPost2010PropOp50
 70
     1
102
RTVSPost2010Prop51ColorIndex
 90
      256
102
RTVSPost2010Prop51ColorRGB
 90
-16777216
102
RTVSPost2010PropOp51
 70
     0
102
RTVSPost2010Prop52
140
1.0
102
RTVSPost2010PropOp52
 70
     0
102
RTVSPost2010Prop53
 90
        2
102
RTVSPost2010PropOp53
 70
     1
102
RTVSPost2010Prop54
  1
strokes_ogs.tif
102
RTVSPost2010PropOp54
 70
     1
102
RTVSPost2010Prop55
280
     0
102
RTVSPost2010PropOp55
 70
     1
102
RTVSPost2010Prop56
140
1.0
102
RTVSPost2010PropOp56
 70
     1
102
RTVSPost2010Prop57
140
1.0
102
RTVSPost2010PropOp57
 70
     1
102
RTVSPropertyOp0
 70
     1
102
RTVSPropertyOp1
 70
     1
102
RTVSPropertyOp2
 70
     1
102
RTVSPropertyOp3
 70
     1
102
RTVSPropertyOp4
 70
     1
102
RTVSPropertyOp5
 70
     1
102
RTVSPropertyOp6
 70
     1
102
RTVSPropertyOp7
 70
     1
102
RTVSPropertyOp8
 70
     1
102
RTVSPropertyOp9
 70
     1
102
RTVSPropertyOp10
 70
     1
102
RTVSPropertyOp11
 70
     1
102
RTVSPropertyOp12
 70
     1
102
RTVSPropertyOp13
 70
     1
102
RTVSPropertyOp14
 70
     1
102
RTVSPropertyOp15
 70
     1
102
RTVSPropertyOp16
 70
     1
102
RTVSPropertyOp17
 70
     1
102
RTVSPropertyOp18
 70
     1
102
RTVSPropertyOp19
 70
     1
102
RTVSPropertyOp20
 70
     1
102
RTVSPropertyOp21
 70
     1
102
RTVSPropertyOp22
 70
     1
102
RTVSPropertyOp23
 70
     1
102
RTVSPropertyOp24
 70
     1
102
RTVSPropertyOp25
 70
     1
102
RTVSPropertyOp26
 70
     1
102
RTVSPropertyOp27
 70
     1
102
RTVSPropertyOp28
 70
     1
102
RTVSPropertyOp29
 70
     1
102
RTVSPropertyOp30
 70
     1
102
RTVSPropertyOp31
 70
     1
102
RTVSPropertyOp32
 70
     1
102
RTVSPropertyOp33
 70
     1
102
RTVSPropertyOp34
 70
     1
102
RTVSPropertyOp35
 70
     1
102
RTVSPropertyOp36
 70
     1
102
RTVSPropertyOp37
 70
     1
102
RTVSPropertyOp38
 70
     1
102
RTVSPropertyOp39
 70
     1
102
RTVSPropertyOp40
 70
     1
102
RTVSPropertyOp41
 70
     1
102
RTVSPropertyOp42
 70
     1
102
RTVSPropertyOp43
 70
     1
102
RTVSPropertyOp44
 70
     1
102
RTVSPropertyOp45
 70
     1
102
RTVSPropertyOp46
 70
     1
102
RTVSPropertyOp47
 70
     1
102
RTVSPropertyOp48
 70
     1
102
RTVSPropertyOp49
 70
     1
102
RTVSPropertyOp50
 70
     1
102
RTVSPropertyOp51
 70
     0
102
RTVSPropertyOp52
 70
     0
102
RTVSPropertyOp53
 70
     1
102
RTVSPropertyOp54
 70
     1
102
RTVSPropertyOp55
 70
     1
102
RTVSPropertyOp56
 70
     1
102
RTVSPropertyOp57
 70
     1
102
RTVSPropertyOp58
 70
     1
102
RTVSPropertyOp59
 70
     1
102
RTVSPropertyOp60
 70
     1
102
RTVSPropertyOp61
 70
     1
102
RTVSPropertyOp62
 70
     1
  0
XRECORD
  5
18B4
102
{ACAD_REACTORS
330
18B3
102
}
330
18B3
100
AcDbXrecord
280
     1
102
RTVSPost2010Prop28
280
     0
102
RTVSPost2010PropOp28
 70
     1
102
RTVSPost2010Prop29
280
     1
102
RTVSPost2010PropOp29
 70
     1
102
RTVSPost2010Prop30
280
     1
102
RTVSPost2010PropOp30
 70
     1
102
RTVSPost2010Prop31
280
     0
102
RTVSPost2010PropOp31
 70
     1
102
RTVSPost2010Prop32
280
     0
102
RTVSPost2010PropOp32
 70
     1
102
RTVSPost2010Prop33
280
     0
102
RTVSPost2010PropOp33
 70
     1
102
RTVSPost2010Prop34
280
     0
102
RTVSPost2010PropOp34
 70
     1
102
RTVSPost2010Prop35
280
     0
102
RTVSPost2010PropOp35
 70
     1
102
RTVSPost2010Prop36
280
     0
102
RTVSPost2010PropOp36
 70
     1
102
RTVSPost2010Prop37
 90
       50
102
RTVSPost2010PropOp37
 70
     1
102
RTVSPost2010Prop38
140
0.0
102
RTVSPost2010PropOp38
 70
     1
102
RTVSPost2010Prop39
140
1.0
102
RTVSPost2010PropOp39
 70
     1
102
RTVSPost2010Prop40
 90
        0
102
RTVSPost2010PropOp40
 70
     1
102
RTVSPost2010Prop41ColorIndex
 90
       18
102
RTVSPost2010Prop41ColorRGB
 90
        0
102
RTVSPost2010PropOp41
 70
     1
102
RTVSPost2010Prop42
 90
       50
102
RTVSPost2010PropOp42
 70
     1
102
RTVSPost2010Prop43
 90
        3
102
RTVSPost2010PropOp43
 70
     1
102
RTVSPost2010Prop44ColorIndex
 90
        5
102
RTVSPost2010Prop44ColorRGB
 90
      255
102
RTVSPost2010PropOp44
 70
     1
102
RTVSPost2010Prop45
280
     0
102
RTVSPost2010PropOp45
 70
     1
102
RTVSPost2010Prop46
 90
       50
102
RTVSPost2010PropOp46
 70
     1
102
RTVSPost2010Prop47
 90
       50
102
RTVSPost2010PropOp47
 70
     1
102
RTVSPost2010Prop48
 90
       50
102
RTVSPost2010PropOp48
 70
     1
102
RTVSPost2010Prop49
280
     0
102
RTVSPost2010PropOp49
 70
     1
102
RTVSPost2010Prop50
 90
       50
102
RTVSPost2010PropOp50
 70
     1
102
RTVSPost2010Prop51ColorIndex
 90
      256
102
RTVSPost2010Prop51ColorRGB
 90
-16777216
102
RTVSPost2010PropOp51
 70
     0
102
RTVSPost2010Prop52
140
1.0
102
RTVSPost2010PropOp52
 70
     0
102
RTVSPost2010Prop53
 90
        2
102
RTVSPost2010PropOp53
 70
     1
102
RTVSPost2010Prop54
  1
strokes_ogs.tif
102
RTVSPost2010PropOp54
 70
     1
102
RTVSPost2010Prop55
280
     0
102
RTVSPost2010PropOp55
 70
     1
102
RTVSPost2010Prop56
140
1.0
102
RTVSPost2010PropOp56
 70
     1
102
RTVSPost2010Prop57
140
1.0
102
RTVSPost2010PropOp57
 70
     1
102
RTVSPropertyOp0
 70
     0
102
RTVSPropertyOp1
 70
     0
102
RTVSPropertyOp2
 70
     0
102
RTVSPropertyOp3
 70
     0
102
RTVSPropertyOp4
 70
     0
102
RTVSPropertyOp5
 70
     0
102
RTVSPropertyOp6
 70
     0
102
RTVSPropertyOp7
 70
     0
102
RTVSPropertyOp8
 70
     0
102
RTVSPropertyOp9
 70
     0
102
RTVSPropertyOp10
 70
     0
102
RTVSPropertyOp11
 70
     0
102
RTVSPropertyOp12
 70
     0
102
RTVSPropertyOp13
 70
     0
102
RTVSPropertyOp14
 70
     2
102
RTVSPropertyOp15
 70
     0
102
RTVSPropertyOp16
 70
     0
102
RTVSPropertyOp17
 70
     0
102
RTVSPropertyOp18
 70
     0
102
RTVSPropertyOp19
 70
     0
102
RTVSPropertyOp20
 70
     0
102
RTVSPropertyOp21
 70
     0
102
RTVSPropertyOp22
 70
     0
102
RTVSPropertyOp23
 70
     0
102
RTVSPropertyOp24
 70
     0
102
RTVSPropertyOp25
 70
     0
102
RTVSPropertyOp26
 70
     0
102
RTVSPropertyOp27
 70
     0
102
RTVSPropertyOp28
 70
     1
102
RTVSPropertyOp29
 70
     1
102
RTVSPropertyOp30
 70
     1
102
RTVSPropertyOp31
 70
     1
102
RTVSPropertyOp32
 70
     1
102
RTVSPropertyOp33
 70
     1
102
RTVSPropertyOp34
 70
     1
102
RTVSPropertyOp35
 70
     1
102
RTVSPropertyOp36
 70
     1
102
RTVSPropertyOp37
 70
     1
102
RTVSPropertyOp38
 70
     1
102
RTVSPropertyOp39
 70
     1
102
RTVSPropertyOp40
 70
     1
102
RTVSPropertyOp41
 70
     1
102
RTVSPropertyOp42
 70
     1
102
RTVSPropertyOp43
 70
     1
102
RTVSPropertyOp44
 70
     1
102
RTVSPropertyOp45
 70
     1
102
RTVSPropertyOp46
 70
     1
102
RTVSPropertyOp47
 70
     1
102
RTVSPropertyOp48
 70
     1
102
RTVSPropertyOp49
 70
     1
102
RTVSPropertyOp50
 70
     1
102
RTVSPropertyOp51
 70
     0
102
RTVSPropertyOp52
 70
     0
102
RTVSPropertyOp53
 70
     1
102
RTVSPropertyOp54
 70
     1
102
RTVSPropertyOp55
 70
     1
102
RTVSPropertyOp56
 70
     1
102
RTVSPropertyOp57
 70
     1
102
RTVSPropertyOp58
 70
     1
102
RTVSPropertyOp59
 70
     1
102
RTVSPropertyOp60
 70
     1
102
RTVSPropertyOp61
 70
     1
102
RTVSPropertyOp62
 70
     1
  0
XRECORD
  5
18AC
102
{ACAD_REACTORS
330
18AB
102
}
330
18AB
100
AcDbXrecord
280
     1
102
RTVSPost2010Prop28
280
     0
102
RTVSPost2010PropOp28
 70
     1
102
RTVSPost2010Prop29
280
     1
102
RTVSPost2010PropOp29
 70
     1
102
RTVSPost2010Prop30
280
     1
102
RTVSPost2010PropOp30
 70
     1
102
RTVSPost2010Prop31
280
     0
102
RTVSPost2010PropOp31
 70
     1
102
RTVSPost2010Prop32
280
     0
102
RTVSPost2010PropOp32
 70
     1
102
RTVSPost2010Prop33
280
     0
102
RTVSPost2010PropOp33
 70
     1
102
RTVSPost2010Prop34
280
     0
102
RTVSPost2010PropOp34
 70
     1
102
RTVSPost2010Prop35
280
     0
102
RTVSPost2010PropOp35
 70
     1
102
RTVSPost2010Prop36
280
     0
102
RTVSPost2010PropOp36
 70
     1
102
RTVSPost2010Prop37
 90
       50
102
RTVSPost2010PropOp37
 70
     1
102
RTVSPost2010Prop38
140
0.0
102
RTVSPost2010PropOp38
 70
     1
102
RTVSPost2010Prop39
140
1.0
102
RTVSPost2010PropOp39
 70
     1
102
RTVSPost2010Prop40
 90
        0
102
RTVSPost2010PropOp40
 70
     1
102
RTVSPost2010Prop41ColorIndex
 90
       18
102
RTVSPost2010Prop41ColorRGB
 90
        0
102
RTVSPost2010PropOp41
 70
     1
102
RTVSPost2010Prop42
 90
       50
102
RTVSPost2010PropOp42
 70
     1
102
RTVSPost2010Prop43
 90
        3
102
RTVSPost2010PropOp43
 70
     1
102
RTVSPost2010Prop44ColorIndex
 90
        5
102
RTVSPost2010Prop44ColorRGB
 90
      255
102
RTVSPost2010PropOp44
 70
     1
102
RTVSPost2010Prop45
280
     0
102
RTVSPost2010PropOp45
 70
     1
102
RTVSPost2010Prop46
 90
       50
102
RTVSPost2010PropOp46
 70
     1
102
RTVSPost2010Prop47
 90
       50
102
RTVSPost2010PropOp47
 70
     1
102
RTVSPost2010Prop48
 90
       50
102
RTVSPost2010PropOp48
 70
     1
102
RTVSPost2010Prop49
280
     0
102
RTVSPost2010PropOp49
 70
     1
102
RTVSPost2010Prop50
 90
       50
102
RTVSPost2010PropOp50
 70
     1
102
RTVSPost2010Prop51ColorIndex
 90
      256
102
RTVSPost2010Prop51ColorRGB
 90
-16777216
102
RTVSPost2010PropOp51
 70
     0
102
RTVSPost2010Prop52
140
1.0
102
RTVSPost2010PropOp52
 70
     0
102
RTVSPost2010Prop53
 90
        2
102
RTVSPost2010PropOp53
 70
     1
102
RTVSPost2010Prop54
  1
strokes_ogs.tif
102
RTVSPost2010PropOp54
 70
     1
102
RTVSPost2010Prop55
280
     0
102
RTVSPost2010PropOp55
 70
     1
102
RTVSPost2010Prop56
140
1.0
102
RTVSPost2010PropOp56
 70
     1
102
RTVSPost2010Prop57
140
1.0
102
RTVSPost2010PropOp57
 70
     1
102
RTVSPropertyOp0
 70
     1
102
RTVSPropertyOp1
 70
     1
102
RTVSPropertyOp2
 70
     1
102
RTVSPropertyOp3
 70
     1
102
RTVSPropertyOp4
 70
     1
102
RTVSPropertyOp5
 70
     1
102
RTVSPropertyOp6
 70
     1
102
RTVSPropertyOp7
 70
     1
102
RTVSPropertyOp8
 70
     1
102
RTVSPropertyOp9
 70
     1
102
RTVSPropertyOp10
 70
     1
102
RTVSPropertyOp11
 70
     1
102
RTVSPropertyOp12
 70
     1
102
RTVSPropertyOp13
 70
     1
102
RTVSPropertyOp14
 70
     1
102
RTVSPropertyOp15
 70
     1
102
RTVSPropertyOp16
 70
     1
102
RTVSPropertyOp17
 70
     1
102
RTVSPropertyOp18
 70
     1
102
RTVSPropertyOp19
 70
     1
102
RTVSPropertyOp20
 70
     1
102
RTVSPropertyOp21
 70
     1
102
RTVSPropertyOp22
 70
     1
102
RTVSPropertyOp23
 70
     1
102
RTVSPropertyOp24
 70
     1
102
RTVSPropertyOp25
 70
     1
102
RTVSPropertyOp26
 70
     1
102
RTVSPropertyOp27
 70
     1
102
RTVSPropertyOp28
 70
     1
102
RTVSPropertyOp29
 70
     1
102
RTVSPropertyOp30
 70
     1
102
RTVSPropertyOp31
 70
     1
102
RTVSPropertyOp32
 70
     1
102
RTVSPropertyOp33
 70
     1
102
RTVSPropertyOp34
 70
     1
102
RTVSPropertyOp35
 70
     1
102
RTVSPropertyOp36
 70
     1
102
RTVSPropertyOp37
 70
     1
102
RTVSPropertyOp38
 70
     1
102
RTVSPropertyOp39
 70
     1
102
RTVSPropertyOp40
 70
     1
102
RTVSPropertyOp41
 70
     1
102
RTVSPropertyOp42
 70
     1
102
RTVSPropertyOp43
 70
     1
102
RTVSPropertyOp44
 70
     1
102
RTVSPropertyOp45
 70
     1
102
RTVSPropertyOp46
 70
     1
102
RTVSPropertyOp47
 70
     1
102
RTVSPropertyOp48
 70
     1
102
RTVSPropertyOp49
 70
     1
102
RTVSPropertyOp50
 70
     1
102
RTVSPropertyOp51
 70
     0
102
RTVSPropertyOp52
 70
     0
102
RTVSPropertyOp53
 70
     1
102
RTVSPropertyOp54
 70
     1
102
RTVSPropertyOp55
 70
     1
102
RTVSPropertyOp56
 70
     1
102
RTVSPropertyOp57
 70
     1
102
RTVSPropertyOp58
 70
     1
102
RTVSPropertyOp59
 70
     1
102
RTVSPropertyOp60
 70
     1
102
RTVSPropertyOp61
 70
     1
102
RTVSPropertyOp62
 70
     1
  0
XRECORD
  5
1890
102
{ACAD_REACTORS
330
188F
102
}
330
188F
100
AcDbXrecord
280
     1
102
RTVSPost2010Prop28
280
     0
102
RTVSPost2010PropOp28
 70
     1
102
RTVSPost2010Prop29
280
     1
102
RTVSPost2010PropOp29
 70
     1
102
RTVSPost2010Prop30
280
     1
102
RTVSPost2010PropOp30
 70
     1
102
RTVSPost2010Prop31
280
     0
102
RTVSPost2010PropOp31
 70
     1
102
RTVSPost2010Prop32
280
     0
102
RTVSPost2010PropOp32
 70
     1
102
RTVSPost2010Prop33
280
     0
102
RTVSPost2010PropOp33
 70
     1
102
RTVSPost2010Prop34
280
     0
102
RTVSPost2010PropOp34
 70
     1
102
RTVSPost2010Prop35
280
     0
102
RTVSPost2010PropOp35
 70
     1
102
RTVSPost2010Prop36
280
     0
102
RTVSPost2010PropOp36
 70
     1
102
RTVSPost2010Prop37
 90
       50
102
RTVSPost2010PropOp37
 70
     1
102
RTVSPost2010Prop38
140
0.0
102
RTVSPost2010PropOp38
 70
     1
102
RTVSPost2010Prop39
140
1.0
102
RTVSPost2010PropOp39
 70
     1
102
RTVSPost2010Prop40
 90
        0
102
RTVSPost2010PropOp40
 70
     1
102
RTVSPost2010Prop41ColorIndex
 90
       18
102
RTVSPost2010Prop41ColorRGB
 90
        0
102
RTVSPost2010PropOp41
 70
     1
102
RTVSPost2010Prop42
 90
       50
102
RTVSPost2010PropOp42
 70
     1
102
RTVSPost2010Prop43
 90
        3
102
RTVSPost2010PropOp43
 70
     1
102
RTVSPost2010Prop44ColorIndex
 90
        5
102
RTVSPost2010Prop44ColorRGB
 90
      255
102
RTVSPost2010PropOp44
 70
     1
102
RTVSPost2010Prop45
280
     0
102
RTVSPost2010PropOp45
 70
     1
102
RTVSPost2010Prop46
 90
       50
102
RTVSPost2010PropOp46
 70
     1
102
RTVSPost2010Prop47
 90
       50
102
RTVSPost2010PropOp47
 70
     1
102
RTVSPost2010Prop48
 90
       50
102
RTVSPost2010PropOp48
 70
     1
102
RTVSPost2010Prop49
280
     0
102
RTVSPost2010PropOp49
 70
     1
102
RTVSPost2010Prop50
 90
       50
102
RTVSPost2010PropOp50
 70
     1
102
RTVSPost2010Prop51ColorIndex
 90
      256
102
RTVSPost2010Prop51ColorRGB
 90
-16777216
102
RTVSPost2010PropOp51
 70
     0
102
RTVSPost2010Prop52
140
1.0
102
RTVSPost2010PropOp52
 70
     0
102
RTVSPost2010Prop53
 90
        2
102
RTVSPost2010PropOp53
 70
     1
102
RTVSPost2010Prop54
  1
strokes_ogs.tif
102
RTVSPost2010PropOp54
 70
     1
102
RTVSPost2010Prop55
280
     0
102
RTVSPost2010PropOp55
 70
     1
102
RTVSPost2010Prop56
140
1.0
102
RTVSPost2010PropOp56
 70
     1
102
RTVSPost2010Prop57
140
1.0
102
RTVSPost2010PropOp57
 70
     1
102
RTVSPropertyOp0
 70
     1
102
RTVSPropertyOp1
 70
     1
102
RTVSPropertyOp2
 70
     1
102
RTVSPropertyOp3
 70
     1
102
RTVSPropertyOp4
 70
     1
102
RTVSPropertyOp5
 70
     1
102
RTVSPropertyOp6
 70
     1
102
RTVSPropertyOp7
 70
     1
102
RTVSPropertyOp8
 70
     1
102
RTVSPropertyOp9
 70
     1
102
RTVSPropertyOp10
 70
     1
102
RTVSPropertyOp11
 70
     1
102
RTVSPropertyOp12
 70
     1
102
RTVSPropertyOp13
 70
     1
102
RTVSPropertyOp14
 70
     1
102
RTVSPropertyOp15
 70
     1
102
RTVSPropertyOp16
 70
     1
102
RTVSPropertyOp17
 70
     1
102
RTVSPropertyOp18
 70
     1
102
RTVSPropertyOp19
 70
     1
102
RTVSPropertyOp20
 70
     1
102
RTVSPropertyOp21
 70
     1
102
RTVSPropertyOp22
 70
     1
102
RTVSPropertyOp23
 70
     1
102
RTVSPropertyOp24
 70
     1
102
RTVSPropertyOp25
 70
     1
102
RTVSPropertyOp26
 70
     1
102
RTVSPropertyOp27
 70
     1
102
RTVSPropertyOp28
 70
     1
102
RTVSPropertyOp29
 70
     1
102
RTVSPropertyOp30
 70
     1
102
RTVSPropertyOp31
 70
     1
102
RTVSPropertyOp32
 70
     1
102
RTVSPropertyOp33
 70
     1
102
RTVSPropertyOp34
 70
     1
102
RTVSPropertyOp35
 70
     1
102
RTVSPropertyOp36
 70
     1
102
RTVSPropertyOp37
 70
     1
102
RTVSPropertyOp38
 70
     1
102
RTVSPropertyOp39
 70
     1
102
RTVSPropertyOp40
 70
     1
102
RTVSPropertyOp41
 70
     1
102
RTVSPropertyOp42
 70
     1
102
RTVSPropertyOp43
 70
     1
102
RTVSPropertyOp44
 70
     1
102
RTVSPropertyOp45
 70
     1
102
RTVSPropertyOp46
 70
     1
102
RTVSPropertyOp47
 70
     1
102
RTVSPropertyOp48
 70
     1
102
RTVSPropertyOp49
 70
     1
102
RTVSPropertyOp50
 70
     1
102
RTVSPropertyOp51
 70
     0
102
RTVSPropertyOp52
 70
     0
102
RTVSPropertyOp53
 70
     1
102
RTVSPropertyOp54
 70
     1
102
RTVSPropertyOp55
 70
     1
102
RTVSPropertyOp56
 70
     1
102
RTVSPropertyOp57
 70
     1
102
RTVSPropertyOp58
 70
     1
102
RTVSPropertyOp59
 70
     1
102
RTVSPropertyOp60
 70
     1
102
RTVSPropertyOp61
 70
     1
102
RTVSPropertyOp62
 70
     1
  0
XRECORD
  5
1892
102
{ACAD_REACTORS
330
1891
102
}
330
1891
100
AcDbXrecord
280
     1
102
RTVSPost2010Prop28
280
     0
102
RTVSPost2010PropOp28
 70
     1
102
RTVSPost2010Prop29
280
     1
102
RTVSPost2010PropOp29
 70
     1
102
RTVSPost2010Prop30
280
     1
102
RTVSPost2010PropOp30
 70
     1
102
RTVSPost2010Prop31
280
     0
102
RTVSPost2010PropOp31
 70
     1
102
RTVSPost2010Prop32
280
     0
102
RTVSPost2010PropOp32
 70
     1
102
RTVSPost2010Prop33
280
     0
102
RTVSPost2010PropOp33
 70
     1
102
RTVSPost2010Prop34
280
     0
102
RTVSPost2010PropOp34
 70
     1
102
RTVSPost2010Prop35
280
     0
102
RTVSPost2010PropOp35
 70
     1
102
RTVSPost2010Prop36
280
     0
102
RTVSPost2010PropOp36
 70
     1
102
RTVSPost2010Prop37
 90
       50
102
RTVSPost2010PropOp37
 70
     1
102
RTVSPost2010Prop38
140
0.0
102
RTVSPost2010PropOp38
 70
     1
102
RTVSPost2010Prop39
140
1.0
102
RTVSPost2010PropOp39
 70
     1
102
RTVSPost2010Prop40
 90
        0
102
RTVSPost2010PropOp40
 70
     1
102
RTVSPost2010Prop41ColorIndex
 90
       18
102
RTVSPost2010Prop41ColorRGB
 90
        0
102
RTVSPost2010PropOp41
 70
     1
102
RTVSPost2010Prop42
 90
       50
102
RTVSPost2010PropOp42
 70
     1
102
RTVSPost2010Prop43
 90
        3
102
RTVSPost2010PropOp43
 70
     1
102
RTVSPost2010Prop44ColorIndex
 90
        5
102
RTVSPost2010Prop44ColorRGB
 90
      255
102
RTVSPost2010PropOp44
 70
     1
102
RTVSPost2010Prop45
280
     0
102
RTVSPost2010PropOp45
 70
     1
102
RTVSPost2010Prop46
 90
       50
102
RTVSPost2010PropOp46
 70
     1
102
RTVSPost2010Prop47
 90
       50
102
RTVSPost2010PropOp47
 70
     1
102
RTVSPost2010Prop48
 90
       50
102
RTVSPost2010PropOp48
 70
     1
102
RTVSPost2010Prop49
280
     0
102
RTVSPost2010PropOp49
 70
     1
102
RTVSPost2010Prop50
 90
       50
102
RTVSPost2010PropOp50
 70
     1
102
RTVSPost2010Prop51ColorIndex
 90
      256
102
RTVSPost2010Prop51ColorRGB
 90
-16777216
102
RTVSPost2010PropOp51
 70
     0
102
RTVSPost2010Prop52
140
1.0
102
RTVSPost2010PropOp52
 70
     0
102
RTVSPost2010Prop53
 90
        2
102
RTVSPost2010PropOp53
 70
     1
102
RTVSPost2010Prop54
  1
strokes_ogs.tif
102
RTVSPost2010PropOp54
 70
     1
102
RTVSPost2010Prop55
280
     0
102
RTVSPost2010PropOp55
 70
     1
102
RTVSPost2010Prop56
140
1.0
102
RTVSPost2010PropOp56
 70
     1
102
RTVSPost2010Prop57
140
1.0
102
RTVSPost2010PropOp57
 70
     1
102
RTVSPropertyOp0
 70
     1
102
RTVSPropertyOp1
 70
     1
102
RTVSPropertyOp2
 70
     1
102
RTVSPropertyOp3
 70
     1
102
RTVSPropertyOp4
 70
     1
102
RTVSPropertyOp5
 70
     1
102
RTVSPropertyOp6
 70
     1
102
RTVSPropertyOp7
 70
     1
102
RTVSPropertyOp8
 70
     1
102
RTVSPropertyOp9
 70
     1
102
RTVSPropertyOp10
 70
     1
102
RTVSPropertyOp11
 70
     1
102
RTVSPropertyOp12
 70
     1
102
RTVSPropertyOp13
 70
     1
102
RTVSPropertyOp14
 70
     1
102
RTVSPropertyOp15
 70
     1
102
RTVSPropertyOp16
 70
     1
102
RTVSPropertyOp17
 70
     1
102
RTVSPropertyOp18
 70
     1
102
RTVSPropertyOp19
 70
     1
102
RTVSPropertyOp20
 70
     1
102
RTVSPropertyOp21
 70
     1
102
RTVSPropertyOp22
 70
     1
102
RTVSPropertyOp23
 70
     1
102
RTVSPropertyOp24
 70
     1
102
RTVSPropertyOp25
 70
     1
102
RTVSPropertyOp26
 70
     1
102
RTVSPropertyOp27
 70
     1
102
RTVSPropertyOp28
 70
     1
102
RTVSPropertyOp29
 70
     1
102
RTVSPropertyOp30
 70
     1
102
RTVSPropertyOp31
 70
     1
102
RTVSPropertyOp32
 70
     1
102
RTVSPropertyOp33
 70
     1
102
RTVSPropertyOp34
 70
     1
102
RTVSPropertyOp35
 70
     1
102
RTVSPropertyOp36
 70
     1
102
RTVSPropertyOp37
 70
     1
102
RTVSPropertyOp38
 70
     1
102
RTVSPropertyOp39
 70
     1
102
RTVSPropertyOp40
 70
     1
102
RTVSPropertyOp41
 70
     1
102
RTVSPropertyOp42
 70
     1
102
RTVSPropertyOp43
 70
     1
102
RTVSPropertyOp44
 70
     1
102
RTVSPropertyOp45
 70
     1
102
RTVSPropertyOp46
 70
     1
102
RTVSPropertyOp47
 70
     1
102
RTVSPropertyOp48
 70
     1
102
RTVSPropertyOp49
 70
     1
102
RTVSPropertyOp50
 70
     1
102
RTVSPropertyOp51
 70
     0
102
RTVSPropertyOp52
 70
     0
102
RTVSPropertyOp53
 70
     1
102
RTVSPropertyOp54
 70
     1
102
RTVSPropertyOp55
 70
     1
102
RTVSPropertyOp56
 70
     1
102
RTVSPropertyOp57
 70
     1
102
RTVSPropertyOp58
 70
     1
102
RTVSPropertyOp59
 70
     1
102
RTVSPropertyOp60
 70
     1
102
RTVSPropertyOp61
 70
     1
102
RTVSPropertyOp62
 70
     1
  0
XRECORD
  5
1894
102
{ACAD_REACTORS
330
1893
102
}
330
1893
100
AcDbXrecord
280
     1
102
RTVSPost2010Prop28
280
     0
102
RTVSPost2010PropOp28
 70
     1
102
RTVSPost2010Prop29
280
     1
102
RTVSPost2010PropOp29
 70
     1
102
RTVSPost2010Prop30
280
     1
102
RTVSPost2010PropOp30
 70
     1
102
RTVSPost2010Prop31
280
     0
102
RTVSPost2010PropOp31
 70
     1
102
RTVSPost2010Prop32
280
     0
102
RTVSPost2010PropOp32
 70
     1
102
RTVSPost2010Prop33
280
     0
102
RTVSPost2010PropOp33
 70
     1
102
RTVSPost2010Prop34
280
     0
102
RTVSPost2010PropOp34
 70
     1
102
RTVSPost2010Prop35
280
     0
102
RTVSPost2010PropOp35
 70
     1
102
RTVSPost2010Prop36
280
     0
102
RTVSPost2010PropOp36
 70
     1
102
RTVSPost2010Prop37
 90
       50
102
RTVSPost2010PropOp37
 70
     1
102
RTVSPost2010Prop38
140
0.0
102
RTVSPost2010PropOp38
 70
     1
102
RTVSPost2010Prop39
140
1.0
102
RTVSPost2010PropOp39
 70
     1
102
RTVSPost2010Prop40
 90
        0
102
RTVSPost2010PropOp40
 70
     1
102
RTVSPost2010Prop41ColorIndex
 90
       18
102
RTVSPost2010Prop41ColorRGB
 90
        0
102
RTVSPost2010PropOp41
 70
     1
102
RTVSPost2010Prop42
 90
       50
102
RTVSPost2010PropOp42
 70
     1
102
RTVSPost2010Prop43
 90
        3
102
RTVSPost2010PropOp43
 70
     1
102
RTVSPost2010Prop44ColorIndex
 90
        5
102
RTVSPost2010Prop44ColorRGB
 90
      255
102
RTVSPost2010PropOp44
 70
     1
102
RTVSPost2010Prop45
280
     0
102
RTVSPost2010PropOp45
 70
     1
102
RTVSPost2010Prop46
 90
       50
102
RTVSPost2010PropOp46
 70
     1
102
RTVSPost2010Prop47
 90
       50
102
RTVSPost2010PropOp47
 70
     1
102
RTVSPost2010Prop48
 90
       50
102
RTVSPost2010PropOp48
 70
     1
102
RTVSPost2010Prop49
280
     0
102
RTVSPost2010PropOp49
 70
     1
102
RTVSPost2010Prop50
 90
       50
102
RTVSPost2010PropOp50
 70
     1
102
RTVSPost2010Prop51ColorIndex
 90
      256
102
RTVSPost2010Prop51ColorRGB
 90
-16777216
102
RTVSPost2010PropOp51
 70
     0
102
RTVSPost2010Prop52
140
1.0
102
RTVSPost2010PropOp52
 70
     0
102
RTVSPost2010Prop53
 90
        2
102
RTVSPost2010PropOp53
 70
     1
102
RTVSPost2010Prop54
  1
strokes_ogs.tif
102
RTVSPost2010PropOp54
 70
     1
102
RTVSPost2010Prop55
280
     0
102
RTVSPost2010PropOp55
 70
     1
102
RTVSPost2010Prop56
140
1.0
102
RTVSPost2010PropOp56
 70
     1
102
RTVSPost2010Prop57
140
1.0
102
RTVSPost2010PropOp57
 70
     1
102
RTVSPropertyOp0
 70
     1
102
RTVSPropertyOp1
 70
     1
102
RTVSPropertyOp2
 70
     1
102
RTVSPropertyOp3
 70
     1
102
RTVSPropertyOp4
 70
     1
102
RTVSPropertyOp5
 70
     1
102
RTVSPropertyOp6
 70
     1
102
RTVSPropertyOp7
 70
     1
102
RTVSPropertyOp8
 70
     1
102
RTVSPropertyOp9
 70
     1
102
RTVSPropertyOp10
 70
     1
102
RTVSPropertyOp11
 70
     1
102
RTVSPropertyOp12
 70
     1
102
RTVSPropertyOp13
 70
     1
102
RTVSPropertyOp14
 70
     1
102
RTVSPropertyOp15
 70
     1
102
RTVSPropertyOp16
 70
     1
102
RTVSPropertyOp17
 70
     1
102
RTVSPropertyOp18
 70
     1
102
RTVSPropertyOp19
 70
     1
102
RTVSPropertyOp20
 70
     1
102
RTVSPropertyOp21
 70
     1
102
RTVSPropertyOp22
 70
     1
102
RTVSPropertyOp23
 70
     1
102
RTVSPropertyOp24
 70
     1
102
RTVSPropertyOp25
 70
     1
102
RTVSPropertyOp26
 70
     1
102
RTVSPropertyOp27
 70
     1
102
RTVSPropertyOp28
 70
     1
102
RTVSPropertyOp29
 70
     1
102
RTVSPropertyOp30
 70
     1
102
RTVSPropertyOp31
 70
     1
102
RTVSPropertyOp32
 70
     1
102
RTVSPropertyOp33
 70
     1
102
RTVSPropertyOp34
 70
     1
102
RTVSPropertyOp35
 70
     1
102
RTVSPropertyOp36
 70
     1
102
RTVSPropertyOp37
 70
     1
102
RTVSPropertyOp38
 70
     1
102
RTVSPropertyOp39
 70
     1
102
RTVSPropertyOp40
 70
     1
102
RTVSPropertyOp41
 70
     1
102
RTVSPropertyOp42
 70
     1
102
RTVSPropertyOp43
 70
     1
102
RTVSPropertyOp44
 70
     1
102
RTVSPropertyOp45
 70
     1
102
RTVSPropertyOp46
 70
     1
102
RTVSPropertyOp47
 70
     1
102
RTVSPropertyOp48
 70
     1
102
RTVSPropertyOp49
 70
     1
102
RTVSPropertyOp50
 70
     1
102
RTVSPropertyOp51
 70
     0
102
RTVSPropertyOp52
 70
     0
102
RTVSPropertyOp53
 70
     1
102
RTVSPropertyOp54
 70
     1
102
RTVSPropertyOp55
 70
     1
102
RTVSPropertyOp56
 70
     1
102
RTVSPropertyOp57
 70
     1
102
RTVSPropertyOp58
 70
     1
102
RTVSPropertyOp59
 70
     1
102
RTVSPropertyOp60
 70
     1
102
RTVSPropertyOp61
 70
     1
102
RTVSPropertyOp62
 70
     1
  0
XRECORD
  5
1896
102
{ACAD_REACTORS
330
1895
102
}
330
1895
100
AcDbXrecord
280
     1
102
RTVSPost2010Prop28
280
     0
102
RTVSPost2010PropOp28
 70
     1
102
RTVSPost2010Prop29
280
     1
102
RTVSPost2010PropOp29
 70
     1
102
RTVSPost2010Prop30
280
     1
102
RTVSPost2010PropOp30
 70
     1
102
RTVSPost2010Prop31
280
     0
102
RTVSPost2010PropOp31
 70
     1
102
RTVSPost2010Prop32
280
     0
102
RTVSPost2010PropOp32
 70
     1
102
RTVSPost2010Prop33
280
     0
102
RTVSPost2010PropOp33
 70
     1
102
RTVSPost2010Prop34
280
     0
102
RTVSPost2010PropOp34
 70
     1
102
RTVSPost2010Prop35
280
     0
102
RTVSPost2010PropOp35
 70
     1
102
RTVSPost2010Prop36
280
     0
102
RTVSPost2010PropOp36
 70
     1
102
RTVSPost2010Prop37
 90
       50
102
RTVSPost2010PropOp37
 70
     1
102
RTVSPost2010Prop38
140
0.0
102
RTVSPost2010PropOp38
 70
     1
102
RTVSPost2010Prop39
140
1.0
102
RTVSPost2010PropOp39
 70
     1
102
RTVSPost2010Prop40
 90
        0
102
RTVSPost2010PropOp40
 70
     1
102
RTVSPost2010Prop41ColorIndex
 90
       18
102
RTVSPost2010Prop41ColorRGB
 90
        0
102
RTVSPost2010PropOp41
 70
     1
102
RTVSPost2010Prop42
 90
       50
102
RTVSPost2010PropOp42
 70
     1
102
RTVSPost2010Prop43
 90
        3
102
RTVSPost2010PropOp43
 70
     1
102
RTVSPost2010Prop44ColorIndex
 90
        5
102
RTVSPost2010Prop44ColorRGB
 90
      255
102
RTVSPost2010PropOp44
 70
     1
102
RTVSPost2010Prop45
280
     0
102
RTVSPost2010PropOp45
 70
     1
102
RTVSPost2010Prop46
 90
       50
102
RTVSPost2010PropOp46
 70
     1
102
RTVSPost2010Prop47
 90
       50
102
RTVSPost2010PropOp47
 70
     1
102
RTVSPost2010Prop48
 90
       50
102
RTVSPost2010PropOp48
 70
     1
102
RTVSPost2010Prop49
280
     0
102
RTVSPost2010PropOp49
 70
     1
102
RTVSPost2010Prop50
 90
       50
102
RTVSPost2010PropOp50
 70
     1
102
RTVSPost2010Prop51ColorIndex
 90
      256
102
RTVSPost2010Prop51ColorRGB
 90
-16777216
102
RTVSPost2010PropOp51
 70
     0
102
RTVSPost2010Prop52
140
1.0
102
RTVSPost2010PropOp52
 70
     0
102
RTVSPost2010Prop53
 90
        2
102
RTVSPost2010PropOp53
 70
     1
102
RTVSPost2010Prop54
  1
strokes_ogs.tif
102
RTVSPost2010PropOp54
 70
     1
102
RTVSPost2010Prop55
280
     0
102
RTVSPost2010PropOp55
 70
     1
102
RTVSPost2010Prop56
140
1.0
102
RTVSPost2010PropOp56
 70
     1
102
RTVSPost2010Prop57
140
1.0
102
RTVSPost2010PropOp57
 70
     1
102
RTVSPropertyOp0
 70
     1
102
RTVSPropertyOp1
 70
     1
102
RTVSPropertyOp2
 70
     1
102
RTVSPropertyOp3
 70
     1
102
RTVSPropertyOp4
 70
     1
102
RTVSPropertyOp5
 70
     1
102
RTVSPropertyOp6
 70
     1
102
RTVSPropertyOp7
 70
     1
102
RTVSPropertyOp8
 70
     1
102
RTVSPropertyOp9
 70
     1
102
RTVSPropertyOp10
 70
     1
102
RTVSPropertyOp11
 70
     1
102
RTVSPropertyOp12
 70
     1
102
RTVSPropertyOp13
 70
     1
102
RTVSPropertyOp14
 70
     1
102
RTVSPropertyOp15
 70
     1
102
RTVSPropertyOp16
 70
     1
102
RTVSPropertyOp17
 70
     1
102
RTVSPropertyOp18
 70
     1
102
RTVSPropertyOp19
 70
     1
102
RTVSPropertyOp20
 70
     1
102
RTVSPropertyOp21
 70
     1
102
RTVSPropertyOp22
 70
     1
102
RTVSPropertyOp23
 70
     1
102
RTVSPropertyOp24
 70
     1
102
RTVSPropertyOp25
 70
     1
102
RTVSPropertyOp26
 70
     1
102
RTVSPropertyOp27
 70
     1
102
RTVSPropertyOp28
 70
     1
102
RTVSPropertyOp29
 70
     1
102
RTVSPropertyOp30
 70
     1
102
RTVSPropertyOp31
 70
     1
102
RTVSPropertyOp32
 70
     1
102
RTVSPropertyOp33
 70
     1
102
RTVSPropertyOp34
 70
     1
102
RTVSPropertyOp35
 70
     1
102
RTVSPropertyOp36
 70
     1
102
RTVSPropertyOp37
 70
     1
102
RTVSPropertyOp38
 70
     1
102
RTVSPropertyOp39
 70
     1
102
RTVSPropertyOp40
 70
     1
102
RTVSPropertyOp41
 70
     1
102
RTVSPropertyOp42
 70
     1
102
RTVSPropertyOp43
 70
     1
102
RTVSPropertyOp44
 70
     1
102
RTVSPropertyOp45
 70
     1
102
RTVSPropertyOp46
 70
     1
102
RTVSPropertyOp47
 70
     1
102
RTVSPropertyOp48
 70
     1
102
RTVSPropertyOp49
 70
     1
102
RTVSPropertyOp50
 70
     1
102
RTVSPropertyOp51
 70
     0
102
RTVSPropertyOp52
 70
     0
102
RTVSPropertyOp53
 70
     1
102
RTVSPropertyOp54
 70
     1
102
RTVSPropertyOp55
 70
     1
102
RTVSPropertyOp56
 70
     1
102
RTVSPropertyOp57
 70
     1
102
RTVSPropertyOp58
 70
     1
102
RTVSPropertyOp59
 70
     1
102
RTVSPropertyOp60
 70
     1
102
RTVSPropertyOp61
 70
     1
102
RTVSPropertyOp62
 70
     1
  0
XRECORD
  5
18B9
102
{ACAD_REACTORS
330
18B8
102
}
330
18B8
100
AcDbXrecord
280
     1
102
RTVSPost2010Prop28
280
     0
102
RTVSPost2010PropOp28
 70
     1
102
RTVSPost2010Prop29
280
     1
102
RTVSPost2010PropOp29
 70
     1
102
RTVSPost2010Prop30
280
     1
102
RTVSPost2010PropOp30
 70
     1
102
RTVSPost2010Prop31
280
     0
102
RTVSPost2010PropOp31
 70
     1
102
RTVSPost2010Prop32
280
     0
102
RTVSPost2010PropOp32
 70
     1
102
RTVSPost2010Prop33
280
     0
102
RTVSPost2010PropOp33
 70
     1
102
RTVSPost2010Prop34
280
     0
102
RTVSPost2010PropOp34
 70
     1
102
RTVSPost2010Prop35
280
     0
102
RTVSPost2010PropOp35
 70
     1
102
RTVSPost2010Prop36
280
     0
102
RTVSPost2010PropOp36
 70
     1
102
RTVSPost2010Prop37
 90
       50
102
RTVSPost2010PropOp37
 70
     1
102
RTVSPost2010Prop38
140
0.0
102
RTVSPost2010PropOp38
 70
     1
102
RTVSPost2010Prop39
140
1.0
102
RTVSPost2010PropOp39
 70
     1
102
RTVSPost2010Prop40
 90
        0
102
RTVSPost2010PropOp40
 70
     1
102
RTVSPost2010Prop41ColorIndex
 90
       18
102
RTVSPost2010Prop41ColorRGB
 90
        0
102
RTVSPost2010PropOp41
 70
     1
102
RTVSPost2010Prop42
 90
       50
102
RTVSPost2010PropOp42
 70
     1
102
RTVSPost2010Prop43
 90
        3
102
RTVSPost2010PropOp43
 70
     1
102
RTVSPost2010Prop44ColorIndex
 90
        5
102
RTVSPost2010Prop44ColorRGB
 90
      255
102
RTVSPost2010PropOp44
 70
     1
102
RTVSPost2010Prop45
280
     0
102
RTVSPost2010PropOp45
 70
     1
102
RTVSPost2010Prop46
 90
       50
102
RTVSPost2010PropOp46
 70
     1
102
RTVSPost2010Prop47
 90
       50
102
RTVSPost2010PropOp47
 70
     1
102
RTVSPost2010Prop48
 90
       50
102
RTVSPost2010PropOp48
 70
     1
102
RTVSPost2010Prop49
280
     0
102
RTVSPost2010PropOp49
 70
     1
102
RTVSPost2010Prop50
 90
       50
102
RTVSPost2010PropOp50
 70
     1
102
RTVSPost2010Prop51ColorIndex
 90
      256
102
RTVSPost2010Prop51ColorRGB
 90
-16777216
102
RTVSPost2010PropOp51
 70
     0
102
RTVSPost2010Prop52
140
1.0
102
RTVSPost2010PropOp52
 70
     0
102
RTVSPost2010Prop53
 90
        2
102
RTVSPost2010PropOp53
 70
     1
102
RTVSPost2010Prop54
  1
strokes_ogs.tif
102
RTVSPost2010PropOp54
 70
     1
102
RTVSPost2010Prop55
280
     0
102
RTVSPost2010PropOp55
 70
     1
102
RTVSPost2010Prop56
140
1.0
102
RTVSPost2010PropOp56
 70
     1
102
RTVSPost2010Prop57
140
1.0
102
RTVSPost2010PropOp57
 70
     1
102
RTVSPropertyOp0
 70
     1
102
RTVSPropertyOp1
 70
     1
102
RTVSPropertyOp2
 70
     1
102
RTVSPropertyOp3
 70
     1
102
RTVSPropertyOp4
 70
     1
102
RTVSPropertyOp5
 70
     1
102
RTVSPropertyOp6
 70
     1
102
RTVSPropertyOp7
 70
     1
102
RTVSPropertyOp8
 70
     1
102
RTVSPropertyOp9
 70
     1
102
RTVSPropertyOp10
 70
     1
102
RTVSPropertyOp11
 70
     1
102
RTVSPropertyOp12
 70
     1
102
RTVSPropertyOp13
 70
     1
102
RTVSPropertyOp14
 70
     1
102
RTVSPropertyOp15
 70
     1
102
RTVSPropertyOp16
 70
     1
102
RTVSPropertyOp17
 70
     1
102
RTVSPropertyOp18
 70
     1
102
RTVSPropertyOp19
 70
     1
102
RTVSPropertyOp20
 70
     1
102
RTVSPropertyOp21
 70
     1
102
RTVSPropertyOp22
 70
     1
102
RTVSPropertyOp23
 70
     1
102
RTVSPropertyOp24
 70
     1
102
RTVSPropertyOp25
 70
     1
102
RTVSPropertyOp26
 70
     1
102
RTVSPropertyOp27
 70
     1
102
RTVSPropertyOp28
 70
     1
102
RTVSPropertyOp29
 70
     1
102
RTVSPropertyOp30
 70
     1
102
RTVSPropertyOp31
 70
     1
102
RTVSPropertyOp32
 70
     1
102
RTVSPropertyOp33
 70
     1
102
RTVSPropertyOp34
 70
     1
102
RTVSPropertyOp35
 70
     1
102
RTVSPropertyOp36
 70
     1
102
RTVSPropertyOp37
 70
     1
102
RTVSPropertyOp38
 70
     1
102
RTVSPropertyOp39
 70
     1
102
RTVSPropertyOp40
 70
     1
102
RTVSPropertyOp41
 70
     1
102
RTVSPropertyOp42
 70
     1
102
RTVSPropertyOp43
 70
     1
102
RTVSPropertyOp44
 70
     1
102
RTVSPropertyOp45
 70
     1
102
RTVSPropertyOp46
 70
     1
102
RTVSPropertyOp47
 70
     1
102
RTVSPropertyOp48
 70
     1
102
RTVSPropertyOp49
 70
     1
102
RTVSPropertyOp50
 70
     1
102
RTVSPropertyOp51
 70
     0
102
RTVSPropertyOp52
 70
     0
102
RTVSPropertyOp53
 70
     1
102
RTVSPropertyOp54
 70
     1
102
RTVSPropertyOp55
 70
     1
102
RTVSPropertyOp56
 70
     1
102
RTVSPropertyOp57
 70
     1
102
RTVSPropertyOp58
 70
     1
102
RTVSPropertyOp59
 70
     1
102
RTVSPropertyOp60
 70
     1
102
RTVSPropertyOp61
 70
     1
102
RTVSPropertyOp62
 70
     1
  0
XRECORD
  5
18B0
102
{ACAD_REACTORS
330
18AF
102
}
330
18AF
100
AcDbXrecord
280
     1
102
RTVSPost2010Prop28
280
     0
102
RTVSPost2010PropOp28
 70
     1
102
RTVSPost2010Prop29
280
     1
102
RTVSPost2010PropOp29
 70
     1
102
RTVSPost2010Prop30
280
     1
102
RTVSPost2010PropOp30
 70
     1
102
RTVSPost2010Prop31
280
     0
102
RTVSPost2010PropOp31
 70
     1
102
RTVSPost2010Prop32
280
     0
102
RTVSPost2010PropOp32
 70
     1
102
RTVSPost2010Prop33
280
     0
102
RTVSPost2010PropOp33
 70
     1
102
RTVSPost2010Prop34
280
     0
102
RTVSPost2010PropOp34
 70
     1
102
RTVSPost2010Prop35
280
     0
102
RTVSPost2010PropOp35
 70
     1
102
RTVSPost2010Prop36
280
     0
102
RTVSPost2010PropOp36
 70
     1
102
RTVSPost2010Prop37
 90
       50
102
RTVSPost2010PropOp37
 70
     1
102
RTVSPost2010Prop38
140
0.0
102
RTVSPost2010PropOp38
 70
     1
102
RTVSPost2010Prop39
140
1.0
102
RTVSPost2010PropOp39
 70
     1
102
RTVSPost2010Prop40
 90
        0
102
RTVSPost2010PropOp40
 70
     1
102
RTVSPost2010Prop41ColorIndex
 90
       18
102
RTVSPost2010Prop41ColorRGB
 90
        0
102
RTVSPost2010PropOp41
 70
     1
102
RTVSPost2010Prop42
 90
       50
102
RTVSPost2010PropOp42
 70
     1
102
RTVSPost2010Prop43
 90
        3
102
RTVSPost2010PropOp43
 70
     1
102
RTVSPost2010Prop44ColorIndex
 90
        5
102
RTVSPost2010Prop44ColorRGB
 90
      255
102
RTVSPost2010PropOp44
 70
     1
102
RTVSPost2010Prop45
280
     0
102
RTVSPost2010PropOp45
 70
     1
102
RTVSPost2010Prop46
 90
       50
102
RTVSPost2010PropOp46
 70
     1
102
RTVSPost2010Prop47
 90
       50
102
RTVSPost2010PropOp47
 70
     1
102
RTVSPost2010Prop48
 90
       50
102
RTVSPost2010PropOp48
 70
     1
102
RTVSPost2010Prop49
280
     0
102
RTVSPost2010PropOp49
 70
     1
102
RTVSPost2010Prop50
 90
       50
102
RTVSPost2010PropOp50
 70
     1
102
RTVSPost2010Prop51ColorIndex
 90
      256
102
RTVSPost2010Prop51ColorRGB
 90
-16777216
102
RTVSPost2010PropOp51
 70
     0
102
RTVSPost2010Prop52
140
1.0
102
RTVSPost2010PropOp52
 70
     0
102
RTVSPost2010Prop53
 90
        2
102
RTVSPost2010PropOp53
 70
     1
102
RTVSPost2010Prop54
  1
strokes_ogs.tif
102
RTVSPost2010PropOp54
 70
     1
102
RTVSPost2010Prop55
280
     0
102
RTVSPost2010PropOp55
 70
     1
102
RTVSPost2010Prop56
140
1.0
102
RTVSPost2010PropOp56
 70
     1
102
RTVSPost2010Prop57
140
1.0
102
RTVSPost2010PropOp57
 70
     1
102
RTVSPropertyOp0
 70
     0
102
RTVSPropertyOp1
 70
     0
102
RTVSPropertyOp2
 70
     0
102
RTVSPropertyOp3
 70
     0
102
RTVSPropertyOp4
 70
     0
102
RTVSPropertyOp5
 70
     0
102
RTVSPropertyOp6
 70
     0
102
RTVSPropertyOp7
 70
     0
102
RTVSPropertyOp8
 70
     0
102
RTVSPropertyOp9
 70
     0
102
RTVSPropertyOp10
 70
     0
102
RTVSPropertyOp11
 70
     0
102
RTVSPropertyOp12
 70
     0
102
RTVSPropertyOp13
 70
     0
102
RTVSPropertyOp14
 70
     2
102
RTVSPropertyOp15
 70
     0
102
RTVSPropertyOp16
 70
     0
102
RTVSPropertyOp17
 70
     0
102
RTVSPropertyOp18
 70
     0
102
RTVSPropertyOp19
 70
     0
102
RTVSPropertyOp20
 70
     0
102
RTVSPropertyOp21
 70
     0
102
RTVSPropertyOp22
 70
     0
102
RTVSPropertyOp23
 70
     0
102
RTVSPropertyOp24
 70
     0
102
RTVSPropertyOp25
 70
     0
102
RTVSPropertyOp26
 70
     0
102
RTVSPropertyOp27
 70
     0
102
RTVSPropertyOp28
 70
     1
102
RTVSPropertyOp29
 70
     1
102
RTVSPropertyOp30
 70
     1
102
RTVSPropertyOp31
 70
     1
102
RTVSPropertyOp32
 70
     1
102
RTVSPropertyOp33
 70
     1
102
RTVSPropertyOp34
 70
     1
102
RTVSPropertyOp35
 70
     1
102
RTVSPropertyOp36
 70
     1
102
RTVSPropertyOp37
 70
     1
102
RTVSPropertyOp38
 70
     1
102
RTVSPropertyOp39
 70
     1
102
RTVSPropertyOp40
 70
     1
102
RTVSPropertyOp41
 70
     1
102
RTVSPropertyOp42
 70
     1
102
RTVSPropertyOp43
 70
     1
102
RTVSPropertyOp44
 70
     1
102
RTVSPropertyOp45
 70
     1
102
RTVSPropertyOp46
 70
     1
102
RTVSPropertyOp47
 70
     1
102
RTVSPropertyOp48
 70
     1
102
RTVSPropertyOp49
 70
     1
102
RTVSPropertyOp50
 70
     1
102
RTVSPropertyOp51
 70
     0
102
RTVSPropertyOp52
 70
     0
102
RTVSPropertyOp53
 70
     1
102
RTVSPropertyOp54
 70
     1
102
RTVSPropertyOp55
 70
     1
102
RTVSPropertyOp56
 70
     1
102
RTVSPropertyOp57
 70
     1
102
RTVSPropertyOp58
 70
     1
102
RTVSPropertyOp59
 70
     1
102
RTVSPropertyOp60
 70
     1
102
RTVSPropertyOp61
 70
     1
102
RTVSPropertyOp62
 70
     1
  0
XRECORD
  5
18AA
102
{ACAD_REACTORS
330
18A9
102
}
330
18A9
100
AcDbXrecord
280
     1
102
RTVSPost2010Prop28
280
     0
102
RTVSPost2010PropOp28
 70
     1
102
RTVSPost2010Prop29
280
     1
102
RTVSPost2010PropOp29
 70
     1
102
RTVSPost2010Prop30
280
     1
102
RTVSPost2010PropOp30
 70
     1
102
RTVSPost2010Prop31
280
     0
102
RTVSPost2010PropOp31
 70
     1
102
RTVSPost2010Prop32
280
     0
102
RTVSPost2010PropOp32
 70
     1
102
RTVSPost2010Prop33
280
     0
102
RTVSPost2010PropOp33
 70
     1
102
RTVSPost2010Prop34
280
     0
102
RTVSPost2010PropOp34
 70
     1
102
RTVSPost2010Prop35
280
     0
102
RTVSPost2010PropOp35
 70
     1
102
RTVSPost2010Prop36
280
     0
102
RTVSPost2010PropOp36
 70
     1
102
RTVSPost2010Prop37
 90
       50
102
RTVSPost2010PropOp37
 70
     1
102
RTVSPost2010Prop38
140
0.0
102
RTVSPost2010PropOp38
 70
     1
102
RTVSPost2010Prop39
140
1.0
102
RTVSPost2010PropOp39
 70
     1
102
RTVSPost2010Prop40
 90
        0
102
RTVSPost2010PropOp40
 70
     1
102
RTVSPost2010Prop41ColorIndex
 90
       18
102
RTVSPost2010Prop41ColorRGB
 90
        0
102
RTVSPost2010PropOp41
 70
     1
102
RTVSPost2010Prop42
 90
       50
102
RTVSPost2010PropOp42
 70
     1
102
RTVSPost2010Prop43
 90
        3
102
RTVSPost2010PropOp43
 70
     1
102
RTVSPost2010Prop44ColorIndex
 90
        5
102
RTVSPost2010Prop44ColorRGB
 90
      255
102
RTVSPost2010PropOp44
 70
     1
102
RTVSPost2010Prop45
280
     0
102
RTVSPost2010PropOp45
 70
     1
102
RTVSPost2010Prop46
 90
       50
102
RTVSPost2010PropOp46
 70
     1
102
RTVSPost2010Prop47
 90
       50
102
RTVSPost2010PropOp47
 70
     1
102
RTVSPost2010Prop48
 90
       50
102
RTVSPost2010PropOp48
 70
     1
102
RTVSPost2010Prop49
280
     0
102
RTVSPost2010PropOp49
 70
     1
102
RTVSPost2010Prop50
 90
       50
102
RTVSPost2010PropOp50
 70
     1
102
RTVSPost2010Prop51ColorIndex
 90
      256
102
RTVSPost2010Prop51ColorRGB
 90
-16777216
102
RTVSPost2010PropOp51
 70
     0
102
RTVSPost2010Prop52
140
1.0
102
RTVSPost2010PropOp52
 70
     0
102
RTVSPost2010Prop53
 90
        2
102
RTVSPost2010PropOp53
 70
     1
102
RTVSPost2010Prop54
  1
strokes_ogs.tif
102
RTVSPost2010PropOp54
 70
     1
102
RTVSPost2010Prop55
280
     0
102
RTVSPost2010PropOp55
 70
     1
102
RTVSPost2010Prop56
140
1.0
102
RTVSPost2010PropOp56
 70
     1
102
RTVSPost2010Prop57
140
1.0
102
RTVSPost2010PropOp57
 70
     1
102
RTVSPropertyOp0
 70
     1
102
RTVSPropertyOp1
 70
     1
102
RTVSPropertyOp2
 70
     1
102
RTVSPropertyOp3
 70
     1
102
RTVSPropertyOp4
 70
     1
102
RTVSPropertyOp5
 70
     1
102
RTVSPropertyOp6
 70
     1
102
RTVSPropertyOp7
 70
     1
102
RTVSPropertyOp8
 70
     1
102
RTVSPropertyOp9
 70
     1
102
RTVSPropertyOp10
 70
     1
102
RTVSPropertyOp11
 70
     1
102
RTVSPropertyOp12
 70
     1
102
RTVSPropertyOp13
 70
     1
102
RTVSPropertyOp14
 70
     1
102
RTVSPropertyOp15
 70
     1
102
RTVSPropertyOp16
 70
     1
102
RTVSPropertyOp17
 70
     1
102
RTVSPropertyOp18
 70
     1
102
RTVSPropertyOp19
 70
     1
102
RTVSPropertyOp20
 70
     1
102
RTVSPropertyOp21
 70
     1
102
RTVSPropertyOp22
 70
     1
102
RTVSPropertyOp23
 70
     1
102
RTVSPropertyOp24
 70
     1
102
RTVSPropertyOp25
 70
     1
102
RTVSPropertyOp26
 70
     1
102
RTVSPropertyOp27
 70
     1
102
RTVSPropertyOp28
 70
     1
102
RTVSPropertyOp29
 70
     1
102
RTVSPropertyOp30
 70
     1
102
RTVSPropertyOp31
 70
     1
102
RTVSPropertyOp32
 70
     1
102
RTVSPropertyOp33
 70
     1
102
RTVSPropertyOp34
 70
     1
102
RTVSPropertyOp35
 70
     1
102
RTVSPropertyOp36
 70
     1
102
RTVSPropertyOp37
 70
     1
102
RTVSPropertyOp38
 70
     1
102
RTVSPropertyOp39
 70
     1
102
RTVSPropertyOp40
 70
     1
102
RTVSPropertyOp41
 70
     1
102
RTVSPropertyOp42
 70
     1
102
RTVSPropertyOp43
 70
     1
102
RTVSPropertyOp44
 70
     1
102
RTVSPropertyOp45
 70
     1
102
RTVSPropertyOp46
 70
     1
102
RTVSPropertyOp47
 70
     1
102
RTVSPropertyOp48
 70
     1
102
RTVSPropertyOp49
 70
     1
102
RTVSPropertyOp50
 70
     1
102
RTVSPropertyOp51
 70
     0
102
RTVSPropertyOp52
 70
     0
102
RTVSPropertyOp53
 70
     1
102
RTVSPropertyOp54
 70
     1
102
RTVSPropertyOp55
 70
     1
102
RTVSPropertyOp56
 70
     1
102
RTVSPropertyOp57
 70
     1
102
RTVSPropertyOp58
 70
     1
102
RTVSPropertyOp59
 70
     1
102
RTVSPropertyOp60
 70
     1
102
RTVSPropertyOp61
 70
     1
102
RTVSPropertyOp62
 70
     1
  0
XRECORD
  5
18B2
102
{ACAD_REACTORS
330
18B1
102
}
330
18B1
100
AcDbXrecord
280
     1
102
RTVSPost2010Prop28
280
     0
102
RTVSPost2010PropOp28
 70
     1
102
RTVSPost2010Prop29
280
     1
102
RTVSPost2010PropOp29
 70
     1
102
RTVSPost2010Prop30
280
     1
102
RTVSPost2010PropOp30
 70
     1
102
RTVSPost2010Prop31
280
     0
102
RTVSPost2010PropOp31
 70
     1
102
RTVSPost2010Prop32
280
     0
102
RTVSPost2010PropOp32
 70
     1
102
RTVSPost2010Prop33
280
     0
102
RTVSPost2010PropOp33
 70
     1
102
RTVSPost2010Prop34
280
     0
102
RTVSPost2010PropOp34
 70
     1
102
RTVSPost2010Prop35
280
     0
102
RTVSPost2010PropOp35
 70
     1
102
RTVSPost2010Prop36
280
     0
102
RTVSPost2010PropOp36
 70
     1
102
RTVSPost2010Prop37
 90
       50
102
RTVSPost2010PropOp37
 70
     1
102
RTVSPost2010Prop38
140
0.0
102
RTVSPost2010PropOp38
 70
     1
102
RTVSPost2010Prop39
140
1.0
102
RTVSPost2010PropOp39
 70
     1
102
RTVSPost2010Prop40
 90
        0
102
RTVSPost2010PropOp40
 70
     1
102
RTVSPost2010Prop41ColorIndex
 90
       18
102
RTVSPost2010Prop41ColorRGB
 90
        0
102
RTVSPost2010PropOp41
 70
     1
102
RTVSPost2010Prop42
 90
       50
102
RTVSPost2010PropOp42
 70
     1
102
RTVSPost2010Prop43
 90
        3
102
RTVSPost2010PropOp43
 70
     1
102
RTVSPost2010Prop44ColorIndex
 90
        5
102
RTVSPost2010Prop44ColorRGB
 90
      255
102
RTVSPost2010PropOp44
 70
     1
102
RTVSPost2010Prop45
280
     0
102
RTVSPost2010PropOp45
 70
     1
102
RTVSPost2010Prop46
 90
       50
102
RTVSPost2010PropOp46
 70
     1
102
RTVSPost2010Prop47
 90
       50
102
RTVSPost2010PropOp47
 70
     1
102
RTVSPost2010Prop48
 90
       50
102
RTVSPost2010PropOp48
 70
     1
102
RTVSPost2010Prop49
280
     0
102
RTVSPost2010PropOp49
 70
     1
102
RTVSPost2010Prop50
 90
       50
102
RTVSPost2010PropOp50
 70
     1
102
RTVSPost2010Prop51ColorIndex
 90
      256
102
RTVSPost2010Prop51ColorRGB
 90
-16777216
102
RTVSPost2010PropOp51
 70
     0
102
RTVSPost2010Prop52
140
1.0
102
RTVSPost2010PropOp52
 70
     0
102
RTVSPost2010Prop53
 90
        2
102
RTVSPost2010PropOp53
 70
     1
102
RTVSPost2010Prop54
  1
strokes_ogs.tif
102
RTVSPost2010PropOp54
 70
     1
102
RTVSPost2010Prop55
280
     0
102
RTVSPost2010PropOp55
 70
     1
102
RTVSPost2010Prop56
140
1.0
102
RTVSPost2010PropOp56
 70
     1
102
RTVSPost2010Prop57
140
1.0
102
RTVSPost2010PropOp57
 70
     1
102
RTVSPropertyOp0
 70
     0
102
RTVSPropertyOp1
 70
     0
102
RTVSPropertyOp2
 70
     0
102
RTVSPropertyOp3
 70
     0
102
RTVSPropertyOp4
 70
     0
102
RTVSPropertyOp5
 70
     0
102
RTVSPropertyOp6
 70
     0
102
RTVSPropertyOp7
 70
     0
102
RTVSPropertyOp8
 70
     0
102
RTVSPropertyOp9
 70
     0
102
RTVSPropertyOp10
 70
     0
102
RTVSPropertyOp11
 70
     0
102
RTVSPropertyOp12
 70
     0
102
RTVSPropertyOp13
 70
     0
102
RTVSPropertyOp14
 70
     2
102
RTVSPropertyOp15
 70
     0
102
RTVSPropertyOp16
 70
     0
102
RTVSPropertyOp17
 70
     0
102
RTVSPropertyOp18
 70
     0
102
RTVSPropertyOp19
 70
     0
102
RTVSPropertyOp20
 70
     0
102
RTVSPropertyOp21
 70
     0
102
RTVSPropertyOp22
 70
     0
102
RTVSPropertyOp23
 70
     0
102
RTVSPropertyOp24
 70
     0
102
RTVSPropertyOp25
 70
     0
102
RTVSPropertyOp26
 70
     0
102
RTVSPropertyOp27
 70
     0
102
RTVSPropertyOp28
 70
     1
102
RTVSPropertyOp29
 70
     1
102
RTVSPropertyOp30
 70
     1
102
RTVSPropertyOp31
 70
     1
102
RTVSPropertyOp32
 70
     1
102
RTVSPropertyOp33
 70
     1
102
RTVSPropertyOp34
 70
     1
102
RTVSPropertyOp35
 70
     1
102
RTVSPropertyOp36
 70
     1
102
RTVSPropertyOp37
 70
     1
102
RTVSPropertyOp38
 70
     1
102
RTVSPropertyOp39
 70
     1
102
RTVSPropertyOp40
 70
     1
102
RTVSPropertyOp41
 70
     1
102
RTVSPropertyOp42
 70
     1
102
RTVSPropertyOp43
 70
     1
102
RTVSPropertyOp44
 70
     1
102
RTVSPropertyOp45
 70
     1
102
RTVSPropertyOp46
 70
     1
102
RTVSPropertyOp47
 70
     1
102
RTVSPropertyOp48
 70
     1
102
RTVSPropertyOp49
 70
     1
102
RTVSPropertyOp50
 70
     1
102
RTVSPropertyOp51
 70
     0
102
RTVSPropertyOp52
 70
     0
102
RTVSPropertyOp53
 70
     1
102
RTVSPropertyOp54
 70
     1
102
RTVSPropertyOp55
 70
     1
102
RTVSPropertyOp56
 70
     1
102
RTVSPropertyOp57
 70
     1
102
RTVSPropertyOp58
 70
     1
102
RTVSPropertyOp59
 70
     1
102
RTVSPropertyOp60
 70
     1
102
RTVSPropertyOp61
 70
     1
102
RTVSPropertyOp62
 70
     1
  0
XRECORD
  5
18A2
102
{ACAD_REACTORS
330
18A1
102
}
330
18A1
100
AcDbXrecord
280
     1
102
RTVSPost2010Prop28
280
     0
102
RTVSPost2010PropOp28
 70
     1
102
RTVSPost2010Prop29
280
     1
102
RTVSPost2010PropOp29
 70
     1
102
RTVSPost2010Prop30
280
     1
102
RTVSPost2010PropOp30
 70
     1
102
RTVSPost2010Prop31
280
     0
102
RTVSPost2010PropOp31
 70
     1
102
RTVSPost2010Prop32
280
     0
102
RTVSPost2010PropOp32
 70
     1
102
RTVSPost2010Prop33
280
     0
102
RTVSPost2010PropOp33
 70
     1
102
RTVSPost2010Prop34
280
     0
102
RTVSPost2010PropOp34
 70
     1
102
RTVSPost2010Prop35
280
     0
102
RTVSPost2010PropOp35
 70
     1
102
RTVSPost2010Prop36
280
     0
102
RTVSPost2010PropOp36
 70
     1
102
RTVSPost2010Prop37
 90
       50
102
RTVSPost2010PropOp37
 70
     1
102
RTVSPost2010Prop38
140
0.0
102
RTVSPost2010PropOp38
 70
     1
102
RTVSPost2010Prop39
140
1.0
102
RTVSPost2010PropOp39
 70
     1
102
RTVSPost2010Prop40
 90
        0
102
RTVSPost2010PropOp40
 70
     1
102
RTVSPost2010Prop41ColorIndex
 90
       18
102
RTVSPost2010Prop41ColorRGB
 90
        0
102
RTVSPost2010PropOp41
 70
     1
102
RTVSPost2010Prop42
 90
       50
102
RTVSPost2010PropOp42
 70
     1
102
RTVSPost2010Prop43
 90
        3
102
RTVSPost2010PropOp43
 70
     1
102
RTVSPost2010Prop44ColorIndex
 90
        5
102
RTVSPost2010Prop44ColorRGB
 90
      255
102
RTVSPost2010PropOp44
 70
     1
102
RTVSPost2010Prop45
280
     0
102
RTVSPost2010PropOp45
 70
     1
102
RTVSPost2010Prop46
 90
       50
102
RTVSPost2010PropOp46
 70
     1
102
RTVSPost2010Prop47
 90
       50
102
RTVSPost2010PropOp47
 70
     1
102
RTVSPost2010Prop48
 90
       50
102
RTVSPost2010PropOp48
 70
     1
102
RTVSPost2010Prop49
280
     0
102
RTVSPost2010PropOp49
 70
     1
102
RTVSPost2010Prop50
 90
       50
102
RTVSPost2010PropOp50
 70
     1
102
RTVSPost2010Prop51ColorIndex
 90
      256
102
RTVSPost2010Prop51ColorRGB
 90
-16777216
102
RTVSPost2010PropOp51
 70
     0
102
RTVSPost2010Prop52
140
1.0
102
RTVSPost2010PropOp52
 70
     0
102
RTVSPost2010Prop53
 90
        2
102
RTVSPost2010PropOp53
 70
     1
102
RTVSPost2010Prop54
  1
strokes_ogs.tif
102
RTVSPost2010PropOp54
 70
     1
102
RTVSPost2010Prop55
280
     0
102
RTVSPost2010PropOp55
 70
     1
102
RTVSPost2010Prop56
140
1.0
102
RTVSPost2010PropOp56
 70
     1
102
RTVSPost2010Prop57
140
1.0
102
RTVSPost2010PropOp57
 70
     1
102
RTVSPropertyOp0
 70
     1
102
RTVSPropertyOp1
 70
     1
102
RTVSPropertyOp2
 70
     1
102
RTVSPropertyOp3
 70
     1
102
RTVSPropertyOp4
 70
     1
102
RTVSPropertyOp5
 70
     1
102
RTVSPropertyOp6
 70
     1
102
RTVSPropertyOp7
 70
     1
102
RTVSPropertyOp8
 70
     1
102
RTVSPropertyOp9
 70
     1
102
RTVSPropertyOp10
 70
     1
102
RTVSPropertyOp11
 70
     1
102
RTVSPropertyOp12
 70
     1
102
RTVSPropertyOp13
 70
     1
102
RTVSPropertyOp14
 70
     1
102
RTVSPropertyOp15
 70
     1
102
RTVSPropertyOp16
 70
     1
102
RTVSPropertyOp17
 70
     1
102
RTVSPropertyOp18
 70
     1
102
RTVSPropertyOp19
 70
     1
102
RTVSPropertyOp20
 70
     1
102
RTVSPropertyOp21
 70
     1
102
RTVSPropertyOp22
 70
     1
102
RTVSPropertyOp23
 70
     1
102
RTVSPropertyOp24
 70
     1
102
RTVSPropertyOp25
 70
     1
102
RTVSPropertyOp26
 70
     1
102
RTVSPropertyOp27
 70
     1
102
RTVSPropertyOp28
 70
     1
102
RTVSPropertyOp29
 70
     1
102
RTVSPropertyOp30
 70
     1
102
RTVSPropertyOp31
 70
     1
102
RTVSPropertyOp32
 70
     1
102
RTVSPropertyOp33
 70
     1
102
RTVSPropertyOp34
 70
     1
102
RTVSPropertyOp35
 70
     1
102
RTVSPropertyOp36
 70
     1
102
RTVSPropertyOp37
 70
     1
102
RTVSPropertyOp38
 70
     1
102
RTVSPropertyOp39
 70
     1
102
RTVSPropertyOp40
 70
     1
102
RTVSPropertyOp41
 70
     1
102
RTVSPropertyOp42
 70
     1
102
RTVSPropertyOp43
 70
     1
102
RTVSPropertyOp44
 70
     1
102
RTVSPropertyOp45
 70
     1
102
RTVSPropertyOp46
 70
     1
102
RTVSPropertyOp47
 70
     1
102
RTVSPropertyOp48
 70
     1
102
RTVSPropertyOp49
 70
     1
102
RTVSPropertyOp50
 70
     1
102
RTVSPropertyOp51
 70
     0
102
RTVSPropertyOp52
 70
     0
102
RTVSPropertyOp53
 70
     1
102
RTVSPropertyOp54
 70
     1
102
RTVSPropertyOp55
 70
     1
102
RTVSPropertyOp56
 70
     1
102
RTVSPropertyOp57
 70
     1
102
RTVSPropertyOp58
 70
     1
102
RTVSPropertyOp59
 70
     1
102
RTVSPropertyOp60
 70
     1
102
RTVSPropertyOp61
 70
     1
102
RTVSPropertyOp62
 70
     1
  0
XRECORD
  5
18C3
102
{ACAD_REACTORS
330
18C2
102
}
330
18C2
100
AcDbXrecord
280
     1
102
RTVSPost2010Prop28
280
     0
102
RTVSPost2010PropOp28
 70
     1
102
RTVSPost2010Prop29
280
     1
102
RTVSPost2010PropOp29
 70
     1
102
RTVSPost2010Prop30
280
     1
102
RTVSPost2010PropOp30
 70
     1
102
RTVSPost2010Prop31
280
     0
102
RTVSPost2010PropOp31
 70
     1
102
RTVSPost2010Prop32
280
     0
102
RTVSPost2010PropOp32
 70
     1
102
RTVSPost2010Prop33
280
     0
102
RTVSPost2010PropOp33
 70
     1
102
RTVSPost2010Prop34
280
     0
102
RTVSPost2010PropOp34
 70
     1
102
RTVSPost2010Prop35
280
     0
102
RTVSPost2010PropOp35
 70
     1
102
RTVSPost2010Prop36
280
     0
102
RTVSPost2010PropOp36
 70
     1
102
RTVSPost2010Prop37
 90
       50
102
RTVSPost2010PropOp37
 70
     1
102
RTVSPost2010Prop38
140
0.0
102
RTVSPost2010PropOp38
 70
     1
102
RTVSPost2010Prop39
140
1.0
102
RTVSPost2010PropOp39
 70
     1
102
RTVSPost2010Prop40
 90
        0
102
RTVSPost2010PropOp40
 70
     1
102
RTVSPost2010Prop41ColorIndex
 90
       18
102
RTVSPost2010Prop41ColorRGB
 90
        0
102
RTVSPost2010PropOp41
 70
     1
102
RTVSPost2010Prop42
 90
       50
102
RTVSPost2010PropOp42
 70
     1
102
RTVSPost2010Prop43
 90
        3
102
RTVSPost2010PropOp43
 70
     1
102
RTVSPost2010Prop44ColorIndex
 90
        5
102
RTVSPost2010Prop44ColorRGB
 90
      255
102
RTVSPost2010PropOp44
 70
     1
102
RTVSPost2010Prop45
280
     0
102
RTVSPost2010PropOp45
 70
     1
102
RTVSPost2010Prop46
 90
       50
102
RTVSPost2010PropOp46
 70
     1
102
RTVSPost2010Prop47
 90
       50
102
RTVSPost2010PropOp47
 70
     1
102
RTVSPost2010Prop48
 90
       50
102
RTVSPost2010PropOp48
 70
     1
102
RTVSPost2010Prop49
280
     0
102
RTVSPost2010PropOp49
 70
     1
102
RTVSPost2010Prop50
 90
       50
102
RTVSPost2010PropOp50
 70
     1
102
RTVSPost2010Prop51ColorIndex
 90
      256
102
RTVSPost2010Prop51ColorRGB
 90
-16777216
102
RTVSPost2010PropOp51
 70
     0
102
RTVSPost2010Prop52
140
1.0
102
RTVSPost2010PropOp52
 70
     0
102
RTVSPost2010Prop53
 90
        2
102
RTVSPost2010PropOp53
 70
     1
102
RTVSPost2010Prop54
  1
strokes_ogs.tif
102
RTVSPost2010PropOp54
 70
     1
102
RTVSPost2010Prop55
280
     0
102
RTVSPost2010PropOp55
 70
     1
102
RTVSPost2010Prop56
140
1.0
102
RTVSPost2010PropOp56
 70
     1
102
RTVSPost2010Prop57
140
1.0
102
RTVSPost2010PropOp57
 70
     1
102
RTVSPropertyOp0
 70
     1
102
RTVSPropertyOp1
 70
     1
102
RTVSPropertyOp2
 70
     1
102
RTVSPropertyOp3
 70
     1
102
RTVSPropertyOp4
 70
     1
102
RTVSPropertyOp5
 70
     1
102
RTVSPropertyOp6
 70
     1
102
RTVSPropertyOp7
 70
     1
102
RTVSPropertyOp8
 70
     1
102
RTVSPropertyOp9
 70
     1
102
RTVSPropertyOp10
 70
     1
102
RTVSPropertyOp11
 70
     1
102
RTVSPropertyOp12
 70
     1
102
RTVSPropertyOp13
 70
     1
102
RTVSPropertyOp14
 70
     1
102
RTVSPropertyOp15
 70
     1
102
RTVSPropertyOp16
 70
     1
102
RTVSPropertyOp17
 70
     1
102
RTVSPropertyOp18
 70
     1
102
RTVSPropertyOp19
 70
     1
102
RTVSPropertyOp20
 70
     1
102
RTVSPropertyOp21
 70
     1
102
RTVSPropertyOp22
 70
     1
102
RTVSPropertyOp23
 70
     1
102
RTVSPropertyOp24
 70
     1
102
RTVSPropertyOp25
 70
     1
102
RTVSPropertyOp26
 70
     1
102
RTVSPropertyOp27
 70
     1
102
RTVSPropertyOp28
 70
     1
102
RTVSPropertyOp29
 70
     1
102
RTVSPropertyOp30
 70
     1
102
RTVSPropertyOp31
 70
     1
102
RTVSPropertyOp32
 70
     1
102
RTVSPropertyOp33
 70
     1
102
RTVSPropertyOp34
 70
     1
102
RTVSPropertyOp35
 70
     1
102
RTVSPropertyOp36
 70
     1
102
RTVSPropertyOp37
 70
     1
102
RTVSPropertyOp38
 70
     1
102
RTVSPropertyOp39
 70
     1
102
RTVSPropertyOp40
 70
     1
102
RTVSPropertyOp41
 70
     1
102
RTVSPropertyOp42
 70
     1
102
RTVSPropertyOp43
 70
     1
102
RTVSPropertyOp44
 70
     1
102
RTVSPropertyOp45
 70
     1
102
RTVSPropertyOp46
 70
     1
102
RTVSPropertyOp47
 70
     1
102
RTVSPropertyOp48
 70
     1
102
RTVSPropertyOp49
 70
     1
102
RTVSPropertyOp50
 70
     1
102
RTVSPropertyOp51
 70
     0
102
RTVSPropertyOp52
 70
     0
102
RTVSPropertyOp53
 70
     1
102
RTVSPropertyOp54
 70
     1
102
RTVSPropertyOp55
 70
     1
102
RTVSPropertyOp56
 70
     1
102
RTVSPropertyOp57
 70
     1
102
RTVSPropertyOp58
 70
     1
102
RTVSPropertyOp59
 70
     1
102
RTVSPropertyOp60
 70
     1
102
RTVSPropertyOp61
 70
     1
102
RTVSPropertyOp62
 70
     1
  0
XRECORD
  5
18C1
102
{ACAD_REACTORS
330
18C0
102
}
330
18C0
100
AcDbXrecord
280
     1
102
RTVSPost2010Prop28
280
     0
102
RTVSPost2010PropOp28
 70
     1
102
RTVSPost2010Prop29
280
     1
102
RTVSPost2010PropOp29
 70
     1
102
RTVSPost2010Prop30
280
     1
102
RTVSPost2010PropOp30
 70
     1
102
RTVSPost2010Prop31
280
     0
102
RTVSPost2010PropOp31
 70
     1
102
RTVSPost2010Prop32
280
     0
102
RTVSPost2010PropOp32
 70
     1
102
RTVSPost2010Prop33
280
     0
102
RTVSPost2010PropOp33
 70
     1
102
RTVSPost2010Prop34
280
     0
102
RTVSPost2010PropOp34
 70
     1
102
RTVSPost2010Prop35
280
     0
102
RTVSPost2010PropOp35
 70
     1
102
RTVSPost2010Prop36
280
     0
102
RTVSPost2010PropOp36
 70
     1
102
RTVSPost2010Prop37
 90
       50
102
RTVSPost2010PropOp37
 70
     1
102
RTVSPost2010Prop38
140
0.0
102
RTVSPost2010PropOp38
 70
     1
102
RTVSPost2010Prop39
140
1.0
102
RTVSPost2010PropOp39
 70
     1
102
RTVSPost2010Prop40
 90
        0
102
RTVSPost2010PropOp40
 70
     1
102
RTVSPost2010Prop41ColorIndex
 90
       18
102
RTVSPost2010Prop41ColorRGB
 90
        0
102
RTVSPost2010PropOp41
 70
     1
102
RTVSPost2010Prop42
 90
       50
102
RTVSPost2010PropOp42
 70
     1
102
RTVSPost2010Prop43
 90
        3
102
RTVSPost2010PropOp43
 70
     1
102
RTVSPost2010Prop44ColorIndex
 90
        5
102
RTVSPost2010Prop44ColorRGB
 90
      255
102
RTVSPost2010PropOp44
 70
     1
102
RTVSPost2010Prop45
280
     0
102
RTVSPost2010PropOp45
 70
     1
102
RTVSPost2010Prop46
 90
       50
102
RTVSPost2010PropOp46
 70
     1
102
RTVSPost2010Prop47
 90
       50
102
RTVSPost2010PropOp47
 70
     1
102
RTVSPost2010Prop48
 90
       50
102
RTVSPost2010PropOp48
 70
     1
102
RTVSPost2010Prop49
280
     0
102
RTVSPost2010PropOp49
 70
     1
102
RTVSPost2010Prop50
 90
       50
102
RTVSPost2010PropOp50
 70
     1
102
RTVSPost2010Prop51ColorIndex
 90
      256
102
RTVSPost2010Prop51ColorRGB
 90
-16777216
102
RTVSPost2010PropOp51
 70
     0
102
RTVSPost2010Prop52
140
1.0
102
RTVSPost2010PropOp52
 70
     0
102
RTVSPost2010Prop53
 90
        2
102
RTVSPost2010PropOp53
 70
     1
102
RTVSPost2010Prop54
  1
strokes_ogs.tif
102
RTVSPost2010PropOp54
 70
     1
102
RTVSPost2010Prop55
280
     0
102
RTVSPost2010PropOp55
 70
     1
102
RTVSPost2010Prop56
140
1.0
102
RTVSPost2010PropOp56
 70
     1
102
RTVSPost2010Prop57
140
1.0
102
RTVSPost2010PropOp57
 70
     1
102
RTVSPropertyOp0
 70
     1
102
RTVSPropertyOp1
 70
     1
102
RTVSPropertyOp2
 70
     1
102
RTVSPropertyOp3
 70
     1
102
RTVSPropertyOp4
 70
     1
102
RTVSPropertyOp5
 70
     1
102
RTVSPropertyOp6
 70
     1
102
RTVSPropertyOp7
 70
     1
102
RTVSPropertyOp8
 70
     1
102
RTVSPropertyOp9
 70
     1
102
RTVSPropertyOp10
 70
     1
102
RTVSPropertyOp11
 70
     1
102
RTVSPropertyOp12
 70
     1
102
RTVSPropertyOp13
 70
     1
102
RTVSPropertyOp14
 70
     1
102
RTVSPropertyOp15
 70
     1
102
RTVSPropertyOp16
 70
     1
102
RTVSPropertyOp17
 70
     1
102
RTVSPropertyOp18
 70
     1
102
RTVSPropertyOp19
 70
     1
102
RTVSPropertyOp20
 70
     1
102
RTVSPropertyOp21
 70
     1
102
RTVSPropertyOp22
 70
     1
102
RTVSPropertyOp23
 70
     1
102
RTVSPropertyOp24
 70
     1
102
RTVSPropertyOp25
 70
     1
102
RTVSPropertyOp26
 70
     1
102
RTVSPropertyOp27
 70
     1
102
RTVSPropertyOp28
 70
     1
102
RTVSPropertyOp29
 70
     1
102
RTVSPropertyOp30
 70
     1
102
RTVSPropertyOp31
 70
     1
102
RTVSPropertyOp32
 70
     1
102
RTVSPropertyOp33
 70
     1
102
RTVSPropertyOp34
 70
     1
102
RTVSPropertyOp35
 70
     1
102
RTVSPropertyOp36
 70
     1
102
RTVSPropertyOp37
 70
     1
102
RTVSPropertyOp38
 70
     1
102
RTVSPropertyOp39
 70
     1
102
RTVSPropertyOp40
 70
     1
102
RTVSPropertyOp41
 70
     1
102
RTVSPropertyOp42
 70
     1
102
RTVSPropertyOp43
 70
     1
102
RTVSPropertyOp44
 70
     1
102
RTVSPropertyOp45
 70
     1
102
RTVSPropertyOp46
 70
     1
102
RTVSPropertyOp47
 70
     1
102
RTVSPropertyOp48
 70
     1
102
RTVSPropertyOp49
 70
     1
102
RTVSPropertyOp50
 70
     1
102
RTVSPropertyOp51
 70
     0
102
RTVSPropertyOp52
 70
     0
102
RTVSPropertyOp53
 70
     1
102
RTVSPropertyOp54
 70
     1
102
RTVSPropertyOp55
 70
     1
102
RTVSPropertyOp56
 70
     1
102
RTVSPropertyOp57
 70
     1
102
RTVSPropertyOp58
 70
     1
102
RTVSPropertyOp59
 70
     1
102
RTVSPropertyOp60
 70
     1
102
RTVSPropertyOp61
 70
     1
102
RTVSPropertyOp62
 70
     1
  0
XRECORD
  5
18BB
102
{ACAD_REACTORS
330
18BA
102
}
330
18BA
100
AcDbXrecord
280
     1
102
RTVSPost2010Prop28
280
     0
102
RTVSPost2010PropOp28
 70
     1
102
RTVSPost2010Prop29
280
     1
102
RTVSPost2010PropOp29
 70
     1
102
RTVSPost2010Prop30
280
     1
102
RTVSPost2010PropOp30
 70
     1
102
RTVSPost2010Prop31
280
     0
102
RTVSPost2010PropOp31
 70
     1
102
RTVSPost2010Prop32
280
     0
102
RTVSPost2010PropOp32
 70
     1
102
RTVSPost2010Prop33
280
     0
102
RTVSPost2010PropOp33
 70
     1
102
RTVSPost2010Prop34
280
     0
102
RTVSPost2010PropOp34
 70
     1
102
RTVSPost2010Prop35
280
     0
102
RTVSPost2010PropOp35
 70
     1
102
RTVSPost2010Prop36
280
     0
102
RTVSPost2010PropOp36
 70
     1
102
RTVSPost2010Prop37
 90
       50
102
RTVSPost2010PropOp37
 70
     1
102
RTVSPost2010Prop38
140
0.0
102
RTVSPost2010PropOp38
 70
     1
102
RTVSPost2010Prop39
140
1.0
102
RTVSPost2010PropOp39
 70
     1
102
RTVSPost2010Prop40
 90
        0
102
RTVSPost2010PropOp40
 70
     1
102
RTVSPost2010Prop41ColorIndex
 90
       18
102
RTVSPost2010Prop41ColorRGB
 90
        0
102
RTVSPost2010PropOp41
 70
     1
102
RTVSPost2010Prop42
 90
       50
102
RTVSPost2010PropOp42
 70
     1
102
RTVSPost2010Prop43
 90
        3
102
RTVSPost2010PropOp43
 70
     1
102
RTVSPost2010Prop44ColorIndex
 90
        5
102
RTVSPost2010Prop44ColorRGB
 90
      255
102
RTVSPost2010PropOp44
 70
     1
102
RTVSPost2010Prop45
280
     0
102
RTVSPost2010PropOp45
 70
     1
102
RTVSPost2010Prop46
 90
       50
102
RTVSPost2010PropOp46
 70
     1
102
RTVSPost2010Prop47
 90
       50
102
RTVSPost2010PropOp47
 70
     1
102
RTVSPost2010Prop48
 90
       50
102
RTVSPost2010PropOp48
 70
     1
102
RTVSPost2010Prop49
280
     0
102
RTVSPost2010PropOp49
 70
     1
102
RTVSPost2010Prop50
 90
       50
102
RTVSPost2010PropOp50
 70
     1
102
RTVSPost2010Prop51ColorIndex
 90
      256
102
RTVSPost2010Prop51ColorRGB
 90
-16777216
102
RTVSPost2010PropOp51
 70
     0
102
RTVSPost2010Prop52
140
1.0
102
RTVSPost2010PropOp52
 70
     0
102
RTVSPost2010Prop53
 90
        2
102
RTVSPost2010PropOp53
 70
     1
102
RTVSPost2010Prop54
  1
strokes_ogs.tif
102
RTVSPost2010PropOp54
 70
     1
102
RTVSPost2010Prop55
280
     0
102
RTVSPost2010PropOp55
 70
     1
102
RTVSPost2010Prop56
140
1.0
102
RTVSPost2010PropOp56
 70
     1
102
RTVSPost2010Prop57
140
1.0
102
RTVSPost2010PropOp57
 70
     1
102
RTVSPropertyOp0
 70
     1
102
RTVSPropertyOp1
 70
     1
102
RTVSPropertyOp2
 70
     1
102
RTVSPropertyOp3
 70
     1
102
RTVSPropertyOp4
 70
     1
102
RTVSPropertyOp5
 70
     1
102
RTVSPropertyOp6
 70
     1
102
RTVSPropertyOp7
 70
     1
102
RTVSPropertyOp8
 70
     1
102
RTVSPropertyOp9
 70
     1
102
RTVSPropertyOp10
 70
     1
102
RTVSPropertyOp11
 70
     1
102
RTVSPropertyOp12
 70
     1
102
RTVSPropertyOp13
 70
     1
102
RTVSPropertyOp14
 70
     1
102
RTVSPropertyOp15
 70
     1
102
RTVSPropertyOp16
 70
     1
102
RTVSPropertyOp17
 70
     1
102
RTVSPropertyOp18
 70
     1
102
RTVSPropertyOp19
 70
     1
102
RTVSPropertyOp20
 70
     1
102
RTVSPropertyOp21
 70
     1
102
RTVSPropertyOp22
 70
     1
102
RTVSPropertyOp23
 70
     1
102
RTVSPropertyOp24
 70
     1
102
RTVSPropertyOp25
 70
     1
102
RTVSPropertyOp26
 70
     1
102
RTVSPropertyOp27
 70
     1
102
RTVSPropertyOp28
 70
     1
102
RTVSPropertyOp29
 70
     1
102
RTVSPropertyOp30
 70
     1
102
RTVSPropertyOp31
 70
     1
102
RTVSPropertyOp32
 70
     1
102
RTVSPropertyOp33
 70
     1
102
RTVSPropertyOp34
 70
     1
102
RTVSPropertyOp35
 70
     1
102
RTVSPropertyOp36
 70
     1
102
RTVSPropertyOp37
 70
     1
102
RTVSPropertyOp38
 70
     1
102
RTVSPropertyOp39
 70
     1
102
RTVSPropertyOp40
 70
     1
102
RTVSPropertyOp41
 70
     1
102
RTVSPropertyOp42
 70
     1
102
RTVSPropertyOp43
 70
     1
102
RTVSPropertyOp44
 70
     1
102
RTVSPropertyOp45
 70
     1
102
RTVSPropertyOp46
 70
     1
102
RTVSPropertyOp47
 70
     1
102
RTVSPropertyOp48
 70
     1
102
RTVSPropertyOp49
 70
     1
102
RTVSPropertyOp50
 70
     1
102
RTVSPropertyOp51
 70
     0
102
RTVSPropertyOp52
 70
     0
102
RTVSPropertyOp53
 70
     1
102
RTVSPropertyOp54
 70
     1
102
RTVSPropertyOp55
 70
     1
102
RTVSPropertyOp56
 70
     1
102
RTVSPropertyOp57
 70
     1
102
RTVSPropertyOp58
 70
     1
102
RTVSPropertyOp59
 70
     1
102
RTVSPropertyOp60
 70
     1
102
RTVSPropertyOp61
 70
     1
102
RTVSPropertyOp62
 70
     1
  0
XRECORD
  5
18BD
102
{ACAD_REACTORS
330
18BC
102
}
330
18BC
100
AcDbXrecord
280
     1
102
RTVSPost2010Prop28
280
     0
102
RTVSPost2010PropOp28
 70
     1
102
RTVSPost2010Prop29
280
     1
102
RTVSPost2010PropOp29
 70
     1
102
RTVSPost2010Prop30
280
     1
102
RTVSPost2010PropOp30
 70
     1
102
RTVSPost2010Prop31
280
     0
102
RTVSPost2010PropOp31
 70
     1
102
RTVSPost2010Prop32
280
     0
102
RTVSPost2010PropOp32
 70
     1
102
RTVSPost2010Prop33
280
     0
102
RTVSPost2010PropOp33
 70
     1
102
RTVSPost2010Prop34
280
     0
102
RTVSPost2010PropOp34
 70
     1
102
RTVSPost2010Prop35
280
     0
102
RTVSPost2010PropOp35
 70
     1
102
RTVSPost2010Prop36
280
     0
102
RTVSPost2010PropOp36
 70
     1
102
RTVSPost2010Prop37
 90
       50
102
RTVSPost2010PropOp37
 70
     1
102
RTVSPost2010Prop38
140
0.0
102
RTVSPost2010PropOp38
 70
     1
102
RTVSPost2010Prop39
140
1.0
102
RTVSPost2010PropOp39
 70
     1
102
RTVSPost2010Prop40
 90
        0
102
RTVSPost2010PropOp40
 70
     1
102
RTVSPost2010Prop41ColorIndex
 90
       18
102
RTVSPost2010Prop41ColorRGB
 90
        0
102
RTVSPost2010PropOp41
 70
     1
102
RTVSPost2010Prop42
 90
       50
102
RTVSPost2010PropOp42
 70
     1
102
RTVSPost2010Prop43
 90
        3
102
RTVSPost2010PropOp43
 70
     1
102
RTVSPost2010Prop44ColorIndex
 90
        5
102
RTVSPost2010Prop44ColorRGB
 90
      255
102
RTVSPost2010PropOp44
 70
     1
102
RTVSPost2010Prop45
280
     0
102
RTVSPost2010PropOp45
 70
     1
102
RTVSPost2010Prop46
 90
       50
102
RTVSPost2010PropOp46
 70
     1
102
RTVSPost2010Prop47
 90
       50
102
RTVSPost2010PropOp47
 70
     1
102
RTVSPost2010Prop48
 90
       50
102
RTVSPost2010PropOp48
 70
     1
102
RTVSPost2010Prop49
280
     0
102
RTVSPost2010PropOp49
 70
     1
102
RTVSPost2010Prop50
 90
       50
102
RTVSPost2010PropOp50
 70
     1
102
RTVSPost2010Prop51ColorIndex
 90
      256
102
RTVSPost2010Prop51ColorRGB
 90
-16777216
102
RTVSPost2010PropOp51
 70
     0
102
RTVSPost2010Prop52
140
1.0
102
RTVSPost2010PropOp52
 70
     0
102
RTVSPost2010Prop53
 90
        2
102
RTVSPost2010PropOp53
 70
     1
102
RTVSPost2010Prop54
  1
strokes_ogs.tif
102
RTVSPost2010PropOp54
 70
     1
102
RTVSPost2010Prop55
280
     0
102
RTVSPost2010PropOp55
 70
     1
102
RTVSPost2010Prop56
140
1.0
102
RTVSPost2010PropOp56
 70
     1
102
RTVSPost2010Prop57
140
1.0
102
RTVSPost2010PropOp57
 70
     1
102
RTVSPropertyOp0
 70
     1
102
RTVSPropertyOp1
 70
     1
102
RTVSPropertyOp2
 70
     1
102
RTVSPropertyOp3
 70
     1
102
RTVSPropertyOp4
 70
     1
102
RTVSPropertyOp5
 70
     1
102
RTVSPropertyOp6
 70
     1
102
RTVSPropertyOp7
 70
     1
102
RTVSPropertyOp8
 70
     1
102
RTVSPropertyOp9
 70
     1
102
RTVSPropertyOp10
 70
     1
102
RTVSPropertyOp11
 70
     1
102
RTVSPropertyOp12
 70
     1
102
RTVSPropertyOp13
 70
     1
102
RTVSPropertyOp14
 70
     1
102
RTVSPropertyOp15
 70
     1
102
RTVSPropertyOp16
 70
     1
102
RTVSPropertyOp17
 70
     1
102
RTVSPropertyOp18
 70
     1
102
RTVSPropertyOp19
 70
     1
102
RTVSPropertyOp20
 70
     1
102
RTVSPropertyOp21
 70
     1
102
RTVSPropertyOp22
 70
     1
102
RTVSPropertyOp23
 70
     1
102
RTVSPropertyOp24
 70
     1
102
RTVSPropertyOp25
 70
     1
102
RTVSPropertyOp26
 70
     1
102
RTVSPropertyOp27
 70
     1
102
RTVSPropertyOp28
 70
     1
102
RTVSPropertyOp29
 70
     1
102
RTVSPropertyOp30
 70
     1
102
RTVSPropertyOp31
 70
     1
102
RTVSPropertyOp32
 70
     1
102
RTVSPropertyOp33
 70
     1
102
RTVSPropertyOp34
 70
     1
102
RTVSPropertyOp35
 70
     1
102
RTVSPropertyOp36
 70
     1
102
RTVSPropertyOp37
 70
     1
102
RTVSPropertyOp38
 70
     1
102
RTVSPropertyOp39
 70
     1
102
RTVSPropertyOp40
 70
     1
102
RTVSPropertyOp41
 70
     1
102
RTVSPropertyOp42
 70
     1
102
RTVSPropertyOp43
 70
     1
102
RTVSPropertyOp44
 70
     1
102
RTVSPropertyOp45
 70
     1
102
RTVSPropertyOp46
 70
     1
102
RTVSPropertyOp47
 70
     1
102
RTVSPropertyOp48
 70
     1
102
RTVSPropertyOp49
 70
     1
102
RTVSPropertyOp50
 70
     1
102
RTVSPropertyOp51
 70
     0
102
RTVSPropertyOp52
 70
     0
102
RTVSPropertyOp53
 70
     1
102
RTVSPropertyOp54
 70
     1
102
RTVSPropertyOp55
 70
     1
102
RTVSPropertyOp56
 70
     1
102
RTVSPropertyOp57
 70
     1
102
RTVSPropertyOp58
 70
     1
102
RTVSPropertyOp59
 70
     1
102
RTVSPropertyOp60
 70
     1
102
RTVSPropertyOp61
 70
     1
102
RTVSPropertyOp62
 70
     1
  0
XRECORD
  5
18A8
102
{ACAD_REACTORS
330
18A7
102
}
330
18A7
100
AcDbXrecord
280
     1
102
RTVSPost2010Prop28
280
     0
102
RTVSPost2010PropOp28
 70
     1
102
RTVSPost2010Prop29
280
     1
102
RTVSPost2010PropOp29
 70
     1
102
RTVSPost2010Prop30
280
     1
102
RTVSPost2010PropOp30
 70
     1
102
RTVSPost2010Prop31
280
     0
102
RTVSPost2010PropOp31
 70
     1
102
RTVSPost2010Prop32
280
     0
102
RTVSPost2010PropOp32
 70
     1
102
RTVSPost2010Prop33
280
     0
102
RTVSPost2010PropOp33
 70
     1
102
RTVSPost2010Prop34
280
     0
102
RTVSPost2010PropOp34
 70
     1
102
RTVSPost2010Prop35
280
     0
102
RTVSPost2010PropOp35
 70
     1
102
RTVSPost2010Prop36
280
     0
102
RTVSPost2010PropOp36
 70
     1
102
RTVSPost2010Prop37
 90
       50
102
RTVSPost2010PropOp37
 70
     1
102
RTVSPost2010Prop38
140
0.0
102
RTVSPost2010PropOp38
 70
     1
102
RTVSPost2010Prop39
140
1.0
102
RTVSPost2010PropOp39
 70
     1
102
RTVSPost2010Prop40
 90
        0
102
RTVSPost2010PropOp40
 70
     1
102
RTVSPost2010Prop41ColorIndex
 90
       18
102
RTVSPost2010Prop41ColorRGB
 90
        0
102
RTVSPost2010PropOp41
 70
     1
102
RTVSPost2010Prop42
 90
       50
102
RTVSPost2010PropOp42
 70
     1
102
RTVSPost2010Prop43
 90
        3
102
RTVSPost2010PropOp43
 70
     1
102
RTVSPost2010Prop44ColorIndex
 90
        5
102
RTVSPost2010Prop44ColorRGB
 90
      255
102
RTVSPost2010PropOp44
 70
     1
102
RTVSPost2010Prop45
280
     0
102
RTVSPost2010PropOp45
 70
     1
102
RTVSPost2010Prop46
 90
       50
102
RTVSPost2010PropOp46
 70
     1
102
RTVSPost2010Prop47
 90
       50
102
RTVSPost2010PropOp47
 70
     1
102
RTVSPost2010Prop48
 90
       50
102
RTVSPost2010PropOp48
 70
     1
102
RTVSPost2010Prop49
280
     0
102
RTVSPost2010PropOp49
 70
     1
102
RTVSPost2010Prop50
 90
       50
102
RTVSPost2010PropOp50
 70
     1
102
RTVSPost2010Prop51ColorIndex
 90
      256
102
RTVSPost2010Prop51ColorRGB
 90
-16777216
102
RTVSPost2010PropOp51
 70
     0
102
RTVSPost2010Prop52
140
1.0
102
RTVSPost2010PropOp52
 70
     0
102
RTVSPost2010Prop53
 90
        2
102
RTVSPost2010PropOp53
 70
     1
102
RTVSPost2010Prop54
  1
strokes_ogs.tif
102
RTVSPost2010PropOp54
 70
     1
102
RTVSPost2010Prop55
280
     0
102
RTVSPost2010PropOp55
 70
     1
102
RTVSPost2010Prop56
140
1.0
102
RTVSPost2010PropOp56
 70
     1
102
RTVSPost2010Prop57
140
1.0
102
RTVSPost2010PropOp57
 70
     1
102
RTVSPropertyOp0
 70
     1
102
RTVSPropertyOp1
 70
     1
102
RTVSPropertyOp2
 70
     1
102
RTVSPropertyOp3
 70
     1
102
RTVSPropertyOp4
 70
     1
102
RTVSPropertyOp5
 70
     1
102
RTVSPropertyOp6
 70
     1
102
RTVSPropertyOp7
 70
     1
102
RTVSPropertyOp8
 70
     1
102
RTVSPropertyOp9
 70
     1
102
RTVSPropertyOp10
 70
     1
102
RTVSPropertyOp11
 70
     1
102
RTVSPropertyOp12
 70
     1
102
RTVSPropertyOp13
 70
     1
102
RTVSPropertyOp14
 70
     1
102
RTVSPropertyOp15
 70
     1
102
RTVSPropertyOp16
 70
     1
102
RTVSPropertyOp17
 70
     1
102
RTVSPropertyOp18
 70
     1
102
RTVSPropertyOp19
 70
     1
102
RTVSPropertyOp20
 70
     1
102
RTVSPropertyOp21
 70
     1
102
RTVSPropertyOp22
 70
     1
102
RTVSPropertyOp23
 70
     1
102
RTVSPropertyOp24
 70
     1
102
RTVSPropertyOp25
 70
     1
102
RTVSPropertyOp26
 70
     1
102
RTVSPropertyOp27
 70
     1
102
RTVSPropertyOp28
 70
     1
102
RTVSPropertyOp29
 70
     1
102
RTVSPropertyOp30
 70
     1
102
RTVSPropertyOp31
 70
     1
102
RTVSPropertyOp32
 70
     1
102
RTVSPropertyOp33
 70
     1
102
RTVSPropertyOp34
 70
     1
102
RTVSPropertyOp35
 70
     1
102
RTVSPropertyOp36
 70
     1
102
RTVSPropertyOp37
 70
     1
102
RTVSPropertyOp38
 70
     1
102
RTVSPropertyOp39
 70
     1
102
RTVSPropertyOp40
 70
     1
102
RTVSPropertyOp41
 70
     1
102
RTVSPropertyOp42
 70
     1
102
RTVSPropertyOp43
 70
     1
102
RTVSPropertyOp44
 70
     1
102
RTVSPropertyOp45
 70
     1
102
RTVSPropertyOp46
 70
     1
102
RTVSPropertyOp47
 70
     1
102
RTVSPropertyOp48
 70
     1
102
RTVSPropertyOp49
 70
     1
102
RTVSPropertyOp50
 70
     1
102
RTVSPropertyOp51
 70
     0
102
RTVSPropertyOp52
 70
     0
102
RTVSPropertyOp53
 70
     1
102
RTVSPropertyOp54
 70
     1
102
RTVSPropertyOp55
 70
     1
102
RTVSPropertyOp56
 70
     1
102
RTVSPropertyOp57
 70
     1
102
RTVSPropertyOp58
 70
     1
102
RTVSPropertyOp59
 70
     1
102
RTVSPropertyOp60
 70
     1
102
RTVSPropertyOp61
 70
     1
102
RTVSPropertyOp62
 70
     1
  0
XRECORD
  5
18B7
102
{ACAD_REACTORS
330
18B6
102
}
330
18B6
100
AcDbXrecord
280
     1
102
RTVSPost2010Prop28
280
     0
102
RTVSPost2010PropOp28
 70
     1
102
RTVSPost2010Prop29
280
     1
102
RTVSPost2010PropOp29
 70
     1
102
RTVSPost2010Prop30
280
     1
102
RTVSPost2010PropOp30
 70
     1
102
RTVSPost2010Prop31
280
     0
102
RTVSPost2010PropOp31
 70
     1
102
RTVSPost2010Prop32
280
     0
102
RTVSPost2010PropOp32
 70
     1
102
RTVSPost2010Prop33
280
     0
102
RTVSPost2010PropOp33
 70
     1
102
RTVSPost2010Prop34
280
     0
102
RTVSPost2010PropOp34
 70
     1
102
RTVSPost2010Prop35
280
     0
102
RTVSPost2010PropOp35
 70
     1
102
RTVSPost2010Prop36
280
     0
102
RTVSPost2010PropOp36
 70
     1
102
RTVSPost2010Prop37
 90
       50
102
RTVSPost2010PropOp37
 70
     1
102
RTVSPost2010Prop38
140
0.0
102
RTVSPost2010PropOp38
 70
     1
102
RTVSPost2010Prop39
140
1.0
102
RTVSPost2010PropOp39
 70
     1
102
RTVSPost2010Prop40
 90
        0
102
RTVSPost2010PropOp40
 70
     1
102
RTVSPost2010Prop41ColorIndex
 90
       18
102
RTVSPost2010Prop41ColorRGB
 90
        0
102
RTVSPost2010PropOp41
 70
     1
102
RTVSPost2010Prop42
 90
       50
102
RTVSPost2010PropOp42
 70
     1
102
RTVSPost2010Prop43
 90
        3
102
RTVSPost2010PropOp43
 70
     1
102
RTVSPost2010Prop44ColorIndex
 90
        5
102
RTVSPost2010Prop44ColorRGB
 90
      255
102
RTVSPost2010PropOp44
 70
     1
102
RTVSPost2010Prop45
280
     0
102
RTVSPost2010PropOp45
 70
     1
102
RTVSPost2010Prop46
 90
       50
102
RTVSPost2010PropOp46
 70
     1
102
RTVSPost2010Prop47
 90
       50
102
RTVSPost2010PropOp47
 70
     1
102
RTVSPost2010Prop48
 90
       50
102
RTVSPost2010PropOp48
 70
     1
102
RTVSPost2010Prop49
280
     0
102
RTVSPost2010PropOp49
 70
     1
102
RTVSPost2010Prop50
 90
       50
102
RTVSPost2010PropOp50
 70
     1
102
RTVSPost2010Prop51ColorIndex
 90
      256
102
RTVSPost2010Prop51ColorRGB
 90
-16777216
102
RTVSPost2010PropOp51
 70
     0
102
RTVSPost2010Prop52
140
1.0
102
RTVSPost2010PropOp52
 70
     0
102
RTVSPost2010Prop53
 90
        2
102
RTVSPost2010PropOp53
 70
     1
102
RTVSPost2010Prop54
  1
strokes_ogs.tif
102
RTVSPost2010PropOp54
 70
     1
102
RTVSPost2010Prop55
280
     0
102
RTVSPost2010PropOp55
 70
     1
102
RTVSPost2010Prop56
140
1.0
102
RTVSPost2010PropOp56
 70
     1
102
RTVSPost2010Prop57
140
1.0
102
RTVSPost2010PropOp57
 70
     1
102
RTVSPropertyOp0
 70
     1
102
RTVSPropertyOp1
 70
     1
102
RTVSPropertyOp2
 70
     1
102
RTVSPropertyOp3
 70
     1
102
RTVSPropertyOp4
 70
     1
102
RTVSPropertyOp5
 70
     1
102
RTVSPropertyOp6
 70
     1
102
RTVSPropertyOp7
 70
     1
102
RTVSPropertyOp8
 70
     1
102
RTVSPropertyOp9
 70
     1
102
RTVSPropertyOp10
 70
     1
102
RTVSPropertyOp11
 70
     1
102
RTVSPropertyOp12
 70
     1
102
RTVSPropertyOp13
 70
     1
102
RTVSPropertyOp14
 70
     1
102
RTVSPropertyOp15
 70
     1
102
RTVSPropertyOp16
 70
     1
102
RTVSPropertyOp17
 70
     1
102
RTVSPropertyOp18
 70
     1
102
RTVSPropertyOp19
 70
     1
102
RTVSPropertyOp20
 70
     1
102
RTVSPropertyOp21
 70
     1
102
RTVSPropertyOp22
 70
     1
102
RTVSPropertyOp23
 70
     1
102
RTVSPropertyOp24
 70
     1
102
RTVSPropertyOp25
 70
     1
102
RTVSPropertyOp26
 70
     1
102
RTVSPropertyOp27
 70
     1
102
RTVSPropertyOp28
 70
     1
102
RTVSPropertyOp29
 70
     1
102
RTVSPropertyOp30
 70
     1
102
RTVSPropertyOp31
 70
     1
102
RTVSPropertyOp32
 70
     1
102
RTVSPropertyOp33
 70
     1
102
RTVSPropertyOp34
 70
     1
102
RTVSPropertyOp35
 70
     1
102
RTVSPropertyOp36
 70
     1
102
RTVSPropertyOp37
 70
     1
102
RTVSPropertyOp38
 70
     1
102
RTVSPropertyOp39
 70
     1
102
RTVSPropertyOp40
 70
     1
102
RTVSPropertyOp41
 70
     1
102
RTVSPropertyOp42
 70
     1
102
RTVSPropertyOp43
 70
     1
102
RTVSPropertyOp44
 70
     1
102
RTVSPropertyOp45
 70
     1
102
RTVSPropertyOp46
 70
     1
102
RTVSPropertyOp47
 70
     1
102
RTVSPropertyOp48
 70
     1
102
RTVSPropertyOp49
 70
     1
102
RTVSPropertyOp50
 70
     1
102
RTVSPropertyOp51
 70
     0
102
RTVSPropertyOp52
 70
     0
102
RTVSPropertyOp53
 70
     1
102
RTVSPropertyOp54
 70
     1
102
RTVSPropertyOp55
 70
     1
102
RTVSPropertyOp56
 70
     1
102
RTVSPropertyOp57
 70
     1
102
RTVSPropertyOp58
 70
     1
102
RTVSPropertyOp59
 70
     1
102
RTVSPropertyOp60
 70
     1
102
RTVSPropertyOp61
 70
     1
102
RTVSPropertyOp62
 70
     1
  0
XRECORD
  5
18BF
102
{ACAD_REACTORS
330
18BE
102
}
330
18BE
100
AcDbXrecord
280
     1
102
RTVSPost2010Prop28
280
     0
102
RTVSPost2010PropOp28
 70
     1
102
RTVSPost2010Prop29
280
     1
102
RTVSPost2010PropOp29
 70
     1
102
RTVSPost2010Prop30
280
     1
102
RTVSPost2010PropOp30
 70
     1
102
RTVSPost2010Prop31
280
     0
102
RTVSPost2010PropOp31
 70
     1
102
RTVSPost2010Prop32
280
     0
102
RTVSPost2010PropOp32
 70
     1
102
RTVSPost2010Prop33
280
     0
102
RTVSPost2010PropOp33
 70
     1
102
RTVSPost2010Prop34
280
     0
102
RTVSPost2010PropOp34
 70
     1
102
RTVSPost2010Prop35
280
     0
102
RTVSPost2010PropOp35
 70
     1
102
RTVSPost2010Prop36
280
     0
102
RTVSPost2010PropOp36
 70
     1
102
RTVSPost2010Prop37
 90
       50
102
RTVSPost2010PropOp37
 70
     1
102
RTVSPost2010Prop38
140
0.0
102
RTVSPost2010PropOp38
 70
     1
102
RTVSPost2010Prop39
140
1.0
102
RTVSPost2010PropOp39
 70
     1
102
RTVSPost2010Prop40
 90
        0
102
RTVSPost2010PropOp40
 70
     1
102
RTVSPost2010Prop41ColorIndex
 90
       18
102
RTVSPost2010Prop41ColorRGB
 90
        0
102
RTVSPost2010PropOp41
 70
     1
102
RTVSPost2010Prop42
 90
       50
102
RTVSPost2010PropOp42
 70
     1
102
RTVSPost2010Prop43
 90
        3
102
RTVSPost2010PropOp43
 70
     1
102
RTVSPost2010Prop44ColorIndex
 90
        5
102
RTVSPost2010Prop44ColorRGB
 90
      255
102
RTVSPost2010PropOp44
 70
     1
102
RTVSPost2010Prop45
280
     0
102
RTVSPost2010PropOp45
 70
     1
102
RTVSPost2010Prop46
 90
       50
102
RTVSPost2010PropOp46
 70
     1
102
RTVSPost2010Prop47
 90
       50
102
RTVSPost2010PropOp47
 70
     1
102
RTVSPost2010Prop48
 90
       50
102
RTVSPost2010PropOp48
 70
     1
102
RTVSPost2010Prop49
280
     0
102
RTVSPost2010PropOp49
 70
     1
102
RTVSPost2010Prop50
 90
       50
102
RTVSPost2010PropOp50
 70
     1
102
RTVSPost2010Prop51ColorIndex
 90
      256
102
RTVSPost2010Prop51ColorRGB
 90
-16777216
102
RTVSPost2010PropOp51
 70
     0
102
RTVSPost2010Prop52
140
1.0
102
RTVSPost2010PropOp52
 70
     0
102
RTVSPost2010Prop53
 90
        2
102
RTVSPost2010PropOp53
 70
     1
102
RTVSPost2010Prop54
  1
strokes_ogs.tif
102
RTVSPost2010PropOp54
 70
     1
102
RTVSPost2010Prop55
280
     0
102
RTVSPost2010PropOp55
 70
     1
102
RTVSPost2010Prop56
140
1.0
102
RTVSPost2010PropOp56
 70
     1
102
RTVSPost2010Prop57
140
1.0
102
RTVSPost2010PropOp57
 70
     1
102
RTVSPropertyOp0
 70
     1
102
RTVSPropertyOp1
 70
     1
102
RTVSPropertyOp2
 70
     1
102
RTVSPropertyOp3
 70
     1
102
RTVSPropertyOp4
 70
     1
102
RTVSPropertyOp5
 70
     1
102
RTVSPropertyOp6
 70
     1
102
RTVSPropertyOp7
 70
     1
102
RTVSPropertyOp8
 70
     1
102
RTVSPropertyOp9
 70
     1
102
RTVSPropertyOp10
 70
     1
102
RTVSPropertyOp11
 70
     1
102
RTVSPropertyOp12
 70
     1
102
RTVSPropertyOp13
 70
     1
102
RTVSPropertyOp14
 70
     1
102
RTVSPropertyOp15
 70
     1
102
RTVSPropertyOp16
 70
     1
102
RTVSPropertyOp17
 70
     1
102
RTVSPropertyOp18
 70
     1
102
RTVSPropertyOp19
 70
     1
102
RTVSPropertyOp20
 70
     1
102
RTVSPropertyOp21
 70
     1
102
RTVSPropertyOp22
 70
     1
102
RTVSPropertyOp23
 70
     1
102
RTVSPropertyOp24
 70
     1
102
RTVSPropertyOp25
 70
     1
102
RTVSPropertyOp26
 70
     1
102
RTVSPropertyOp27
 70
     1
102
RTVSPropertyOp28
 70
     1
102
RTVSPropertyOp29
 70
     1
102
RTVSPropertyOp30
 70
     1
102
RTVSPropertyOp31
 70
     1
102
RTVSPropertyOp32
 70
     1
102
RTVSPropertyOp33
 70
     1
102
RTVSPropertyOp34
 70
     1
102
RTVSPropertyOp35
 70
     1
102
RTVSPropertyOp36
 70
     1
102
RTVSPropertyOp37
 70
     1
102
RTVSPropertyOp38
 70
     1
102
RTVSPropertyOp39
 70
     1
102
RTVSPropertyOp40
 70
     1
102
RTVSPropertyOp41
 70
     1
102
RTVSPropertyOp42
 70
     1
102
RTVSPropertyOp43
 70
     1
102
RTVSPropertyOp44
 70
     1
102
RTVSPropertyOp45
 70
     1
102
RTVSPropertyOp46
 70
     1
102
RTVSPropertyOp47
 70
     1
102
RTVSPropertyOp48
 70
     1
102
RTVSPropertyOp49
 70
     1
102
RTVSPropertyOp50
 70
     1
102
RTVSPropertyOp51
 70
     0
102
RTVSPropertyOp52
 70
     0
102
RTVSPropertyOp53
 70
     1
102
RTVSPropertyOp54
 70
     1
102
RTVSPropertyOp55
 70
     1
102
RTVSPropertyOp56
 70
     1
102
RTVSPropertyOp57
 70
     1
102
RTVSPropertyOp58
 70
     1
102
RTVSPropertyOp59
 70
     1
102
RTVSPropertyOp60
 70
     1
102
RTVSPropertyOp61
 70
     1
102
RTVSPropertyOp62
 70
     1
  0
ENDSEC
  0
EOF
