  0
SECTION
  2
HEADER
  9
$ACADVER
  1
AC1015
  9
$ACADMAINTVER
 70
    20
  9
$DWGCODEPAGE
  3
ANSI_1252
  9
$INSBASE
 10
0.0
 20
0.0
 30
0.0
  9
$EXTMIN
 10
20.66341190458451
 20
62.45328810629212
 30
-0.0015258207003583
  9
$EXTMAX
 10
92.65885448561858
 20
104.4283856748016
 30
0.0000000349246037
  9
$LIMMIN
 10
0.0
 20
0.0
  9
$LIMMAX
 10
181.3333333333
 20
117.3333333333
  9
$ORTHOMODE
 70
     0
  9
$REGENMODE
 70
     1
  9
$FILLMODE
 70
     1
  9
$QTEXTMODE
 70
     0
  9
$MIRRTEXT
 70
     0
  9
$LTSCALE
 40
9.973333333300001
  9
$ATTMODE
 70
     1
  9
$TEXTSIZE
 40
0.2
  9
$TRACEWID
 40
0.05
  9
$TEXTSTYLE
  7
STANDARD
  9
$CLAYER
  8
0
  9
$CELTYPE
  6
BYLAYER
  9
$CECOLOR
 62
   256
  9
$CELTSCALE
 40
1.0
  9
$DISPSILH
 70
     0
  9
$DIMSCALE
 40
1.0
  9
$DIMASZ
 40
2.0
  9
$DIMEXO
 40
0.0625
  9
$DIMDLI
 40
6.890666666699999
  9
$DIMRND
 40
0.0
  9
$DIMDLE
 40
0.0
  9
$DIMEXE
 40
0.125
  9
$DIMTP
 40
0.001
  9
$DIMTM
 40
0.001
  9
$DIMTXT
 40
1.333333333299999
  9
$DIMCEN
 40
1.631999999999999
  9
$DIMTSZ
 40
0.0
  9
$DIMTOL
 70
     1
  9
$DIMLIM
 70
     0
  9
$DIMTIH
 70
     1
  9
$DIMTOH
 70
     1
  9
$DIMSE1
 70
     0
  9
$DIMSE2
 70
     0
  9
$DIMTAD
 70
     0
  9
$DIMZIN
 70
     0
  9
$DIMBLK
  1

  9
$DIMASO
 70
     1
  9
$DIMSHO
 70
     1
  9
$DIMPOST
  1

  9
$DIMAPOST
  1

  9
$DIMALT
 70
     1
  9
$DIMALTD
 70
     2
  9
$DIMALTF
 40
2.54
  9
$DIMLFAC
 40
1.0
  9
$DIMTOFL
 70
     0
  9
$DIMTVP
 40
0.0
  9
$DIMTIX
 70
     0
  9
$DIMSOXD
 70
     0
  9
$DIMSAH
 70
     0
  9
$DIMBLK1
  1

  9
$DIMBLK2
  1

  9
$DIMSTYLE
  2
STANDARD
  9
$DIMCLRD
 70
     0
  9
$DIMCLRE
 70
     0
  9
$DIMCLRT
 70
     0
  9
$DIMTFAC
 40
1.0
  9
$DIMGAP
 40
0.09
  9
$DIMJUST
 70
     0
  9
$DIMSD1
 70
     0
  9
$DIMSD2
 70
     0
  9
$DIMTOLJ
 70
     1
  9
$DIMTZIN
 70
     0
  9
$DIMALTZ
 70
     0
  9
$DIMALTTZ
 70
     0
  9
$DIMUPT
 70
     0
  9
$DIMDEC
 70
     4
  9
$DIMTDEC
 70
     4
  9
$DIMALTU
 70
     2
  9
$DIMALTTD
 70
     2
  9
$DIMTXSTY
  7
STANDARD
  9
$DIMAUNIT
 70
     0
  9
$DIMADEC
 70
     0
  9
$DIMALTRND
 40
0.0
  9
$DIMAZIN
 70
     0
  9
$DIMDSEP
 70
    46
  9
$DIMATFIT
 70
     3
  9
$DIMFRAC
 70
     0
  9
$DIMLDRBLK
  1

  9
$DIMLUNIT
 70
     2
  9
$DIMLWD
 70
    -2
  9
$DIMLWE
 70
    -2
  9
$DIMTMOVE
 70
     0
  9
$LUNITS
 70
     2
  9
$LUPREC
 70
     4
  9
$SKETCHINC
 40
0.1
  9
$FILLETRAD
 40
0.0
  9
$AUNITS
 70
     0
  9
$AUPREC
 70
     0
  9
$MENU
  1
.
  9
$ELEVATION
 40
0.0
  9
$PELEVATION
 40
0.0
  9
$THICKNESS
 40
0.0
  9
$LIMCHECK
 70
     0
  9
$CHAMFERA
 40
0.0
  9
$CHAMFERB
 40
0.0
  9
$CHAMFERC
 40
0.0
  9
$CHAMFERD
 40
0.0
  9
$SKPOLY
 70
     0
  9
$TDCREATE
 40
2458087.617928241
  9
$TDUCREATE
 40
2458087.826261574
  9
$TDUPDATE
 40
2458088.358530093
  9
$TDUUPDATE
 40
2458088.566863426
  9
$TDINDWG
 40
0.0012037037
  9
$TDUSRTIMER
 40
0.0012037037
  9
$USRTIMER
 70
     1
  9
$ANGBASE
 50
0.0
  9
$ANGDIR
 70
     0
  9
$PDMODE
 70
     3
  9
$PDSIZE
 40
0.03125
  9
$PLINEWID
 40
0.0
  9
$SPLFRAME
 70
     0
  9
$SPLINETYPE
 70
     6
  9
$SPLINESEGS
 70
     8
  9
$HANDSEED
  5
782
  9
$SURFTAB1
 70
     6
  9
$SURFTAB2
 70
     6
  9
$SURFTYPE
 70
     6
  9
$SURFU
 70
     6
  9
$SURFV
 70
     6
  9
$UCSBASE
  2

  9
$UCSNAME
  2

  9
$UCSORG
 10
0.0
 20
0.0
 30
0.0
  9
$UCSXDIR
 10
1.0
 20
0.0
 30
0.0
  9
$UCSYDIR
 10
0.0
 20
1.0
 30
0.0
  9
$UCSORTHOREF
  2

  9
$UCSORTHOVIEW
 70
     0
  9
$UCSORGTOP
 10
0.0
 20
0.0
 30
0.0
  9
$UCSORGBOTTOM
 10
0.0
 20
0.0
 30
0.0
  9
$UCSORGLEFT
 10
0.0
 20
0.0
 30
0.0
  9
$UCSORGRIGHT
 10
0.0
 20
0.0
 30
0.0
  9
$UCSORGFRONT
 10
0.0
 20
0.0
 30
0.0
  9
$UCSORGBACK
 10
0.0
 20
0.0
 30
0.0
  9
$PUCSBASE
  2

  9
$PUCSNAME
  2

  9
$PUCSORG
 10
0.0
 20
0.0
 30
0.0
  9
$PUCSXDIR
 10
1.0
 20
0.0
 30
0.0
  9
$PUCSYDIR
 10
0.0
 20
1.0
 30
0.0
  9
$PUCSORTHOREF
  2

  9
$PUCSORTHOVIEW
 70
     0
  9
$PUCSORGTOP
 10
0.0
 20
0.0
 30
0.0
  9
$PUCSORGBOTTOM
 10
0.0
 20
0.0
 30
0.0
  9
$PUCSORGLEFT
 10
0.0
 20
0.0
 30
0.0
  9
$PUCSORGRIGHT
 10
0.0
 20
0.0
 30
0.0
  9
$PUCSORGFRONT
 10
0.0
 20
0.0
 30
0.0
  9
$PUCSORGBACK
 10
0.0
 20
0.0
 30
0.0
  9
$USERI1
 70
     0
  9
$USERI2
 70
     0
  9
$USERI3
 70
     0
  9
$USERI4
 70
     0
  9
$USERI5
 70
     0
  9
$USERR1
 40
0.0
  9
$USERR2
 40
0.0
  9
$USERR3
 40
0.0
  9
$USERR4
 40
0.0
  9
$USERR5
 40
0.0
  9
$WORLDVIEW
 70
     1
  9
$SHADEDGE
 70
     3
  9
$SHADEDIF
 70
    70
  9
$TILEMODE
 70
     1
  9
$MAXACTVP
 70
    64
  9
$PINSBASE
 10
0.0
 20
0.0
 30
0.0
  9
$PLIMCHECK
 70
     0
  9
$PEXTMIN
 10
1.000000000000000E+20
 20
1.000000000000000E+20
 30
1.000000000000000E+20
  9
$PEXTMAX
 10
-1.000000000000000E+20
 20
-1.000000000000000E+20
 30
-1.000000000000000E+20
  9
$PLIMMIN
 10
0.0
 20
0.0
  9
$PLIMMAX
 10
12.0
 20
9.0
  9
$UNITMODE
 70
     0
  9
$VISRETAIN
 70
     1
  9
$PLINEGEN
 70
     0
  9
$PSLTSCALE
 70
     1
  9
$TREEDEPTH
 70
  3020
  9
$CMLSTYLE
  2
Standard
  9
$CMLJUST
 70
     0
  9
$CMLSCALE
 40
1.0
  9
$PROXYGRAPHICS
 70
     1
  9
$MEASUREMENT
 70
     0
  9
$CELWEIGHT
370
    -1
  9
$ENDCAPS
280
     0
  9
$JOINSTYLE
280
     0
  9
$LWDISPLAY
290
     0
  9
$INSUNITS
 70
     1
  9
$HYPERLINKBASE
  1

  9
$STYLESHEET
  1

  9
$XEDIT
290
     1
  9
$CEPSNTYPE
380
     0
  9
$PSTYLEMODE
290
     1
  9
$FINGERPRINTGUID
  2
{284B4904-F752-8E49-87FB-5374D1761D3A}
  9
$VERSIONGUID
  2
{E28A537D-D30D-324F-A12E-6BECA7EF8923}
  9
$EXTNAMES
290
     1
  9
$PSVPSCALE
 40
0.0
  9
$OLESTARTUP
290
     0
  0
ENDSEC
  0
SECTION
  2
CLASSES
  0
CLASS
  1
ACDBDICTIONARYWDFLT
  2
AcDbDictionaryWithDefault
  3
ObjectDBX Classes
 90
        0
280
     0
281
     0
  0
CLASS
  1
ACDBPLACEHOLDER
  2
AcDbPlaceHolder
  3
ObjectDBX Classes
 90
        0
280
     0
281
     0
  0
CLASS
  1
LAYOUT
  2
AcDbLayout
  3
ObjectDBX Classes
 90
        0
280
     0
281
     0
  0
CLASS
  1
MATERIAL
  2
AcDbMaterial
  3
ObjectDBX Classes
 90
     1153
280
     0
281
     0
  0
CLASS
  1
VISUALSTYLE
  2
AcDbVisualStyle
  3
ObjectDBX Classes
 90
     4095
280
     0
281
     0
  0
CLASS
  1
TABLESTYLE
  2
AcDbTableStyle
  3
ObjectDBX Classes
 90
     4095
280
     0
281
     0
  0
CLASS
  1
SCALE
  2
AcDbScale
  3
ObjectDBX Classes
 90
     1153
280
     0
281
     0
  0
CLASS
  1
MLEADERSTYLE
  2
AcDbMLeaderStyle
  3
ACDB_MLEADERSTYLE_CLASS
 90
     4095
280
     0
281
     0
  0
CLASS
  1
ACDBSECTIONVIEWSTYLE
  2
AcDbSectionViewStyle
  3
ObjectDBX Classes
 90
     1025
280
     0
281
     0
  0
CLASS
  1
ACDBDETAILVIEWSTYLE
  2
AcDbDetailViewStyle
  3
ObjectDBX Classes
 90
     1025
280
     0
281
     0
  0
CLASS
  1
CELLSTYLEMAP
  2
AcDbCellStyleMap
  3
ObjectDBX Classes
 90
     1152
280
     0
281
     0
  0
CLASS
  1
DICTIONARYVAR
  2
AcDbDictionaryVar
  3
ObjectDBX Classes
 90
        0
280
     0
281
     0
  0
ENDSEC
  0
SECTION
  2
TABLES
  0
TABLE
  2
VPORT
  5
8
102
{ACAD_XDICTIONARY
360
64C
102
}
330
0
100
AcDbSymbolTable
 70
     1
  0
VPORT
  5
1F4
330
8
100
AcDbSymbolTableRecord
100
AcDbViewportTableRecord
  2
*ACTIVE
 70
     0
 10
0.0
 20
0.0
 11
1.0
 21
1.0
 12
56.66113319510155
 22
83.44083689054688
 13
0.0
 23
0.0
 14
1.0
 24
1.0
 15
0.0
 25
0.0
 16
0.0
 26
0.0
 36
1.0
 17
0.0
 27
0.0
 37
0.0
 40
42.23527379310771
 41
1.98448810754912
 42
50.0
 43
0.0
 44
0.0
 50
0.0
 51
0.0
 71
     0
 72
   100
 73
     1
 74
     1
 75
     0
 76
     0
 77
     0
 78
     0
281
     0
 65
     1
110
0.0
120
0.0
130
0.0
111
1.0
121
0.0
131
0.0
112
0.0
122
1.0
132
0.0
 79
     0
146
0.0
1001
ACAD_NAV_VCDISPLAY
1070
     3
  0
ENDTAB
  0
TABLE
  2
LTYPE
  5
5
330
0
100
AcDbSymbolTable
 70
     6
  0
LTYPE
  5
14
330
5
100
AcDbSymbolTableRecord
100
AcDbLinetypeTableRecord
  2
BYBLOCK
 70
     0
  3

 72
    65
 73
     0
 40
0.0
  0
LTYPE
  5
15
330
5
100
AcDbSymbolTableRecord
100
AcDbLinetypeTableRecord
  2
BYLAYER
 70
     0
  3

 72
    65
 73
     0
 40
0.0
  0
LTYPE
  5
16
330
5
100
AcDbSymbolTableRecord
100
AcDbLinetypeTableRecord
  2
CONTINUOUS
 70
     0
  3
Solid line
 72
    65
 73
     0
 40
0.0
  0
LTYPE
  5
1F5
330
5
100
AcDbSymbolTableRecord
100
AcDbLinetypeTableRecord
  2
CENTER
 70
     0
  3
____ _ ____ _ ____ _ ____ _ ____ _ ____ _ ____
 72
    65
 73
     4
 40
0.6
 49
0.375
 74
     0
 49
-0.075
 74
     0
 49
0.075
 74
     0
 49
-0.075
 74
     0
  0
LTYPE
  5
1F6
330
5
100
AcDbSymbolTableRecord
100
AcDbLinetypeTableRecord
  2
HIDDEN
 70
     0
  3
- - - - - - - - - - - - - - - - - - - -
 72
    65
 73
     2
 40
0.2
 49
0.1
 74
     0
 49
-0.1
 74
     0
  0
LTYPE
  5
1F7
330
5
100
AcDbSymbolTableRecord
100
AcDbLinetypeTableRecord
  2
PHANTOM
 70
     0
  3
_____ _ _ _____ _ _ _____ _ _ _____
 72
    65
 73
     6
 40
0.8
 49
0.45
 74
     0
 49
-0.05
 74
     0
 49
0.1
 74
     0
 49
-0.05
 74
     0
 49
0.1
 74
     0
 49
-0.05
 74
     0
  0
LTYPE
  5
1F8
330
5
100
AcDbSymbolTableRecord
100
AcDbLinetypeTableRecord
  2
DOT
 70
     0
  3
. . . . . . . . . . . . . . . . . . . .
 72
    65
 73
     2
 40
0.2
 49
0.1
 74
     0
 49
-0.1
 74
     0
  0
LTYPE
  5
1F9
330
5
100
AcDbSymbolTableRecord
100
AcDbLinetypeTableRecord
  2
DASHED
 70
     0
  3
- - - - - - - - - - - - - - - - - - - -
 72
    65
 73
     2
 40
0.2
 49
0.1
 74
     0
 49
-0.1
 74
     0
  0
ENDTAB
  0
TABLE
  2
LAYER
  5
2
102
{ACAD_XDICTIONARY
360
6ED
102
}
330
0
100
AcDbSymbolTable
 70
    35
  0
LAYER
  5
10
102
{ACAD_XDICTIONARY
360
69A
102
}
330
2
100
AcDbSymbolTableRecord
100
AcDbLayerTableRecord
  2
0
 70
     0
 62
     7
  6
CONTINUOUS
370
    -3
390
F
  0
LAYER
  5
1FA
102
{ACAD_XDICTIONARY
360
69C
102
}
330
2
100
AcDbSymbolTableRecord
100
AcDbLayerTableRecord
  2
DEFAULT_1
 70
     0
 62
     7
  6
CENTER
370
    -3
390
F
  0
LAYER
  5
1FB
102
{ACAD_XDICTIONARY
360
69E
102
}
330
2
100
AcDbSymbolTableRecord
100
AcDbLayerTableRecord
  2
DEFAULT_2
 70
     0
 62
     8
  6
HIDDEN
370
    -3
390
F
  0
LAYER
  5
1FC
102
{ACAD_XDICTIONARY
360
6A0
102
}
330
2
100
AcDbSymbolTableRecord
100
AcDbLayerTableRecord
  2
DEFAULT_3
 70
     0
 62
     7
  6
PHANTOM
370
    -3
390
F
  0
LAYER
  5
1FD
102
{ACAD_XDICTIONARY
360
6A2
102
}
330
2
100
AcDbSymbolTableRecord
100
AcDbLayerTableRecord
  2
01___PRT_ALL_DTM_PLN
 70
     0
 62
     7
  6
CONTINUOUS
370
    -3
390
F
  0
LAYER
  5
1FE
102
{ACAD_XDICTIONARY
360
6A4
102
}
330
2
100
AcDbSymbolTableRecord
100
AcDbLayerTableRecord
  2
01___PRT_DEF_DTM_PLN
 70
     0
 62
     7
  6
CONTINUOUS
370
    -3
390
F
  0
LAYER
  5
1FF
102
{ACAD_XDICTIONARY
360
6A6
102
}
330
2
100
AcDbSymbolTableRecord
100
AcDbLayerTableRecord
  2
02___PRT_ALL_AXES
 70
     0
 62
     7
  6
CONTINUOUS
370
    -3
390
F
  0
LAYER
  5
200
102
{ACAD_XDICTIONARY
360
6A8
102
}
330
2
100
AcDbSymbolTableRecord
100
AcDbLayerTableRecord
  2
03___PRT_ALL_CURVES
 70
     0
 62
     7
  6
CONTINUOUS
370
    -3
390
F
  0
LAYER
  5
201
102
{ACAD_XDICTIONARY
360
6AA
102
}
330
2
100
AcDbSymbolTableRecord
100
AcDbLayerTableRecord
  2
04___PRT_ALL_DTM_PNT
 70
     0
 62
     7
  6
CONTINUOUS
370
    -3
390
F
  0
LAYER
  5
202
102
{ACAD_XDICTIONARY
360
6AC
102
}
330
2
100
AcDbSymbolTableRecord
100
AcDbLayerTableRecord
  2
05___PRT_ALL_DTM_CSYS
 70
     0
 62
     7
  6
CONTINUOUS
370
    -3
390
F
  0
LAYER
  5
203
102
{ACAD_XDICTIONARY
360
6AE
102
}
330
2
100
AcDbSymbolTableRecord
100
AcDbLayerTableRecord
  2
05___PRT_DEF_DTM_CSYS
 70
     0
 62
     7
  6
CONTINUOUS
370
    -3
390
F
  0
LAYER
  5
204
102
{ACAD_XDICTIONARY
360
6B0
102
}
330
2
100
AcDbSymbolTableRecord
100
AcDbLayerTableRecord
  2
06___PRT_ALL_SURFS
 70
     0
 62
     7
  6
CONTINUOUS
370
    -3
390
F
  0
LAYER
  5
205
102
{ACAD_XDICTIONARY
360
6B2
102
}
330
2
100
AcDbSymbolTableRecord
100
AcDbLayerTableRecord
  2
0_DEFAULT
 70
     0
 62
     7
  6
CONTINUOUS
370
    -3
390
F
  0
LAYER
  5
206
102
{ACAD_XDICTIONARY
360
6B4
102
}
330
2
100
AcDbSymbolTableRecord
100
AcDbLayerTableRecord
  2
1_CURVES
 70
     0
 62
     7
  6
CONTINUOUS
370
    -3
390
F
  0
LAYER
  5
207
102
{ACAD_XDICTIONARY
360
6B6
102
}
330
2
100
AcDbSymbolTableRecord
100
AcDbLayerTableRecord
  2
1_CURVES_CHROMO_INV
 70
     0
 62
     7
  6
CONTINUOUS
370
    -3
390
F
  0
LAYER
  5
208
102
{ACAD_XDICTIONARY
360
6B8
102
}
330
2
100
AcDbSymbolTableRecord
100
AcDbLayerTableRecord
  2
1_CURVES_DOT
 70
     0
 62
     7
  6
CONTINUOUS
370
    -3
390
F
  0
LAYER
  5
209
102
{ACAD_XDICTIONARY
360
6BA
102
}
330
2
100
AcDbSymbolTableRecord
100
AcDbLayerTableRecord
  2
1_CURVES_SPEC_FRONT
 70
     0
 62
     7
  6
CONTINUOUS
370
    -3
390
F
  0
LAYER
  5
20A
102
{ACAD_XDICTIONARY
360
6BC
102
}
330
2
100
AcDbSymbolTableRecord
100
AcDbLayerTableRecord
  2
1_CURVES_SPEC_RIGHT
 70
     0
 62
     7
  6
CONTINUOUS
370
    -3
390
F
  0
LAYER
  5
20B
102
{ACAD_XDICTIONARY
360
6BE
102
}
330
2
100
AcDbSymbolTableRecord
100
AcDbLayerTableRecord
  2
2_PLANES
 70
     0
 62
     7
  6
CONTINUOUS
370
    -3
390
F
  0
LAYER
  5
20C
102
{ACAD_XDICTIONARY
360
6C0
102
}
330
2
100
AcDbSymbolTableRecord
100
AcDbLayerTableRecord
  2
2_PLANES_CHROMO_INV
 70
     0
 62
     7
  6
CONTINUOUS
370
    -3
390
F
  0
LAYER
  5
20D
102
{ACAD_XDICTIONARY
360
6C2
102
}
330
2
100
AcDbSymbolTableRecord
100
AcDbLayerTableRecord
  2
2_PLANES_JETS
 70
     0
 62
     7
  6
CONTINUOUS
370
    -3
390
F
  0
LAYER
  5
20E
102
{ACAD_XDICTIONARY
360
6C4
102
}
330
2
100
AcDbSymbolTableRecord
100
AcDbLayerTableRecord
  2
3_POINTS
 70
     0
 62
     7
  6
CONTINUOUS
370
    -3
390
F
  0
LAYER
  5
20F
102
{ACAD_XDICTIONARY
360
6C6
102
}
330
2
100
AcDbSymbolTableRecord
100
AcDbLayerTableRecord
  2
3_POINTS_SPEC
 70
     0
 62
     7
  6
CONTINUOUS
370
    -3
390
F
  0
LAYER
  5
210
102
{ACAD_XDICTIONARY
360
6C8
102
}
330
2
100
AcDbSymbolTableRecord
100
AcDbLayerTableRecord
  2
4_CSYS
 70
     0
 62
     7
  6
CONTINUOUS
370
    -3
390
F
  0
LAYER
  5
211
102
{ACAD_XDICTIONARY
360
6CA
102
}
330
2
100
AcDbSymbolTableRecord
100
AcDbLayerTableRecord
  2
5_AXIS
 70
     0
 62
     7
  6
CONTINUOUS
370
    -3
390
F
  0
LAYER
  5
212
102
{ACAD_XDICTIONARY
360
6CC
102
}
330
2
100
AcDbSymbolTableRecord
100
AcDbLayerTableRecord
  2
5_AXIS_CHROMO_INV
 70
     0
 62
     7
  6
CONTINUOUS
370
    -3
390
F
  0
LAYER
  5
213
102
{ACAD_XDICTIONARY
360
6CE
102
}
330
2
100
AcDbSymbolTableRecord
100
AcDbLayerTableRecord
  2
5_AXIS_JETS
 70
     0
 62
     7
  6
CONTINUOUS
370
    -3
390
F
  0
LAYER
  5
214
102
{ACAD_XDICTIONARY
360
6D0
102
}
330
2
100
AcDbSymbolTableRecord
100
AcDbLayerTableRecord
  2
6_SURFACES
 70
     0
 62
     7
  6
CONTINUOUS
370
    -3
390
F
  0
LAYER
  5
215
102
{ACAD_XDICTIONARY
360
6D2
102
}
330
2
100
AcDbSymbolTableRecord
100
AcDbLayerTableRecord
  2
6_SURFACES_JUPE
 70
     0
 62
     7
  6
CONTINUOUS
370
    -3
390
F
  0
LAYER
  5
216
102
{ACAD_XDICTIONARY
360
6D4
102
}
330
2
100
AcDbSymbolTableRecord
100
AcDbLayerTableRecord
  2
6_SURFACES_OFFSET_FIBRE_ACRYLIQ
 70
     0
 62
     7
  6
CONTINUOUS
370
    -3
390
F
  0
LAYER
  5
217
102
{ACAD_XDICTIONARY
360
6D6
102
}
330
2
100
AcDbSymbolTableRecord
100
AcDbLayerTableRecord
  2
6_SURFACES_TOOLING
 70
     0
 62
     7
  6
CONTINUOUS
370
    -3
390
F
  0
LAYER
  5
218
102
{ACAD_XDICTIONARY
360
6D8
102
}
330
2
100
AcDbSymbolTableRecord
100
AcDbLayerTableRecord
  2
6_SURFACES_TOOLING_DROP-IN
 70
     0
 62
     7
  6
CONTINUOUS
370
    -3
390
F
  0
LAYER
  5
219
102
{ACAD_XDICTIONARY
360
6DA
102
}
330
2
100
AcDbSymbolTableRecord
100
AcDbLayerTableRecord
  2
6_SURFACES_TOOLING_FS
 70
     0
 62
     7
  6
CONTINUOUS
370
    -3
390
F
  0
LAYER
  5
21A
102
{ACAD_XDICTIONARY
360
6DC
102
}
330
2
100
AcDbSymbolTableRecord
100
AcDbLayerTableRecord
  2
7_NOTES
 70
     0
 62
     7
  6
CONTINUOUS
370
    -3
390
F
  0
LAYER
  5
21B
102
{ACAD_XDICTIONARY
360
6DE
102
}
330
2
100
AcDbSymbolTableRecord
100
AcDbLayerTableRecord
  2
XSEC_DATUMS
 70
     0
 62
     7
  6
CONTINUOUS
370
    -3
390
F
  0
ENDTAB
  0
TABLE
  2
STYLE
  5
3
330
0
100
AcDbSymbolTable
 70
     2
  0
STYLE
  5
11
330
3
100
AcDbSymbolTableRecord
100
AcDbTextStyleTableRecord
  2
STANDARD
 70
     0
 40
0.0
 41
0.8
 50
0.0
 71
     0
 42
0.2
  3
txt
  4

  0
STYLE
  5
21C
330
3
100
AcDbSymbolTableRecord
100
AcDbTextStyleTableRecord
  2
TEXTSTYLE_1
 70
     0
 40
0.0
 41
0.8
 50
0.0
 71
     0
 42
0.2
  3
gdt
  4

  0
ENDTAB
  0
TABLE
  2
VIEW
  5
6
330
0
100
AcDbSymbolTable
 70
     1
  0
ENDTAB
  0
TABLE
  2
UCS
  5
7
330
0
100
AcDbSymbolTable
 70
     0
  0
ENDTAB
  0
TABLE
  2
APPID
  5
9
330
0
100
AcDbSymbolTable
 70
     3
  0
APPID
  5
21D
330
9
100
AcDbSymbolTableRecord
100
AcDbRegAppTableRecord
  2
ACAD
 70
     0
  0
APPID
  5
686
330
9
100
AcDbSymbolTableRecord
100
AcDbRegAppTableRecord
  2
ACAD_MLEADERVER
 70
     0
  0
APPID
  5
6E0
330
9
100
AcDbSymbolTableRecord
100
AcDbRegAppTableRecord
  2
ACAD_NAV_VCDISPLAY
 70
     0
  0
ENDTAB
  0
TABLE
  2
DIMSTYLE
  5
A
330
0
100
AcDbSymbolTable
 70
     1
100
AcDbDimStyleTable
 71
     0
  0
DIMSTYLE
105
220
330
A
100
AcDbSymbolTableRecord
100
AcDbDimStyleTableRecord
  2
STANDARD
 70
     0
 41
2.0
 44
0.125
 47
0.001
 48
0.001
 71
     1
 78
     4
 79
     1
140
1.333333333299999
143
2.54
170
     1
179
     3
271
     3
272
     3
284
     4
340
11
  0
ENDTAB
  0
TABLE
  2
BLOCK_RECORD
  5
1
330
0
100
AcDbSymbolTable
 70
     0
  0
BLOCK_RECORD
  5
21E
330
1
100
AcDbSymbolTableRecord
100
AcDbBlockTableRecord
  2
*Model_Space
340
5F8
  0
BLOCK_RECORD
  5
21F
330
1
100
AcDbSymbolTableRecord
100
AcDbBlockTableRecord
  2
*Paper_Space
340
5F9
  0
ENDTAB
  0
ENDSEC
  0
SECTION
  2
BLOCKS
  0
BLOCK
  5
20
330
21E
100
AcDbEntity
  8
0
100
AcDbBlockBegin
  2
*Model_Space
 70
     0
 10
0.0
 20
0.0
 30
0.0
  3
*Model_Space
  1

  0
ENDBLK
  5
21
330
21E
100
AcDbEntity
  8
0
100
AcDbBlockEnd
  0
BLOCK
  5
1C
330
21F
100
AcDbEntity
 67
     1
  8
0
100
AcDbBlockBegin
  2
*Paper_Space
 70
     0
 10
0.0
 20
0.0
 30
0.0
  3
*Paper_Space
  1

  0
ENDBLK
  5
1D
330
21F
100
AcDbEntity
 67
     1
  8
0
100
AcDbBlockEnd
  0
ENDSEC
  0
SECTION
  2
ENTITIES
  0
LWPOLYLINE
  5
34F
330
21E
100
AcDbEntity
  8
0
  6
Continuous
 62
     7
100
AcDbPolyline
 90
       47
 70
     0
 43
0.0
 10
20.6735649918
 20
83.4378298752
 10
20.6772596667
 20
83.09360302669999
 10
20.6889913748
 20
82.73927152469999
 10
20.7086475865
 20
82.38832119189998
 10
20.7361508435
 20
82.0404754089
 10
20.771435491
 20
81.69560532970001
 10
20.8144231565
 20
81.35358659069998
 10
20.8650555645
 20
81.01429196149998
 10
20.9233028123
 20
80.67759713239999
 10
20.9891468332
 20
80.3433778119
 10
21.0625609224
 20
80.01151014859999
 10
21.1435358604
 20
79.6818903655
 10
21.2321078776
 20
79.35434171369999
 10
21.3283130955
 20
79.02874687259999
 10
21.4322335408
 20
78.70485480020001
 10
21.5439688354
 20
78.3824593958
 10
21.6636500453
 20
78.0613460232
 10
21.7914447782
 20
77.74128018659999
 10
21.9274774345
 20
77.42218903699999
 10
22.0719259909
 20
77.1039140841
 10
22.2248797238
 20
76.7865171041
 10
22.3864593447
 20
76.4700101128
 10
22.5567816802
 20
76.154432344
 10
22.735965951
 20
75.83981965799999
 10
22.9241318209
 20
75.5262066805
 10
23.1213589438
 20
75.2137050373
 10
23.3279075725
 20
74.90216137739999
 10
23.5439030231
 20
74.5916461541
 10
23.7698952236
 20
74.28165555639999
 10
24.0063595811
 20
73.97188793819999
 10
24.253865123
 20
73.6620015371
 10
24.5130152741
 20
73.3516994221
 10
24.7844092248
 20
73.0407699612
 10
25.0689849632
 20
72.7287118616
 10
25.3665180652
 20
72.4163441554
 10
25.6773884789
 20
72.103794559
 10
26.0005434735
 20
71.7925551357
 10
26.3351981336
 20
71.4836557518
 10
26.6804079474
 20
71.17811368859999
 10
27.0351769116
 20
70.8768500277
 10
27.3984749616
 20
70.5806866537
 10
27.7692409322
 20
70.2903662045
 10
28.1462706931
 20
70.00661153199999
 10
28.5283327759
 20
69.7300128896
 10
28.9141484766
 20
69.46112304359999
 10
29.3019278601
 20
69.2008545394
 10
29.6817514906
 20
68.95492529960001
  0
LWPOLYLINE
  5
350
330
21E
100
AcDbEntity
  8
0
  6
Continuous
 62
     7
100
AcDbPolyline
 90
       45
 70
     0
 43
0.0
 10
29.6817515712
 20
97.92073157620002
 10
29.2695682871
 20
97.6534621302
 10
28.8522139042
 20
97.37203377459998
 10
28.44055967760001
 20
97.08304717819999
 10
28.0360971016
 20
96.7872644957
 10
27.6398513374
 20
96.4852913688
 10
27.2528201634
 20
96.17767164680001
 10
26.8759360857
 20
95.86511283360001
 10
26.5100319018
 20
95.5483367837
 10
26.1559012175
 20
95.2281284758
 10
25.8143114135
 20
94.90536532459998
 10
25.4860192243
 20
94.58106028719999
 10
25.1714283527
 20
94.25603340309999
 10
24.8713168496
 20
93.9316427396
 10
24.5848824769
 20
93.6076345178
 10
24.3118481524
 20
93.28428902510001
 10
24.051426734
 20
92.9612421212
 10
23.8030033962
 20
92.63823603530001
 10
23.5660060013
 20
92.31497460620001
 10
23.3398470677
 20
91.991049458
 10
23.1241818732
 20
91.6663122719
 10
22.9185544318
 20
91.3403843681
 10
22.7228810509
 20
91.01341617709998
 10
22.5369789683
 20
90.6854011791
 10
22.360706685
 20
90.3563815511
 10
22.1939210145
 20
90.0263848818
 10
22.0364831231
 20
89.69542705059998
 10
21.8882648965
 20
89.36355177379999
 10
21.7490914595
 20
89.03066021959999
 10
21.618844957
 20
88.69673750209999
 10
21.497328271
 20
88.3615329566
 10
21.3843798037
 20
88.02484454669999
 10
21.2798700222
 20
87.68644200350001
 10
21.1837025654
 20
87.34606162870001
 10
21.095818629
 20
87.00354351909998
 10
21.0161547708
 20
86.65866910670001
 10
20.94471205
 20
86.31132019739998
 10
20.8815143216
 20
85.96134673059999
 10
20.8265763353
 20
85.60860467800001
 10
20.779925394
 20
85.2529495251
 10
20.7416222192
 20
84.8942313639
 10
20.7117516302
 20
84.53230311989999
 10
20.690386575
 20
84.1670131274
 10
20.6776149168
 20
83.79804039609998
 10
20.6735649912
 20
83.4378298752
  0
LWPOLYLINE
  5
351
330
21E
100
AcDbEntity
  8
0
  6
Continuous
 62
     7
100
AcDbPolyline
 90
       35
 70
     0
 43
0.0
 10
29.6817514646
 20
68.9549253161
 10
30.1833456122
 20
68.6436500275
 10
30.7095098875
 20
68.331035797
 10
31.2487608821
 20
68.02480938310001
 10
31.8025082135
 20
67.72487594649999
 10
32.3715503933
 20
67.4311790339
 10
32.956583497
 20
67.1434178823
 10
33.5583322924
 20
66.86126386399999
 10
34.1775968614
 20
66.58453253260001
 10
34.815247513
 20
66.31319809379999
 10
35.4722085598
 20
66.04736750179999
 10
36.1494243311
 20
65.7872474706
 10
36.84784076230001
 20
65.5330912844
 10
37.5686419965
 20
65.28507378739999
 10
38.3119886781
 20
65.04371185370001
 10
39.0790748026
 20
64.809178019
 10
39.8679083777
 20
64.582597901
 10
40.67741429819999
 20
64.3647289751
 10
41.5058857146
 20
64.15643833039999
 10
42.35150533449999
 20
63.95852346819999
 10
43.2133690008
 20
63.7714881012
 10
44.08990847
 20
63.5959049907
 10
44.9811796951
 20
63.4319606577
 10
45.8867916731
 20
63.2799144992
 10
46.80648094609999
 20
63.1399934456
 10
47.7400438622
 20
63.0124023704
 10
48.6868915591
 20
62.89739716359999
 10
49.6465794819
 20
62.7951922025
 10
50.6184519743
 20
62.7060247261
 10
51.6019017343
 20
62.63010387439999
 10
52.5963187737
 20
62.5676378436
 10
53.6010859461
 20
62.5188143046
 10
54.6156077285
 20
62.4838103392
 10
55.6390692695
 20
62.46278219669999
 10
56.65943023869999
 20
62.45585325
  0
LWPOLYLINE
  5
352
330
21E
100
AcDbEntity
  8
0
  6
Continuous
 62
     7
100
AcDbPolyline
 90
       35
 70
     0
 43
0.0
 10
56.65943023869999
 20
62.45585325
 10
57.6769305417
 20
62.4627432858
 10
58.6987614794
 20
62.4836868817
 10
59.7118173808
 20
62.51856717909999
 10
60.71522841189999
 20
62.5672308914
 10
61.70836172520001
 20
62.62950278489999
 10
62.6905636027
 20
62.7051938491
 10
63.6611868786
 20
62.7940938536
 10
64.61958957100001
 20
62.8959875859
 10
65.5650467043
 20
63.0106270706
 10
66.4971787593
 20
63.1378005986
 10
67.41536459949999
 20
63.27724457489999
 10
68.3196183211
 20
63.42878646129999
 10
69.2098286316
 20
63.5922348806
 10
70.0857544979
 20
63.7673741027
 10
70.94769124449999
 20
63.95409338899999
 10
71.7939324505
 20
64.15181979499999
 10
72.62358703310001
 20
64.36008548630001
 10
73.4346080695
 20
64.578055122
 10
74.22511236369999
 20
64.8048302049
 10
74.99387959439999
 20
65.03961901149999
 10
75.73870978779999
 20
65.28122723760001
 10
76.46083420610001
 20
65.5294871536
 10
77.16036522420001
 20
65.7838560395
 10
77.83854215169999
 20
66.04417010529999
 10
78.49633945319999
 20
66.31017990869999
 10
79.13473011810001
 20
66.58168348609999
 10
79.7546660237
 20
66.85858053279999
 10
80.35704476200001
 20
67.14090496989999
 10
80.94269242660001
 20
67.42885307459999
 10
81.512359929
 20
67.7227656476
 10
82.066766766
 20
68.0229633096
 10
82.60673527619999
 20
68.3295164125
 10
83.1337157159
 20
68.6425496668
 10
83.63710917170001
 20
68.95492526489999
  0
LINE
  5
353
330
21E
100
AcDbEntity
  8
0
  6
Continuous
 62
     9
100
AcDbLine
 10
29.732099699
 20
69.0343045028
 30
0.0
 11
29.6817514646
 21
68.9549253161
 31
0.0
  0
LINE
  5
354
330
21E
100
AcDbEntity
  8
0
  6
Continuous
 62
     9
100
AcDbLine
 10
29.732099699
 20
97.8413523218
 30
0.0
 11
29.6817515712
 21
97.92073157620002
 31
0.0
  0
LINE
  5
355
330
21E
100
AcDbEntity
  8
DEFAULT_1
  6
CENTER
 62
     7
100
AcDbLine
 10
56.6594303585
 20
79.81282841229999
 30
0.0
 11
54.4677636918
 21
79.81282841229999
 31
0.0
  0
LINE
  5
356
330
21E
100
AcDbEntity
  8
DEFAULT_1
  6
CENTER
 62
     7
100
AcDbLine
 10
56.6594303585
 20
79.81282841229999
 30
0.0
 11
58.8510970251
 21
79.81282841229999
 31
0.0
  0
LINE
  5
357
330
21E
100
AcDbEntity
  8
0
  6
Continuous
 62
     7
100
AcDbLine
 10
54.6594303585
 20
99.49392960270001
 30
0.0
 11
54.6594303585
 21
99.5173538857
 31
0.0
  0
LINE
  5
358
330
21E
100
AcDbEntity
  8
0
  6
Continuous
 62
     9
100
AcDbLine
 10
55.0969303585
 20
99.36327460760001
 30
0.0
 11
55.0969303585
 21
99.36423461540002
 31
0.0
  0
LINE
  5
359
330
21E
100
AcDbEntity
  8
0
  6
Continuous
 62
     9
100
AcDbLine
 10
55.34693035850001
 20
99.4607874649
 30
0.0
 11
55.34693035850001
 21
99.46037603290001
 31
0.0
  0
LINE
  5
35A
330
21E
100
AcDbEntity
  8
DEFAULT_2
  6
HIDDEN
 62
     8
100
AcDbLine
 10
56.6594304783
 20
104.4183755034
 30
0.0
 11
56.6594303585
 21
104.4157875397
 31
0.0
  0
LINE
  5
35B
330
21E
100
AcDbEntity
  8
0
  6
Continuous
 62
     9
100
AcDbLine
 10
56.6594302388
 20
62.54985324999999
 30
0.0
 11
56.65943023869999
 21
62.45585325
 31
0.0
  0
LINE
  5
35C
330
21E
100
AcDbEntity
  8
0_DEFAULT
  6
CENTER
 62
     7
100
AcDbLine
 10
56.6594303585
 20
83.4378284123
 30
0.0
 11
56.6594303585
 21
75.67436439720001
 31
0.0
  0
LINE
  5
35D
330
21E
100
AcDbEntity
  8
0
  6
Continuous
 62
     9
100
AcDbLine
 10
56.6594303585
 20
81.6324626045
 30
0.0
 11
56.6594303585
 21
81.46441078329999
 31
0.0
  0
LINE
  5
35E
330
21E
100
AcDbEntity
  8
DEFAULT_1
  6
CENTER
 62
     7
100
AcDbLine
 10
56.6594303585
 20
79.81282841229999
 30
0.0
 11
56.6594303585
 21
77.6211617457
 31
0.0
  0
LINE
  5
35F
330
21E
100
AcDbEntity
  8
DEFAULT_1
  6
CENTER
 62
     7
100
AcDbLine
 10
56.6594303585
 20
79.81282841229999
 30
0.0
 11
56.6594303585
 21
81.46441078329999
 31
0.0
  0
LINE
  5
360
330
21E
100
AcDbEntity
  8
DEFAULT_1
  6
CENTER
 62
     7
100
AcDbLine
 10
56.6594303585
 20
81.6324626045
 30
0.0
 11
56.6594303585
 21
82.004495079
 31
0.0
  0
LINE
  5
361
330
21E
100
AcDbEntity
  8
0
  6
Continuous
 62
     9
100
AcDbLine
 10
56.6594303585
 20
85.24319422020001
 30
0.0
 11
56.6594303585
 21
85.41124604130001
 31
0.0
  0
LINE
  5
362
330
21E
100
AcDbEntity
  8
0_DEFAULT
  6
CENTER
 62
     7
100
AcDbLine
 10
56.6594303585
 20
83.4378284123
 30
0.0
 11
56.6594303585
 21
89.03887761129999
 31
0.0
  0
LINE
  5
363
330
21E
100
AcDbEntity
  8
0
  6
Continuous
 62
     9
100
AcDbLine
 10
54.85406455060001
 20
83.4378284123
 30
0.0
 11
54.68601272949999
 21
83.4378284123
 31
0.0
  0
LINE
  5
364
330
21E
100
AcDbEntity
  8
0_DEFAULT
  6
CENTER
 62
     7
100
AcDbLine
 10
56.6594303585
 20
83.4378284123
 30
0.0
 11
48.8959663433
 21
83.4378284123
 31
0.0
  0
LINE
  5
365
330
21E
100
AcDbEntity
  8
0_DEFAULT
  6
CENTER
 62
     7
100
AcDbLine
 10
56.6594303585
 20
83.4378284123
 30
0.0
 11
64.4228943736
 21
83.4378284123
 31
0.0
  0
LINE
  5
366
330
21E
100
AcDbEntity
  8
0
  6
Continuous
 62
     9
100
AcDbLine
 10
57.9719303585
 20
99.4607874649
 30
0.0
 11
57.9719303585
 21
99.46037603290001
 31
0.0
  0
LINE
  5
367
330
21E
100
AcDbEntity
  8
0
  6
Continuous
 62
     9
100
AcDbLine
 10
58.2219303585
 20
99.36327460760001
 30
0.0
 11
58.2219303585
 21
99.36423461540002
 31
0.0
  0
LINE
  5
368
330
21E
100
AcDbEntity
  8
0
  6
Continuous
 62
     7
100
AcDbLine
 10
58.6594303585
 20
99.5173538857
 30
0.0
 11
58.6594303585
 21
99.49392960270001
 31
0.0
  0
LINE
  5
369
330
21E
100
AcDbEntity
  8
0
  6
Continuous
 62
     9
100
AcDbLine
 10
83.58676101790001
 20
97.8413523218
 30
0.0
 11
83.6371092523
 21
97.9207315086
 31
0.0
  0
LINE
  5
36A
330
21E
100
AcDbEntity
  8
0
  6
Continuous
 62
     7
100
AcDbLine
 10
58.2219303585
 20
99.36327460760001
 30
0.0
 11
55.0969303585
 21
99.36327460760001
 31
0.0
  0
LINE
  5
36B
330
21E
100
AcDbEntity
  8
0
  6
Continuous
 62
     9
100
AcDbLine
 10
58.2219303585
 20
99.36423461540002
 30
0.0
 11
55.0969303585
 21
99.36423461540002
 31
0.0
  0
LINE
  5
36C
330
21E
100
AcDbEntity
  8
0
  6
Continuous
 62
     9
100
AcDbLine
 10
57.9719303585
 20
99.38899175629998
 30
0.0
 11
55.34693035850001
 21
99.38899175629998
 31
0.0
  0
LINE
  5
36D
330
21E
100
AcDbEntity
  8
0
  6
Continuous
 62
     9
100
AcDbLine
 10
57.9719303585
 20
99.4235317525
 30
0.0
 11
55.34693035850001
 21
99.4235317525
 31
0.0
  0
LINE
  5
36E
330
21E
100
AcDbEntity
  8
0
  6
Continuous
 62
     7
100
AcDbLine
 10
55.34693035850001
 20
99.46037603290001
 30
0.0
 11
57.9719303585
 21
99.46037603290001
 31
0.0
  0
LINE
  5
36F
330
21E
100
AcDbEntity
  8
0
  6
Continuous
 62
     9
100
AcDbLine
 10
55.34693035850001
 20
99.4607874649
 30
0.0
 11
57.9719303585
 21
99.4607874649
 31
0.0
  0
LINE
  5
370
330
21E
100
AcDbEntity
  8
0
  6
Continuous
 62
     9
100
AcDbLine
 10
55.0969303585
 20
99.4855446058
 30
0.0
 11
58.2219303585
 21
99.4855446058
 31
0.0
  0
LINE
  5
371
330
21E
100
AcDbEntity
  8
0
  6
Continuous
 62
     7
100
AcDbLine
 10
55.0969303585
 20
99.5895622133
 30
0.0
 11
58.2219303585
 21
99.5895622133
 31
0.0
  0
LINE
  5
372
330
21E
100
AcDbEntity
  8
0
  6
Continuous
 62
     9
100
AcDbLine
 10
83.58676101790001
 20
69.0343045028
 30
0.0
 11
83.6371091458
 21
68.9549252485
 31
0.0
  0
LWPOLYLINE
  5
373
330
21E
100
AcDbEntity
  8
0
  6
Continuous
 62
     7
100
AcDbPolyline
 90
       35
 70
     0
 43
0.0
 10
56.6594304784
 20
104.4198035746
 10
55.6419301753
 20
104.4129135389
 10
54.6200992376
 20
104.3919699429
 10
53.6070433362
 20
104.3570896456
 10
52.6036323051
 20
104.3084259332
 10
51.6104989918
 20
104.2461540398
 10
50.6282971143
 20
104.1704629756
 10
49.6576738384
 20
104.081562971
 10
48.699271146
 20
103.9796692387999
 10
47.7538140127
 20
103.8650297541
 10
46.8216819577
 20
103.7378562261
 10
45.90349611749999
 20
103.5984122497
 10
44.99924239579999
 20
103.4468703634
 10
44.1090320854
 20
103.2834219441
 10
43.2331062191
 20
103.108282722
 10
42.3711694725
 20
102.9215634357
 10
41.52492826649999
 20
102.7238370297
 10
40.6952736838
 20
102.5155713384
 10
39.8842526474
 20
102.2976017026
 10
39.0937483533
 20
102.0708266198
 10
38.3249811226
 20
101.8360378132
 10
37.5801509292
 20
101.5944295871
 10
36.8580265109
 20
101.3461696711
 10
36.1584954928
 20
101.0918007851
 10
35.48031856530001
 20
100.8314867194
 10
34.8225212638
 20
100.565476916
 10
34.1841305989
 20
100.2939733386
 10
33.5641946932
 20
100.0170762919
 10
32.961815955
 20
99.73475185479999
 10
32.3761682904
 20
99.44680375010001
 10
31.806500788
 20
99.152891177
 10
31.2520939509
 20
98.8526935151
 10
30.71212544070001
 20
98.54614041209998
 10
30.185145001
 20
98.23310715780001
 10
29.6817515452
 20
97.92073155969999
  0
LWPOLYLINE
  5
374
330
21E
100
AcDbEntity
  8
0
  6
Continuous
 62
     7
100
AcDbPolyline
 90
       45
 70
     0
 43
0.0
 10
83.6371091458
 20
68.9549252485
 10
84.04929242979999
 20
69.2221946944
 10
84.46664681279999
 20
69.50362305
 10
84.8783010394
 20
69.79260964649999
 10
85.28276361539999
 20
70.088392329
 10
85.6790093795
 20
70.3903654558
 10
86.0660405535
 20
70.69798517789999
 10
86.44292463129998
 20
71.010543991
 10
86.8088288152
 20
71.32732004100001
 10
87.1629594995
 20
71.64752834879999
 10
87.5045493034
 20
71.9702915001
 10
87.8328414927
 20
72.2945965375
 10
88.1474323642
 20
72.61962342149999
 10
88.4475438673
 20
72.94401408510001
 10
88.7339782401
 20
73.26802230689999
 10
89.0070125645
 20
73.59136779949999
 10
89.26743398290001
 20
73.9144147035
 10
89.51585732079999
 20
74.23742078930001
 10
89.7528547157
 20
74.5606822185
 10
89.9790136492
 20
74.88460736669999
 10
90.1946788437
 20
75.20934455279999
 10
90.40030628510001
 20
75.53527245659999
 10
90.595979666
 20
75.8622406475
 10
90.78188174860001
 20
76.19025564560001
 10
90.95815403200001
 20
76.5192752736
 10
91.1249397024
 20
76.84927194290001
 10
91.2823775939
 20
77.1802297741
 10
91.43059582040001
 20
77.5121050509
 10
91.56976925749999
 20
77.8449966051
 10
91.70001576
 20
78.1789193226
 10
91.821532446
 20
78.5141238681
 10
91.93448091319998
 20
78.8508122779
 10
92.0389906948
 20
79.1892148212
 10
92.13515815159999
 20
79.529595196
 10
92.22304208790001
 20
79.8721133055
 10
92.30270594610001
 20
80.21698771789999
 10
92.37414866700001
 20
80.56433662729999
 10
92.43734639540001
 20
80.91431009409999
 10
92.4922843817
 20
81.2670521467
 10
92.53893532299999
 20
81.62270729959999
 10
92.57723849780001
 20
81.98142546079999
 10
92.60710908680001
 20
82.34335370470001
 10
92.6284741419
 20
82.70864369719999
 10
92.6412458002
 20
83.07761642850001
 10
92.64529572569999
 20
83.43782694949998
  0
LWPOLYLINE
  5
375
330
21E
100
AcDbEntity
  8
0
  6
Continuous
 62
     7
100
AcDbPolyline
 90
       35
 70
     0
 43
0.0
 10
83.6371092523
 20
97.9207315086
 10
83.13551510479999
 20
98.23200679719999
 10
82.6093508295
 20
98.5446210277
 10
82.07009983489999
 20
98.8508474416
 10
81.5163525035
 20
99.15078087819999
 10
80.94731032369999
 20
99.4444777908
 10
80.3622772199
 20
99.73223894230001
 10
79.76052842449999
 20
100.0143929607
 10
79.1412638556
 20
100.2911242921
 10
78.50361320399999
 20
100.5624587309
 10
77.8466521572
 20
100.8282893229
 10
77.1694363859
 20
101.088409354
 10
76.47101995469999
 20
101.3425655402
 10
75.7502187205
 20
101.5905830373
 10
75.0068720388
 20
101.8319449709
 10
74.2397859144
 20
102.0664788057
 10
73.4509523393
 20
102.2930589237
 10
72.6414464187
 20
102.5109278496
 10
71.81297500239999
 20
102.7192184943
 10
70.9673553825
 20
102.9171333564
 10
70.10549171619999
 20
103.1041687235
 10
69.22895224699999
 20
103.279751834
 10
68.33768102189999
 20
103.4436961669
 10
67.4320690439
 20
103.5957423254
 10
66.5123797709
 20
103.7356633791
 10
65.57881685479999
 20
103.8632544543
 10
64.6319691579
 20
103.9782596611
 10
63.6722812351
 20
104.0804646221
 10
62.70040874270001
 20
104.1696320986
 10
61.71695898270001
 20
104.2455529503
 10
60.7225419433
 20
104.308018981
 10
59.7177747709
 20
104.3568425201
 10
58.7032529885
 20
104.3918464855
 10
57.6797914475
 20
104.412874628
 10
56.6594304784
 20
104.4198035746
  0
LWPOLYLINE
  5
376
330
21E
100
AcDbEntity
  8
0
  6
Continuous
 62
     7
100
AcDbPolyline
 90
       47
 70
     0
 43
0.0
 10
92.64529572509999
 20
83.43782694949998
 10
92.64160105030001
 20
83.782053798
 10
92.6298693422
 20
84.1363852999
 10
92.61021313049999
 20
84.48733563270002
 10
92.58270987340001
 20
84.83518141579999
 10
92.547425226
 20
85.180051495
 10
92.50443756040001
 20
85.52207023390002
 10
92.45380515239999
 20
85.86136486319999
 10
92.3955579046
 20
86.19805969229998
 10
92.32971388379999
 20
86.53227901280001
 10
92.2562997946
 20
86.8641466761
 10
92.17532485659999
 20
87.1937664592
 10
92.08675283940001
 20
87.52131511100001
 10
91.99054762139999
 20
87.84690995209999
 10
91.8866271761
 20
88.17080202440001
 10
91.7748918816
 20
88.49319742889999
 10
91.6552106716
 20
88.81431080149999
 10
91.5274159388
 20
89.13437663809999
 10
91.3913832825
 20
89.4534677877
 10
91.24693472610001
 20
89.77174274059999
 10
91.09398099309998
 20
90.08913972049999
 10
90.93240137219998
 20
90.4056467118
 10
90.7620790368
 20
90.7212244807
 10
90.582894766
 20
91.03583716660001
 10
90.394728896
 20
91.3494501441
 10
90.1975017732
 20
91.66195178729999
 10
89.9909531445
 20
91.97349544719999
 10
89.77495769389999
 20
92.2840106706
 10
89.54896549329999
 20
92.5940012683
 10
89.3125011358
 20
92.90376888639999
 10
89.064995594
 20
93.2136552875
 10
88.8058454429
 20
93.52395740250001
 10
88.53445149219998
 20
93.83488686339999
 10
88.24987575379999
 20
94.1469449631
 10
87.9523426517
 20
94.45931266930001
 10
87.641472238
 20
94.77186226569999
 10
87.3183172435
 20
95.08310168900001
 10
86.9836625834
 20
95.39200107290001
 10
86.6384527696
 20
95.697543136
 10
86.28368380540001
 20
95.9988067969
 10
85.9203857554
 20
96.29497017090001
 10
85.5496197847
 20
96.58529062020001
 10
85.1725900239
 20
96.86904529270002
 10
84.7905279411
 20
97.14564393499999
 10
84.40471224040001
 20
97.41453378110001
 10
84.01693285689999
 20
97.6748022852
 10
83.6371092263
 20
97.92073152509999
  0
CIRCLE
  5
377
330
21E
100
AcDbEntity
  8
DEFAULT_2
  6
HIDDEN
 62
     8
100
AcDbCircle
 10
56.6594303585
 20
79.81282841229999
 30
0.0
 40
1.125
  0
CIRCLE
  5
378
330
21E
100
AcDbEntity
  8
DEFAULT_2
  6
HIDDEN
 62
     8
100
AcDbCircle
 10
56.6594303585
 20
79.81282841229999
 30
0.0
 40
0.9375
  0
ARC
  5
42A
330
21E
100
AcDbEntity
  8
0
  6
Continuous
 62
     9
100
AcDbCircle
 10
25.4355414526
 20
85.10185150079999
 30
0.0
 40
31.8978493291
100
AcDbArc
 50
27.0050707083
 51
27.3155911418
  0
ARC
  5
42B
330
21E
100
AcDbEntity
  8
0
  6
Continuous
 62
     9
100
AcDbCircle
 10
83.7014936329
 20
87.24781684200001
 30
0.0
 40
27.1975704234
100
AcDbArc
 50
152.6584381896
 51
153.0226201468
  0
CIRCLE
  5
42C
330
21E
100
AcDbEntity
  8
0
  6
Continuous
 62
     9
100
AcDbCircle
 10
56.6594303585
 20
83.4378284123
 30
0.0
 40
1.448223304699999
  0
SPLINE
  5
5BF
330
21E
100
AcDbEntity
  8
DEFAULT_2
  6
HIDDEN
 62
     8
100
AcDbSpline
210
0.0
220
0.0
230
1.0
 70
     8
 71
     3
 72
    39
 73
    35
 74
     0
 42
0.0000001
 43
0.0000000001
 40
0.0
 40
0.0
 40
0.0
 40
0.0
 40
0.0053315462
 40
0.0116084584
 40
0.0188397911
 40
0.0270258092
 40
0.046226475
 40
0.0691093373
 40
0.0955116626
 40
0.1252309418
 40
0.1580275629
 40
0.1936340668
 40
0.2720742309
 40
0.3579407653
 40
0.4483557349
 40
0.5402814341
 40
0.6306272091
 40
0.7163574495999999
 40
0.7565856336
 40
0.7946009591
 40
0.8300878659
 40
0.8627515041
 40
0.8923263242
 40
0.9185750673999999
 40
0.9412952097999999
 40
0.9603283739
 40
0.9684270971
 40
0.9755715144999999
 40
0.9817628863999999
 40
0.9870124668999999
 40
0.991352602
 40
0.9948500451999999
 40
0.9976413405999998
 40
1.0
 40
1.0
 40
1.0
 40
1.0
 10
59.15881858329999
 20
102.4645471074
 30
0.0
 10
59.15702850109999
 20
102.4636459064
 30
0.0
 10
59.1530238626
 20
102.4618962484
 30
0.0
 10
59.1463487577
 20
102.4595206169
 30
0.0
 10
59.138530877
 20
102.4571896325
 30
0.0
 10
59.1259173684
 20
102.453979656
 30
0.0
 10
59.1073863139
 20
102.4502296009
 30
0.0
 10
59.0819576587
 20
102.4461853952
 30
0.0
 10
59.0524929302
 20
102.4424392929
 30
0.0
 10
59.0192404863
 20
102.4390282401
 30
0.0
 10
58.98247990459999
 20
102.4359846824
 30
0.0
 10
58.9273999208
 20
102.4323381743
 30
0.0
 10
58.8523172955
 20
102.429001989
 30
0.0
 10
58.75658429939999
 20
102.4268830678
 30
0.0
 10
58.65575910850001
 20
102.426625099
 30
0.0
 10
58.5532629363
 20
102.428240003
 30
0.0
 10
58.45257370399999
 20
102.4316750301
 30
0.0
 10
58.3713749282
 20
102.4360361263
 30
0.0
 10
58.3098909518
 20
102.4404088628
 30
0.0
 10
58.26728775260001
 20
102.4439812684
 30
0.0
 10
58.22756954319999
 20
102.4478833152
 30
0.0
 10
58.1910730441
 20
102.4520810858
 30
0.0
 10
58.1581077197
 20
102.4565357638
 30
0.0
 10
58.1289503539
 20
102.461204533
 30
0.0
 10
58.10384633179999
 20
102.4660452219
 30
0.0
 10
58.0856030567
 20
102.4703746623
 30
0.0
 10
58.0732304253
 20
102.4739803106
 30
0.0
 10
58.0655920854
 20
102.4765535339
 30
0.0
 10
58.0590958792
 20
102.4791359843
 30
0.0
 10
58.05375037840001
 20
102.4817237833
 30
0.0
 10
58.0495530834
 20
102.4843135906
 30
0.0
 10
58.04649476659999
 20
102.4869179861
 30
0.0
 10
58.0445560323
 20
102.4895880517
 30
0.0
 10
58.0440896605
 20
102.4915430226
 30
0.0
 10
58.0441034505
 20
102.4924295385
 30
0.0
  0
SPLINE
  5
5C0
330
21E
100
AcDbEntity
  8
DEFAULT_2
  6
HIDDEN
 62
     8
100
AcDbSpline
210
0.0
220
0.0
230
1.0
 70
     8
 71
     3
 72
    39
 73
    35
 74
     0
 42
0.0000001
 43
0.0000000001
 40
0.0
 40
0.0
 40
0.0
 40
0.0
 40
0.0053315462
 40
0.0116084584
 40
0.0188397911
 40
0.0270258092
 40
0.046226475
 40
0.0691093373
 40
0.0955116626
 40
0.1252309418
 40
0.1580275629
 40
0.1936340668
 40
0.2720742309
 40
0.3579407653
 40
0.4483557349
 40
0.5402814341
 40
0.6306272091
 40
0.7163574495999999
 40
0.7565856336
 40
0.7946009591
 40
0.8300878659
 40
0.8627515041
 40
0.8923263242
 40
0.9185750673999999
 40
0.9412952097999999
 40
0.9603283739
 40
0.9684270971
 40
0.9755715144999999
 40
0.9817628863999999
 40
0.9870124668999999
 40
0.991352602
 40
0.9948500451999999
 40
0.9976413405999998
 40
1.0
 40
1.0
 40
1.0
 40
1.0
 10
55.21494399149999
 20
102.4809569803
 30
0.0
 10
55.2131828065
 20
102.4800005364
 30
0.0
 10
55.2092345272
 20
102.4781271642
 30
0.0
 10
55.20263654409999
 20
102.4755450588
 30
0.0
 10
55.1948949493
 20
102.4729720338
 30
0.0
 10
55.1823873873
 20
102.4693712783
 30
0.0
 10
55.1639819412
 20
102.4650466453
 30
0.0
 10
55.13869138109999
 20
102.4602134601
 30
0.0
 10
55.1093574284
 20
102.4555526957
 30
0.0
 10
55.0762271717
 20
102.4511090049
 30
0.0
 10
55.0395790438
 20
102.4469235139
 30
0.0
 10
54.9846391319
 20
102.441565555
 30
0.0
 10
54.9096966045
 20
102.4358956041
 30
0.0
 10
54.8140758361
 20
102.4308000165
 30
0.0
 10
54.7133074535
 20
102.4274060926
 30
0.0
 10
54.6108106439
 20
102.4258321607
 30
0.0
 10
54.5100632866
 20
102.4261336747
 30
0.0
 10
54.42876815079999
 20
102.4279670434
 30
0.0
 10
54.36717791319999
 20
102.4304252585
 30
0.0
 10
54.32448421100001
 20
102.4326708
 30
0.0
 10
54.2846638495
 20
102.4353355584
 30
0.0
 10
54.2480544413
 20
102.4383961061
 30
0.0
 10
54.2149665083
 20
102.4418232709
 30
0.0
 10
54.1856780323
 20
102.4455828666
 30
0.0
 10
54.1604355913
 20
102.4496403745
 30
0.0
 10
54.14206647970001
 20
102.4534002789
 30
0.0
 10
54.12958768430001
 20
102.4566193426
 30
0.0
 10
54.12187300229999
 20
102.4589537369
 30
0.0
 10
54.11529961439999
 20
102.461332879
 30
0.0
 10
54.1098762088
 20
102.4637531587
 30
0.0
 10
54.105600391
 20
102.4662111598
 30
0.0
 10
54.10246254649999
 20
102.4687191688
 30
0.0
 10
54.1004417002
 20
102.4713276399
 30
0.0
 10
54.0999147464
 20
102.4732671587
 30
0.0
 10
54.0999009554
 20
102.4741536746
 30
0.0
  0
SPLINE
  5
5C1
330
21E
100
AcDbEntity
  8
DEFAULT_2
  6
HIDDEN
 62
     8
100
AcDbSpline
210
0.0
220
0.0
230
1.0
 70
     8
 71
     3
 72
    39
 73
    35
 74
     0
 42
0.0000001
 43
0.0000000001
 40
0.0
 40
0.0
 40
0.0
 40
0.0
 40
0.002358659
 40
0.0051499508
 40
0.0086473917
 40
0.0129875253
 40
0.0182371016
 40
0.0244284701
 40
0.0315728868
 40
0.0396716076
 40
0.0587047677
 40
0.0814249065
 40
0.1076736507
 40
0.1372484691
 40
0.1699121094
 40
0.2053990185
 40
0.2434143462
 40
0.2836425356999999
 40
0.3693727859
 40
0.4597185729000001
 40
0.5516442849000001
 40
0.6420592662
 40
0.7279258104000001
 40
0.8063659818999999
 40
0.8419724826999999
 40
0.8747690999999997
 40
0.9044883691999999
 40
0.9308906868999999
 40
0.9537735437999998
 40
0.9729742009
 40
0.9811602151999998
 40
0.9883915446999999
 40
0.9946684544
 40
1.0
 40
1.0
 40
1.0
 40
1.0
 10
58.0441034505
 20
102.4924295385
 30
0.0
 10
58.0441172405
 20
102.4933160542
 30
0.0
 10
58.0446441916
 20
102.4952555719
 30
0.0
 10
58.04666502939999
 20
102.4978640465
 30
0.0
 10
58.0498028715
 20
102.5003720551
 30
0.0
 10
58.054078686
 20
102.5028300555
 30
0.0
 10
58.0595020872
 20
102.505250337
 30
0.0
 10
58.0660754717
 20
102.5076294797
 30
0.0
 10
58.0737901513
 20
102.5099638734
 30
0.0
 10
58.0862689438
 20
102.5131829386
 30
0.0
 10
58.1046380517
 20
102.5169428434
 30
0.0
 10
58.12988049
 20
102.5210003532
 30
0.0
 10
58.1591689648
 20
102.5247599485
 30
0.0
 10
58.1922568983
 20
102.5281871153
 30
0.0
 10
58.2288663079
 20
102.5312476632
 30
0.0
 10
58.26868667229999
 20
102.5339124222
 30
0.0
 10
58.3113803787
 20
102.536157965
 30
0.0
 10
58.3729706234
 20
102.5386161799
 30
0.0
 10
58.4542657701
 20
102.54044955
 30
0.0
 10
58.5550131414
 20
102.540751064
 30
0.0
 10
58.6575099657
 20
102.5391771316
 30
0.0
 10
58.7582783622
 20
102.5357832066
 30
0.0
 10
58.8538991424
 20
102.5306876173
 30
0.0
 10
58.9288416758
 20
102.5250176661
 30
0.0
 10
58.98378158819999
 20
102.5196597048
 30
0.0
 10
59.02042971010001
 20
102.5154742147
 30
0.0
 10
59.05355995909999
 20
102.5110305234
 30
0.0
 10
59.0828939034
 20
102.5063697597
 30
0.0
 10
59.1081844556
 20
102.5015365753
 30
0.0
 10
59.126589895
 20
102.4972119423
 30
0.0
 10
59.1390974515
 20
102.4936111889
 30
0.0
 10
59.1468390431
 20
102.4910381651
 30
0.0
 10
59.1534370239
 20
102.4884560601
 30
0.0
 10
59.157385302
 20
102.4865826879
 30
0.0
 10
59.15914648680001
 20
102.4856262441
 30
0.0
  0
SPLINE
  5
5C2
330
21E
100
AcDbEntity
  8
DEFAULT_2
  6
HIDDEN
 62
     8
100
AcDbSpline
210
0.0
220
0.0
230
1.0
 70
     8
 71
     3
 72
    39
 73
    35
 74
     0
 42
0.0000001
 43
0.0000000001
 40
0.0
 40
0.0
 40
0.0
 40
0.0
 40
0.002358659
 40
0.0051499508
 40
0.0086473917
 40
0.0129875253
 40
0.0182371016
 40
0.0244284701
 40
0.0315728868
 40
0.0396716076
 40
0.0587047677
 40
0.0814249065
 40
0.1076736507
 40
0.1372484691
 40
0.1699121094
 40
0.2053990185
 40
0.2434143462
 40
0.2836425356999999
 40
0.3693727859
 40
0.4597185729000001
 40
0.5516442849000001
 40
0.6420592662
 40
0.7279258104000001
 40
0.8063659818999999
 40
0.8419724826999999
 40
0.8747690999999997
 40
0.9044883691999999
 40
0.9308906868999999
 40
0.9537735437999998
 40
0.9729742009
 40
0.9811602151999998
 40
0.9883915446999999
 40
0.9946684544
 40
1.0
 40
1.0
 40
1.0
 40
1.0
 10
54.0999009554
 20
102.4741536746
 30
0.0
 10
54.0998871645
 20
102.4750401903
 30
0.0
 10
54.1003535335
 20
102.4769951599
 30
0.0
 10
54.1022922592
 20
102.4796652288
 30
0.0
 10
54.1053505737
 20
102.4822696237
 30
0.0
 10
54.10954786539999
 20
102.4848594303
 30
0.0
 10
54.11489336169999
 20
102.487447231
 30
0.0
 10
54.12138956439999
 20
102.4900296819
 30
0.0
 10
54.1290279021
 20
102.4926029045
 30
0.0
 10
54.1414005304
 20
102.4962085542
 30
0.0
 10
54.1596438018
 20
102.5005379949
 30
0.0
 10
54.1847478213
 20
102.5053786856
 30
0.0
 10
54.2139051859
 20
102.5100474544
 30
0.0
 10
54.2468705108
 20
102.5145021344
 30
0.0
 10
54.2833670112
 20
102.5186999053
 30
0.0
 10
54.3230852234
 20
102.5226019529
 30
0.0
 10
54.3656884268
 20
102.5261743598
 30
0.0
 10
54.42717241029999
 20
102.5305470963
 30
0.0
 10
54.508371197
 20
102.5349081942
 30
0.0
 10
54.6090604433
 20
102.5383432218
 30
0.0
 10
54.7115566303
 20
102.5399581257
 30
0.0
 10
54.812381835
 20
102.5397001563
 30
0.0
 10
54.90811484289999
 20
102.5375812338
 30
0.0
 10
54.9831974743
 20
102.5342450484
 30
0.0
 10
55.0382774587
 20
102.5305985378
 30
0.0
 10
55.07503803439999
 20
102.5275549808
 30
0.0
 10
55.1082904704
 20
102.5241439273
 30
0.0
 10
55.1377551905
 20
102.5203978255
 30
0.0
 10
55.1631838379
 20
102.5163536203
 30
0.0
 10
55.1817148857
 20
102.512603565
 30
0.0
 10
55.1943283888
 20
102.5093935905
 30
0.0
 10
55.20214626619999
 20
102.5070626071
 30
0.0
 10
55.2088213687
 20
102.5046869759
 30
0.0
 10
55.21282600600001
 20
102.502937318
 30
0.0
 10
55.2146160881
 20
102.5020361171
 30
0.0
  0
SPLINE
  5
5C3
330
21E
100
AcDbEntity
  8
0
  6
Continuous
 62
     7
100
AcDbSpline
210
0.0
220
0.0
230
1.0
 70
     8
 71
     3
 72
    25
 73
    21
 74
     0
 42
0.0000001
 43
0.0000000001
 40
0.0
 40
0.0
 40
0.0
 40
0.0
 40
0.1761011998
 40
0.3473908559
 40
0.4297471808
 40
0.5091301437000001
 40
0.5849640034
 40
0.6566782636000001
 40
0.7237026481000001
 40
0.7854570025
 40
0.8413316590999999
 40
0.8906505466
 40
0.9326006879999999
 40
0.9504903762999999
 40
0.9660944032999999
 40
0.9791868862000001
 40
0.9894757484000001
 40
0.9965785788999999
 40
0.9987854948
 40
1.0
 40
1.0
 40
1.0
 40
1.0
 10
57.9719303585
 20
99.46037603290001
 30
0.0
 10
57.9834763765
 20
99.46037603290001
 30
0.0
 10
58.00625405149999
 20
99.4600715398
 30
0.0
 10
58.03441097229999
 20
99.45892344790001
 30
0.0
 10
58.05620282020001
 20
99.45754008240001
 30
0.0
 10
58.07173094060001
 20
99.45630536899999
 30
0.0
 10
58.08654110109999
 20
99.4548709718
 30
0.0
 10
58.100516754
 20
99.4532503393
 30
0.0
 10
58.11354072989999
 20
99.4514606082
 30
0.0
 10
58.1254928795
 20
99.44952377219999
 30
0.0
 10
58.1362461611
 20
99.44746990690001
 30
0.0
 10
58.1456579506
 20
99.44534180019999
 30
0.0
 10
58.15257084939999
 20
99.44347669649999
 30
0.0
 10
58.15728866659999
 20
99.44198797330001
 30
0.0
 10
58.1601718075
 20
99.44097787389999
 30
0.0
 10
58.1625526932
 20
99.44004592129999
 30
0.0
 10
58.1643814661
 20
99.43923808299999
 30
0.0
 10
58.1655310388
 20
99.43866197610001
 30
0.0
 10
58.1661309853
 20
99.43832093030001
 30
0.0
 10
58.1663225327
 20
99.4382040496
 30
0.0
 10
58.166389275
 20
99.43816061940001
 30
0.0
  0
SPLINE
  5
5C4
330
21E
100
AcDbEntity
  8
0
  6
Continuous
 62
     7
100
AcDbSpline
210
0.0
220
0.0
230
1.0
 70
     8
 71
     3
 72
    25
 73
    21
 74
     0
 42
0.0000001
 43
0.0000000001
 40
0.0
 40
0.0
 40
0.0
 40
0.0
 40
0.1761011998
 40
0.3473908559
 40
0.4297471808
 40
0.5091301437000001
 40
0.5849640034
 40
0.6566782636000001
 40
0.7237026481000001
 40
0.7854570025
 40
0.8413316590999999
 40
0.8906505466
 40
0.9326006879999999
 40
0.9504903762999999
 40
0.9660944032999999
 40
0.9791868862000001
 40
0.9894757484000001
 40
0.9965785788999999
 40
0.9987854948
 40
1.0
 40
1.0
 40
1.0
 40
1.0
 10
55.34693035850001
 20
99.46037603290001
 30
0.0
 10
55.3353843405
 20
99.46037603290001
 30
0.0
 10
55.31260666539999
 20
99.4600715398
 30
0.0
 10
55.28444974470001
 20
99.45892344790001
 30
0.0
 10
55.2626578967
 20
99.45754008240001
 30
0.0
 10
55.2471297763
 20
99.45630536899999
 30
0.0
 10
55.2323196158
 20
99.4548709718
 30
0.0
 10
55.218343963
 20
99.4532503393
 30
0.0
 10
55.2053199871
 20
99.4514606082
 30
0.0
 10
55.1933678375
 20
99.44952377219999
 30
0.0
 10
55.1826145559
 20
99.44746990690001
 30
0.0
 10
55.1732027663
 20
99.44534180019999
 30
0.0
 10
55.1662898676
 20
99.44347669649999
 30
0.0
 10
55.16157205039999
 20
99.44198797330001
 30
0.0
 10
55.1586889095
 20
99.44097787389999
 30
0.0
 10
55.1563080237
 20
99.44004592129999
 30
0.0
 10
55.1544792508
 20
99.43923808299999
 30
0.0
 10
55.1533296781
 20
99.43866197610001
 30
0.0
 10
55.1527297316
 20
99.43832093030001
 30
0.0
 10
55.1525381843
 20
99.4382040496
 30
0.0
 10
55.15247144189999
 20
99.43816061940001
 30
0.0
  0
SPLINE
  5
5C5
330
21E
100
AcDbEntity
  8
0
  6
Continuous
 62
     7
100
AcDbSpline
210
0.0
220
0.0
230
1.0
 70
     8
 71
     3
 72
    35
 73
    31
 74
     0
 42
0.0000001
 43
0.0000000001
 40
0.0
 40
0.0
 40
0.0
 40
0.0
 40
0.0810713848
 40
0.1613250438
 40
0.2399596223
 40
0.3162066064
 40
0.3893493202
 40
0.4587453041
 40
0.5238554148
 40
0.5842855811
 40
0.612679038
 40
0.6398560738
 40
0.6658456510000001
 40
0.6907086458000001
 40
0.7145478579000001
 40
0.7375239274
 40
0.7598693832
 40
0.7819141282
 40
0.8041051362999999
 40
0.8270080036999999
 40
0.8512539862999998
 40
0.8773923531000001
 40
0.8912743483999999
 40
0.905689719
 40
0.9205997385999999
 40
0.9359429118999999
 40
0.9516420376999999
 40
0.9676107318999999
 40
0.9837609463999999
 40
1.0
 40
1.0
 40
1.0
 40
1.0
 10
55.0969303585
 20
99.36327460760001
 30
0.0
 10
55.0836625887
 20
99.36327460760001
 30
0.0
 10
55.0572602912
 20
99.36350281100001
 30
0.0
 10
55.01800103749999
 20
99.36452818030002
 30
0.0
 10
54.97955516600001
 20
99.36622637840001
 30
0.0
 10
54.94230976789999
 20
99.3685820101
 30
0.0
 10
54.9066268996
 20
99.37157525049999
 30
0.0
 10
54.8728328237
 20
99.37518395339999
 30
0.0
 10
54.84120490359999
 20
99.37938850160001
 30
0.0
 10
54.8163385193
 20
99.3834591401
 30
0.0
 10
54.7976959729
 20
99.3870500286
 30
0.0
 10
54.7846428471
 20
99.38984409840001
 30
0.0
 10
54.77221983779999
 20
99.39280617740001
 30
0.0
 10
54.7604071538
 20
99.3959557222
 30
0.0
 10
54.7491682745
 20
99.39932363940002
 30
0.0
 10
54.73844709539999
 20
99.40296095189999
 30
0.0
 10
54.72816376439999
 20
99.40694693680001
 30
0.0
 10
54.718215034
 20
99.41140569319999
 30
0.0
 10
54.7084842062
 20
99.4165274134
 30
0.0
 10
54.69887421439999
 20
99.42258949100001
 30
0.0
 10
54.6893824576
 20
99.42995765360002
 30
0.0
 10
54.6818827927
 20
99.4373799569
 30
0.0
 10
54.6762448331
 20
99.44428707700001
 30
0.0
 10
54.67220855619999
 20
99.4501026788
 30
0.0
 10
54.6685509969
 20
99.45644247780002
 30
0.0
 10
54.6653776097
 20
99.46327184959999
 30
0.0
 10
54.6627892112
 20
99.47052900350001
 30
0.0
 10
54.66087266569999
 20
99.478129197
 30
0.0
 10
54.6596950417
 20
99.48596752150001
 30
0.0
 10
54.6594303585
 20
99.4912719939
 30
0.0
 10
54.6594303585
 20
99.49392960270001
 30
0.0
  0
SPLINE
  5
5C6
330
21E
100
AcDbEntity
  8
0
  6
Continuous
 62
     7
100
AcDbSpline
210
0.0
220
0.0
230
1.0
 70
     8
 71
     3
 72
    35
 73
    31
 74
     0
 42
0.0000001
 43
0.0000000001
 40
0.0
 40
0.0
 40
0.0
 40
0.0
 40
0.0810713848
 40
0.1613250438
 40
0.2399596223
 40
0.3162066064
 40
0.3893493202
 40
0.4587453041
 40
0.5238554148
 40
0.5842855811
 40
0.612679038
 40
0.6398560738
 40
0.6658456510000001
 40
0.6907086458000001
 40
0.7145478579000001
 40
0.7375239274
 40
0.7598693832
 40
0.7819141282
 40
0.8041051362999999
 40
0.8270080036999999
 40
0.8512539862999998
 40
0.8773923531000001
 40
0.8912743483999999
 40
0.905689719
 40
0.9205997385999999
 40
0.9359429118999999
 40
0.9516420376999999
 40
0.9676107318999999
 40
0.9837609463999999
 40
1.0
 40
1.0
 40
1.0
 40
1.0
 10
58.2219303585
 20
99.36327460760001
 30
0.0
 10
58.23519812819999
 20
99.36327460760001
 30
0.0
 10
58.26160042579999
 20
99.36350281100001
 30
0.0
 10
58.3008596794
 20
99.36452818030002
 30
0.0
 10
58.339305551
 20
99.36622637840001
 30
0.0
 10
58.376550949
 20
99.3685820101
 30
0.0
 10
58.4122338174
 20
99.37157525049999
 30
0.0
 10
58.4460278933
 20
99.37518395339999
 30
0.0
 10
58.4776558134
 20
99.37938850160001
 30
0.0
 10
58.5025221976
 20
99.3834591401
 30
0.0
 10
58.52116474399999
 20
99.3870500286
 30
0.0
 10
58.5342178699
 20
99.38984409840001
 30
0.0
 10
58.54664087919999
 20
99.39280617740001
 30
0.0
 10
58.55845356319999
 20
99.3959557222
 30
0.0
 10
58.5696924424
 20
99.39932363940002
 30
0.0
 10
58.58041362149999
 20
99.40296095189999
 30
0.0
 10
58.5906969526
 20
99.40694693680001
 30
0.0
 10
58.600645683
 20
99.41140569319999
 30
0.0
 10
58.6103765108
 20
99.4165274134
 30
0.0
 10
58.6199865026
 20
99.42258949100001
 30
0.0
 10
58.6294782594
 20
99.42995765360002
 30
0.0
 10
58.6369779242
 20
99.4373799569
 30
0.0
 10
58.64261588379999
 20
99.44428707700001
 30
0.0
 10
58.6466521607
 20
99.4501026788
 30
0.0
 10
58.6503097201
 20
99.45644247780002
 30
0.0
 10
58.6534831072
 20
99.46327184959999
 30
0.0
 10
58.65607150569999
 20
99.47052900350001
 30
0.0
 10
58.6579880513
 20
99.478129197
 30
0.0
 10
58.6591656753
 20
99.48596752150001
 30
0.0
 10
58.6594303585
 20
99.4912719939
 30
0.0
 10
58.6594303585
 20
99.49392960270001
 30
0.0
  0
SPLINE
  5
5C7
330
21E
100
AcDbEntity
  8
0
  6
Continuous
 62
     7
100
AcDbSpline
210
0.0
220
0.0
230
1.0
 70
     8
 71
     3
 72
    34
 73
    30
 74
     0
 42
0.0000001
 43
0.0000000001
 40
0.0
 40
0.0
 40
0.0
 40
0.0
 40
0.003917325
 40
0.0079175418
 40
0.01207842
 40
0.0164688077
 40
0.0211469681
 40
0.0261604728
 40
0.0373299628
 40
0.0502020192
 40
0.0649027349
 40
0.0815019983
 40
0.1000328118
 40
0.1205028894
 40
0.1429016894
 40
0.167204802
 40
0.1933767852
 40
0.2213730717
 40
0.2511413041
 40
0.2826223108
 40
0.3157508502
 40
0.3866608166
 40
0.4632503486
 40
0.5448290423
 40
0.630650243
 40
0.7199208975
 40
0.8118109725
 40
0.9054626952999999
 40
1.0
 40
1.0
 40
1.0
 40
1.0
 10
54.6594303585
 20
99.5173538857
 30
0.0
 10
54.6594303585
 20
99.51794621030002
 30
0.0
 10
54.6595204483
 20
99.5191452262
 30
0.0
 10
54.6599235409
 20
99.52093256270002
 30
0.0
 10
54.6605931502
 20
99.52271431440001
 30
0.0
 10
54.6615268811
 20
99.52448857430001
 30
0.0
 10
54.6627226735
 20
99.5262550139
 30
0.0
 10
54.66473774649999
 20
99.5286871194
 30
0.0
 10
54.6679657005
 20
99.53169338709999
 30
0.0
 10
54.6727197322
 20
99.53513311240001
 30
0.0
 10
54.67848077270001
 20
99.5385280374
 30
0.0
 10
54.6852382897
 20
99.54187241980001
 30
0.0
 10
54.6929801064
 20
99.5451599213
 30
0.0
 10
54.7016897729
 20
99.54838279270001
 30
0.0
 10
54.7113479308
 20
99.5515332235
 30
0.0
 10
54.72193234329999
 20
99.554603393
 30
0.0
 10
54.7334182282
 20
99.55758566340001
 30
0.0
 10
54.74577840609999
 20
99.56047262610001
 30
0.0
 10
54.7589834476
 20
99.5632570993
 30
0.0
 10
54.7730017949
 20
99.56593230950002
 30
0.0
 10
54.7931943795
 20
99.56942407940001
 30
0.0
 10
54.8202151121
 20
99.57343212299999
 30
0.0
 10
54.85460334239999
 20
99.5776119765
 30
0.0
 10
54.8913220436
 20
99.5812216332
 30
0.0
 10
54.93001833520001
 20
99.5842252749
 30
0.0
 10
54.9703204352
 20
99.5865928613
 30
0.0
 10
55.01184076859999
 20
99.5883009281
 30
0.0
 10
55.0541797813
 20
99.58933256459999
 30
0.0
 10
55.0826357131
 20
99.5895622133
 30
0.0
 10
55.0969303585
 20
99.5895622133
 30
0.0
  0
SPLINE
  5
5C8
330
21E
100
AcDbEntity
  8
0
  6
Continuous
 62
     7
100
AcDbSpline
210
0.0
220
0.0
230
1.0
 70
     8
 71
     3
 72
    34
 73
    30
 74
     0
 42
0.0000001
 43
0.0000000001
 40
0.0
 40
0.0
 40
0.0
 40
0.0
 40
0.003917325
 40
0.0079175418
 40
0.01207842
 40
0.0164688077
 40
0.0211469681
 40
0.0261604728
 40
0.0373299628
 40
0.0502020192
 40
0.0649027349
 40
0.0815019983
 40
0.1000328118
 40
0.1205028894
 40
0.1429016894
 40
0.167204802
 40
0.1933767852
 40
0.2213730717
 40
0.2511413041
 40
0.2826223108
 40
0.3157508502
 40
0.3866608166
 40
0.4632503486
 40
0.5448290423
 40
0.630650243
 40
0.7199208975
 40
0.8118109725
 40
0.9054626952999999
 40
1.0
 40
1.0
 40
1.0
 40
1.0
 10
58.6594303585
 20
99.5173538857
 30
0.0
 10
58.6594303585
 20
99.51794621030002
 30
0.0
 10
58.65934026859999
 20
99.5191452262
 30
0.0
 10
58.65893717609999
 20
99.52093256270002
 30
0.0
 10
58.6582675668
 20
99.52271431440001
 30
0.0
 10
58.65733383590001
 20
99.52448857430001
 30
0.0
 10
58.6561380435
 20
99.5262550139
 30
0.0
 10
58.6541229705
 20
99.5286871194
 30
0.0
 10
58.65089501649999
 20
99.53169338709999
 30
0.0
 10
58.6461409847
 20
99.53513311240001
 30
0.0
 10
58.6403799442
 20
99.5385280374
 30
0.0
 10
58.6336224273
 20
99.54187241980001
 30
0.0
 10
58.62588061050001
 20
99.5451599213
 30
0.0
 10
58.61717094399999
 20
99.54838279270001
 30
0.0
 10
58.6075127862
 20
99.5515332235
 30
0.0
 10
58.59692837359999
 20
99.554603393
 30
0.0
 10
58.5854424887
 20
99.55758566340001
 30
0.0
 10
58.5730823109
 20
99.56047262610001
 30
0.0
 10
58.5598772694
 20
99.5632570993
 30
0.0
 10
58.5458589221
 20
99.56593230950002
 30
0.0
 10
58.5256663374
 20
99.56942407940001
 30
0.0
 10
58.4986456048
 20
99.57343212299999
 30
0.0
 10
58.4642573746
 20
99.5776119765
 30
0.0
 10
58.42753867329999
 20
99.5812216332
 30
0.0
 10
58.3888423817
 20
99.5842252749
 30
0.0
 10
58.3485402817
 20
99.5865928613
 30
0.0
 10
58.3070199483
 20
99.5883009281
 30
0.0
 10
58.26468093569999
 20
99.58933256459999
 30
0.0
 10
58.2362250038
 20
99.5895622133
 30
0.0
 10
58.2219303585
 20
99.5895622133
 30
0.0
  0
SPLINE
  5
5C9
330
21E
100
AcDbEntity
  8
0
  6
Continuous
 62
     9
100
AcDbSpline
210
0.0
220
0.0
230
1.0
 70
     8
 71
     3
 72
    57
 73
    53
 74
     0
 42
0.0000001
 43
0.0000000001
 40
0.0
 40
0.0
 40
0.0
 40
0.0
 40
0.047269597
 40
0.0940963042
 40
0.1400422113
 40
0.1846783908
 40
0.2275898048
 40
0.268379923
 40
0.3066754179
 40
0.3421310787
 40
0.3744352404
 40
0.3893196379
 40
0.4033180473
 40
0.4164042902000001
 40
0.4285560818
 40
0.4397556996
 40
0.4499909356
 40
0.4592565165999999
 40
0.4675563017
 40
0.4749067951
 40
0.4813429432
 40
0.4869277941
 40
0.4894346006000001
 40
0.4917737208000001
 40
0.4960411538000001
 40
0.4980413001
 40
0.5
 40
0.5019586999
 40
0.5039588462
 40
0.5082262792
 40
0.5105653994
 40
0.5130722059
 40
0.5186570568
 40
0.5250932049000001
 40
0.5324436983
 40
0.5407434834
 40
0.5500090644000001
 40
0.5602443004
 40
0.5714439182
 40
0.5835957098
 40
0.5966819527000001
 40
0.6106803621
 40
0.6255647596000001
 40
0.6578689213000001
 40
0.6933245820999999
 40
0.731620077
 40
0.7724101952
 40
0.8153216091999999
 40
0.8599577887
 40
0.9059036958
 40
0.9527304029999999
 40
1.0
 40
1.0
 40
1.0
 40
1.0
 10
58.2219303585
 20
99.4855446058
 30
0.0
 10
58.2339378722
 20
99.4855446058
 30
0.0
 10
58.2578408554
 20
99.4853517011
 30
0.0
 10
58.29340562479999
 20
99.484485124
 30
0.0
 10
58.3282826955
 20
99.4830503516
 30
0.0
 10
58.3621364517
 20
99.48106157419999
 30
0.0
 10
58.3946413612
 20
99.4785385369
 30
0.0
 10
58.42548498060001
 20
99.47550634350001
 30
0.0
 10
58.4543713926
 20
99.47199553950001
 30
0.0
 10
58.48102336020001
 20
99.46804114510001
 30
0.0
 10
58.50168853279999
 20
99.4643161031
 30
0.0
 10
58.51689799689999
 20
99.46110941549999
 30
0.0
 10
58.5272805425
 20
99.45868428780002
 30
0.0
 10
58.5369286886
 20
99.45617920010001
 30
0.0
 10
58.5458195981
 20
99.4536002535
 30
0.0
 10
58.55393245390001
 20
99.45095389370001
 30
0.0
 10
58.56124857600001
 20
99.4482466806
 30
0.0
 10
58.5677516993
 20
99.44548518360001
 30
0.0
 10
58.5734280152
 20
99.4426758872
 30
0.0
 10
58.57826727049999
 20
99.43982419480001
 30
0.0
 10
58.58226070109999
 20
99.4369346865
 30
0.0
 10
58.5849720618
 20
99.43440978339999
 30
0.0
 10
58.5866649393
 20
99.4323661692
 30
0.0
 10
58.58796430449999
 20
99.43044793750001
 30
0.0
 10
58.5888939114
 20
99.42843910729999
 30
0.0
 10
58.58935459729999
 20
99.42639419729999
 30
0.0
 10
58.5894678425
 20
99.4248896106
 30
0.0
 10
58.58935459729999
 20
99.42338502390001
 30
0.0
 10
58.5888939114
 20
99.42134011389999
 30
0.0
 10
58.58796430449999
 20
99.41933128370001
 30
0.0
 10
58.5866649393
 20
99.417413052
 30
0.0
 10
58.5849720618
 20
99.4153694378
 30
0.0
 10
58.58226070109999
 20
99.4128445347
 30
0.0
 10
58.57826727049999
 20
99.4099550263
 30
0.0
 10
58.5734280152
 20
99.407103334
 30
0.0
 10
58.5677516993
 20
99.40429403759999
 30
0.0
 10
58.56124857600001
 20
99.4015325406
 30
0.0
 10
58.55393245390001
 20
99.39882532750001
 30
0.0
 10
58.5458195981
 20
99.39617896770002
 30
0.0
 10
58.5369286886
 20
99.39360002109999
 30
0.0
 10
58.5272805425
 20
99.3910949334
 30
0.0
 10
58.51689799689999
 20
99.38866980569999
 30
0.0
 10
58.50168853279999
 20
99.3854631181
 30
0.0
 10
58.48102336020001
 20
99.38173807610001
 30
0.0
 10
58.4543713926
 20
99.3777836817
 30
0.0
 10
58.42548498060001
 20
99.37427287770001
 30
0.0
 10
58.3946413612
 20
99.37124068430001
 30
0.0
 10
58.3621364517
 20
99.36871764700001
 30
0.0
 10
58.3282826955
 20
99.3667288696
 30
0.0
 10
58.29340562479999
 20
99.3652940972
 30
0.0
 10
58.2578408554
 20
99.36442752010002
 30
0.0
 10
58.2339378722
 20
99.36423461540002
 30
0.0
 10
58.2219303585
 20
99.36423461540002
 30
0.0
  0
SPLINE
  5
5CA
330
21E
100
AcDbEntity
  8
0
  6
Continuous
 62
     9
100
AcDbSpline
210
0.0
220
0.0
230
1.0
 70
     8
 71
     3
 72
    57
 73
    53
 74
     0
 42
0.0000001
 43
0.0000000001
 40
0.0
 40
0.0
 40
0.0
 40
0.0
 40
0.047269597
 40
0.0940963042
 40
0.1400422113
 40
0.1846783908
 40
0.2275898048
 40
0.268379923
 40
0.3066754179
 40
0.3421310787
 40
0.3744352404
 40
0.3893196379
 40
0.4033180473
 40
0.4164042902000001
 40
0.4285560818
 40
0.4397556996
 40
0.4499909356
 40
0.4592565165999999
 40
0.4675563017
 40
0.4749067951
 40
0.4813429432
 40
0.4869277941
 40
0.4894346006000001
 40
0.4917737208000001
 40
0.4960411538000001
 40
0.4980413001
 40
0.5
 40
0.5019586999
 40
0.5039588462
 40
0.5082262792
 40
0.5105653994
 40
0.5130722059
 40
0.5186570568
 40
0.5250932049000001
 40
0.5324436983
 40
0.5407434834
 40
0.5500090644000001
 40
0.5602443004
 40
0.5714439182
 40
0.5835957098
 40
0.5966819527000001
 40
0.6106803621
 40
0.6255647596000001
 40
0.6578689213000001
 40
0.6933245820999999
 40
0.731620077
 40
0.7724101952
 40
0.8153216091999999
 40
0.8599577887
 40
0.9059036958
 40
0.9527304029999999
 40
1.0
 40
1.0
 40
1.0
 40
1.0
 10
55.0969303585
 20
99.36423461540002
 30
0.0
 10
55.08492284479999
 20
99.36423461540002
 30
0.0
 10
55.0610198615
 20
99.36442752010002
 30
0.0
 10
55.0254550922
 20
99.3652940972
 30
0.0
 10
54.9905780215
 20
99.3667288696
 30
0.0
 10
54.95672426529999
 20
99.36871764700001
 30
0.0
 10
54.9242193557
 20
99.37124068430001
 30
0.0
 10
54.8933757363
 20
99.37427287770001
 30
0.0
 10
54.8644893244
 20
99.3777836817
 30
0.0
 10
54.8378373567
 20
99.38173807610001
 30
0.0
 10
54.8171721841
 20
99.3854631181
 30
0.0
 10
54.80196272
 20
99.38866980569999
 30
0.0
 10
54.7915801745
 20
99.3910949334
 30
0.0
 10
54.78193202839999
 20
99.39360002109999
 30
0.0
 10
54.7730411188
 20
99.39617896770002
 30
0.0
 10
54.764928263
 20
99.39882532750001
 30
0.0
 10
54.757612141
 20
99.4015325406
 30
0.0
 10
54.7511090176
 20
99.40429403759999
 30
0.0
 10
54.7454327018
 20
99.407103334
 30
0.0
 10
54.7405934464
 20
99.4099550263
 30
0.0
 10
54.7366000159
 20
99.4128445347
 30
0.0
 10
54.7338886551
 20
99.4153694378
 30
0.0
 10
54.73219577770001
 20
99.417413052
 30
0.0
 10
54.7308964125
 20
99.41933128370001
 30
0.0
 10
54.72996680560001
 20
99.42134011389999
 30
0.0
 10
54.7295061196
 20
99.42338502390001
 30
0.0
 10
54.7293928745
 20
99.4248896106
 30
0.0
 10
54.7295061196
 20
99.42639419729999
 30
0.0
 10
54.72996680560001
 20
99.42843910729999
 30
0.0
 10
54.7308964125
 20
99.43044793750001
 30
0.0
 10
54.73219577770001
 20
99.4323661692
 30
0.0
 10
54.7338886551
 20
99.43440978339999
 30
0.0
 10
54.7366000159
 20
99.4369346865
 30
0.0
 10
54.7405934464
 20
99.43982419480001
 30
0.0
 10
54.7454327018
 20
99.4426758872
 30
0.0
 10
54.7511090176
 20
99.44548518360001
 30
0.0
 10
54.757612141
 20
99.4482466806
 30
0.0
 10
54.764928263
 20
99.45095389370001
 30
0.0
 10
54.7730411188
 20
99.4536002535
 30
0.0
 10
54.78193202839999
 20
99.45617920010001
 30
0.0
 10
54.7915801745
 20
99.45868428780002
 30
0.0
 10
54.80196272
 20
99.46110941549999
 30
0.0
 10
54.8171721841
 20
99.4643161031
 30
0.0
 10
54.8378373567
 20
99.46804114510001
 30
0.0
 10
54.8644893244
 20
99.47199553950001
 30
0.0
 10
54.8933757363
 20
99.47550634350001
 30
0.0
 10
54.9242193557
 20
99.4785385369
 30
0.0
 10
54.95672426529999
 20
99.48106157419999
 30
0.0
 10
54.9905780215
 20
99.4830503516
 30
0.0
 10
55.0254550922
 20
99.484485124
 30
0.0
 10
55.0610198615
 20
99.4853517011
 30
0.0
 10
55.08492284479999
 20
99.4855446058
 30
0.0
 10
55.0969303585
 20
99.4855446058
 30
0.0
  0
SPLINE
  5
5CB
330
21E
100
AcDbEntity
  8
0
  6
Continuous
 62
     9
100
AcDbSpline
210
0.0
220
0.0
230
1.0
 70
     8
 71
     3
 72
    51
 73
    47
 74
     0
 42
0.0000001
 43
0.0000000001
 40
0.0
 40
0.0
 40
0.0
 40
0.0
 40
0.0472713913
 40
0.094099659
 40
0.1400472012
 40
0.1846849742
 40
0.2275979248
 40
0.2683894962
 40
0.3066863648
 40
0.3421432740999999
 40
0.3744486064
 40
0.4033307259
 40
0.4164174335000001
 40
0.4285696646
 40
0.4397696843000001
 40
0.4500052747
 40
0.459271181
 40
0.4675712699
 40
0.4749220388000001
 40
0.4813584170000001
 40
0.4869434577
 40
0.4917838709000001
 40
0.4960514582
 40
0.5
 40
0.5039485418
 40
0.5082161291
 40
0.5130565423000001
 40
0.518641583
 40
0.5250779612
 40
0.5324287301
 40
0.540728819
 40
0.5499947253000001
 40
0.5602303157000001
 40
0.5714303354000001
 40
0.5835825665
 40
0.5966692741
 40
0.6255513936
 40
0.6578567259
 40
0.6933136352
 40
0.7316105037999999
 40
0.7724020752
 40
0.8153150257
 40
0.8599527988
 40
0.9059003409999998
 40
0.9527286087
 40
1.0
 40
1.0
 40
1.0
 40
1.0
 10
55.34693035850001
 20
99.38899175629998
 30
0.0
 10
55.33982385459999
 20
99.38899175629998
 30
0.0
 10
55.3256771916
 20
99.3891059252
 30
0.0
 10
55.3046286557
 20
99.38961879570001
 30
0.0
 10
55.2839871419
 20
99.39046794879999
 30
0.0
 10
55.2639512432
 20
99.39164497870002
 30
0.0
 10
55.2447136504
 20
99.3931382094
 30
0.0
 10
55.22645923689999
 20
99.3949327526
 30
0.0
 10
55.2093632841
 20
99.3970106475
 30
0.0
 10
55.19358938619999
 20
99.39935075740001
 30
0.0
 10
55.1792885467
 20
99.4019295622
 30
0.0
 10
55.16837884560001
 20
99.40432665620001
 30
0.0
 10
55.16050277
 20
99.4063712274
 30
0.0
 10
55.1552408109
 20
99.4078976107
 30
0.0
 10
55.150439324
 20
99.4094638051
 30
0.0
 10
55.1461093731
 20
99.41106604219999
 30
0.0
 10
55.1422606024
 20
99.41270038849999
 30
0.0
 10
55.1389011005
 20
99.41436306180001
 30
0.0
 10
55.13603719239999
 20
99.41605070530002
 30
0.0
 10
55.1336732834
 20
99.41776109760001
 30
0.0
 10
55.131812224
 20
99.41949461410001
 30
0.0
 10
55.1304578624
 20
99.4212562755
 30
0.0
 10
55.12962297819999
 20
99.4230554537
 30
0.0
 10
55.1293377885
 20
99.4248896106
 30
0.0
 10
55.12962297819999
 20
99.4267237675
 30
0.0
 10
55.1304578624
 20
99.4285229457
 30
0.0
 10
55.131812224
 20
99.43028460709999
 30
0.0
 10
55.1336732834
 20
99.43201812360001
 30
0.0
 10
55.13603719239999
 20
99.4337285159
 30
0.0
 10
55.1389011005
 20
99.4354161594
 30
0.0
 10
55.1422606024
 20
99.43707883260001
 30
0.0
 10
55.1461093731
 20
99.43871317899999
 30
0.0
 10
55.150439324
 20
99.44031541610002
 30
0.0
 10
55.1552408109
 20
99.4418816105
 30
0.0
 10
55.16050277
 20
99.4434079938
 30
0.0
 10
55.16837884560001
 20
99.44545256499999
 30
0.0
 10
55.1792885467
 20
99.447849659
 30
0.0
 10
55.19358938619999
 20
99.45042846379999
 30
0.0
 10
55.2093632841
 20
99.45276857370002
 30
0.0
 10
55.22645923689999
 20
99.45484646850001
 30
0.0
 10
55.2447136504
 20
99.4566410118
 30
0.0
 10
55.2639512432
 20
99.45813424249999
 30
0.0
 10
55.2839871419
 20
99.45931127240001
 30
0.0
 10
55.3046286557
 20
99.46016042549999
 30
0.0
 10
55.3256771916
 20
99.46067329600001
 30
0.0
 10
55.33982385459999
 20
99.4607874649
 30
0.0
 10
55.34693035850001
 20
99.4607874649
 30
0.0
  0
SPLINE
  5
5CC
330
21E
100
AcDbEntity
  8
0
  6
Continuous
 62
     9
100
AcDbSpline
210
0.0
220
0.0
230
1.0
 70
     8
 71
     3
 72
    51
 73
    47
 74
     0
 42
0.0000001
 43
0.0000000001
 40
0.0
 40
0.0
 40
0.0
 40
0.0
 40
0.0472713913
 40
0.094099659
 40
0.1400472012
 40
0.1846849743
 40
0.2275979248
 40
0.2683894962
 40
0.3066863648
 40
0.3421432740999999
 40
0.3744486064
 40
0.4033307259
 40
0.4164174335000001
 40
0.4285696646
 40
0.4397696843000001
 40
0.4500052747
 40
0.459271181
 40
0.4675712699
 40
0.4749220388000001
 40
0.4813584170000001
 40
0.4869434577
 40
0.4917838709000001
 40
0.4960514582
 40
0.5
 40
0.5039485418
 40
0.5082161291
 40
0.5130565423000001
 40
0.518641583
 40
0.5250779612
 40
0.5324287301
 40
0.540728819
 40
0.5499947253000001
 40
0.5602303157000001
 40
0.5714303354000001
 40
0.5835825665
 40
0.5966692741
 40
0.6255513936
 40
0.6578567259
 40
0.6933136352
 40
0.7316105037999999
 40
0.7724020752
 40
0.8153150258
 40
0.8599527988
 40
0.9059003409999998
 40
0.9527286087
 40
1.0
 40
1.0
 40
1.0
 40
1.0
 10
57.9719303585
 20
99.4607874649
 30
0.0
 10
57.97903686229999
 20
99.4607874649
 30
0.0
 10
57.9931835253
 20
99.46067329600001
 30
0.0
 10
58.01423206129999
 20
99.46016042549999
 30
0.0
 10
58.03487357499999
 20
99.45931127240001
 30
0.0
 10
58.0549094737
 20
99.45813424249999
 30
0.0
 10
58.0741470666
 20
99.4566410118
 30
0.0
 10
58.09240148
 20
99.45484646850001
 30
0.0
 10
58.1094974328
 20
99.45276857370002
 30
0.0
 10
58.12527133069999
 20
99.45042846379999
 30
0.0
 10
58.1395721702
 20
99.447849659
 30
0.0
 10
58.1504818713
 20
99.44545256499999
 30
0.0
 10
58.15835794699999
 20
99.4434079938
 30
0.0
 10
58.16361990609999
 20
99.4418816105
 30
0.0
 10
58.168421393
 20
99.44031541610002
 30
0.0
 10
58.1727513438
 20
99.43871317899999
 30
0.0
 10
58.1766001145
 20
99.43707883260001
 30
0.0
 10
58.1799596165
 20
99.4354161594
 30
0.0
 10
58.1828235245
 20
99.4337285159
 30
0.0
 10
58.18518743350001
 20
99.43201812360001
 30
0.0
 10
58.187048493
 20
99.43028460709999
 30
0.0
 10
58.1884028545
 20
99.4285229457
 30
0.0
 10
58.1892377387
 20
99.4267237675
 30
0.0
 10
58.1895229285
 20
99.4248896106
 30
0.0
 10
58.1892377387
 20
99.4230554537
 30
0.0
 10
58.1884028545
 20
99.4212562755
 30
0.0
 10
58.187048493
 20
99.41949461410001
 30
0.0
 10
58.18518743350001
 20
99.41776109760001
 30
0.0
 10
58.1828235245
 20
99.41605070530002
 30
0.0
 10
58.1799596165
 20
99.41436306180001
 30
0.0
 10
58.1766001145
 20
99.41270038849999
 30
0.0
 10
58.1727513438
 20
99.41106604219999
 30
0.0
 10
58.168421393
 20
99.4094638051
 30
0.0
 10
58.16361990609999
 20
99.4078976107
 30
0.0
 10
58.15835794699999
 20
99.4063712274
 30
0.0
 10
58.1504818713
 20
99.40432665620001
 30
0.0
 10
58.1395721702
 20
99.4019295622
 30
0.0
 10
58.12527133069999
 20
99.39935075740001
 30
0.0
 10
58.1094974328
 20
99.3970106475
 30
0.0
 10
58.09240148
 20
99.3949327526
 30
0.0
 10
58.0741470666
 20
99.3931382094
 30
0.0
 10
58.0549094737
 20
99.39164497870002
 30
0.0
 10
58.03487357499999
 20
99.39046794879999
 30
0.0
 10
58.01423206129999
 20
99.38961879570001
 30
0.0
 10
57.9931835253
 20
99.3891059252
 30
0.0
 10
57.97903686229999
 20
99.38899175629998
 30
0.0
 10
57.9719303585
 20
99.38899175629998
 30
0.0
  0
SPLINE
  5
5CD
330
21E
100
AcDbEntity
  8
0
  6
Continuous
 62
     9
100
AcDbSpline
210
0.0
220
0.0
230
1.0
 70
     8
 71
     3
 72
    20
 73
    16
 74
     0
 42
0.0000001
 43
0.0000000001
 40
0.0
 40
0.0
 40
0.0
 40
0.0
 40
0.0318742885
 40
0.0689662788
 40
0.1111936153
 40
0.1583977272
 40
0.2103632499
 40
0.2668293437
 40
0.3274970232999999
 40
0.3920345334
 40
0.4600816083
 40
0.5312531262000001
 40
0.6813204384999999
 40
0.8387863576
 40
1.0
 40
1.0
 40
1.0
 40
1.0
 10
58.149161665
 20
99.44437743549999
 30
0.0
 10
58.1474426593
 20
99.4435557969
 30
0.0
 10
58.1436315093
 20
99.441969495
 30
0.0
 10
58.1373325142
 20
99.43983849090001
 30
0.0
 10
58.13004948779999
 20
99.4377895865
 30
0.0
 10
58.12182448689999
 20
99.43583615540001
 30
0.0
 10
58.11270480770001
 20
99.43399067870002
 30
0.0
 10
58.1027442369
 20
99.43226487940002
 30
0.0
 10
58.09200178979999
 20
99.4306695771
 30
0.0
 10
58.0805414205
 20
99.42921472260001
 30
0.0
 10
58.0684314663
 20
99.42790922379998
 30
0.0
 10
58.0512091443
 20
99.42635118410001
 30
0.0
 10
58.0286181345
 20
99.42485247610001
 30
0.0
 10
58.00061677439999
 20
99.4237727159
 30
0.0
 10
57.9815668471
 20
99.4235317525
 30
0.0
 10
57.9719303585
 20
99.4235317525
 30
0.0
  0
SPLINE
  5
5CE
330
21E
100
AcDbEntity
  8
0
  6
Continuous
 62
     9
100
AcDbSpline
210
0.0
220
0.0
230
1.0
 70
     8
 71
     3
 72
    20
 73
    16
 74
     0
 42
0.0000001
 43
0.0000000001
 40
0.0
 40
0.0
 40
0.0
 40
0.0
 40
0.1612136424
 40
0.3186795615
 40
0.4687468738
 40
0.5399183917000001
 40
0.6079654666
 40
0.6725029767000001
 40
0.7331706563
 40
0.7896367501000001
 40
0.8416022727999999
 40
0.8888063846999999
 40
0.9310337212
 40
0.9681257115000001
 40
1.0
 40
1.0
 40
1.0
 40
1.0
 10
55.34693035850001
 20
99.4235317525
 30
0.0
 10
55.3372938699
 20
99.4235317525
 30
0.0
 10
55.3182439425
 20
99.4237727159
 30
0.0
 10
55.29024258239999
 20
99.42485247610001
 30
0.0
 10
55.2676515727
 20
99.42635118410001
 30
0.0
 10
55.25042925060001
 20
99.42790922379998
 30
0.0
 10
55.2383192964
 20
99.42921472260001
 30
0.0
 10
55.22685892710001
 20
99.4306695771
 30
0.0
 10
55.21611648010001
 20
99.43226487940002
 30
0.0
 10
55.2061559093
 20
99.43399067870002
 30
0.0
 10
55.19703623
 20
99.43583615540001
 30
0.0
 10
55.18881122919999
 20
99.4377895865
 30
0.0
 10
55.1815282028
 20
99.43983849090001
 30
0.0
 10
55.17522920770001
 20
99.441969495
 30
0.0
 10
55.1714180576
 20
99.4435557969
 30
0.0
 10
55.16969905199999
 20
99.44437743549999
 30
0.0
  0
SPLINE
  5
5CF
330
21E
100
AcDbEntity
  8
0
  6
Continuous
 62
     7
100
AcDbSpline
210
0.0
220
0.0
230
1.0
 70
     8
 71
     3
 72
    27
 73
    23
 74
     0
 42
0.0000001
 43
0.0000000001
 40
0.0
 40
0.0
 40
0.0
 40
0.0
 40
0.124992449
 40
0.1874929541
 40
0.2499935557
 40
0.3124940482
 40
0.3749944732
 40
0.4374948166
 40
0.4999950881000001
 40
0.5624952666
 40
0.6249951785
 40
0.6874945134999999
 40
0.7499929921
 40
0.7812437467
 40
0.812494459
 40
0.8437451095
 40
0.8749958213999999
 40
0.9062466556
 40
0.9218722547
 40
0.9374979543999998
 40
0.9687493655
 40
1.0
 40
1.0
 40
1.0
 40
1.0
 10
56.6594303585
 20
62.45986928489999
 30
0.0
 10
55.4887261074
 20
62.45986928489999
 30
0.0
 10
53.7322157521
 20
62.50065363920001
 30
0.0
 10
51.3947831514
 20
62.64134492300001
 30
0.0
 10
49.6448176707
 20
62.7914054801
 30
0.0
 10
47.899424478
 20
62.987599613
 30
0.0
 10
46.1600787542
 20
63.23182576749999
 30
0.0
 10
44.4285042655
 20
63.5262644613
 30
0.0
 10
42.7066755132
 20
63.87331730479999
 30
0.0
 10
40.9968657582
 20
64.2755442742
 30
0.0
 10
39.3016826525
 20
64.7356721837
 30
0.0
 10
37.6243361455
 20
65.25717778229999
 30
0.0
 10
36.2447354471
 20
65.7468162305
 30
0.0
 10
35.1544474582
 20
66.17362874609999
 30
0.0
 10
34.3439471768
 20
66.51168735989999
 30
0.0
 10
33.5413492226
 20
66.8681086934
 30
0.0
 10
32.7474581135
 20
67.2435390741
 30
0.0
 10
32.0939700289
 20
67.5730151429
 30
0.0
 10
31.5767813825
 20
67.8473103732
 30
0.0
 10
31.0634935908
 20
68.1288485737
 30
0.0
 10
30.4293050927
 20
68.49411628850001
 30
0.0
 10
29.9303621427
 20
68.80049107399999
 30
0.0
 10
29.6831962151
 20
68.9572779062
 30
0.0
  0
SPLINE
  5
5D0
330
21E
100
AcDbEntity
  8
0
  6
Continuous
 62
     7
100
AcDbSpline
210
0.0
220
0.0
230
1.0
 70
     8
 71
     3
 72
    27
 73
    23
 74
     0
 42
0.0000001
 43
0.0000000001
 40
0.0
 40
0.0
 40
0.0
 40
0.0
 40
0.124992449
 40
0.1874929541
 40
0.2499935557
 40
0.3124940482
 40
0.3749944732
 40
0.4374948166
 40
0.4999950881000001
 40
0.5624952666
 40
0.6249951785
 40
0.6874945134999999
 40
0.7499929921
 40
0.7812437467
 40
0.812494459
 40
0.8437451095
 40
0.8749958213999999
 40
0.9062466556
 40
0.9218722547
 40
0.9374979543999998
 40
0.9687493655
 40
1.0
 40
1.0
 40
1.0
 40
1.0
 10
56.6594303585
 20
104.4157875397
 30
0.0
 10
57.8301346096
 20
104.4157875397
 30
0.0
 10
59.58664496479999
 20
104.3750031855
 30
0.0
 10
61.9240775655
 20
104.2343119017
 30
0.0
 10
63.67404304619999
 20
104.0842513446
 30
0.0
 10
65.41943623899999
 20
103.8880572117
 30
0.0
 10
67.15878196279999
 20
103.6438310572
 30
0.0
 10
68.89035645149999
 20
103.3493923634
 30
0.0
 10
70.61218520379999
 20
103.0023395198
 30
0.0
 10
72.3219949588
 20
102.6001125505
 30
0.0
 10
74.0171780645
 20
102.139984641
 30
0.0
 10
75.69452457149999
 20
101.6184790424
 30
0.0
 10
77.07412526989999
 20
101.1288405942
 30
0.0
 10
78.16441325879999
 20
100.7020280786
 30
0.0
 10
78.97491354020001
 20
100.3639694648
 30
0.0
 10
79.7775114944
 20
100.0075481312
 30
0.0
 10
80.57140260350001
 20
99.63211775059999
 30
0.0
 10
81.224890688
 20
99.3026416818
 30
0.0
 10
81.7420793345
 20
99.02834645150001
 30
0.0
 10
82.25536712609999
 20
98.746808251
 30
0.0
 10
82.88955562419999
 20
98.38154053620002
 30
0.0
 10
83.38849857419999
 20
98.0751657507
 30
0.0
 10
83.6356645018
 20
97.9183789184
 30
0.0
  0
SPLINE
  5
5D1
330
21E
100
AcDbEntity
  8
0
  6
Continuous
 62
     9
100
AcDbSpline
210
0.0
220
0.0
230
1.0
 70
     8
 71
     3
 72
    13
 73
     9
 74
     0
 42
0.0000001
 43
0.0000000001
 40
0.0
 40
0.0
 40
0.0
 40
0.0
 40
0.2586584933
 40
0.3794870256
 40
0.4969742718
 40
0.6149276389000001
 40
0.7370719187
 40
1.0
 40
1.0
 40
1.0
 40
1.0
 10
58.8357913933
 20
99.61019316399999
 30
0.0
 10
58.8421961649
 20
99.6222757517
 30
0.0
 10
58.85170026579999
 20
99.6399565833
 30
0.0
 10
58.8653081057
 20
99.6624378269
 30
0.0
 10
58.8753553635
 20
99.67837001040003
 30
0.0
 10
58.8853966278
 20
99.6943885259
 30
0.0
 10
58.89901346529999
 20
99.71723874430001
 30
0.0
 10
58.9084758237
 20
99.73527713840001
 30
0.0
 10
58.914877441
 20
99.74761626700001
 30
0.0
  0
SPLINE
  5
5D2
330
21E
100
AcDbEntity
  8
0
  6
Continuous
 62
     9
100
AcDbSpline
210
0.0
220
0.0
230
1.0
 70
     8
 71
     3
 72
    15
 73
    11
 74
     0
 42
0.0000001
 43
0.0000000001
 40
0.0
 40
0.0
 40
0.0
 40
0.0
 40
0.1250005446
 40
0.2500009786
 40
0.3750012847999999
 40
0.5000014243999999
 40
0.6250013188
 40
0.7500010101000001
 40
0.8750005355
 40
1.0
 40
1.0
 40
1.0
 40
1.0
 10
56.6594303585
 20
99.88531725320001
 30
0.0
 10
57.2002053109
 20
99.88531725139999
 30
0.0
 10
58.2817599789
 20
99.88169472510001
 30
0.0
 10
59.9039970876
 20
99.86307250540001
 30
0.0
 10
61.5259871808
 20
99.8289091592
 30
0.0
 10
63.1475128974
 20
99.77697198760001
 30
0.0
 10
64.7682409626
 20
99.7040073143
 30
0.0
 10
66.38769283470001
 20
99.6064782122
 30
0.0
 10
68.00523940339999
 20
99.4811251031
 30
0.0
 10
69.08176927550001
 20
99.376093935
 30
0.0
 10
69.61934133369999
 20
99.3173676413
 30
0.0
  0
SPLINE
  5
5D3
330
21E
100
AcDbEntity
  8
0
  6
Continuous
 62
     9
100
AcDbSpline
210
0.0
220
0.0
230
1.0
 70
     8
 71
     3
 72
    45
 73
    41
 74
     0
 42
0.0000001
 43
0.0000000001
 40
0.0
 40
0.0
 40
0.0
 40
0.0
 40
0.0312477209
 40
0.0624946173
 40
0.0937410439
 40
0.1249888976
 40
0.15623599
 40
0.1874831506
 40
0.2187304949
 40
0.2343554904
 40
0.2421686976
 40
0.2499821841
 40
0.2577956597
 40
0.2656086646
 40
0.2734212467
 40
0.2812335985
 40
0.2890456216
 40
0.296858066
 40
0.3046709687
 40
0.3124836222
 40
0.3202959972
 40
0.3281086051
 40
0.343735091
 40
0.3593660108
 40
0.3750020382
 40
0.3906403979999999
 40
0.4062760631000001
 40
0.4375225585
 40
0.4687677621
 40
0.5000226907
 40
0.5312753467000001
 40
0.5625234767000001
 40
0.6250162816
 40
0.6875136124
 40
0.7187627348000002
 40
0.7500114444000001
 40
0.8125070763
 40
0.8750050291
 40
0.9375028738999999
 40
1.0
 40
1.0
 40
1.0
 40
1.0
 10
92.1594281512
 20
83.4378284115
 30
0.0
 10
92.1595489199
 20
83.1165999951
 30
0.0
 10
92.13912803159999
 20
82.4739533942
 30
0.0
 10
92.04621240180001
 20
81.51411271269999
 30
0.0
 10
91.889180529
 20
80.56257071479999
 30
0.0
 10
91.6678410021
 20
79.62390382889999
 30
0.0
 10
91.383065651
 20
78.70248169449999
 30
0.0
 10
91.03660544929999
 20
77.8024905092
 30
0.0
 10
90.69887480780002
 20
77.07319619399999
 30
0.0
 10
90.4379588001
 20
76.5751486284
 30
0.0
 10
90.28230416780001
 20
76.2940912706
 30
0.0
 10
90.16230778299998
 20
76.0851168268
 30
0.0
 10
90.03909093950001
 20
75.8780269892
 30
0.0
 10
89.91256479379998
 20
75.67295278669999
 30
0.0
 10
89.78293808049999
 20
75.4698412317
 30
0.0
 10
89.65085934059999
 20
75.2683309854
 30
0.0
 10
89.51591781399999
 20
75.0687153785
 30
0.0
 10
89.37618165519999
 20
74.87240577539999
 30
0.0
 10
89.23159288929999
 20
74.6796372053
 30
0.0
 10
89.0823220575
 20
74.49047125629999
 30
0.0
 10
88.92834744139999
 20
74.30511592000001
 30
0.0
 10
88.7170013751
 20
74.06311775119999
 30
0.0
 10
88.4418449494
 20
73.77031380439999
 30
0.0
 10
88.0963026885
 20
73.43396916420001
 30
0.0
 10
87.73695234120001
 20
73.1122538325
 30
0.0
 10
87.36531481909999
 20
72.80476219319999
 30
0.0
 10
86.8555429297
 20
72.41314799920001
 30
0.0
 10
86.1943921109
 20
71.95612203979999
 30
0.0
 10
85.3707223378
 20
71.45492513339999
 30
0.0
 10
84.5226277335
 20
70.9963117386
 30
0.0
 10
83.65487473489999
 20
70.576192295
 30
0.0
 10
82.4767176049
 20
70.06264863289999
 30
0.0
 10
80.971220638
 20
69.4995494476
 30
0.0
 10
79.4363205464
 20
69.02403001759999
 30
0.0
 10
78.19599018569999
 20
68.6879854384
 30
0.0
 10
76.9485687841
 20
68.37936759279999
 30
0.0
 10
75.37802365180001
 20
68.040930497
 30
0.0
 10
73.4805948241
 20
67.7004101135
 30
0.0
 10
71.5738322749
 20
67.4171331122
 30
0.0
 10
70.298084083
 20
67.26229262439999
 30
0.0
 10
69.65943047829999
 20
67.1923307598
 30
0.0
  0
SPLINE
  5
5D4
330
21E
100
AcDbEntity
  8
0
  6
Continuous
 62
     9
100
AcDbSpline
210
0.0
220
0.0
230
1.0
 70
     8
 71
     3
 72
    23
 73
    19
 74
     0
 42
0.0000001
 43
0.0000000001
 40
0.0
 40
0.0
 40
0.0
 40
0.0
 40
0.0635218964
 40
0.1268758902
 40
0.1900051628
 40
0.2528796846
 40
0.3154898614
 40
0.3778451382
 40
0.4399971926
 40
0.5020224276
 40
0.5639646909
 40
0.6259365699
 40
0.6880266985
 40
0.7502724203
 40
0.8126551402
 40
0.8751113802
 40
0.9375781509999999
 40
1.0
 40
1.0
 40
1.0
 40
1.0
 10
69.6193411493
 20
67.55828916279999
 30
0.0
 10
70.20100807670001
 20
67.6218320446
 30
0.0
 10
71.36097526109999
 20
67.7664989318
 30
0.0
 10
73.089378904
 20
68.0445114646
 30
0.0
 10
74.79942702439998
 20
68.3910639315
 30
0.0
 10
76.48470871419999
 20
68.8165388053
 30
0.0
 10
78.1371978694
 20
69.3330090071
 30
0.0
 10
79.746433622
 20
69.954503539
 30
0.0
 10
81.29793277600001
 20
70.69767814169999
 30
0.0
 10
82.77102552130001
 20
71.58042788109999
 30
0.0
 10
84.13824239680002
 20
72.6186947166
 30
0.0
 10
85.36421458339999
 20
73.8230247291
 30
0.0
 10
86.4113489045
 20
75.19034363819999
 30
0.0
 10
87.2487237922
 20
76.69973793850001
 30
0.0
 10
87.8642121602
 20
78.31514218689999
 30
0.0
 10
88.26757200000001
 20
79.996924268
 30
0.0
 10
88.48434424950001
 20
81.71175483659999
 30
0.0
 10
88.52567489409999
 20
82.862833988
 30
0.0
 10
88.52567489409999
 20
83.4378284123
 30
0.0
  0
SPLINE
  5
5D5
330
21E
100
AcDbEntity
  8
0
  6
Continuous
 62
     9
100
AcDbSpline
210
0.0
220
0.0
230
1.0
 70
     8
 71
     3
 72
    15
 73
    11
 74
     0
 42
0.0000001
 43
0.0000000001
 40
0.0
 40
0.0
 40
0.0
 40
0.0
 40
0.1250005446
 40
0.2500009786
 40
0.3750012847999999
 40
0.5000014243999999
 40
0.6250013188
 40
0.7500010101000001
 40
0.8750005355
 40
1.0
 40
1.0
 40
1.0
 40
1.0
 10
56.6594303585
 20
66.9903395714
 30
0.0
 10
57.2002053109
 20
66.99033957330001
 30
0.0
 10
58.2817599789
 20
66.99396209949999
 30
0.0
 10
59.9039970876
 20
67.0125843192
 30
0.0
 10
61.5259871808
 20
67.04674766550001
 30
0.0
 10
63.1475128974
 20
67.09868483699999
 30
0.0
 10
64.7682409626
 20
67.1716495104
 30
0.0
 10
66.38769283470001
 20
67.2691786125
 30
0.0
 10
68.00523940339999
 20
67.3945317215
 30
0.0
 10
69.08176927550001
 20
67.49956288959999
 30
0.0
 10
69.61934133369999
 20
67.5582891833
 30
0.0
  0
SPLINE
  5
5D6
330
21E
100
AcDbEntity
  8
0
  6
Continuous
 62
     9
100
AcDbSpline
210
0.0
220
0.0
230
1.0
 70
     8
 71
     3
 72
    40
 73
    36
 74
     0
 42
0.0000001
 43
0.0000000001
 40
0.0
 40
0.0
 40
0.0
 40
0.0
 40
0.171668974
 40
0.2575034662
 40
0.3433379446
 40
0.4291724047
 40
0.4720896307000001
 40
0.5150068104
 40
0.5579158281000001
 40
0.6005939350000001
 40
0.6425976913
 40
0.6834593287999999
 40
0.7227537114000001
 40
0.7601009705
 40
0.7950559008
 40
0.8272870622000001
 40
0.8564657447
 40
0.8823214137999999
 40
0.8939351723000001
 40
0.9046596960999998
 40
0.9144492086999999
 40
0.9233023865999999
 40
0.9312226564999999
 40
0.9382283784
 40
0.944375682
 40
0.9497135476999998
 40
0.9543489025999999
 40
0.9585467859000001
 40
0.9627070662999999
 40
0.966867614
 40
0.9710237448999999
 40
0.9751753859
 40
0.9834673567000001
 40
0.9917422654000001
 40
1.0
 40
1.0
 40
1.0
 40
1.0
 10
56.6594303585
 20
99.29835536040002
 30
0.0
 10
56.8257773864
 20
99.29835572489999
 30
0.0
 10
57.07529809819999
 20
99.2980470164
 30
0.0
 10
57.4079905318
 20
99.2969897186
 30
0.0
 10
57.657508593
 20
99.29586035079999
 30
0.0
 10
57.86543876060001
 20
99.29464552700002
 30
0.0
 10
58.0317817684
 20
99.29347357030001
 30
0.0
 10
58.1565300785
 20
99.2925682881
 30
0.0
 10
58.2810472707
 20
99.2913434791
 30
0.0
 10
58.404685554
 20
99.29251144360002
 30
0.0
 10
58.5262980485
 20
99.29584232219999
 30
0.0
 10
58.6445477791
 20
99.30141926920001
 30
0.0
 10
58.75815363600001
 20
99.30915166350001
 30
0.0
 10
58.8658660581
 20
99.31884054299999
 30
0.0
 10
58.9664926945
 20
99.33054570300001
 30
0.0
 10
59.05890775109999
 20
99.3440320058
 30
0.0
 10
59.1421151845
 20
99.35920128219999
 30
0.0
 10
59.2051214214
 20
99.37352477959999
 30
0.0
 10
59.2501564298
 20
99.38590855850002
 30
0.0
 10
59.27989808270001
 20
99.39513080129998
 30
0.0
 10
59.30671918399999
 20
99.40466800110002
 30
0.0
 10
59.33053564459999
 20
99.4144609822
 30
0.0
 10
59.35130332359999
 20
99.42448416360001
 30
0.0
 10
59.36898420270001
 20
99.43474453469999
 30
0.0
 10
59.3836097768
 20
99.4451580119
 30
0.0
 10
59.3951353362
 20
99.45576952459999
 30
0.0
 10
59.40360991390001
 20
99.4667123059
 30
0.0
 10
59.40899579819999
 20
99.4781330314
 30
0.0
 10
59.4144716833
 20
99.48894809110001
 30
0.0
 10
59.4199007801
 20
99.4997532124
 30
0.0
 10
59.42533956550001
 20
99.51054093350002
 30
0.0
 10
59.4325801969
 20
99.5249044614
 30
0.0
 10
59.44164494089999
 20
99.5428176305
 30
0.0
 10
59.45252122350001
 20
99.56427344540001
 30
0.0
 10
59.4597778642
 20
99.57855577890001
 30
0.0
 10
59.463406745
 20
99.58568732739999
 30
0.0
  0
SPLINE
  5
5D7
330
21E
100
AcDbEntity
  8
0
  6
Continuous
 62
     9
100
AcDbSpline
210
0.0
220
0.0
230
1.0
 70
     8
 71
     3
 72
    23
 73
    19
 74
     0
 42
0.0000001
 43
0.0000000001
 40
0.0
 40
0.0
 40
0.0
 40
0.0
 40
0.0865595723
 40
0.1731131021
 40
0.2597115562
 40
0.3029262863
 40
0.3458893195
 40
0.3888432263
 40
0.4106662743000001
 40
0.4330885825000001
 40
0.4567814198
 40
0.4827058213
 40
0.5118107400000001
 40
0.5449328464000001
 40
0.626347629
 40
0.7305792735
 40
0.8558154679000001
 40
1.0
 40
1.0
 40
1.0
 40
1.0
 10
58.8357913933
 20
99.61019316399999
 30
0.0
 10
58.83230329119999
 20
99.6036130801
 30
0.0
 10
58.8253240637
 20
99.59045511840001
 30
0.0
 10
58.8148732722
 20
99.5707044361
 30
0.0
 10
58.80612254109999
 20
99.5542737289
 30
0.0
 10
58.7991706678
 20
99.5411336593
 30
0.0
 10
58.7941194919
 20
99.53123804190001
 30
0.0
 10
58.78998307789999
 20
99.522940949
 30
0.0
 10
58.78638249609999
 20
99.5163575607
 30
0.0
 10
58.7833515988
 20
99.51135501819999
 30
0.0
 10
58.77967980680001
 20
99.5063468891
 30
0.0
 10
58.7750423414
 20
99.5013869517
 30
0.0
 10
58.7692281701
 20
99.4964917919
 30
0.0
 10
58.75896873729999
 20
99.48956442930001
 30
0.0
 10
58.74191285609999
 20
99.48139589490001
 30
0.0
 10
58.71657091359999
 20
99.47275921600001
 30
0.0
 10
58.6854867672
 20
99.46448483100001
 30
0.0
 10
58.66281144600001
 20
99.45963282800001
 30
0.0
 10
58.6506344463
 20
99.45726333639999
 30
0.0
  0
SPLINE
  5
5D8
330
21E
100
AcDbEntity
  8
0
  6
Continuous
 62
     9
100
AcDbSpline
210
0.0
220
0.0
230
1.0
 70
     8
 71
     3
 72
    23
 73
    19
 74
     0
 42
0.0000001
 43
0.0000000001
 40
0.0
 40
0.0
 40
0.0
 40
0.0
 40
0.1441866827
 40
0.2694255369
 40
0.3736586894
 40
0.4550844963000001
 40
0.4882054555
 40
0.5173101163000001
 40
0.5432385551
 40
0.5669315359000001
 40
0.5893497567
 40
0.6111713643
 40
0.6541274559
 40
0.6970882108
 40
0.7402998174
 40
0.8268949381
 40
0.9134443710999999
 40
1.0
 40
1.0
 40
1.0
 40
1.0
 10
54.6682465856
 20
99.4572592933
 30
0.0
 10
54.6560683953
 20
99.45962880780001
 30
0.0
 10
54.63339080149999
 20
99.46448084200001
 30
0.0
 10
54.6023032425
 20
99.47275482370002
 30
0.0
 10
54.57695834149999
 20
99.48139297410001
 30
0.0
 10
54.55989871949999
 20
99.48955957270001
 30
0.0
 10
54.5496377584
 20
99.4964880442
 30
0.0
 10
54.54382311919999
 20
99.50138383590001
 30
0.0
 10
54.5391836239
 20
99.50634301790001
 30
0.0
 10
54.53551072909999
 20
99.51135108950001
 30
0.0
 10
54.5324816071
 20
99.5163547323
 30
0.0
 10
54.5288811451
 20
99.52293848810001
 30
0.0
 10
54.5247415047
 20
99.5312346336
 30
0.0
 10
54.519691008
 20
99.54113127120002
 30
0.0
 10
54.5127396952
 20
99.55427213270001
 30
0.0
 10
54.5039878842
 20
99.57070291459999
 30
0.0
 10
54.4935370949
 20
99.59045450579999
 30
0.0
 10
54.486557538
 20
99.60361285219999
 30
0.0
 10
54.4830693237
 20
99.61019316399999
 30
0.0
  0
SPLINE
  5
5D9
330
21E
100
AcDbEntity
  8
0
  6
Continuous
 62
     9
100
AcDbSpline
210
0.0
220
0.0
230
1.0
 70
     8
 71
     3
 72
    38
 73
    34
 74
     0
 42
0.0000001
 43
0.0000000001
 40
0.0
 40
0.0
 40
0.0
 40
0.0
 40
0.0082577725
 40
0.0165326946
 40
0.0248246189
 40
0.0289765593
 40
0.0331325501
 40
0.0372926649
 40
0.0414535982
 40
0.0456501486
 40
0.0502843049
 40
0.0556289596
 40
0.0617747554
 40
0.068778812
 40
0.0767020258
 40
0.0855587806
 40
0.0953479521
 40
0.1176796268
 40
0.1435293979
 40
0.1727002601
 40
0.2049366136
 40
0.2398949264
 40
0.3165327095
 40
0.3574000246
 40
0.3994007525
 40
0.4420829465
 40
0.4849921799000001
 40
0.5279094812
 40
0.5708267909
 40
0.6566614107
 40
0.7424960501000001
 40
0.8283307037
 40
1.0
 40
1.0
 40
1.0
 40
1.0
 10
53.855451454
 20
99.58568729059999
 30
0.0
 10
53.8590799624
 20
99.5785555778
 30
0.0
 10
53.8663371892
 20
99.56427361999999
 30
0.0
 10
53.8772138898
 20
99.5428182098
 30
0.0
 10
53.8862760974
 20
99.52490363469999
 30
0.0
 10
53.8935203642
 20
99.5105419575
 30
0.0
 10
53.8989588659
 20
99.49975447139999
 30
0.0
 10
53.9043816242
 20
99.48894623900001
 30
0.0
 10
53.90986697979999
 20
99.47813701059999
 30
0.0
 10
53.9152402097
 20
99.4667129417
 30
0.0
 10
53.9237095269
 20
99.4557584314
 30
0.0
 10
53.935263531
 20
99.44517173770002
 30
0.0
 10
53.9498803226
 20
99.43474327450001
 30
0.0
 10
53.96756161909999
 20
99.42448202370002
 30
0.0
 10
53.98833585680001
 20
99.4144626423
 30
0.0
 10
54.012159738
 20
99.40467197290001
 30
0.0
 10
54.0495864012
 20
99.39137251280001
 30
0.0
 10
54.10362491709999
 20
99.37585462600001
 30
0.0
 10
54.1767285666
 20
99.35919138750001
 30
0.0
 10
54.2599318892
 20
99.34402482799999
 30
0.0
 10
54.3523465129
 20
99.33054133170001
 30
0.0
 10
54.4908039461
 20
99.31446270430001
 30
0.0
 10
54.6381680168
 20
99.3031466923
 30
0.0
 10
54.7925604581
 20
99.2958550682
 30
0.0
 10
54.9141794395
 20
99.29249740549998
 30
0.0
 10
55.0378180064
 20
99.29137086870001
 30
0.0
 10
55.16233874840001
 20
99.29255636209999
 30
0.0
 10
55.2870864745
 20
99.29347478149999
 30
0.0
 10
55.45342860359999
 20
99.29464609950002
 30
0.0
 10
55.6613576333
 20
99.29586018120001
 30
0.0
 10
55.9108743148
 20
99.29698960479999
 30
0.0
 10
56.2435649108
 20
99.2980479552
 30
0.0
 10
56.4930842481
 20
99.29835569920001
 30
0.0
 10
56.6594303585
 20
99.29835536040002
 30
0.0
  0
SPLINE
  5
5DA
330
21E
100
AcDbEntity
  8
0
  6
Continuous
 62
     9
100
AcDbSpline
210
0.0
220
0.0
230
1.0
 70
     8
 71
     3
 72
    33
 73
    29
 74
     0
 42
0.0000001
 43
0.0000000001
 40
0.0
 40
0.0
 40
0.0
 40
0.0
 40
0.0657528861
 40
0.13126699
 40
0.1965663442
 40
0.2616316561
 40
0.3264499055
 40
0.3909526684
 40
0.4550631973
 40
0.5186533887
 40
0.5502060241
 40
0.5815534757
 40
0.6126633326
 40
0.6434876183
 40
0.6740041238
 40
0.7041808308
 40
0.7339921912000001
 40
0.7634612945999999
 40
0.7926606786
 40
0.8071936959999998
 40
0.8217109403
 40
0.8362230420999999
 40
0.8507631396999999
 40
0.8799646186
 40
0.9094413187
 40
0.9392650298999999
 40
0.9694578953
 40
1.0
 40
1.0
 40
1.0
 40
1.0
 10
56.6594303585
 20
72.7502318758
 30
0.0
 10
57.25912845689999
 20
72.75023205930001
 30
0.0
 10
58.45638576159999
 20
72.76120861439999
 30
0.0
 10
60.2484976889
 20
72.81498237390001
 30
0.0
 10
62.032644611
 20
72.9105450591
 30
0.0
 10
63.8071751876
 20
73.0553578172
 30
0.0
 10
65.5689606661
 20
73.25673455029999
 30
0.0
 10
67.3132238043
 20
73.52471624180001
 30
0.0
 10
69.03223124659999
 20
73.871860257
 30
0.0
 10
70.4382050114
 20
74.2409573788
 30
0.0
 10
71.5366796382
 20
74.59433498930001
 30
0.0
 10
72.34163270819999
 20
74.8904575261
 30
0.0
 10
73.1258959677
 20
75.2211206587
 30
0.0
 10
73.8846974561
 20
75.5898606147
 30
0.0
 10
74.612256039
 20
76.0001572707
 30
0.0
 10
75.30189049659999
 20
76.45514896129999
 30
0.0
 10
75.9458250151
 20
76.9577802482
 30
0.0
 10
76.5356374758
 20
77.5102593854
 30
0.0
 10
76.9760214044
 20
78.0137897322
 30
0.0
 10
77.29287109100001
 20
78.4405004907
 30
0.0
 10
77.5121331147
 20
78.7720749475
 30
0.0
 10
77.7129090625
 20
79.1152355654
 30
0.0
 10
77.9557670958
 20
79.5880353057
 30
0.0
 10
78.2118978436
 20
80.20625386549999
 30
0.0
 10
78.4424431905
 20
80.98116244409998
 30
0.0
 10
78.6000330494
 20
81.78317730180001
 30
0.0
 10
78.68962691100001
 20
82.60510239170001
 30
0.0
 10
78.70798216689999
 20
83.15926965699999
 30
0.0
 10
78.70798237359998
 20
83.4378284123
 30
0.0
  0
SPLINE
  5
5DB
330
21E
100
AcDbEntity
  8
0
  6
Continuous
 62
     9
100
AcDbSpline
210
0.0
220
0.0
230
1.0
 70
     8
 71
     3
 72
    21
 73
    17
 74
     0
 42
0.0000001
 43
0.0000000001
 40
0.0
 40
0.0
 40
0.0
 40
0.0
 40
0.0625191587
 40
0.1250371956
 40
0.1875561152
 40
0.2500748988
 40
0.3125937243
 40
0.3751125764999999
 40
0.500000118
 40
0.6248873168
 40
0.6874060784
 40
0.7499248278000001
 40
0.8124435401999999
 40
0.8749624709
 40
0.9374806694
 40
1.0
 40
1.0
 40
1.0
 40
1.0
 10
56.6594303585
 20
81.46441078329999
 30
0.0
 10
56.7239774049
 20
81.4644109846
 30
0.0
 10
56.8531605308
 20
81.47078172849999
 30
0.0
 10
57.0449847312
 20
81.49932801770001
 30
0.0
 10
57.2331028047
 20
81.54655495510001
 30
0.0
 10
57.41567909229999
 20
81.6119853746
 30
0.0
 10
57.59098692479999
 20
81.6949867031
 30
0.0
 10
57.81258349899999
 20
81.8278530202
 30
0.0
 10
58.0635789805
 20
82.0337310146
 30
0.0
 10
58.2695569889
 20
82.28465047600002
 30
0.0
 10
58.40245538939999
 20
82.5062290237
 30
0.0
 10
58.4854500193
 20
82.68154102009999
 30
0.0
 10
58.5508426506
 20
82.86413167659999
 30
0.0
 10
58.5980110496
 20
83.0522648842
 30
0.0
 10
58.62649811439999
 20
83.244097915
 30
0.0
 10
58.63284777979999
 20
83.3732811884
 30
0.0
 10
58.6328479875
 20
83.4378284123
 30
0.0
  0
SPLINE
  5
5DC
330
21E
100
AcDbEntity
  8
0
  6
Continuous
 62
     9
100
AcDbSpline
210
0.0
220
0.0
230
1.0
 70
     8
 71
     3
 72
    21
 73
    17
 74
     0
 42
0.0000001
 43
0.0000000001
 40
0.0
 40
0.0
 40
0.0
 40
0.0
 40
0.0625191408
 40
0.1250373175
 40
0.1875562656
 40
0.2500750296
 40
0.3125938518
 40
0.3751127014
 40
0.5000002621000001
 40
0.6248874974000001
 40
0.6874062734999999
 40
0.7499250316000001
 40
0.8124437615000001
 40
0.8749626651999999
 40
0.9374807334999999
 40
1.0
 40
1.0
 40
1.0
 40
1.0
 10
56.6594303585
 20
85.41124604130001
 30
0.0
 10
56.7239773864
 20
85.411245838
 30
0.0
 10
56.8531606378
 20
85.40487508689999
 30
0.0
 10
57.04498499119999
 20
85.37632876000001
 30
0.0
 10
57.2331032043
 20
85.3291017467
 30
0.0
 10
57.4156794829
 20
85.26367128590001
 30
0.0
 10
57.5909872777
 20
85.18066993919999
 30
0.0
 10
57.81258383229999
 20
85.04780356260001
 30
0.0
 10
58.0635793155
 20
84.8419254845
 30
0.0
 10
58.2695573097
 20
84.59100591329999
 30
0.0
 10
58.4024556659
 20
84.36942726759999
 30
0.0
 10
58.4854502692
 20
84.1941152122
 30
0.0
 10
58.5508428407
 20
84.01152453459999
 30
0.0
 10
58.59801114239999
 20
83.8233914517
 30
0.0
 10
58.626498131
 20
83.63155864259999
 30
0.0
 10
58.6328477824
 20
83.5023755701
 30
0.0
 10
58.6328479875
 20
83.4378284123
 30
0.0
  0
SPLINE
  5
5DD
330
21E
100
AcDbEntity
  8
0
  6
Continuous
 62
     9
100
AcDbSpline
210
0.0
220
0.0
230
1.0
 70
     8
 71
     3
 72
    33
 73
    29
 74
     0
 42
0.0000001
 43
0.0000000001
 40
0.0
 40
0.0
 40
0.0
 40
0.0
 40
0.0305421034
 40
0.0607349363
 40
0.0905587229
 40
0.1200352981
 40
0.1492368621
 40
0.1637769469
 40
0.1782890554
 40
0.1928063171
 40
0.2073393207
 40
0.2365386993
 40
0.2660077878
 40
0.2958191548
 40
0.3259958806
 40
0.3565123704
 40
0.3873366581
 40
0.4184465207
 40
0.4497939729000001
 40
0.4813466062
 40
0.5449367957
 40
0.6090473320000001
 40
0.6735500945
 40
0.7383683406000001
 40
0.8034336548
 40
0.8687329915000001
 40
0.9342472131
 40
1.0
 40
1.0
 40
1.0
 40
1.0
 10
78.707982337
 20
83.4378284123
 30
0.0
 10
78.70798213029999
 20
83.7163871545
 30
0.0
 10
78.6896268527
 20
84.2705541025
 30
0.0
 10
78.6000332227
 20
85.09247960180001
 30
0.0
 10
78.44244306590001
 20
85.89449365350001
 30
0.0
 10
78.2118976094
 20
86.66940249739999
 30
0.0
 10
77.9557673943
 20
87.28762076530001
 30
0.0
 10
77.71290909140001
 20
87.76042117739999
 30
0.0
 10
77.5121330768
 20
88.1035818746
 30
0.0
 10
77.29287100319999
 20
88.4351564093
 30
0.0
 10
76.9760212971
 20
88.86186713059998
 30
0.0
 10
76.5356376139
 20
89.36539726739999
 30
0.0
 10
75.945825338
 20
89.917876423
 30
0.0
 10
75.30189057300001
 20
90.4205075567
 30
0.0
 10
74.61225600929999
 20
90.87549921229999
 30
0.0
 10
73.8846976146
 20
91.2857962986
 30
0.0
 10
73.12589607479999
 20
91.65453599120001
 30
0.0
 10
72.34163278310001
 20
91.98519921879999
 30
0.0
 10
71.53667968319999
 20
92.28132178580001
 30
0.0
 10
70.4382050864
 20
92.6346993754
 30
0.0
 10
69.03223129209999
 20
93.0037964843
 30
0.0
 10
67.313223819
 20
93.3509405474
 30
0.0
 10
65.56896065229999
 20
93.61892222620001
 30
0.0
 10
63.80717519930001
 20
93.8202990243
 30
0.0
 10
62.0326447743
 20
93.9651114912
 30
0.0
 10
60.2484969444
 20
94.0606744359
 30
0.0
 10
58.45638502479999
 20
94.1144487939
 30
0.0
 10
57.2591275493
 20
94.125424718
 30
0.0
 10
56.6594303585
 20
94.1254249015
 30
0.0
  0
SPLINE
  5
5DE
330
21E
100
AcDbEntity
  8
0
  6
Continuous
 62
     9
100
AcDbSpline
210
0.0
220
0.0
230
1.0
 70
     8
 71
     3
 72
    45
 73
    41
 74
     0
 42
0.0000001
 43
0.0000000001
 40
0.0
 40
0.0
 40
0.0
 40
0.0
 40
0.0312477209
 40
0.0624946173
 40
0.0937410439
 40
0.1249888976
 40
0.15623599
 40
0.1874831506
 40
0.2187304949
 40
0.2343554904
 40
0.2421686976
 40
0.2499821841
 40
0.2577956597
 40
0.2656086646
 40
0.2734212467
 40
0.2812335985
 40
0.2890456216
 40
0.296858066
 40
0.3046709687
 40
0.3124836222
 40
0.3202959972
 40
0.3281086051
 40
0.343735091
 40
0.3593660108
 40
0.3750020382
 40
0.3906403979999999
 40
0.4062760631000001
 40
0.4375225585
 40
0.4687677621
 40
0.5000226907
 40
0.5312753467000001
 40
0.5625234767000001
 40
0.6250162816
 40
0.6875136124
 40
0.7187627348000002
 40
0.7500114444000001
 40
0.8125070763
 40
0.8750050291
 40
0.9375028738999999
 40
1.0
 40
1.0
 40
1.0
 40
1.0
 10
21.1594325658
 20
83.43782841319999
 30
0.0
 10
21.1593117971
 20
83.7590568296
 30
0.0
 10
21.1797326853
 20
84.40170343050001
 30
0.0
 10
21.2726483152
 20
85.3615441119
 30
0.0
 10
21.429680188
 20
86.3130861099
 30
0.0
 10
21.6510197149
 20
87.2517529958
 30
0.0
 10
21.935795066
 20
88.1731751302
 30
0.0
 10
22.28225526760001
 20
89.07316631549999
 30
0.0
 10
22.6199859091
 20
89.8024606307
 30
0.0
 10
22.8809019169
 20
90.30050819620001
 30
0.0
 10
23.0365565492
 20
90.58156555409999
 30
0.0
 10
23.156552934
 20
90.79053999790001
 30
0.0
 10
23.2797697774
 20
90.99762983549998
 30
0.0
 10
23.4062959231
 20
91.20270403799999
 30
0.0
 10
23.5359226365
 20
91.40581559290001
 30
0.0
 10
23.6680013763
 20
91.60732583919999
 30
0.0
 10
23.802942903
 20
91.80694144610001
 30
0.0
 10
23.9426790618
 20
92.0032510493
 30
0.0
 10
24.0872678277
 20
92.19601961930001
 30
0.0
 10
24.2365386594
 20
92.3851855684
 30
0.0
 10
24.3905132755
 20
92.57054090469999
 30
0.0
 10
24.6018593419
 20
92.8125390735
 30
0.0
 10
24.87701576760001
 20
93.1053430202
 30
0.0
 10
25.2225580285
 20
93.4416876605
 30
0.0
 10
25.58190837570001
 20
93.7634029922
 30
0.0
 10
25.9535458979
 20
94.07089463149999
 30
0.0
 10
26.4633177873
 20
94.4625088255
 30
0.0
 10
27.1244686061
 20
94.91953478479999
 30
0.0
 10
27.9481383791
 20
95.4207316912
 30
0.0
 10
28.7962329835
 20
95.8793450861
 30
0.0
 10
29.663985982
 20
96.29946452969999
 30
0.0
 10
30.842143112
 20
96.81300819170001
 30
0.0
 10
32.347640079
 20
97.37610737709999
 30
0.0
 10
33.8825401705
 20
97.851626807
 30
0.0
 10
35.12287053130001
 20
98.18767138620001
 30
0.0
 10
36.3702919329
 20
98.4962892318
 30
0.0
 10
37.9408370652
 20
98.83472632770001
 30
0.0
 10
39.8382658928
 20
99.1752467112
 30
0.0
 10
41.7450284421
 20
99.4585237124
 30
0.0
 10
43.0207766339
 20
99.61336420020002
 30
0.0
 10
43.65943023869999
 20
99.6833260648
 30
0.0
  0
SPLINE
  5
5DF
330
21E
100
AcDbEntity
  8
0
  6
Continuous
 62
     9
100
AcDbSpline
210
0.0
220
0.0
230
1.0
 70
     8
 71
     3
 72
    23
 73
    19
 74
     0
 42
0.0000001
 43
0.0000000001
 40
0.0
 40
0.0
 40
0.0
 40
0.0
 40
0.0635218964
 40
0.1268758902
 40
0.1900051628
 40
0.2528796846
 40
0.3154898614
 40
0.3778451382
 40
0.4399971926
 40
0.5020224276
 40
0.5639646909
 40
0.6259365699
 40
0.6880266985
 40
0.7502724203
 40
0.8126551402
 40
0.8751113802
 40
0.9375781509999999
 40
1.0
 40
1.0
 40
1.0
 40
1.0
 10
43.6995195676
 20
99.31736766190001
 30
0.0
 10
43.1178526403
 20
99.25382478000001
 30
0.0
 10
41.95788545590001
 20
99.10915789290001
 30
0.0
 10
40.229481813
 20
98.83114536
 30
0.0
 10
38.5194336925
 20
98.4845928932
 30
0.0
 10
36.8341520027
 20
98.0591180194
 30
0.0
 10
35.1816628476
 20
97.5426478175
 30
0.0
 10
33.5724270949
 20
96.9211532857
 30
0.0
 10
32.020927941
 20
96.177978683
 30
0.0
 10
30.5478351957
 20
95.29522894360001
 30
0.0
 10
29.1806183202
 20
94.25696210799999
 30
0.0
 10
27.9546461335
 20
93.05263209559999
 30
0.0
 10
26.9075118124
 20
91.68531318639999
 30
0.0
 10
26.0701369248
 20
90.17591888620001
 30
0.0
 10
25.4546485568
 20
88.56051463780001
 30
0.0
 10
25.0512887169
 20
86.87873255659999
 30
0.0
 10
24.8345164675
 20
85.1639019881
 30
0.0
 10
24.7931858228
 20
84.01282283669999
 30
0.0
 10
24.7931858228
 20
83.4378284123
 30
0.0
  0
SPLINE
  5
5E0
330
21E
100
AcDbEntity
  8
0
  6
Continuous
 62
     9
100
AcDbSpline
210
0.0
220
0.0
230
1.0
 70
     8
 71
     3
 72
    15
 73
    11
 74
     0
 42
0.0000001
 43
0.0000000001
 40
0.0
 40
0.0
 40
0.0
 40
0.0
 40
0.1250005446
 40
0.2500009786
 40
0.3750012847999999
 40
0.5000014243999999
 40
0.6250013188
 40
0.7500010101000001
 40
0.8750005355
 40
1.0
 40
1.0
 40
1.0
 40
1.0
 10
56.6594303585
 20
99.88531725340001
 30
0.0
 10
56.118655406
 20
99.8853172515
 30
0.0
 10
55.0371007381
 20
99.88169472510001
 30
0.0
 10
53.41486362939999
 20
99.86307250540001
 30
0.0
 10
51.7928735361
 20
99.8289091592
 30
0.0
 10
50.1713478195
 20
99.77697198760001
 30
0.0
 10
48.5506197543
 20
99.7040073143
 30
0.0
 10
46.93116788229999
 20
99.6064782122
 30
0.0
 10
45.31362131359999
 20
99.4811251031
 30
0.0
 10
44.2370914414
 20
99.376093935
 30
0.0
 10
43.69951938319999
 20
99.3173676413
 30
0.0
  0
SPLINE
  5
5E1
330
21E
100
AcDbEntity
  8
0
  6
Continuous
 62
     9
100
AcDbSpline
210
0.0
220
0.0
230
1.0
 70
     8
 71
     3
 72
    23
 73
    19
 74
     0
 42
0.0000001
 43
0.0000000001
 40
0.0
 40
0.0
 40
0.0
 40
0.0
 40
0.0635218964
 40
0.1268758902
 40
0.1900051628
 40
0.2528796846
 40
0.3154898614
 40
0.3778451382
 40
0.4399971926
 40
0.5020224276
 40
0.5639646909
 40
0.6259365699
 40
0.6880266985
 40
0.7502724203
 40
0.8126551402
 40
0.8751113802
 40
0.9375781509999999
 40
1.0
 40
1.0
 40
1.0
 40
1.0
 10
69.6193411493
 20
99.31736766190001
 30
0.0
 10
70.20100807670001
 20
99.25382478000001
 30
0.0
 10
71.36097526109999
 20
99.10915789290001
 30
0.0
 10
73.089378904
 20
98.83114536
 30
0.0
 10
74.79942702439998
 20
98.4845928932
 30
0.0
 10
76.48470871419999
 20
98.0591180194
 30
0.0
 10
78.1371978694
 20
97.5426478175
 30
0.0
 10
79.746433622
 20
96.9211532857
 30
0.0
 10
81.29793277600001
 20
96.177978683
 30
0.0
 10
82.77102552130001
 20
95.29522894360001
 30
0.0
 10
84.13824239680002
 20
94.25696210799999
 30
0.0
 10
85.36421458339999
 20
93.05263209559999
 30
0.0
 10
86.4113489045
 20
91.68531318639999
 30
0.0
 10
87.2487237922
 20
90.17591888620001
 30
0.0
 10
87.8642121602
 20
88.56051463780001
 30
0.0
 10
88.26757200000001
 20
86.87873255659999
 30
0.0
 10
88.48434424950001
 20
85.1639019881
 30
0.0
 10
88.52567489409999
 20
84.01282283669999
 30
0.0
 10
88.52567489409999
 20
83.4378284123
 30
0.0
  0
SPLINE
  5
5E2
330
21E
100
AcDbEntity
  8
0
  6
Continuous
 62
     9
100
AcDbSpline
210
0.0
220
0.0
230
1.0
 70
     8
 71
     3
 72
    45
 73
    41
 74
     0
 42
0.0000001
 43
0.0000000001
 40
0.0
 40
0.0
 40
0.0
 40
0.0
 40
0.0312477209
 40
0.0624946173
 40
0.0937410439
 40
0.1249888976
 40
0.15623599
 40
0.1874831506
 40
0.2187304949
 40
0.2343554904
 40
0.2421686976
 40
0.2499821841
 40
0.2577956597
 40
0.2656086646
 40
0.2734212467
 40
0.2812335985
 40
0.2890456216
 40
0.296858066
 40
0.3046709687
 40
0.3124836222
 40
0.3202959972
 40
0.3281086051
 40
0.343735091
 40
0.3593660108
 40
0.3750020382
 40
0.3906403979999999
 40
0.4062760631000001
 40
0.4375225585
 40
0.4687677621
 40
0.5000226907
 40
0.5312753467000001
 40
0.5625234767000001
 40
0.6250162816
 40
0.6875136124
 40
0.7187627348000002
 40
0.7500114444000001
 40
0.8125070763
 40
0.8750050291
 40
0.9375028738999999
 40
1.0
 40
1.0
 40
1.0
 40
1.0
 10
92.1594281512
 20
83.43782841319999
 30
0.0
 10
92.1595489199
 20
83.7590568296
 30
0.0
 10
92.13912803159999
 20
84.40170343050001
 30
0.0
 10
92.04621240180001
 20
85.3615441119
 30
0.0
 10
91.889180529
 20
86.3130861099
 30
0.0
 10
91.6678410021
 20
87.2517529958
 30
0.0
 10
91.383065651
 20
88.1731751302
 30
0.0
 10
91.03660544929999
 20
89.07316631549999
 30
0.0
 10
90.69887480780002
 20
89.8024606307
 30
0.0
 10
90.4379588001
 20
90.30050819620001
 30
0.0
 10
90.28230416780001
 20
90.58156555409999
 30
0.0
 10
90.16230778299998
 20
90.79053999790001
 30
0.0
 10
90.03909093950001
 20
90.99762983549998
 30
0.0
 10
89.91256479379998
 20
91.20270403799999
 30
0.0
 10
89.78293808049999
 20
91.40581559290001
 30
0.0
 10
89.65085934059999
 20
91.60732583919999
 30
0.0
 10
89.51591781399999
 20
91.80694144610001
 30
0.0
 10
89.37618165519999
 20
92.0032510493
 30
0.0
 10
89.23159288929999
 20
92.19601961930001
 30
0.0
 10
89.0823220575
 20
92.3851855684
 30
0.0
 10
88.92834744139999
 20
92.57054090469999
 30
0.0
 10
88.7170013751
 20
92.8125390735
 30
0.0
 10
88.4418449494
 20
93.1053430202
 30
0.0
 10
88.0963026885
 20
93.4416876605
 30
0.0
 10
87.73695234120001
 20
93.7634029922
 30
0.0
 10
87.36531481909999
 20
94.07089463149999
 30
0.0
 10
86.8555429297
 20
94.4625088255
 30
0.0
 10
86.1943921109
 20
94.91953478479999
 30
0.0
 10
85.3707223378
 20
95.4207316912
 30
0.0
 10
84.5226277335
 20
95.8793450861
 30
0.0
 10
83.65487473489999
 20
96.29946452969999
 30
0.0
 10
82.4767176049
 20
96.81300819170001
 30
0.0
 10
80.971220638
 20
97.37610737709999
 30
0.0
 10
79.4363205464
 20
97.851626807
 30
0.0
 10
78.19599018569999
 20
98.18767138620001
 30
0.0
 10
76.9485687841
 20
98.4962892318
 30
0.0
 10
75.37802365180001
 20
98.83472632770001
 30
0.0
 10
73.4805948241
 20
99.1752467112
 30
0.0
 10
71.5738322749
 20
99.4585237124
 30
0.0
 10
70.298084083
 20
99.61336420020002
 30
0.0
 10
69.65943047829999
 20
99.6833260648
 30
0.0
  0
SPLINE
  5
5E3
330
21E
100
AcDbEntity
  8
0
  6
Continuous
 62
     9
100
AcDbSpline
210
0.0
220
0.0
230
1.0
 70
     8
 71
     3
 72
    15
 73
    11
 74
     0
 42
0.0000001
 43
0.0000000001
 40
0.0
 40
0.0
 40
0.0
 40
0.0
 40
0.1250005034
 40
0.2500008984
 40
0.3750011717
 40
0.5000012882
 40
0.6250011748
 40
0.7500008796
 40
0.8750004425
 40
1.0
 40
1.0
 40
1.0
 40
1.0
 10
56.659430488
 20
100.2551035328
 30
0.0
 10
57.2018833058
 20
100.2551035286
 30
0.0
 10
58.2867937737
 20
100.2514477823
 30
0.0
 10
59.91406336069999
 20
100.2326745952
 30
0.0
 10
61.5410829827
 20
100.1982448407
 30
0.0
 10
63.1676330056
 20
100.1459173706
 30
0.0
 10
64.7933768723
 20
100.072424149
 30
0.0
 10
66.4178322616
 20
99.97422349629999
 30
0.0
 10
68.0403658246
 20
99.84805418170001
 30
0.0
 10
69.1202074375
 20
99.7423948259
 30
0.0
 10
69.65943060010001
 20
99.68332717670001
 30
0.0
  0
SPLINE
  5
5E4
330
21E
100
AcDbEntity
  8
0
  6
Continuous
 62
     9
100
AcDbSpline
210
0.0
220
0.0
230
1.0
 70
     8
 71
     3
 72
    15
 73
    11
 74
     0
 42
0.0000001
 43
0.0000000001
 40
0.0
 40
0.0
 40
0.0
 40
0.0
 40
0.1250005034
 40
0.2500008984
 40
0.3750011717
 40
0.5000012882
 40
0.6250011748
 40
0.7500008796
 40
0.8750004425
 40
1.0
 40
1.0
 40
1.0
 40
1.0
 10
56.659430488
 20
100.2551035328
 30
0.0
 10
56.11697765939999
 20
100.2551035286
 30
0.0
 10
55.0320671699
 20
100.2514477843
 30
0.0
 10
53.4047975505
 20
100.2326745984
 30
0.0
 10
51.7777778961
 20
100.1982448451
 30
0.0
 10
50.15122784079999
 20
100.1459173757
 30
0.0
 10
48.5254839416
 20
100.0724241543
 30
0.0
 10
46.90102851999999
 20
99.974223501
 30
0.0
 10
45.2784949246
 20
99.84805418469999
 30
0.0
 10
44.19865329020001
 20
99.74239482709998
 30
0.0
 10
43.65943011689999
 20
99.68332717670001
 30
0.0
  0
SPLINE
  5
5E5
330
21E
100
AcDbEntity
  8
0
  6
Continuous
 62
     9
100
AcDbSpline
210
0.0
220
0.0
230
1.0
 70
     8
 71
     3
 72
    15
 73
    11
 74
     0
 42
0.0000001
 43
0.0000000001
 40
0.0
 40
0.0
 40
0.0
 40
0.0
 40
0.1250005355
 40
0.2500009616
 40
0.3750012625
 40
0.5000014031000001
 40
0.625001308
 40
0.7500010107
 40
0.8750005481
 40
1.0
 40
1.0
 40
1.0
 40
1.0
 10
56.6594303585
 20
66.6205547392
 30
0.0
 10
56.1169773961
 20
66.6205547434
 30
0.0
 10
55.0320666375
 20
66.62420843300001
 30
0.0
 10
53.4047966369
 20
66.6429822009
 30
0.0
 10
51.77777666909999
 20
66.6774129998
 30
0.0
 10
50.1512262913
 20
66.7297392759
 30
0.0
 10
48.5254822312
 20
66.8032326565
 30
0.0
 10
46.90102691889999
 20
66.90143398949999
 30
0.0
 10
45.2784937946
 20
67.0276017638
 30
0.0
 10
44.1986528289
 20
67.13326204810001
 30
0.0
 10
43.65943011689999
 20
67.19232964789999
 30
0.0
  0
SPLINE
  5
5E6
330
21E
100
AcDbEntity
  8
0
  6
Continuous
 62
     9
100
AcDbSpline
210
0.0
220
0.0
230
1.0
 70
     8
 71
     3
 72
    15
 73
    11
 74
     0
 42
0.0000001
 43
0.0000000001
 40
0.0
 40
0.0
 40
0.0
 40
0.0
 40
0.1250005355
 40
0.2500009616
 40
0.3750012625
 40
0.5000014031000001
 40
0.625001308
 40
0.7500010107
 40
0.8750005481
 40
1.0
 40
1.0
 40
1.0
 40
1.0
 10
56.6594303585
 20
66.6205547392
 30
0.0
 10
57.2018833208
 20
66.6205547434
 30
0.0
 10
58.2867940794
 20
66.62420843300001
 30
0.0
 10
59.91406408
 20
66.6429822009
 30
0.0
 10
61.5410840479
 20
66.6774129998
 30
0.0
 10
63.1676344256
 20
66.7297392759
 30
0.0
 10
64.79337848580001
 20
66.8032326565
 30
0.0
 10
66.417833798
 20
66.90143398949999
 30
0.0
 10
68.0403669224
 20
67.0276017638
 30
0.0
 10
69.1202078881
 20
67.13326204810001
 30
0.0
 10
69.65943060010001
 20
67.19232964789999
 30
0.0
  0
SPLINE
  5
5E7
330
21E
100
AcDbEntity
  8
0
  6
Continuous
 62
     9
100
AcDbSpline
210
0.0
220
0.0
230
1.0
 70
     8
 71
     3
 72
    26
 73
    22
 74
     0
 42
0.0000001
 43
0.0000000001
 40
0.0
 40
0.0
 40
0.0
 40
0.0
 40
0.1249944143
 40
0.1874959223
 40
0.2499974682
 40
0.3124989198
 40
0.3750002785
 40
0.4375014187
 40
0.5000021479
 40
0.5625022931000001
 40
0.6250017719
 40
0.6875004504000001
 40
0.7499981897
 40
0.7812485427000001
 40
0.8124988153
 40
0.8437490506999999
 40
0.8749992481000001
 40
0.9062493828
 40
0.9374994729
 40
0.9687496031
 40
1.0
 40
1.0
 40
1.0
 40
1.0
 10
56.6594302388
 20
62.54985324999999
 30
0.0
 10
57.8280101283
 20
62.5498532659
 30
0.0
 10
59.58133333479999
 20
62.59056971359999
 30
0.0
 10
61.9145235026
 20
62.7310181413
 30
0.0
 10
63.6613122818
 20
62.88081587979999
 30
0.0
 10
65.4035364036
 20
63.07666125589999
 30
0.0
 10
67.13972279939999
 20
63.3204486213
 30
0.0
 10
68.8681486963
 20
63.61434815189999
 30
0.0
 10
70.5868400934
 20
63.96075271069999
 30
0.0
 10
72.2935290855
 20
64.36220479399999
 30
0.0
 10
73.985617875
 20
64.8214179392
 30
0.0
 10
75.659911923
 20
65.3418526977
 30
0.0
 10
77.03701706220001
 20
65.8304603024
 30
0.0
 10
78.12533995609999
 20
66.25637291949999
 30
0.0
 10
78.934384016
 20
66.5937175568
 30
0.0
 10
79.735541122
 20
66.9493890775
 30
0.0
 10
80.52802290349999
 20
67.3240116148
 30
0.0
 10
81.3107768254
 20
67.7185834477
 30
0.0
 10
82.082436158
 20
68.1344717689
 30
0.0
 10
82.8419372935
 20
68.57215164
 30
0.0
 10
83.34004185220001
 20
68.877817651
 30
0.0
 10
83.58676101790001
 20
69.0343045028
 30
0.0
  0
SPLINE
  5
5E8
330
21E
100
AcDbEntity
  8
0
  6
Continuous
 62
     9
100
AcDbSpline
210
0.0
220
0.0
230
1.0
 70
     8
 71
     3
 72
    26
 73
    22
 74
     0
 42
0.0000001
 43
0.0000000001
 40
0.0
 40
0.0
 40
0.0
 40
0.0
 40
0.0312500242
 40
0.0624999792
 40
0.0937499727
 40
0.1250000332
 40
0.156250153
 40
0.1875003126
 40
0.2187505543
 40
0.250000924
 40
0.3124987791
 40
0.3749976438
 40
0.4374974139
 40
0.4999979382000001
 40
0.5624989432000001
 40
0.6250001623000001
 40
0.6875014827000001
 40
0.7500028718000001
 40
0.8125043566
 40
0.8750057804
 40
1.0
 40
1.0
 40
1.0
 40
1.0
 10
29.732099699
 20
69.0343045028
 30
0.0
 10
29.978815464
 20
68.87781879649999
 30
0.0
 10
30.4769146925
 20
68.5721538854
 30
0.0
 10
31.2364104882
 20
68.1344767419
 30
0.0
 10
32.00806817050001
 20
67.71859220260001
 30
0.0
 10
32.7908194876
 20
67.3240204026
 30
0.0
 10
33.5832993466
 20
66.9493987732
 30
0.0
 10
34.3844543625
 20
66.5937268027
 30
0.0
 10
35.1934975905
 20
66.25638234829999
 30
0.0
 10
36.2818210235
 20
65.8304685084
 30
0.0
 10
37.6589288961
 20
65.34185970439999
 30
0.0
 10
39.3332276258
 20
64.821421376
 30
0.0
 10
41.0253239053
 20
64.362205145
 30
0.0
 10
42.7320218112
 20
63.9607522873
 30
0.0
 10
44.45072001899999
 20
63.6143468704
 30
0.0
 10
46.1791488448
 20
63.3204469084
 30
0.0
 10
47.9153350993
 20
63.0766600481
 30
0.0
 10
49.657557693
 20
62.88081466659999
 30
0.0
 10
51.40434456779999
 20
62.73101745189999
 30
0.0
 10
53.7375315756
 20
62.590569526
 30
0.0
 10
55.4908521712
 20
62.5498532645
 30
0.0
 10
56.6594302388
 20
62.54985324999999
 30
0.0
  0
SPLINE
  5
5E9
330
21E
100
AcDbEntity
  8
0
  6
Continuous
 62
     9
100
AcDbSpline
210
0.0
220
0.0
230
1.0
 70
     8
 71
     3
 72
    28
 73
    24
 74
     0
 42
0.0000001
 43
0.0000000001
 40
0.0
 40
0.0
 40
0.0
 40
0.0
 40
0.0624977157
 40
0.1249942145
 40
0.18749031
 40
0.2499863119
 40
0.3124825945
 40
0.3749794972
 40
0.4374772537
 40
0.4999761015999999
 40
0.5624760444
 40
0.6249771305
 40
0.687479271
 40
0.7499821228
 40
0.8124849391999999
 40
0.8749873314
 40
0.9062403240000001
 40
0.9218670234000001
 40
0.9374937043
 40
0.9531202890999999
 40
0.9687468365
 40
0.9843735091999999
 40
1.0
 40
1.0
 40
1.0
 40
1.0
 10
20.767564988
 20
83.4378284123
 30
0.0
 10
20.7674882527
 20
83.06820073869999
 30
0.0
 10
20.7934298306
 20
82.3286556867
 30
0.0
 10
20.9135429659
 20
81.2253261228
 30
0.0
 10
21.1163898634
 20
80.1340831455
 30
0.0
 10
21.4018378262
 20
79.0614838864
 30
0.0
 10
21.7681406149
 20
78.01374708729999
 30
0.0
 10
22.2119692593
 20
76.9964651112
 30
0.0
 10
22.7287114534
 20
76.01427049649998
 30
0.0
 10
23.3129284027
 20
75.0707238902
 30
0.0
 10
23.9587171386
 20
74.1682875068
 30
0.0
 10
24.6599086661
 20
73.3082840032
 30
0.0
 10
25.410574184
 20
72.4911968517
 30
0.0
 10
26.2052478014
 20
71.7169328845
 30
0.0
 10
27.0387384501
 20
70.98473983149999
 30
0.0
 10
27.7617929441
 20
70.40862613539999
 30
0.0
 10
28.2810736426
 20
70.0227478141
 30
0.0
 10
28.581327224
 20
69.8070739213
 30
0.0
 10
28.8082084504
 20
69.6476969852
 30
0.0
 10
29.0367634155
 20
69.4907309794
 30
0.0
 10
29.2669684113
 20
69.3361962002
 30
0.0
 10
29.4986105822
 20
69.18382725399999
 30
0.0
 10
29.6540571265
 20
69.0838085397
 30
0.0
 10
29.732099699
 20
69.0343045028
 30
0.0
  0
SPLINE
  5
5EA
330
21E
100
AcDbEntity
  8
0
  6
Continuous
 62
     9
100
AcDbSpline
210
0.0
220
0.0
230
1.0
 70
     8
 71
     3
 72
    23
 73
    19
 74
     0
 42
0.0000001
 43
0.0000000001
 40
0.0
 40
0.0
 40
0.0
 40
0.0
 40
0.0635218964
 40
0.1268758902
 40
0.1900051628
 40
0.2528796846
 40
0.3154898614
 40
0.3778451382
 40
0.4399971926
 40
0.5020224276
 40
0.5639646909
 40
0.6259365699
 40
0.6880266985
 40
0.7502724203
 40
0.8126551402
 40
0.8751113802
 40
0.9375781509999999
 40
1.0
 40
1.0
 40
1.0
 40
1.0
 10
43.6995195676
 20
67.55828916279999
 30
0.0
 10
43.1178526403
 20
67.6218320446
 30
0.0
 10
41.95788545590001
 20
67.7664989318
 30
0.0
 10
40.229481813
 20
68.0445114646
 30
0.0
 10
38.5194336925
 20
68.3910639315
 30
0.0
 10
36.8341520027
 20
68.8165388053
 30
0.0
 10
35.1816628476
 20
69.3330090071
 30
0.0
 10
33.5724270949
 20
69.954503539
 30
0.0
 10
32.020927941
 20
70.69767814169999
 30
0.0
 10
30.5478351957
 20
71.58042788109999
 30
0.0
 10
29.1806183202
 20
72.6186947166
 30
0.0
 10
27.9546461335
 20
73.8230247291
 30
0.0
 10
26.9075118124
 20
75.19034363819999
 30
0.0
 10
26.0701369248
 20
76.69973793850001
 30
0.0
 10
25.4546485568
 20
78.31514218689999
 30
0.0
 10
25.0512887169
 20
79.996924268
 30
0.0
 10
24.8345164675
 20
81.71175483659999
 30
0.0
 10
24.7931858228
 20
82.862833988
 30
0.0
 10
24.7931858228
 20
83.4378284123
 30
0.0
  0
SPLINE
  5
5EB
330
21E
100
AcDbEntity
  8
0
  6
Continuous
 62
     9
100
AcDbSpline
210
0.0
220
0.0
230
1.0
 70
     8
 71
     3
 72
    45
 73
    41
 74
     0
 42
0.0000001
 43
0.0000000001
 40
0.0
 40
0.0
 40
0.0
 40
0.0
 40
0.0312477209
 40
0.0624946173
 40
0.0937410439
 40
0.1249888976
 40
0.15623599
 40
0.1874831506
 40
0.2187304949
 40
0.2343554904
 40
0.2421686976
 40
0.2499821841
 40
0.2577956597
 40
0.2656086646
 40
0.2734212467
 40
0.2812335985
 40
0.2890456216
 40
0.296858066
 40
0.3046709687
 40
0.3124836222
 40
0.3202959972
 40
0.3281086051
 40
0.343735091
 40
0.3593660108
 40
0.3750020382
 40
0.3906403979999999
 40
0.4062760631000001
 40
0.4375225585
 40
0.4687677621
 40
0.5000226907
 40
0.5312753467000001
 40
0.5625234767000001
 40
0.6250162816
 40
0.6875136124
 40
0.7187627348000002
 40
0.7500114444000001
 40
0.8125070763
 40
0.8750050291
 40
0.9375028738999999
 40
1.0
 40
1.0
 40
1.0
 40
1.0
 10
21.1594325658
 20
83.4378284115
 30
0.0
 10
21.1593117971
 20
83.1165999951
 30
0.0
 10
21.1797326853
 20
82.4739533942
 30
0.0
 10
21.2726483152
 20
81.51411271269999
 30
0.0
 10
21.429680188
 20
80.56257071479999
 30
0.0
 10
21.6510197149
 20
79.62390382889999
 30
0.0
 10
21.935795066
 20
78.70248169449999
 30
0.0
 10
22.28225526760001
 20
77.8024905092
 30
0.0
 10
22.6199859091
 20
77.07319619399999
 30
0.0
 10
22.8809019169
 20
76.5751486284
 30
0.0
 10
23.0365565492
 20
76.2940912706
 30
0.0
 10
23.156552934
 20
76.0851168268
 30
0.0
 10
23.2797697774
 20
75.8780269892
 30
0.0
 10
23.4062959231
 20
75.67295278669999
 30
0.0
 10
23.5359226365
 20
75.4698412317
 30
0.0
 10
23.6680013763
 20
75.2683309854
 30
0.0
 10
23.802942903
 20
75.0687153785
 30
0.0
 10
23.9426790618
 20
74.87240577539999
 30
0.0
 10
24.0872678277
 20
74.6796372053
 30
0.0
 10
24.2365386594
 20
74.49047125629999
 30
0.0
 10
24.3905132755
 20
74.30511592000001
 30
0.0
 10
24.6018593419
 20
74.06311775119999
 30
0.0
 10
24.87701576760001
 20
73.77031380439999
 30
0.0
 10
25.2225580285
 20
73.43396916420001
 30
0.0
 10
25.58190837570001
 20
73.1122538325
 30
0.0
 10
25.9535458979
 20
72.80476219319999
 30
0.0
 10
26.4633177873
 20
72.41314799920001
 30
0.0
 10
27.1244686061
 20
71.95612203979999
 30
0.0
 10
27.9481383791
 20
71.45492513339999
 30
0.0
 10
28.7962329835
 20
70.9963117386
 30
0.0
 10
29.663985982
 20
70.576192295
 30
0.0
 10
30.842143112
 20
70.06264863289999
 30
0.0
 10
32.347640079
 20
69.4995494476
 30
0.0
 10
33.8825401705
 20
69.02403001759999
 30
0.0
 10
35.12287053130001
 20
68.6879854384
 30
0.0
 10
36.3702919329
 20
68.37936759279999
 30
0.0
 10
37.9408370652
 20
68.040930497
 30
0.0
 10
39.8382658928
 20
67.7004101135
 30
0.0
 10
41.7450284421
 20
67.4171331122
 30
0.0
 10
43.0207766339
 20
67.26229262439999
 30
0.0
 10
43.65943023869999
 20
67.1923307598
 30
0.0
  0
SPLINE
  5
5EC
330
21E
100
AcDbEntity
  8
0
  6
Continuous
 62
     9
100
AcDbSpline
210
0.0
220
0.0
230
1.0
 70
     8
 71
     3
 72
    26
 73
    22
 74
     0
 42
0.0000001
 43
0.0000000001
 40
0.0
 40
0.0
 40
0.0
 40
0.0
 40
0.031252507
 40
0.0625049836
 40
0.0937576527
 40
0.1250105264
 40
0.187512795
 40
0.2500153643
 40
0.31251741
 40
0.3750185043999999
 40
0.4375186357
 40
0.5000176388000001
 40
0.5625155906
 40
0.6250125290000001
 40
0.6875086637000001
 40
0.7500042592
 40
0.812499623
 40
0.8437530054999999
 40
0.8750064048999998
 40
0.9375025372999999
 40
1.0
 40
1.0
 40
1.0
 40
1.0
 10
29.732099699
 20
97.8413523218
 30
0.0
 10
29.576022055
 20
97.7423342167
 30
0.0
 10
29.2662403061
 20
97.54054709809999
 30
0.0
 10
28.8073516785
 20
97.22919231049999
 30
0.0
 10
28.3552615823
 20
96.9080171997
 30
0.0
 10
27.7617850406
 20
96.4670300486
 30
0.0
 10
27.0387268824
 20
95.8909060515
 30
0.0
 10
26.2052334382
 20
95.15871147389999
 30
0.0
 10
25.4105620907
 20
94.3844466728
 30
0.0
 10
24.6599004793
 20
93.56736363469998
 30
0.0
 10
23.9587125173
 20
92.7073652127
 30
0.0
 10
23.3129300241
 20
91.80493121229998
 30
0.0
 10
22.7287137911
 20
90.8613892115
 30
0.0
 10
22.2119712806
 20
89.8792007033
 30
0.0
 10
21.7681414055
 20
88.86191481370001
 30
0.0
 10
21.4018391651
 20
87.81420529729999
 30
0.0
 10
21.1639617275
 20
86.92025783049999
 30
0.0
 10
21.0149451468
 20
86.1959739475
 30
0.0
 10
20.8935542678
 20
85.4665391608
 30
0.0
 10
20.7934224492
 20
84.5469881522
 30
0.0
 10
20.7674887189
 20
83.80745828189999
 30
0.0
 10
20.767564988
 20
83.4378284123
 30
0.0
  0
SPLINE
  5
5ED
330
21E
100
AcDbEntity
  8
0
  6
Continuous
 62
     9
100
AcDbSpline
210
0.0
220
0.0
230
1.0
 70
     8
 71
     3
 72
    26
 73
    22
 74
     0
 42
0.0000001
 43
0.0000000001
 40
0.0
 40
0.0
 40
0.0
 40
0.0
 40
0.1249944143
 40
0.1874959223
 40
0.2499974682
 40
0.3124989198
 40
0.3750002785
 40
0.4375014187
 40
0.5000021479
 40
0.5625022931000001
 40
0.6250017719
 40
0.6875004504000001
 40
0.7499981897
 40
0.7812485427000001
 40
0.8124988153
 40
0.8437490506999999
 40
0.8749992481000001
 40
0.9062493828
 40
0.9374994729
 40
0.9687496031
 40
1.0
 40
1.0
 40
1.0
 40
1.0
 10
56.65943047819999
 20
104.3258035746
 30
0.0
 10
55.4908505887
 20
104.3258035587
 30
0.0
 10
53.7375273822
 20
104.2850871111
 30
0.0
 10
51.40433721439999
 20
104.1446386833
 30
0.0
 10
49.6575484352
 20
103.9948409449
 30
0.0
 10
47.9153243134
 20
103.7989955687
 30
0.0
 10
46.1791379176
 20
103.5552082034
 30
0.0
 10
44.45071202069999
 20
103.2613086728
 30
0.0
 10
42.7320206236
 20
102.914904114
 30
0.0
 10
41.0253316314
 20
102.5134520306
 30
0.0
 10
39.333242842
 20
102.0542388854
 30
0.0
 10
37.65894879400001
 20
101.5338041269
 30
0.0
 10
36.2818436548
 20
101.0451965222
 30
0.0
 10
35.1935207609
 20
100.6192839052
 30
0.0
 10
34.384476701
 20
100.2819392678
 30
0.0
 10
33.5833195949
 20
99.92626774719999
 30
0.0
 10
32.7908378135
 20
99.55164520990001
 30
0.0
 10
32.0080838915
 20
99.15707337690001
 30
0.0
 10
31.236424559
 20
98.7411850558
 30
0.0
 10
30.4769234234
 20
98.30350518459999
 30
0.0
 10
29.9788188647
 20
97.9978391736
 30
0.0
 10
29.732099699
 20
97.8413523218
 30
0.0
  0
SPLINE
  5
5EE
330
21E
100
AcDbEntity
  8
0
  6
Continuous
 62
     9
100
AcDbSpline
210
0.0
220
0.0
230
1.0
 70
     8
 71
     3
 72
    26
 73
    22
 74
     0
 42
0.0000001
 43
0.0000000001
 40
0.0
 40
0.0
 40
0.0
 40
0.0
 40
0.0312500242
 40
0.0624999792
 40
0.0937499727
 40
0.1250000332
 40
0.156250153
 40
0.1875003126
 40
0.2187505543
 40
0.250000924
 40
0.3124987791
 40
0.3749976438
 40
0.4374974139
 40
0.4999979382000001
 40
0.5624989432000001
 40
0.6250001623000001
 40
0.6875014827000001
 40
0.7500028718000001
 40
0.8125043566
 40
0.8750057804
 40
1.0
 40
1.0
 40
1.0
 40
1.0
 10
83.58676101790001
 20
97.8413523218
 30
0.0
 10
83.34004525300001
 20
97.99783802809999
 30
0.0
 10
82.8419460245
 20
98.3035029392
 30
0.0
 10
82.08245022879999
 20
98.74118008280001
 30
0.0
 10
81.3107925465
 20
99.1570646221
 30
0.0
 10
80.52804122939999
 20
99.55163642209999
 30
0.0
 10
79.7355613704
 20
99.92625805140001
 30
0.0
 10
78.9344063544
 20
100.2819300219
 30
0.0
 10
78.1253631264
 20
100.6192744764
 30
0.0
 10
77.03703969350001
 20
101.0451883162
 30
0.0
 10
75.65993182079999
 20
101.5337971203
 30
0.0
 10
73.9856330912
 20
102.0542354486
 30
0.0
 10
72.2935368117
 20
102.5134516797
 30
0.0
 10
70.58683890579999
 20
102.9149045374
 30
0.0
 10
68.868140698
 20
103.2613099542
 30
0.0
 10
67.1397118722
 20
103.5552099163
 30
0.0
 10
65.40352561769999
 20
103.7989967765
 30
0.0
 10
63.661303024
 20
103.9948421581
 30
0.0
 10
61.9145161492
 20
104.1446393728
 30
0.0
 10
59.58132914140001
 20
104.2850872986
 30
0.0
 10
57.82800854579999
 20
104.3258035602
 30
0.0
 10
56.65943047819999
 20
104.3258035746
 30
0.0
  0
SPLINE
  5
5EF
330
21E
100
AcDbEntity
  8
0
  6
Continuous
 62
     9
100
AcDbSpline
210
0.0
220
0.0
230
1.0
 70
     8
 71
     3
 72
    28
 73
    24
 74
     0
 42
0.0000001
 43
0.0000000001
 40
0.0
 40
0.0
 40
0.0
 40
0.0
 40
0.0624977157
 40
0.1249942145
 40
0.18749031
 40
0.2499863119
 40
0.3124825945
 40
0.3749794972
 40
0.4374772537
 40
0.4999761015999999
 40
0.5624760444
 40
0.6249771305
 40
0.687479271
 40
0.7499821228
 40
0.8124849391999999
 40
0.8749873314
 40
0.9062403240000001
 40
0.9218670234000001
 40
0.9374937043
 40
0.9531202890999999
 40
0.9687468365
 40
0.9843735091999999
 40
1.0
 40
1.0
 40
1.0
 40
1.0
 10
92.55129572889998
 20
83.4378284123
 30
0.0
 10
92.5513724642
 20
83.80745608599999
 30
0.0
 10
92.52543088629998
 20
84.5470011379
 30
0.0
 10
92.4053177511
 20
85.65033070189999
 30
0.0
 10
92.20247085350001
 20
86.7415736791
 30
0.0
 10
91.91702289069999
 20
87.81417293830001
 30
0.0
 10
91.55072010209998
 20
88.8619097373
 30
0.0
 10
91.1068914576
 20
89.87919171340001
 30
0.0
 10
90.59014926360001
 20
90.8613863282
 30
0.0
 10
90.0059323143
 20
91.8049329345
 30
0.0
 10
89.36014357839999
 20
92.70736931790001
 30
0.0
 10
88.6589520509
 20
93.5673728214
 30
0.0
 10
87.908286533
 20
94.38445997290001
 30
0.0
 10
87.11361291560001
 20
95.15872394010001
 30
0.0
 10
86.28012226690001
 20
95.89091699319999
 30
0.0
 10
85.5570677729
 20
96.46703068930001
 30
0.0
 10
85.0377870744
 20
96.8529090106
 30
0.0
 10
84.73753349289999
 20
97.06858290340001
 30
0.0
 10
84.5106522666
 20
97.2279598395
 30
0.0
 10
84.28209730149999
 20
97.3849258453
 30
0.0
 10
84.0518923057
 20
97.5394606244
 30
0.0
 10
83.82025013479999
 20
97.6918295707
 30
0.0
 10
83.66480359049999
 20
97.791848285
 30
0.0
 10
83.58676101790001
 20
97.8413523218
 30
0.0
  0
SPLINE
  5
5F0
330
21E
100
AcDbEntity
  8
0
  6
Continuous
 62
     9
100
AcDbSpline
210
0.0
220
0.0
230
1.0
 70
     8
 71
     3
 72
    26
 73
    22
 74
     0
 42
0.0000001
 43
0.0000000001
 40
0.0
 40
0.0
 40
0.0
 40
0.0
 40
0.031252507
 40
0.0625049836
 40
0.0937576527
 40
0.1250105264
 40
0.187512795
 40
0.2500153643
 40
0.31251741
 40
0.3750185043999999
 40
0.4375186357
 40
0.5000176388000001
 40
0.5625155906
 40
0.6250125290000001
 40
0.6875086637000001
 40
0.7500042592
 40
0.812499623
 40
0.8437530054999999
 40
0.8750064048999998
 40
0.9375025372999999
 40
1.0
 40
1.0
 40
1.0
 40
1.0
 10
83.58676101790001
 20
69.0343045028
 30
0.0
 10
83.74283866189999
 20
69.133322608
 30
0.0
 10
84.0526204108
 20
69.33510972659999
 30
0.0
 10
84.5115090384
 20
69.64646451420001
 30
0.0
 10
84.9635991347
 20
69.9676396249
 30
0.0
 10
85.5570756764
 20
70.408626776
 30
0.0
 10
86.28013383450001
 20
70.9847507731
 30
0.0
 10
87.11362727879999
 20
71.7169453508
 30
0.0
 10
87.9082986262
 20
72.49121015189999
 30
0.0
 10
88.6589602377
 20
73.30829319
 30
0.0
 10
89.36014819959998
 20
74.1682916119
 30
0.0
 10
90.00593069290001
 20
75.0707256124
 30
0.0
 10
90.59014692579999
 20
76.01426761319999
 30
0.0
 10
91.1068894363
 20
76.9964561214
 30
0.0
 10
91.55071931139998
 20
78.013742011
 30
0.0
 10
91.91702155180001
 20
79.06145152739999
 30
0.0
 10
92.15489898950002
 20
79.95539899419999
 30
0.0
 10
92.3039155702
 20
80.6796828771
 30
0.0
 10
92.42530644909999
 20
81.4091176638
 30
0.0
 10
92.52543826770001
 20
82.32866867250001
 30
0.0
 10
92.551371998
 20
83.06819854279998
 30
0.0
 10
92.55129572889998
 20
83.4378284123
 30
0.0
  0
SPLINE
  5
5F1
330
21E
100
AcDbEntity
  8
0
  6
Continuous
 62
     9
100
AcDbSpline
210
0.0
220
0.0
230
1.0
 70
     8
 71
     3
 72
    13
 73
     9
 74
     0
 42
0.0000001
 43
0.0000000001
 40
0.0
 40
0.0
 40
0.0
 40
0.0
 40
0.2586584795
 40
0.3794869937
 40
0.4969742226
 40
0.6149275828000001
 40
0.7370718713
 40
1.0
 40
1.0
 40
1.0
 40
1.0
 10
54.4830693234
 20
99.61019316399999
 30
0.0
 10
54.47666455220001
 20
99.62227575100001
 30
0.0
 10
54.4671604518
 20
99.63995658120001
 30
0.0
 10
54.45355261100001
 20
99.66243782120002
 30
0.0
 10
54.4435053527
 20
99.67837000190002
 30
0.0
 10
54.4334640883
 20
99.6943885163
 30
0.0
 10
54.4198472505
 20
99.71723873770001
 30
0.0
 10
54.4103848935
 20
99.73527713600001
 30
0.0
 10
54.4039832757
 20
99.74761626719999
 30
0.0
  0
SPLINE
  5
5F2
330
21E
100
AcDbEntity
  8
0
  6
Continuous
 62
     9
100
AcDbSpline
210
0.0
220
0.0
230
1.0
 70
     8
 71
     3
 72
    15
 73
    11
 74
     0
 42
0.0000001
 43
0.0000000001
 40
0.0
 40
0.0
 40
0.0
 40
0.0
 40
0.1250005446
 40
0.2500009786
 40
0.3750012847999999
 40
0.5000014243999999
 40
0.6250013188
 40
0.7500010101000001
 40
0.8750005355
 40
1.0
 40
1.0
 40
1.0
 40
1.0
 10
56.6594303585
 20
66.9903395713
 30
0.0
 10
56.118655406
 20
66.99033957320001
 30
0.0
 10
55.0371007381
 20
66.99396209959999
 30
0.0
 10
53.41486362939999
 20
67.0125843192
 30
0.0
 10
51.7928735361
 20
67.04674766550001
 30
0.0
 10
50.1713478195
 20
67.09868483699999
 30
0.0
 10
48.5506197543
 20
67.1716495104
 30
0.0
 10
46.93116788229999
 20
67.2691786125
 30
0.0
 10
45.31362131359999
 20
67.3945317215
 30
0.0
 10
44.2370914414
 20
67.49956288959999
 30
0.0
 10
43.69951938319999
 20
67.5582891833
 30
0.0
  0
SPLINE
  5
5F3
330
21E
100
AcDbEntity
  8
0
  6
Continuous
 62
     9
100
AcDbSpline
210
0.0
220
0.0
230
1.0
 70
     8
 71
     3
 72
    21
 73
    17
 74
     0
 42
0.0000001
 43
0.0000000001
 40
0.0
 40
0.0
 40
0.0
 40
0.0
 40
0.0625192659
 40
0.1250373351
 40
0.1875562394
 40
0.2500749702
 40
0.312593729
 40
0.3751125059
 40
0.4999997418000001
 40
0.6248873035
 40
0.6874061536000001
 40
0.7499249762000001
 40
0.8124437408
 40
0.8749626888999999
 40
0.9374808631
 40
1.0
 40
1.0
 40
1.0
 40
1.0
 10
54.68601272949999
 20
83.4378284123
 30
0.0
 10
54.6860129346
 20
83.3732812552
 30
0.0
 10
54.6923625859
 20
83.24409818239999
 30
0.0
 10
54.7208495746
 20
83.0522653723
 30
0.0
 10
54.7680178771
 20
82.8641322872
 30
0.0
 10
54.8334104497
 20
82.68154160749999
 30
0.0
 10
54.9164050545
 20
82.5062295502
 30
0.0
 10
55.049303413
 20
82.2846509032
 30
0.0
 10
55.2552814103
 20
82.03373133120001
 30
0.0
 10
55.50627689649999
 20
81.82785325319999
 30
0.0
 10
55.727873454
 20
81.69498687779999
 30
0.0
 10
55.9031812509
 20
81.61198553170001
 30
0.0
 10
56.08575753109999
 20
81.54655507220001
 30
0.0
 10
56.2738757428
 20
81.49932806130001
 30
0.0
 10
56.4657000899
 20
81.4707817372
 30
0.0
 10
56.5948833346
 20
81.4644109866
 30
0.0
 10
56.6594303585
 20
81.46441078329999
 30
0.0
  0
SPLINE
  5
5F4
330
21E
100
AcDbEntity
  8
0
  6
Continuous
 62
     9
100
AcDbSpline
210
0.0
220
0.0
230
1.0
 70
     8
 71
     3
 72
    33
 73
    29
 74
     0
 42
0.0000001
 43
0.0000000001
 40
0.0
 40
0.0
 40
0.0
 40
0.0
 40
0.0305421034
 40
0.0607349363
 40
0.0905587229
 40
0.1200352981
 40
0.1492368621
 40
0.1637769469
 40
0.1782890554
 40
0.1928063171
 40
0.2073393207
 40
0.2365386993
 40
0.2660077878
 40
0.2958191548
 40
0.3259958806
 40
0.3565123704
 40
0.3873366581
 40
0.4184465207
 40
0.4497939729000001
 40
0.4813466062
 40
0.5449367957
 40
0.6090473320000001
 40
0.6735500945
 40
0.7383683406000001
 40
0.8034336548
 40
0.8687329915999999
 40
0.9342472131
 40
1.0
 40
1.0
 40
1.0
 40
1.0
 10
34.6108783799
 20
83.4378284123
 30
0.0
 10
34.6108785866
 20
83.15926967020001
 30
0.0
 10
34.6292338642
 20
82.6051027221
 30
0.0
 10
34.7188274943
 20
81.7831772229
 30
0.0
 10
34.8764176511
 20
80.98116317109999
 30
0.0
 10
35.1069631075
 20
80.20625432720001
 30
0.0
 10
35.3630933227
 20
79.5880360593
 30
0.0
 10
35.60595162550001
 20
79.1152356473
 30
0.0
 10
35.8067276402
 20
78.77207495
 30
0.0
 10
36.0259897137
 20
78.4405004153
 30
0.0
 10
36.3428394199
 20
78.01378969409999
 30
0.0
 10
36.783223103
 20
77.5102595572
 30
0.0
 10
37.373035379
 20
76.9577804016
 30
0.0
 10
38.0169701438
 20
76.45514926789999
 30
0.0
 10
38.7066047075
 20
76.00015761209999
 30
0.0
 10
39.4341631024
 20
75.58986052619999
 30
0.0
 10
40.19296464219999
 20
75.22112083340001
 30
0.0
 10
40.9772279339
 20
74.89045760579999
 30
0.0
 10
41.78218103369999
 20
74.5943350389
 30
0.0
 10
42.88065563059999
 20
74.24095744919999
 30
0.0
 10
44.28662942479999
 20
73.8718603404
 30
0.0
 10
46.00563689779999
 20
73.52471627719999
 30
0.0
 10
47.7499000639
 20
73.2567345985
 30
0.0
 10
49.511685517
 20
73.05535780069999
 30
0.0
 10
51.2862159426
 20
72.91054533319999
 30
0.0
 10
53.0703637725
 20
72.8149823892
 30
0.0
 10
54.8624756921
 20
72.76120803090001
 30
0.0
 10
56.0597331671
 20
72.75023210659999
 30
0.0
 10
56.6594303585
 20
72.7502319231
 30
0.0
  0
SPLINE
  5
5F5
330
21E
100
AcDbEntity
  8
0
  6
Continuous
 62
     9
100
AcDbSpline
210
0.0
220
0.0
230
1.0
 70
     8
 71
     3
 72
    21
 73
    17
 74
     0
 42
0.0000001
 43
0.0000000001
 40
0.0
 40
0.0
 40
0.0
 40
0.0
 40
0.0625191601
 40
0.1250371964
 40
0.1875561155
 40
0.2500748985
 40
0.3125937235
 40
0.3751125752
 40
0.5000001158
 40
0.6248873133
 40
0.6874060742000001
 40
0.7499248226999999
 40
0.8124435341999999
 40
0.8749624651000001
 40
0.9374806656999998
 40
1.0
 40
1.0
 40
1.0
 40
1.0
 10
56.6594303585
 20
85.41124604130001
 30
0.0
 10
56.5948833106
 20
85.41124584010001
 30
0.0
 10
56.4657001838
 20
85.4048750962
 30
0.0
 10
56.2738759833
 20
85.37632880629999
 30
0.0
 10
56.08575791149999
 20
85.32910186939998
 30
0.0
 10
55.9031816254
 20
85.26367145029999
 30
0.0
 10
55.7278737943
 20
85.1806701227
 30
0.0
 10
55.5062772217
 20
85.04780380699999
 30
0.0
 10
55.2552817418
 20
84.84192581509999
 30
0.0
 10
55.0493037343
 20
84.59100635689999
 30
0.0
 10
54.9164053338
 20
84.3694278128
 30
0.0
 10
54.8334107039
 20
84.19411581930001
 30
0.0
 10
54.7680180716
 20
84.01152516479999
 30
0.0
 10
54.7208496705
 20
83.82339195630001
 30
0.0
 10
54.6923626031
 20
83.63155891959999
 30
0.0
 10
54.6860129372
 20
83.50237564009999
 30
0.0
 10
54.68601272949999
 20
83.4378284123
 30
0.0
  0
SPLINE
  5
5F6
330
21E
100
AcDbEntity
  8
0
  6
Continuous
 62
     9
100
AcDbSpline
210
0.0
220
0.0
230
1.0
 70
     8
 71
     3
 72
    33
 73
    29
 74
     0
 42
0.0000001
 43
0.0000000001
 40
0.0
 40
0.0
 40
0.0
 40
0.0
 40
0.0657528861
 40
0.13126699
 40
0.1965663442
 40
0.2616316561
 40
0.3264499055
 40
0.3909526684
 40
0.4550631973
 40
0.5186533887
 40
0.5502060241
 40
0.5815534757
 40
0.6126633326
 40
0.6434876183
 40
0.6740041238
 40
0.7041808308
 40
0.7339921912000001
 40
0.7634612945999999
 40
0.7926606786
 40
0.8071936959999998
 40
0.8217109403
 40
0.8362230420999999
 40
0.8507631396999999
 40
0.8799646186
 40
0.9094413187
 40
0.9392650298999999
 40
0.9694578953
 40
1.0
 40
1.0
 40
1.0
 40
1.0
 10
56.6594303585
 20
94.12542494889999
 30
0.0
 10
56.05973226029999
 20
94.12542476540002
 30
0.0
 10
54.8624749551
 20
94.1144482103
 30
0.0
 10
53.0703630278
 20
94.06067445120001
 30
0.0
 10
51.2862161059
 20
93.96511176530001
 30
0.0
 10
49.5116855301
 20
93.8202990078
 30
0.0
 10
47.7499000516
 20
93.6189222744
 30
0.0
 10
46.0056369128
 20
93.35094058290001
 30
0.0
 10
44.2866294704
 20
93.0037965676
 30
0.0
 10
42.8806557055
 20
92.6346994458
 30
0.0
 10
41.7821810787
 20
92.28132183540001
 30
0.0
 10
40.97722800869999
 20
91.9851992985
 30
0.0
 10
40.19296474929999
 20
91.65453616589999
 30
0.0
 10
39.4341632608
 20
91.2857962099
 30
0.0
 10
38.70660467789999
 20
90.8754995539
 30
0.0
 10
38.0169702203
 20
90.4205078632
 30
0.0
 10
37.3730357017
 20
89.91787657639999
 30
0.0
 10
36.78322324110001
 20
89.36539743919999
 30
0.0
 10
36.3428393126
 20
88.8618670924
 30
0.0
 10
36.02598962590001
 20
88.4351563339
 30
0.0
 10
35.8067276022
 20
88.10358187709999
 30
0.0
 10
35.6059516545
 20
87.7604212592
 30
0.0
 10
35.3630936211
 20
87.2876215189
 30
0.0
 10
35.1069628734
 20
86.66940295919999
 30
0.0
 10
34.8764175265
 20
85.89449438050001
 30
0.0
 10
34.7188276675
 20
85.09247952279999
 30
0.0
 10
34.629233806
 20
84.27055443289999
 30
0.0
 10
34.61087855000001
 20
83.7163871677
 30
0.0
 10
34.6108783433
 20
83.4378284123
 30
0.0
  0
LINE
  5
5F7
330
21E
100
AcDbEntity
  8
0
  6
Continuous
 62
     9
100
AcDbLine
 10
20.767564988
 20
83.4378284123
 30
0.0
 11
20.673565231
 21
83.4378298756
 31
0.0
  0
ENDSEC
  0
SECTION
  2
OBJECTS
  0
DICTIONARY
  5
C
330
0
100
AcDbDictionary
281
     1
  3
ACAD_CIP_PREVIOUS_PRODUCT_INFO
350
699
  3
ACAD_COLOR
350
62E
  3
ACAD_DETAILVIEWSTYLE
350
647
  3
ACAD_GROUP
350
D
  3
ACAD_LAYOUT
350
1A
  3
ACAD_MATERIAL
350
5FC
  3
ACAD_MLEADERSTYLE
350
643
  3
ACAD_MLINESTYLE
350
17
  3
ACAD_PLOTSETTINGS
350
19
  3
ACAD_PLOTSTYLENAME
350
E
  3
ACAD_SCALELIST
350
631
  3
ACAD_SECTIONVIEWSTYLE
350
645
  3
ACAD_TABLESTYLE
350
62F
  3
ACAD_VISUALSTYLE
350
615
  3
ACDB_RECOMPOSE_DATA
350
73C
  3
AcDbVariableDictionary
350
68B
  3
AcDsDecomposeData
350
743
  3
DWGPROPS
350
73D
  0
DICTIONARY
  5
64C
330
8
100
AcDbDictionary
280
     1
281
     1
  0
DICTIONARY
  5
6ED
330
2
100
AcDbDictionary
280
     1
281
     1
  3
ACAD_LAYERSTATES
360
6EE
  0
DICTIONARY
  5
69A
330
10
100
AcDbDictionary
280
     1
281
     1
  3
ADSK_XREC_LAYER_RECONCILED
360
69B
  0
DICTIONARY
  5
69C
330
1FA
100
AcDbDictionary
280
     1
281
     1
  3
ADSK_XREC_LAYER_RECONCILED
360
69D
  0
DICTIONARY
  5
69E
330
1FB
100
AcDbDictionary
280
     1
281
     1
  3
ADSK_XREC_LAYER_RECONCILED
360
69F
  0
DICTIONARY
  5
6A0
330
1FC
100
AcDbDictionary
280
     1
281
     1
  3
ADSK_XREC_LAYER_RECONCILED
360
6A1
  0
DICTIONARY
  5
6A2
330
1FD
100
AcDbDictionary
280
     1
281
     1
  3
ADSK_XREC_LAYER_RECONCILED
360
6A3
  0
DICTIONARY
  5
6A4
330
1FE
100
AcDbDictionary
280
     1
281
     1
  3
ADSK_XREC_LAYER_RECONCILED
360
6A5
  0
DICTIONARY
  5
6A6
330
1FF
100
AcDbDictionary
280
     1
281
     1
  3
ADSK_XREC_LAYER_RECONCILED
360
6A7
  0
DICTIONARY
  5
6A8
330
200
100
AcDbDictionary
280
     1
281
     1
  3
ADSK_XREC_LAYER_RECONCILED
360
6A9
  0
DICTIONARY
  5
6AA
330
201
100
AcDbDictionary
280
     1
281
     1
  3
ADSK_XREC_LAYER_RECONCILED
360
6AB
  0
DICTIONARY
  5
6AC
330
202
100
AcDbDictionary
280
     1
281
     1
  3
ADSK_XREC_LAYER_RECONCILED
360
6AD
  0
DICTIONARY
  5
6AE
330
203
100
AcDbDictionary
280
     1
281
     1
  3
ADSK_XREC_LAYER_RECONCILED
360
6AF
  0
DICTIONARY
  5
6B0
330
204
100
AcDbDictionary
280
     1
281
     1
  3
ADSK_XREC_LAYER_RECONCILED
360
6B1
  0
DICTIONARY
  5
6B2
330
205
100
AcDbDictionary
280
     1
281
     1
  3
ADSK_XREC_LAYER_RECONCILED
360
6B3
  0
DICTIONARY
  5
6B4
330
206
100
AcDbDictionary
280
     1
281
     1
  3
ADSK_XREC_LAYER_RECONCILED
360
6B5
  0
DICTIONARY
  5
6B6
330
207
100
AcDbDictionary
280
     1
281
     1
  3
ADSK_XREC_LAYER_RECONCILED
360
6B7
  0
DICTIONARY
  5
6B8
330
208
100
AcDbDictionary
280
     1
281
     1
  3
ADSK_XREC_LAYER_RECONCILED
360
6B9
  0
DICTIONARY
  5
6BA
330
209
100
AcDbDictionary
280
     1
281
     1
  3
ADSK_XREC_LAYER_RECONCILED
360
6BB
  0
DICTIONARY
  5
6BC
330
20A
100
AcDbDictionary
280
     1
281
     1
  3
ADSK_XREC_LAYER_RECONCILED
360
6BD
  0
DICTIONARY
  5
6BE
330
20B
100
AcDbDictionary
280
     1
281
     1
  3
ADSK_XREC_LAYER_RECONCILED
360
6BF
  0
DICTIONARY
  5
6C0
330
20C
100
AcDbDictionary
280
     1
281
     1
  3
ADSK_XREC_LAYER_RECONCILED
360
6C1
  0
DICTIONARY
  5
6C2
330
20D
100
AcDbDictionary
280
     1
281
     1
  3
ADSK_XREC_LAYER_RECONCILED
360
6C3
  0
DICTIONARY
  5
6C4
330
20E
100
AcDbDictionary
280
     1
281
     1
  3
ADSK_XREC_LAYER_RECONCILED
360
6C5
  0
DICTIONARY
  5
6C6
330
20F
100
AcDbDictionary
280
     1
281
     1
  3
ADSK_XREC_LAYER_RECONCILED
360
6C7
  0
DICTIONARY
  5
6C8
330
210
100
AcDbDictionary
280
     1
281
     1
  3
ADSK_XREC_LAYER_RECONCILED
360
6C9
  0
DICTIONARY
  5
6CA
330
211
100
AcDbDictionary
280
     1
281
     1
  3
ADSK_XREC_LAYER_RECONCILED
360
6CB
  0
DICTIONARY
  5
6CC
330
212
100
AcDbDictionary
280
     1
281
     1
  3
ADSK_XREC_LAYER_RECONCILED
360
6CD
  0
DICTIONARY
  5
6CE
330
213
100
AcDbDictionary
280
     1
281
     1
  3
ADSK_XREC_LAYER_RECONCILED
360
6CF
  0
DICTIONARY
  5
6D0
330
214
100
AcDbDictionary
280
     1
281
     1
  3
ADSK_XREC_LAYER_RECONCILED
360
6D1
  0
DICTIONARY
  5
6D2
330
215
100
AcDbDictionary
280
     1
281
     1
  3
ADSK_XREC_LAYER_RECONCILED
360
6D3
  0
DICTIONARY
  5
6D4
330
216
100
AcDbDictionary
280
     1
281
     1
  3
ADSK_XREC_LAYER_RECONCILED
360
6D5
  0
DICTIONARY
  5
6D6
330
217
100
AcDbDictionary
280
     1
281
     1
  3
ADSK_XREC_LAYER_RECONCILED
360
6D7
  0
DICTIONARY
  5
6D8
330
218
100
AcDbDictionary
280
     1
281
     1
  3
ADSK_XREC_LAYER_RECONCILED
360
6D9
  0
DICTIONARY
  5
6DA
330
219
100
AcDbDictionary
280
     1
281
     1
  3
ADSK_XREC_LAYER_RECONCILED
360
6DB
  0
DICTIONARY
  5
6DC
330
21A
100
AcDbDictionary
280
     1
281
     1
  3
ADSK_XREC_LAYER_RECONCILED
360
6DD
  0
DICTIONARY
  5
6DE
330
21B
100
AcDbDictionary
280
     1
281
     1
  3
ADSK_XREC_LAYER_RECONCILED
360
6DF
  0
XRECORD
  5
699
102
{ACAD_REACTORS
330
C
102
}
330
C
100
AcDbXrecord
280
     1
300
ACDLT
300
2018
300
ACDLT_F_S
  0
DICTIONARY
  5
62E
102
{ACAD_REACTORS
330
C
102
}
330
C
100
AcDbDictionary
281
     1
  0
DICTIONARY
  5
647
102
{ACAD_REACTORS
330
C
102
}
330
C
100
AcDbDictionary
281
     1
  3
Imperial24
350
648
  0
DICTIONARY
  5
D
102
{ACAD_REACTORS
330
C
102
}
330
C
100
AcDbDictionary
281
     1
  0
DICTIONARY
  5
1A
102
{ACAD_REACTORS
330
C
102
}
330
C
100
AcDbDictionary
281
     1
  3
Layout1
350
5F9
  3
Model
350
5F8
  0
DICTIONARY
  5
5FC
102
{ACAD_REACTORS
330
C
102
}
330
C
100
AcDbDictionary
281
     1
  3
ByBlock
350
605
  3
ByLayer
350
5FD
  3
Global
350
60D
  0
DICTIONARY
  5
643
102
{ACAD_REACTORS
330
C
102
}
330
C
100
AcDbDictionary
281
     1
  3
Standard
350
644
  0
DICTIONARY
  5
17
102
{ACAD_REACTORS
330
C
102
}
330
C
100
AcDbDictionary
281
     1
  3
Standard
350
18
  0
DICTIONARY
  5
19
102
{ACAD_REACTORS
330
C
102
}
330
C
100
AcDbDictionary
281
     1
  0
ACDBDICTIONARYWDFLT
  5
E
102
{ACAD_REACTORS
330
C
102
}
330
C
100
AcDbDictionary
281
     1
  3
Normal
350
F
100
AcDbDictionaryWithDefault
340
F
  0
DICTIONARY
  5
631
102
{ACAD_REACTORS
330
C
102
}
330
C
100
AcDbDictionary
281
     1
  3
A0
350
632
  3
A1
350
633
  3
A2
350
634
  3
A3
350
635
  3
A4
350
636
  3
A5
350
637
  3
A6
350
638
  3
A7
350
639
  3
A8
350
63A
  3
A9
350
63B
  3
B0
350
63C
  3
B1
350
63D
  3
B2
350
63E
  3
B3
350
63F
  3
B4
350
640
  3
B5
350
641
  3
B6
350
642
  0
DICTIONARY
  5
645
102
{ACAD_REACTORS
330
C
102
}
330
C
100
AcDbDictionary
281
     1
  3
Imperial24
350
646
  0
DICTIONARY
  5
62F
102
{ACAD_REACTORS
330
C
102
}
330
C
100
AcDbDictionary
281
     1
  3
Standard
350
630
  0
DICTIONARY
  5
615
102
{ACAD_REACTORS
330
C
102
}
330
C
100
AcDbDictionary
281
     1
  3
2dWireframe
350
61B
  3
Basic
350
61A
  3
Brighten
350
621
  3
ColorChange
350
625
  3
Conceptual
350
61E
  3
Dim
350
620
  3
EdgeColorOff
350
62D
  3
Facepattern
350
624
  3
Flat
350
616
  3
FlatWithEdges
350
617
  3
Gouraud
350
618
  3
GouraudWithEdges
350
619
  3
Hidden
350
61D
  3
JitterOff
350
62B
  3
Linepattern
350
623
  3
OverhangOff
350
62C
  3
Realistic
350
61F
  3
Shaded
350
62A
  3
Shaded with edges
350
629
  3
Shades of Gray
350
626
  3
Sketchy
350
627
  3
Thicken
350
622
  3
Wireframe
350
61C
  3
X-Ray
350
628
  0
XRECORD
  5
73C
102
{ACAD_REACTORS
330
C
102
}
330
C
100
AcDbXrecord
280
     1
 90
        1
330
630
  0
DICTIONARY
  5
68B
102
{ACAD_REACTORS
330
C
102
}
330
C
100
AcDbDictionary
281
     1
  3
CANNOSCALE
350
690
  3
CMLEADERSTYLE
350
68D
  3
CTABLESTYLE
350
68C
  3
CVIEWDETAILSTYLE
350
68E
  3
CVIEWSECTIONSTYLE
350
68F
  3
DIMASSOC
350
693
  3
INDEXCTL
350
692
  3
LAYEREVAL
350
6E3
  3
LAYERNOTIFY
350
6E4
  3
LIGHTINGUNITS
350
6E2
  3
MSLTSCALE
350
6E1
  3
SORTENTS
350
691
  3
XCLIPFRAME
350
6F3
  0
DICTIONARY
  5
743
102
{ACAD_REACTORS
330
C
102
}
330
C
100
AcDbDictionary
281
     1
  3
AcDsRecords
350
745
  3
AcDsSchemas
350
744
1001
ACAD
1070
     2
  0
XRECORD
  5
73D
102
{ACAD_REACTORS
330
C
102
}
330
C
100
AcDbXrecord
280
     1
  1
DWGPROPS COOKIE
  2

  3

  4

  6

  7

  8
guillaumes
  9

300
=
301
=
302
=
303
=
304
=
305
=
306
=
307
=
308
=
309
=
 40
0.0012037037037037
 41
2458087.617928241
 42
2458088.358530093
  1

 90
        0
  0
DICTIONARY
  5
6EE
102
{ACAD_REACTORS
330
6ED
102
}
330
6ED
100
AcDbDictionary
281
     1
  0
XRECORD
  5
69B
102
{ACAD_REACTORS
330
69A
102
}
330
69A
100
AcDbXrecord
280
     1
290
     1
  0
XRECORD
  5
69D
102
{ACAD_REACTORS
330
69C
102
}
330
69C
100
AcDbXrecord
280
     1
290
     1
  0
XRECORD
  5
69F
102
{ACAD_REACTORS
330
69E
102
}
330
69E
100
AcDbXrecord
280
     1
290
     1
  0
XRECORD
  5
6A1
102
{ACAD_REACTORS
330
6A0
102
}
330
6A0
100
AcDbXrecord
280
     1
290
     1
  0
XRECORD
  5
6A3
102
{ACAD_REACTORS
330
6A2
102
}
330
6A2
100
AcDbXrecord
280
     1
290
     1
  0
XRECORD
  5
6A5
102
{ACAD_REACTORS
330
6A4
102
}
330
6A4
100
AcDbXrecord
280
     1
290
     1
  0
XRECORD
  5
6A7
102
{ACAD_REACTORS
330
6A6
102
}
330
6A6
100
AcDbXrecord
280
     1
290
     1
  0
XRECORD
  5
6A9
102
{ACAD_REACTORS
330
6A8
102
}
330
6A8
100
AcDbXrecord
280
     1
290
     1
  0
XRECORD
  5
6AB
102
{ACAD_REACTORS
330
6AA
102
}
330
6AA
100
AcDbXrecord
280
     1
290
     1
  0
XRECORD
  5
6AD
102
{ACAD_REACTORS
330
6AC
102
}
330
6AC
100
AcDbXrecord
280
     1
290
     1
  0
XRECORD
  5
6AF
102
{ACAD_REACTORS
330
6AE
102
}
330
6AE
100
AcDbXrecord
280
     1
290
     1
  0
XRECORD
  5
6B1
102
{ACAD_REACTORS
330
6B0
102
}
330
6B0
100
AcDbXrecord
280
     1
290
     1
  0
XRECORD
  5
6B3
102
{ACAD_REACTORS
330
6B2
102
}
330
6B2
100
AcDbXrecord
280
     1
290
     1
  0
XRECORD
  5
6B5
102
{ACAD_REACTORS
330
6B4
102
}
330
6B4
100
AcDbXrecord
280
     1
290
     1
  0
XRECORD
  5
6B7
102
{ACAD_REACTORS
330
6B6
102
}
330
6B6
100
AcDbXrecord
280
     1
290
     1
  0
XRECORD
  5
6B9
102
{ACAD_REACTORS
330
6B8
102
}
330
6B8
100
AcDbXrecord
280
     1
290
     1
  0
XRECORD
  5
6BB
102
{ACAD_REACTORS
330
6BA
102
}
330
6BA
100
AcDbXrecord
280
     1
290
     1
  0
XRECORD
  5
6BD
102
{ACAD_REACTORS
330
6BC
102
}
330
6BC
100
AcDbXrecord
280
     1
290
     1
  0
XRECORD
  5
6BF
102
{ACAD_REACTORS
330
6BE
102
}
330
6BE
100
AcDbXrecord
280
     1
290
     1
  0
XRECORD
  5
6C1
102
{ACAD_REACTORS
330
6C0
102
}
330
6C0
100
AcDbXrecord
280
     1
290
     1
  0
XRECORD
  5
6C3
102
{ACAD_REACTORS
330
6C2
102
}
330
6C2
100
AcDbXrecord
280
     1
290
     1
  0
XRECORD
  5
6C5
102
{ACAD_REACTORS
330
6C4
102
}
330
6C4
100
AcDbXrecord
280
     1
290
     1
  0
XRECORD
  5
6C7
102
{ACAD_REACTORS
330
6C6
102
}
330
6C6
100
AcDbXrecord
280
     1
290
     1
  0
XRECORD
  5
6C9
102
{ACAD_REACTORS
330
6C8
102
}
330
6C8
100
AcDbXrecord
280
     1
290
     1
  0
XRECORD
  5
6CB
102
{ACAD_REACTORS
330
6CA
102
}
330
6CA
100
AcDbXrecord
280
     1
290
     1
  0
XRECORD
  5
6CD
102
{ACAD_REACTORS
330
6CC
102
}
330
6CC
100
AcDbXrecord
280
     1
290
     1
  0
XRECORD
  5
6CF
102
{ACAD_REACTORS
330
6CE
102
}
330
6CE
100
AcDbXrecord
280
     1
290
     1
  0
XRECORD
  5
6D1
102
{ACAD_REACTORS
330
6D0
102
}
330
6D0
100
AcDbXrecord
280
     1
290
     1
  0
XRECORD
  5
6D3
102
{ACAD_REACTORS
330
6D2
102
}
330
6D2
100
AcDbXrecord
280
     1
290
     1
  0
XRECORD
  5
6D5
102
{ACAD_REACTORS
330
6D4
102
}
330
6D4
100
AcDbXrecord
280
     1
290
     1
  0
XRECORD
  5
6D7
102
{ACAD_REACTORS
330
6D6
102
}
330
6D6
100
AcDbXrecord
280
     1
290
     1
  0
XRECORD
  5
6D9
102
{ACAD_REACTORS
330
6D8
102
}
330
6D8
100
AcDbXrecord
280
     1
290
     1
  0
XRECORD
  5
6DB
102
{ACAD_REACTORS
330
6DA
102
}
330
6DA
100
AcDbXrecord
280
     1
290
     1
  0
XRECORD
  5
6DD
102
{ACAD_REACTORS
330
6DC
102
}
330
6DC
100
AcDbXrecord
280
     1
290
     1
  0
XRECORD
  5
6DF
102
{ACAD_REACTORS
330
6DE
102
}
330
6DE
100
AcDbXrecord
280
     1
290
     1
  0
ACDBDETAILVIEWSTYLE
  5
648
102
{ACAD_XDICTIONARY
360
780
102
}
102
{ACAD_REACTORS
330
647
102
}
330
647
100
AcDbModelDocViewStyle
 70
     0
  3
Imperial24
290
     0
100
AcDbDetailViewStyle
 70
     0
 71
     0
 90
        3
 71
     1
340
11
 40
0.24
340
0
 40
0.24
300

 40
0.36
280
     3
 71
     2
340
16
 90
       25
 71
     3
340
11
 40
0.24
 90
        1
 40
0.75
 90
        1
300
%<\AcVar ViewType \f "%tc1">% %<\AcVar ViewDetailId>%\PSCALE %<\AcVar ViewScale \f "%sn">%
 71
     4
340
16
 90
       25
340
16
 90
       25
280
     0
  0
LAYOUT
  5
5F9
102
{ACAD_XDICTIONARY
360
748
102
}
102
{ACAD_REACTORS
330
1A
102
}
330
1A
100
AcDbPlotSettings
  1

  2
none_device
  4
ANSI_B_(17.00_x_11.00_Inches)
  6

 40
0.0
 41
0.0
 42
0.0
 43
0.0
 44
431.8
 45
279.4
 46
0.0
 47
0.0
 48
0.0
 49
0.0
140
0.0
141
0.0
142
1.0
143
1.0
 70
     0
 72
     0
 73
     0
 74
     0
  7

 75
     0
147
1.0
148
0.0
149
0.0
100
AcDbLayout
  1
Layout1
 70
     1
 71
     1
 10
0.0
 20
0.0
 11
12.0
 21
9.0
 12
0.0
 22
0.0
 32
0.0
 14
1.000000000000000E+20
 24
1.000000000000000E+20
 34
1.000000000000000E+20
 15
-1.000000000000000E+20
 25
-1.000000000000000E+20
 35
-1.000000000000000E+20
146
0.0
 13
0.0
 23
0.0
 33
0.0
 16
1.0
 26
0.0
 36
0.0
 17
0.0
 27
1.0
 37
0.0
 76
     0
330
21F
  0
LAYOUT
  5
5F8
102
{ACAD_XDICTIONARY
360
746
102
}
102
{ACAD_REACTORS
330
1A
102
}
330
1A
100
AcDbPlotSettings
  1

  2
none_device
  4
ANSI_B_(17.00_x_11.00_Inches)
  6

 40
0.0
 41
0.0
 42
0.0
 43
0.0
 44
431.8
 45
279.4
 46
0.0
 47
0.0
 48
0.0
 49
0.0
140
0.0
141
0.0
142
1.0
143
1.0
 70
  1024
 72
     0
 73
     0
 74
     0
  7

 75
     0
147
1.0
148
0.0
149
0.0
100
AcDbLayout
  1
Model
 70
     0
 71
     0
 10
0.0
 20
0.0
 11
17.0
 21
11.0
 12
0.0
 22
0.0
 32
0.0
 14
0.0
 24
0.0
 34
0.0
 15
0.0
 25
0.0
 35
0.0
146
0.0
 13
0.0
 23
0.0
 33
0.0
 16
1.0
 26
0.0
 36
0.0
 17
0.0
 27
1.0
 37
0.0
 76
     0
330
21E
331
1F4
  0
MATERIAL
  5
605
102
{ACAD_XDICTIONARY
360
606
102
}
102
{ACAD_REACTORS
330
5FC
102
}
330
5FC
100
AcDbMaterial
  1
ByBlock
 72
     0
 43
0.0208333333333333
 43
0.0
 43
0.0
 43
0.0
 43
0.0
 43
0.0208333333333333
 43
0.0
 43
0.0
 43
0.0
 43
0.0
 43
1.0
 43
0.0
 43
0.0
 43
0.0
 43
0.0
 43
1.0
 77
     0
 47
0.0208333333333333
 47
0.0
 47
0.0
 47
0.0
 47
0.0
 47
0.0208333333333333
 47
0.0
 47
0.0
 47
0.0
 47
0.0
 47
1.0
 47
0.0
 47
0.0
 47
0.0
 47
0.0
 47
1.0
171
     0
 49
0.0208333333333333
 49
0.0
 49
0.0
 49
0.0
 49
0.0
 49
0.0208333333333333
 49
0.0
 49
0.0
 49
0.0
 49
0.0
 49
1.0
 49
0.0
 49
0.0
 49
0.0
 49
0.0
 49
1.0
175
     0
142
0.0208333333333333
142
0.0
142
0.0
142
0.0
142
0.0
142
0.0208333333333333
142
0.0
142
0.0
142
0.0
142
0.0
142
1.0
142
0.0
142
0.0
142
0.0
142
0.0
142
1.0
179
     0
144
0.0208333333333333
144
0.0
144
0.0
144
0.0
144
0.0
144
0.0208333333333333
144
0.0
144
0.0
144
0.0
144
0.0
144
1.0
144
0.0
144
0.0
144
0.0
144
0.0
144
1.0
147
0.0208333333333333
147
0.0
147
0.0
147
0.0
147
0.0
147
0.0208333333333333
147
0.0
147
0.0
147
0.0
147
0.0
147
1.0
147
0.0
147
0.0
147
0.0
147
0.0
147
1.0
  0
MATERIAL
  5
5FD
102
{ACAD_XDICTIONARY
360
5FE
102
}
102
{ACAD_REACTORS
330
5FC
102
}
330
5FC
100
AcDbMaterial
  1
ByLayer
 72
     0
 43
0.0208333333333333
 43
0.0
 43
0.0
 43
0.0
 43
0.0
 43
0.0208333333333333
 43
0.0
 43
0.0
 43
0.0
 43
0.0
 43
1.0
 43
0.0
 43
0.0
 43
0.0
 43
0.0
 43
1.0
 77
     0
 47
0.0208333333333333
 47
0.0
 47
0.0
 47
0.0
 47
0.0
 47
0.0208333333333333
 47
0.0
 47
0.0
 47
0.0
 47
0.0
 47
1.0
 47
0.0
 47
0.0
 47
0.0
 47
0.0
 47
1.0
171
     0
 49
0.0208333333333333
 49
0.0
 49
0.0
 49
0.0
 49
0.0
 49
0.0208333333333333
 49
0.0
 49
0.0
 49
0.0
 49
0.0
 49
1.0
 49
0.0
 49
0.0
 49
0.0
 49
0.0
 49
1.0
175
     0
142
0.0208333333333333
142
0.0
142
0.0
142
0.0
142
0.0
142
0.0208333333333333
142
0.0
142
0.0
142
0.0
142
0.0
142
1.0
142
0.0
142
0.0
142
0.0
142
0.0
142
1.0
179
     0
144
0.0208333333333333
144
0.0
144
0.0
144
0.0
144
0.0
144
0.0208333333333333
144
0.0
144
0.0
144
0.0
144
0.0
144
1.0
144
0.0
144
0.0
144
0.0
144
0.0
144
1.0
147
0.0208333333333333
147
0.0
147
0.0
147
0.0
147
0.0
147
0.0208333333333333
147
0.0
147
0.0
147
0.0
147
0.0
147
1.0
147
0.0
147
0.0
147
0.0
147
0.0
147
1.0
  0
MATERIAL
  5
60D
102
{ACAD_XDICTIONARY
360
60E
102
}
102
{ACAD_REACTORS
330
5FC
102
}
330
5FC
100
AcDbMaterial
  1
Global
 72
     0
 43
0.0208333333333333
 43
0.0
 43
0.0
 43
0.0
 43
0.0
 43
0.0208333333333333
 43
0.0
 43
0.0
 43
0.0
 43
0.0
 43
1.0
 43
0.0
 43
0.0
 43
0.0
 43
0.0
 43
1.0
 77
     0
 47
0.0208333333333333
 47
0.0
 47
0.0
 47
0.0
 47
0.0
 47
0.0208333333333333
 47
0.0
 47
0.0
 47
0.0
 47
0.0
 47
1.0
 47
0.0
 47
0.0
 47
0.0
 47
0.0
 47
1.0
171
     0
 49
0.0208333333333333
 49
0.0
 49
0.0
 49
0.0
 49
0.0
 49
0.0208333333333333
 49
0.0
 49
0.0
 49
0.0
 49
0.0
 49
1.0
 49
0.0
 49
0.0
 49
0.0
 49
0.0
 49
1.0
175
     0
142
0.0208333333333333
142
0.0
142
0.0
142
0.0
142
0.0
142
0.0208333333333333
142
0.0
142
0.0
142
0.0
142
0.0
142
1.0
142
0.0
142
0.0
142
0.0
142
0.0
142
1.0
179
     0
144
0.0208333333333333
144
0.0
144
0.0
144
0.0
144
0.0
144
0.0208333333333333
144
0.0
144
0.0
144
0.0
144
0.0
144
1.0
144
0.0
144
0.0
144
0.0
144
0.0
144
1.0
147
0.0208333333333333
147
0.0
147
0.0
147
0.0
147
0.0
147
0.0208333333333333
147
0.0
147
0.0
147
0.0
147
0.0
147
1.0
147
0.0
147
0.0
147
0.0
147
0.0
147
1.0
  0
MLEADERSTYLE
  5
644
102
{ACAD_REACTORS
330
643
102
}
330
643
100
AcDbMLeaderStyle
170
     2
171
     1
172
     0
 90
        2
 40
0.0
 41
0.0
173
     1
 91
-1056964608
340
14
 92
       -2
290
     1
 42
0.09
291
     1
 43
0.36
  3
Standard
 44
0.18
300

342
11
174
     1
178
     6
175
     1
176
     0
 93
-1056964608
 45
0.18
292
     0
297
     0
 46
0.18
 94
-1056964608
 47
1.0
 49
1.0
140
1.0
293
     1
141
0.0
294
     1
177
     0
142
1.0
295
     0
296
     0
143
0.125
1001
ACAD_MLEADERVER
1070
     2
  0
MLINESTYLE
  5
18
102
{ACAD_REACTORS
330
17
102
}
330
17
100
AcDbMlineStyle
  2
STANDARD
 70
     0
  3

 62
   256
 51
90.0
 52
90.0
 71
     2
 49
0.5
 62
   256
  6
BYLAYER
 49
-0.5
 62
   256
  6
BYLAYER
  0
ACDBPLACEHOLDER
  5
F
102
{ACAD_REACTORS
330
E
102
}
330
E
  0
SCALE
  5
632
102
{ACAD_REACTORS
330
631
102
}
330
631
100
AcDbScale
 70
     0
300
1:1
140
1.0
141
1.0
290
     1
  0
SCALE
  5
633
102
{ACAD_REACTORS
330
631
102
}
330
631
100
AcDbScale
 70
     0
300
1/128" = 1'-0"
140
0.0078125
141
12.0
290
     0
  0
SCALE
  5
634
102
{ACAD_REACTORS
330
631
102
}
330
631
100
AcDbScale
 70
     0
300
1/64" = 1'-0"
140
0.015625
141
12.0
290
     0
  0
SCALE
  5
635
102
{ACAD_REACTORS
330
631
102
}
330
631
100
AcDbScale
 70
     0
300
1/32" = 1'-0"
140
0.03125
141
12.0
290
     0
  0
SCALE
  5
636
102
{ACAD_REACTORS
330
631
102
}
330
631
100
AcDbScale
 70
     0
300
1/16" = 1'-0"
140
0.0625
141
12.0
290
     0
  0
SCALE
  5
637
102
{ACAD_REACTORS
330
631
102
}
330
631
100
AcDbScale
 70
     0
300
3/32" = 1'-0"
140
0.09375
141
12.0
290
     0
  0
SCALE
  5
638
102
{ACAD_REACTORS
330
631
102
}
330
631
100
AcDbScale
 70
     0
300
1/8" = 1'-0"
140
0.125
141
12.0
290
     0
  0
SCALE
  5
639
102
{ACAD_REACTORS
330
631
102
}
330
631
100
AcDbScale
 70
     0
300
3/16" = 1'-0"
140
0.1875
141
12.0
290
     0
  0
SCALE
  5
63A
102
{ACAD_REACTORS
330
631
102
}
330
631
100
AcDbScale
 70
     0
300
1/4" = 1'-0"
140
0.25
141
12.0
290
     0
  0
SCALE
  5
63B
102
{ACAD_REACTORS
330
631
102
}
330
631
100
AcDbScale
 70
     0
300
3/8" = 1'-0"
140
0.375
141
12.0
290
     0
  0
SCALE
  5
63C
102
{ACAD_REACTORS
330
631
102
}
330
631
100
AcDbScale
 70
     0
300
1/2" = 1'-0"
140
0.5
141
12.0
290
     0
  0
SCALE
  5
63D
102
{ACAD_REACTORS
330
631
102
}
330
631
100
AcDbScale
 70
     0
300
3/4" = 1'-0"
140
0.75
141
12.0
290
     0
  0
SCALE
  5
63E
102
{ACAD_REACTORS
330
631
102
}
330
631
100
AcDbScale
 70
     0
300
1" = 1'-0"
140
1.0
141
12.0
290
     0
  0
SCALE
  5
63F
102
{ACAD_REACTORS
330
631
102
}
330
631
100
AcDbScale
 70
     0
300
1-1/2" = 1'-0"
140
1.5
141
12.0
290
     0
  0
SCALE
  5
640
102
{ACAD_REACTORS
330
631
102
}
330
631
100
AcDbScale
 70
     0
300
3" = 1'-0"
140
3.0
141
12.0
290
     0
  0
SCALE
  5
641
102
{ACAD_REACTORS
330
631
102
}
330
631
100
AcDbScale
 70
     0
300
6" = 1'-0"
140
6.0
141
12.0
290
     0
  0
SCALE
  5
642
102
{ACAD_REACTORS
330
631
102
}
330
631
100
AcDbScale
 70
     0
300
1'-0" = 1'-0"
140
12.0
141
12.0
290
     0
  0
ACDBSECTIONVIEWSTYLE
  5
646
102
{ACAD_XDICTIONARY
360
77E
102
}
102
{ACAD_REACTORS
330
645
102
}
330
645
100
AcDbModelDocViewStyle
 70
     0
  3
Imperial24
290
     0
100
AcDbSectionViewStyle
 70
     0
 71
     0
 90
       78
 71
     1
340
11
 40
0.24
340
0
340
0
 40
0.24
300
I, O, Q, S, X, Z
 40
0.48
 90
        3
 40
0.18
 90
        1
 71
     2
340
16
 90
       25
340
16
 90
       50
 40
0.24
 40
0.0
 40
0.24
 71
     3
340
11
 40
0.24
 90
        1
 40
0.75
 90
        1
300
%<\AcVar ViewType \f "%tc1">% %<\AcVar ViewSectionStartId>%-%<\AcVar ViewSectionEndId>%\PSCALE %<\AcVar ViewScale \f "%sn">%
 71
     4
300
ANSI31
 40
1.0
 90
        0
290
     0
290
     0
 90
        6
 40
0.0
 40
1.570796326794896
 40
0.2617993877991494
 40
1.308996938995747
 40
-0.2617993877991494
 40
1.832595714594046
  0
TABLESTYLE
  5
630
102
{ACAD_XDICTIONARY
360
649
102
}
102
{ACAD_REACTORS
330
62F
102
}
330
62F
100
AcDbTableStyle
  3
Standard
 70
     0
 71
     0
 40
0.06
 41
0.06
280
     0
281
     0
  7
STANDARD
140
0.18
170
     2
 62
     0
 63
     7
283
     0
274
    -2
284
     1
 64
     0
275
    -2
285
     1
 65
     0
276
    -2
286
     1
 66
     0
277
    -2
287
     1
 67
     0
278
    -2
288
     1
 68
     0
279
    -2
289
     1
 69
     0
  7
STANDARD
140
0.25
170
     5
 62
     0
 63
     7
283
     0
274
    -2
284
     1
 64
     0
275
    -2
285
     1
 65
     0
276
    -2
286
     1
 66
     0
277
    -2
287
     1
 67
     0
278
    -2
288
     1
 68
     0
279
    -2
289
     1
 69
     0
  7
STANDARD
140
0.18
170
     5
 62
     0
 63
     7
283
     0
274
    -2
284
     1
 64
     0
275
    -2
285
     1
 65
     0
276
    -2
286
     1
 66
     0
277
    -2
287
     1
 67
     0
278
    -2
288
     1
 68
     0
279
    -2
289
     1
 69
     0
  0
VISUALSTYLE
  5
61B
102
{ACAD_XDICTIONARY
360
757
102
}
102
{ACAD_REACTORS
330
615
102
}
330
615
100
AcDbVisualStyle
  2
2dWireframe
 70
     4
 71
     0
 72
     2
 73
     0
 90
        0
 40
-0.6
 41
-30.0
 62
     5
 63
     7
 74
     1
 91
        4
 64
     7
 65
   257
 75
     1
175
     1
 42
1.0
 92
        0
 66
   257
 43
1.0
 76
     1
 77
     6
 78
     2
 67
     7
 79
     5
170
     0
171
     0
290
     0
174
     0
 93
        1
 44
0.0
173
     0
291
     0
 45
0.0
1001
ACAD
1000
AcDbSavedByObjectVersion
1070
     0
  0
VISUALSTYLE
  5
61A
102
{ACAD_XDICTIONARY
360
755
102
}
102
{ACAD_REACTORS
330
615
102
}
330
615
100
AcDbVisualStyle
  2
Basic
 70
     7
 71
     1
 72
     0
 73
     1
 90
        0
 40
-0.6
 41
-30.0
 62
     5
 63
     7
 74
     0
 91
        4
 64
     7
 65
   257
 75
     1
175
     1
 42
1.0
 92
        8
 66
     7
 43
1.0
 76
     1
 77
     6
 78
     2
 67
     7
 79
     5
170
     0
171
     0
290
     0
174
     0
 93
        1
 44
0.0
173
     0
291
     1
 45
0.0
1001
ACAD
1000
AcDbSavedByObjectVersion
1070
     0
  0
VISUALSTYLE
  5
621
102
{ACAD_XDICTIONARY
360
763
102
}
102
{ACAD_REACTORS
330
615
102
}
330
615
100
AcDbVisualStyle
  2
Brighten
 70
    12
 71
     2
 72
     2
 73
     0
 90
        0
 40
-0.6
 41
-30.0
 62
     5
 63
     7
 74
     1
 91
        4
 64
     7
 65
   257
 75
     1
175
     1
 42
1.0
 92
        8
 66
     7
 43
1.0
 76
     1
 77
     6
 78
     2
 67
     7
 79
     5
170
     0
171
     0
290
     0
174
     0
 93
        1
 44
50.0
173
     0
291
     1
 45
0.0
1001
ACAD
1000
AcDbSavedByObjectVersion
1070
     0
  0
VISUALSTYLE
  5
625
102
{ACAD_XDICTIONARY
360
76B
102
}
102
{ACAD_REACTORS
330
615
102
}
330
615
100
AcDbVisualStyle
  2
ColorChange
 70
    16
 71
     2
 72
     2
 73
     3
 90
        0
 40
-0.6
 41
-30.0
 62
     5
 63
     8
 74
     1
 91
        4
 64
     7
 65
   257
 75
     1
175
     1
 42
1.0
 92
        8
 66
     8
 43
1.0
 76
     1
 77
     6
 78
     2
 67
     7
 79
     5
170
     0
171
     0
290
     0
174
     0
 93
        1
 44
0.0
173
     0
291
     1
 45
0.0
1001
ACAD
1000
AcDbSavedByObjectVersion
1070
     0
  0
VISUALSTYLE
  5
61E
102
{ACAD_XDICTIONARY
360
75D
102
}
102
{ACAD_REACTORS
330
615
102
}
330
615
100
AcDbVisualStyle
  2
Conceptual
 70
     9
 71
     3
 72
     2
 73
     0
 90
        0
 40
-0.6
 41
-30.0
 62
     5
 63
     7
 74
     2
 91
        2
 64
     7
 65
   257
 75
     1
175
     1
 42
179.0
 92
        8
 66
     7
 43
1.0
 76
     1
 77
     6
 78
     2
 67
     7
 79
     3
170
     0
171
     0
290
     0
174
     0
 93
        1
 44
0.0
173
     0
291
     0
 45
0.0
1001
ACAD
1000
AcDbSavedByObjectVersion
1070
     0
  0
VISUALSTYLE
  5
620
102
{ACAD_XDICTIONARY
360
761
102
}
102
{ACAD_REACTORS
330
615
102
}
330
615
100
AcDbVisualStyle
  2
Dim
 70
    11
 71
     2
 72
     2
 73
     0
 90
        0
 40
-0.6
 41
-30.0
 62
     5
 63
     7
 74
     1
 91
        4
 64
     7
 65
   257
 75
     1
175
     1
 42
1.0
 92
        8
 66
     7
 43
1.0
 76
     1
 77
     6
 78
     2
 67
     7
 79
     5
170
     0
171
     0
290
     0
174
     0
 93
        1
 44
-50.0
173
     0
291
     1
 45
0.0
1001
ACAD
1000
AcDbSavedByObjectVersion
1070
     0
  0
VISUALSTYLE
  5
62D
102
{ACAD_XDICTIONARY
360
77B
102
}
102
{ACAD_REACTORS
330
615
102
}
330
615
100
AcDbVisualStyle
  2
EdgeColorOff
 70
    22
 71
     2
 72
     2
 73
     0
 90
        0
 40
-0.6
 41
-30.0
 62
     5
 63
     7
 74
     1
 91
        4
 64
     7
 65
   257
 75
     1
175
     1
 42
1.0
 92
        8
 66
     7
 43
1.0
 76
     1
 77
     6
 78
     2
 67
     7
 79
     5
170
     0
171
     0
290
     0
174
     0
 93
        1
 44
0.0
173
     0
291
     1
 45
0.0
1001
ACAD
1000
AcDbSavedByObjectVersion
1070
     0
  0
VISUALSTYLE
  5
624
102
{ACAD_XDICTIONARY
360
769
102
}
102
{ACAD_REACTORS
330
615
102
}
330
615
100
AcDbVisualStyle
  2
Facepattern
 70
    15
 71
     2
 72
     2
 73
     0
 90
        0
 40
-0.6
 41
-30.0
 62
     5
 63
     7
 74
     1
 91
        4
 64
     7
 65
   257
 75
     1
175
     1
 42
1.0
 92
        8
 66
     7
 43
1.0
 76
     1
 77
     6
 78
     2
 67
     7
 79
     5
170
     0
171
     0
290
     0
174
     0
 93
        1
 44
0.0
173
     0
291
     1
 45
0.0
1001
ACAD
1000
AcDbSavedByObjectVersion
1070
     0
  0
VISUALSTYLE
  5
616
102
{ACAD_XDICTIONARY
360
74D
102
}
102
{ACAD_REACTORS
330
615
102
}
330
615
100
AcDbVisualStyle
  2
Flat
 70
     0
 71
     2
 72
     1
 73
     1
 90
        2
 40
-0.6
 41
30.0
 62
     5
 63
     7
 74
     0
 91
        0
 64
     7
 65
   257
 75
     1
175
     1
 42
1.0
 92
        8
 66
     7
 43
1.0
 76
     1
 77
     6
 78
     2
 67
     7
 79
     5
170
     0
171
     0
290
     0
174
     0
 93
       13
 44
0.0
173
     0
291
     1
 45
0.0
1001
ACAD
1000
AcDbSavedByObjectVersion
1070
     0
  0
VISUALSTYLE
  5
617
102
{ACAD_XDICTIONARY
360
74F
102
}
102
{ACAD_REACTORS
330
615
102
}
330
615
100
AcDbVisualStyle
  2
FlatWithEdges
 70
     1
 71
     2
 72
     1
 73
     1
 90
        2
 40
-0.6
 41
30.0
 62
     5
 63
     7
 74
     1
 91
        0
 64
     7
 65
   257
 75
     1
175
     1
 42
1.0
 92
        0
 66
   257
 43
1.0
 76
     1
 77
     6
 78
     2
 67
     7
 79
     5
170
     0
171
     0
290
     0
174
     0
 93
       13
 44
0.0
173
     0
291
     1
 45
0.0
1001
ACAD
1000
AcDbSavedByObjectVersion
1070
     0
  0
VISUALSTYLE
  5
618
102
{ACAD_XDICTIONARY
360
751
102
}
102
{ACAD_REACTORS
330
615
102
}
330
615
100
AcDbVisualStyle
  2
Gouraud
 70
     2
 71
     2
 72
     2
 73
     1
 90
        2
 40
-0.6
 41
30.0
 62
     5
 63
     7
 74
     0
 91
        0
 64
     7
 65
   257
 75
     1
175
     1
 42
1.0
 92
        0
 66
     7
 43
1.0
 76
     1
 77
     6
 78
     2
 67
     7
 79
     5
170
     0
171
     0
290
     0
174
     0
 93
       13
 44
0.0
173
     0
291
     1
 45
0.0
1001
ACAD
1000
AcDbSavedByObjectVersion
1070
     0
  0
VISUALSTYLE
  5
619
102
{ACAD_XDICTIONARY
360
753
102
}
102
{ACAD_REACTORS
330
615
102
}
330
615
100
AcDbVisualStyle
  2
GouraudWithEdges
 70
     3
 71
     2
 72
     2
 73
     1
 90
        2
 40
-0.6
 41
30.0
 62
     5
 63
     7
 74
     1
 91
        0
 64
     7
 65
   257
 75
     1
175
     1
 42
1.0
 92
        0
 66
   257
 43
1.0
 76
     1
 77
     6
 78
     2
 67
     7
 79
     5
170
     0
171
     0
290
     0
174
     0
 93
       13
 44
0.0
173
     0
291
     1
 45
0.0
1001
ACAD
1000
AcDbSavedByObjectVersion
1070
     0
  0
VISUALSTYLE
  5
61D
102
{ACAD_XDICTIONARY
360
75B
102
}
102
{ACAD_REACTORS
330
615
102
}
330
615
100
AcDbVisualStyle
  2
Hidden
 70
     6
 71
     1
 72
     2
 73
     2
 90
        0
 40
-0.6
 41
-30.0
 62
     5
 63
     7
 74
     2
 91
        2
 64
     7
 65
   257
 75
     2
175
     1
 42
40.0
 92
        0
 66
   257
 43
1.0
 76
     1
 77
     6
 78
     2
 67
     7
 79
     3
170
     0
171
     0
290
     0
174
     0
 93
        1
 44
0.0
173
     0
291
     0
 45
0.0
1001
ACAD
1000
AcDbSavedByObjectVersion
1070
     0
  0
VISUALSTYLE
  5
62B
102
{ACAD_XDICTIONARY
360
777
102
}
102
{ACAD_REACTORS
330
615
102
}
330
615
100
AcDbVisualStyle
  2
JitterOff
 70
    20
 71
     2
 72
     2
 73
     0
 90
        0
 40
-0.6
 41
-30.0
 62
     5
 63
     7
 74
     1
 91
        4
 64
     7
 65
   257
 75
     1
175
     1
 42
1.0
 92
       10
 66
     7
 43
1.0
 76
     1
 77
     6
 78
     2
 67
     7
 79
     5
170
     0
171
     0
290
     0
174
     0
 93
        1
 44
0.0
173
     0
291
     1
 45
0.0
1001
ACAD
1000
AcDbSavedByObjectVersion
1070
     0
  0
VISUALSTYLE
  5
623
102
{ACAD_XDICTIONARY
360
767
102
}
102
{ACAD_REACTORS
330
615
102
}
330
615
100
AcDbVisualStyle
  2
Linepattern
 70
    14
 71
     2
 72
     2
 73
     0
 90
        0
 40
-0.6
 41
-30.0
 62
     5
 63
     7
 74
     1
 91
        4
 64
     7
 65
   257
 75
     7
175
     7
 42
1.0
 92
        8
 66
     7
 43
1.0
 76
     1
 77
     6
 78
     2
 67
     7
 79
     5
170
     0
171
     0
290
     0
174
     0
 93
        1
 44
0.0
173
     0
291
     1
 45
0.0
1001
ACAD
1000
AcDbSavedByObjectVersion
1070
     0
  0
VISUALSTYLE
  5
62C
102
{ACAD_XDICTIONARY
360
779
102
}
102
{ACAD_REACTORS
330
615
102
}
330
615
100
AcDbVisualStyle
  2
OverhangOff
 70
    21
 71
     2
 72
     2
 73
     0
 90
        0
 40
-0.6
 41
-30.0
 62
     5
 63
     7
 74
     1
 91
        4
 64
     7
 65
   257
 75
     1
175
     1
 42
1.0
 92
        9
 66
     7
 43
1.0
 76
     1
 77
     6
 78
     2
 67
     7
 79
     5
170
     0
171
     0
290
     0
174
     0
 93
        1
 44
0.0
173
     0
291
     1
 45
0.0
1001
ACAD
1000
AcDbSavedByObjectVersion
1070
     0
  0
VISUALSTYLE
  5
61F
102
{ACAD_XDICTIONARY
360
75F
102
}
102
{ACAD_REACTORS
330
615
102
}
330
615
100
AcDbVisualStyle
  2
Realistic
 70
     8
 71
     2
 72
     2
 73
     0
 90
        2
 40
-0.6
 41
30.0
 62
     5
 63
     7
 74
     0
 91
        0
 64
     7
 65
   257
 75
     1
175
     1
 42
1.0
 92
        8
 66
   257
 43
1.0
 76
     1
 77
     6
 78
     2
 67
     7
 79
     3
170
     0
171
     0
290
     0
174
     0
 93
       13
 44
0.0
173
     0
291
     0
 45
0.0
1001
ACAD
1000
AcDbSavedByObjectVersion
1070
     0
  0
VISUALSTYLE
  5
62A
102
{ACAD_XDICTIONARY
360
775
102
}
102
{ACAD_REACTORS
330
615
102
}
330
615
100
AcDbVisualStyle
  2
Shaded
 70
    27
 71
     2
 72
     2
 73
     1
 90
        2
 40
-0.6
 41
30.0
 62
     5
 63
     7
 74
     0
 91
        4
 64
     7
 65
   257
 75
     1
175
     1
 42
1.0
 92
        8
 66
   257
 43
1.0
 76
     1
 77
     6
 78
     2
 67
     8
 79
     3
170
     0
171
     0
290
     0
174
     0
 93
        5
 44
0.0
173
     0
291
     0
 45
0.0
1001
ACAD
1000
AcDbSavedByObjectVersion
1070
     0
  0
VISUALSTYLE
  5
629
102
{ACAD_XDICTIONARY
360
773
102
}
102
{ACAD_REACTORS
330
615
102
}
330
615
100
AcDbVisualStyle
  2
Shaded with edges
 70
    26
 71
     2
 72
     2
 73
     1
 90
        2
 40
-0.6
 41
30.0
 62
     5
 63
     7
 74
     1
 91
        2
 64
     7
 65
   257
 75
     2
175
     1
 42
1.0
 92
        8
 66
   257
 43
1.0
 76
     1
 77
     6
 78
     2
 67
     7
 79
     3
170
     0
171
     0
290
     0
174
     0
 93
        5
 44
0.0
173
     0
291
     0
 45
0.0
1001
ACAD
1000
AcDbSavedByObjectVersion
1070
     0
  0
VISUALSTYLE
  5
626
102
{ACAD_XDICTIONARY
360
76D
102
}
102
{ACAD_REACTORS
330
615
102
}
330
615
100
AcDbVisualStyle
  2
Shades of Gray
 70
    23
 71
     2
 72
     2
 73
     3
 90
        0
 40
-0.6
 41
-30.0
 62
     5
 63
     7
 74
     2
 91
        2
 64
     7
 65
     7
 75
     1
175
     1
 42
40.0
 92
        8
 66
     7
 43
1.0
 76
     1
 77
     6
 78
     2
 67
     7
 79
     3
170
     0
171
     0
290
     0
174
     0
 93
        1
 44
0.0
173
     0
291
     0
 45
0.0
1001
ACAD
1000
AcDbSavedByObjectVersion
1070
     0
  0
VISUALSTYLE
  5
627
102
{ACAD_XDICTIONARY
360
76F
102
}
102
{ACAD_REACTORS
330
615
102
}
330
615
100
AcDbVisualStyle
  2
Sketchy
 70
    24
 71
     1
 72
     2
 73
     2
 90
        0
 40
-0.6
 41
-30.0
 62
     5
 63
     7
 74
     2
 91
        2
 64
     7
 65
     7
 75
     1
175
     1
 42
40.0
 92
       11
 66
     7
 43
1.0
 76
     1
 77
     6
 78
     2
 67
     7
 79
     6
170
     0
171
     0
290
     0
174
     0
 93
        1
 44
0.0
173
     0
291
     0
 45
0.0
1001
ACAD
1000
AcDbSavedByObjectVersion
1070
     0
  0
VISUALSTYLE
  5
622
102
{ACAD_XDICTIONARY
360
765
102
}
102
{ACAD_REACTORS
330
615
102
}
330
615
100
AcDbVisualStyle
  2
Thicken
 70
    13
 71
     2
 72
     2
 73
     0
 90
        0
 40
-0.6
 41
-30.0
 62
     5
 63
     7
 74
     1
 91
        4
 64
     7
 65
   257
 75
     1
175
     1
 42
1.0
 92
       12
 66
     7
 43
1.0
 76
     1
 77
     6
 78
     2
 67
     7
 79
     5
170
     0
171
     0
290
     0
174
     0
 93
        1
 44
0.0
173
     0
291
     1
 45
0.0
1001
ACAD
1000
AcDbSavedByObjectVersion
1070
     0
  0
VISUALSTYLE
  5
61C
102
{ACAD_XDICTIONARY
360
759
102
}
102
{ACAD_REACTORS
330
615
102
}
330
615
100
AcDbVisualStyle
  2
Wireframe
 70
     5
 71
     0
 72
     2
 73
     0
 90
        0
 40
-0.6
 41
-30.0
 62
     5
 63
     7
 74
     1
 91
        4
 64
     7
 65
   257
 75
     1
175
     1
 42
1.0
 92
        0
 66
   257
 43
1.0
 76
     1
 77
     6
 78
     2
 67
     7
 79
     3
170
     0
171
     0
290
     0
174
     0
 93
        1
 44
0.0
173
     0
291
     0
 45
0.0
1001
ACAD
1000
AcDbSavedByObjectVersion
1070
     0
  0
VISUALSTYLE
  5
628
102
{ACAD_XDICTIONARY
360
771
102
}
102
{ACAD_REACTORS
330
615
102
}
330
615
100
AcDbVisualStyle
  2
X-Ray
 70
    25
 71
     2
 72
     2
 73
     1
 90
        1
 40
0.5
 41
-30.0
 62
     5
 63
     7
 74
     1
 91
        0
 64
     7
 65
   257
 75
     1
175
     1
 42
1.0
 92
        8
 66
     7
 43
1.0
 76
     1
 77
     6
 78
     2
 67
     7
 79
     3
170
     0
171
     0
290
     0
174
     0
 93
       13
 44
0.0
173
     0
291
     0
 45
0.0
1001
ACAD
1000
AcDbSavedByObjectVersion
1070
     0
  0
DICTIONARYVAR
  5
690
102
{ACAD_REACTORS
330
68B
102
}
330
68B
100
DictionaryVariables
280
     0
  1
1:1
  0
DICTIONARYVAR
  5
68D
102
{ACAD_REACTORS
330
68B
102
}
330
68B
100
DictionaryVariables
280
     0
  1
STANDARD
  0
DICTIONARYVAR
  5
68C
102
{ACAD_REACTORS
330
68B
102
}
330
68B
100
DictionaryVariables
280
     0
  1
STANDARD
  0
DICTIONARYVAR
  5
68E
102
{ACAD_REACTORS
330
68B
102
}
330
68B
100
DictionaryVariables
280
     0
  1
Imperial24
  0
DICTIONARYVAR
  5
68F
102
{ACAD_REACTORS
330
68B
102
}
330
68B
100
DictionaryVariables
280
     0
  1
Imperial24
  0
DICTIONARYVAR
  5
693
102
{ACAD_REACTORS
330
68B
102
}
330
68B
100
DictionaryVariables
280
     0
  1
1
  0
DICTIONARYVAR
  5
692
102
{ACAD_REACTORS
330
68B
102
}
330
68B
100
DictionaryVariables
280
     0
  1
0
  0
DICTIONARYVAR
  5
6E3
102
{ACAD_REACTORS
330
68B
102
}
330
68B
100
DictionaryVariables
280
     0
  1
1
  0
DICTIONARYVAR
  5
6E4
102
{ACAD_REACTORS
330
68B
102
}
330
68B
100
DictionaryVariables
280
     0
  1
15
  0
DICTIONARYVAR
  5
6E2
102
{ACAD_REACTORS
330
68B
102
}
330
68B
100
DictionaryVariables
280
     0
  1
0
  0
DICTIONARYVAR
  5
6E1
102
{ACAD_REACTORS
330
68B
102
}
330
68B
100
DictionaryVariables
280
     0
  1
0
  0
DICTIONARYVAR
  5
691
102
{ACAD_REACTORS
330
68B
102
}
330
68B
100
DictionaryVariables
280
     0
  1
127
  0
DICTIONARYVAR
  5
6F3
102
{ACAD_REACTORS
330
68B
102
}
330
68B
100
DictionaryVariables
280
     0
  1
2
  0
DICTIONARY
  5
745
102
{ACAD_REACTORS
330
743
102
}
330
743
100
AcDbDictionary
281
     1
  0
DICTIONARY
  5
744
102
{ACAD_REACTORS
330
743
102
}
330
743
100
AcDbDictionary
281
     1
  3
1098516960
350
73E
  3
1098516976
350
73F
  3
1098516992
350
740
  3
1098517008
350
741
  3
1098517024
350
742
  0
DICTIONARY
  5
780
330
648
100
AcDbDictionary
280
     1
281
     1
  3
ACAD_XREC_ROUNDTRIP
360
781
  0
DICTIONARY
  5
748
330
5F9
100
AcDbDictionary
280
     1
281
     1
  3
ACAD_XREC_ROUNDTRIP
360
749
  0
DICTIONARY
  5
746
330
5F8
100
AcDbDictionary
280
     1
281
     1
  3
ACAD_XREC_ROUNDTRIP
360
747
  0
DICTIONARY
  5
606
330
605
100
AcDbDictionary
280
     1
281
     1
  3
ACAD_XREC_ROUNDTRIP
360
74B
  3
BUMPTILE
360
608
  3
DIFFUSETILE
360
607
  3
OPACITYTILE
360
60B
  3
REFLECTIONTILE
360
60A
  3
REFRACTIONTILE
360
60C
  3
SPECULARTILE
360
609
  0
DICTIONARY
  5
5FE
330
5FD
100
AcDbDictionary
280
     1
281
     1
  3
ACAD_XREC_ROUNDTRIP
360
74A
  3
BUMPTILE
360
600
  3
DIFFUSETILE
360
5FF
  3
OPACITYTILE
360
603
  3
REFLECTIONTILE
360
602
  3
REFRACTIONTILE
360
604
  3
SPECULARTILE
360
601
  0
DICTIONARY
  5
60E
330
60D
100
AcDbDictionary
280
     1
281
     1
  3
ACAD_XREC_ROUNDTRIP
360
74C
  3
BUMPTILE
360
610
  3
DIFFUSETILE
360
60F
  3
OPACITYTILE
360
613
  3
REFLECTIONTILE
360
612
  3
REFRACTIONTILE
360
614
  3
SPECULARTILE
360
611
  0
DICTIONARY
  5
77E
330
646
100
AcDbDictionary
280
     1
281
     1
  3
ACAD_XREC_ROUNDTRIP
360
77F
  0
DICTIONARY
  5
649
330
630
100
AcDbDictionary
280
     1
281
     1
  3
ACAD_ROUNDTRIP_2008_TABLESTYLE_CELLSTYLEMAP
360
73B
  3
ACAD_XREC_ROUNDTRIP
360
77D
  0
DICTIONARY
  5
757
330
61B
100
AcDbDictionary
280
     1
281
     1
  3
ACAD_XREC_ROUNDTRIP
360
758
  0
DICTIONARY
  5
755
330
61A
100
AcDbDictionary
280
     1
281
     1
  3
ACAD_XREC_ROUNDTRIP
360
756
  0
DICTIONARY
  5
763
330
621
100
AcDbDictionary
280
     1
281
     1
  3
ACAD_XREC_ROUNDTRIP
360
764
  0
DICTIONARY
  5
76B
330
625
100
AcDbDictionary
280
     1
281
     1
  3
ACAD_XREC_ROUNDTRIP
360
76C
  0
DICTIONARY
  5
75D
330
61E
100
AcDbDictionary
280
     1
281
     1
  3
ACAD_XREC_ROUNDTRIP
360
75E
  0
DICTIONARY
  5
761
330
620
100
AcDbDictionary
280
     1
281
     1
  3
ACAD_XREC_ROUNDTRIP
360
762
  0
DICTIONARY
  5
77B
330
62D
100
AcDbDictionary
280
     1
281
     1
  3
ACAD_XREC_ROUNDTRIP
360
77C
  0
DICTIONARY
  5
769
330
624
100
AcDbDictionary
280
     1
281
     1
  3
ACAD_XREC_ROUNDTRIP
360
76A
  0
DICTIONARY
  5
74D
330
616
100
AcDbDictionary
280
     1
281
     1
  3
ACAD_XREC_ROUNDTRIP
360
74E
  0
DICTIONARY
  5
74F
330
617
100
AcDbDictionary
280
     1
281
     1
  3
ACAD_XREC_ROUNDTRIP
360
750
  0
DICTIONARY
  5
751
330
618
100
AcDbDictionary
280
     1
281
     1
  3
ACAD_XREC_ROUNDTRIP
360
752
  0
DICTIONARY
  5
753
330
619
100
AcDbDictionary
280
     1
281
     1
  3
ACAD_XREC_ROUNDTRIP
360
754
  0
DICTIONARY
  5
75B
330
61D
100
AcDbDictionary
280
     1
281
     1
  3
ACAD_XREC_ROUNDTRIP
360
75C
  0
DICTIONARY
  5
777
330
62B
100
AcDbDictionary
280
     1
281
     1
  3
ACAD_XREC_ROUNDTRIP
360
778
  0
DICTIONARY
  5
767
330
623
100
AcDbDictionary
280
     1
281
     1
  3
ACAD_XREC_ROUNDTRIP
360
768
  0
DICTIONARY
  5
779
330
62C
100
AcDbDictionary
280
     1
281
     1
  3
ACAD_XREC_ROUNDTRIP
360
77A
  0
DICTIONARY
  5
75F
330
61F
100
AcDbDictionary
280
     1
281
     1
  3
ACAD_XREC_ROUNDTRIP
360
760
  0
DICTIONARY
  5
775
330
62A
100
AcDbDictionary
280
     1
281
     1
  3
ACAD_XREC_ROUNDTRIP
360
776
  0
DICTIONARY
  5
773
330
629
100
AcDbDictionary
280
     1
281
     1
  3
ACAD_XREC_ROUNDTRIP
360
774
  0
DICTIONARY
  5
76D
330
626
100
AcDbDictionary
280
     1
281
     1
  3
ACAD_XREC_ROUNDTRIP
360
76E
  0
DICTIONARY
  5
76F
330
627
100
AcDbDictionary
280
     1
281
     1
  3
ACAD_XREC_ROUNDTRIP
360
770
  0
DICTIONARY
  5
765
330
622
100
AcDbDictionary
280
     1
281
     1
  3
ACAD_XREC_ROUNDTRIP
360
766
  0
DICTIONARY
  5
759
330
61C
100
AcDbDictionary
280
     1
281
     1
  3
ACAD_XREC_ROUNDTRIP
360
75A
  0
DICTIONARY
  5
771
330
628
100
AcDbDictionary
280
     1
281
     1
  3
ACAD_XREC_ROUNDTRIP
360
772
  0
XRECORD
  5
73E
102
{ACAD_REACTORS
330
744
102
}
330
744
100
AcDbXrecord
280
     1
  1
AcDb_Thumbnail_Schema
102
{ATTRRECORD
341
73F
  2
AcDbDs::TreatedAsObjectData
280
     1
291
     1
102
ATTRRECORD}
102
{ATTRRECORD
341
740
  2
AcDbDs::Legacy
280
     1
291
     1
102
ATTRRECORD}
  2
AcDbDs::ID
280
    10
 91
        8
102
{ATTRRECORD
341
741
  2
AcDs:Indexable
280
     1
291
     1
102
ATTRRECORD}
102
{ATTRRECORD
341
742
  2
AcDbDs::HandleAttribute
280
     7
282
     1
102
ATTRRECORD}
  2
Thumbnail_Data
280
    15
 91
        0
  0
XRECORD
  5
73F
102
{ACAD_REACTORS
330
744
102
}
330
744
100
AcDbXrecord
280
     1
  1
AcDbDs::TreatedAsObjectDataSchema
  2
AcDbDs::TreatedAsObjectData
280
     1
 91
        0
  0
XRECORD
  5
740
102
{ACAD_REACTORS
330
744
102
}
330
744
100
AcDbXrecord
280
     1
  1
AcDbDs::LegacySchema
  2
AcDbDs::Legacy
280
     1
 91
        0
  0
XRECORD
  5
741
102
{ACAD_REACTORS
330
744
102
}
330
744
100
AcDbXrecord
280
     1
  1
AcDbDs::IndexedPropertySchema
  2
AcDs:Indexable
280
     1
 91
        0
  0
XRECORD
  5
742
102
{ACAD_REACTORS
330
744
102
}
330
744
100
AcDbXrecord
280
     1
  1
AcDbDs::HandleAttributeSchema
  2
AcDbDs::HandleAttribute
280
     7
 91
        1
284
     1
  0
XRECORD
  5
781
102
{ACAD_REACTORS
330
780
102
}
330
780
100
AcDbXrecord
280
     1
102
DISPLAYNAME
  1
Imperial24
102
FLAGS
 90
        0
  0
XRECORD
  5
749
102
{ACAD_REACTORS
330
748
102
}
330
748
100
AcDbXrecord
280
     1
102
SHADEPLOT
 70
     0
102
SHADEPLOTRESLEVEL
 70
     2
102
SHADEPLOTCUSTOMDPI
 70
   300
  0
XRECORD
  5
747
102
{ACAD_REACTORS
330
746
102
}
330
746
100
AcDbXrecord
280
     1
102
SHADEPLOT
 70
     0
102
SHADEPLOTRESLEVEL
 70
     2
102
SHADEPLOTCUSTOMDPI
 70
   300
  0
XRECORD
  5
74B
102
{ACAD_REACTORS
330
606
102
}
330
606
100
AcDbXrecord
280
     1
102
MATERIAL
148
0.0
149
0.0
149
0.0
 93
        0
 94
      127
282
     0
 72
     0
 77
     0
171
     0
175
     0
179
     0
273
     0
  0
XRECORD
  5
608
102
{ACAD_REACTORS
330
606
102
}
330
606
100
AcDbXrecord
280
     1
270
     1
271
     1
  0
XRECORD
  5
607
102
{ACAD_REACTORS
330
606
102
}
330
606
100
AcDbXrecord
280
     1
270
     1
271
     1
  0
XRECORD
  5
60B
102
{ACAD_REACTORS
330
606
102
}
330
606
100
AcDbXrecord
280
     1
270
     1
271
     1
  0
XRECORD
  5
60A
102
{ACAD_REACTORS
330
606
102
}
330
606
100
AcDbXrecord
280
     1
270
     1
271
     1
  0
XRECORD
  5
60C
102
{ACAD_REACTORS
330
606
102
}
330
606
100
AcDbXrecord
280
     1
270
     1
271
     1
  0
XRECORD
  5
609
102
{ACAD_REACTORS
330
606
102
}
330
606
100
AcDbXrecord
280
     1
270
     1
271
     1
  0
XRECORD
  5
74A
102
{ACAD_REACTORS
330
5FE
102
}
330
5FE
100
AcDbXrecord
280
     1
102
MATERIAL
148
0.0
149
0.0
149
0.0
 93
        0
 94
      127
282
     0
 72
     0
 77
     0
171
     0
175
     0
179
     0
273
     0
  0
XRECORD
  5
600
102
{ACAD_REACTORS
330
5FE
102
}
330
5FE
100
AcDbXrecord
280
     1
270
     1
271
     1
  0
XRECORD
  5
5FF
102
{ACAD_REACTORS
330
5FE
102
}
330
5FE
100
AcDbXrecord
280
     1
270
     1
271
     1
  0
XRECORD
  5
603
102
{ACAD_REACTORS
330
5FE
102
}
330
5FE
100
AcDbXrecord
280
     1
270
     1
271
     1
  0
XRECORD
  5
602
102
{ACAD_REACTORS
330
5FE
102
}
330
5FE
100
AcDbXrecord
280
     1
270
     1
271
     1
  0
XRECORD
  5
604
102
{ACAD_REACTORS
330
5FE
102
}
330
5FE
100
AcDbXrecord
280
     1
270
     1
271
     1
  0
XRECORD
  5
601
102
{ACAD_REACTORS
330
5FE
102
}
330
5FE
100
AcDbXrecord
280
     1
270
     1
271
     1
  0
XRECORD
  5
74C
102
{ACAD_REACTORS
330
60E
102
}
330
60E
100
AcDbXrecord
280
     1
102
MATERIAL
148
0.0
149
0.0
149
0.0
 93
        0
 94
      127
282
     0
 72
     0
 77
     0
171
     0
175
     0
179
     0
273
     0
  0
XRECORD
  5
610
102
{ACAD_REACTORS
330
60E
102
}
330
60E
100
AcDbXrecord
280
     1
270
     1
271
     1
  0
XRECORD
  5
60F
102
{ACAD_REACTORS
330
60E
102
}
330
60E
100
AcDbXrecord
280
     1
270
     1
271
     1
  0
XRECORD
  5
613
102
{ACAD_REACTORS
330
60E
102
}
330
60E
100
AcDbXrecord
280
     1
270
     1
271
     1
  0
XRECORD
  5
612
102
{ACAD_REACTORS
330
60E
102
}
330
60E
100
AcDbXrecord
280
     1
270
     1
271
     1
  0
XRECORD
  5
614
102
{ACAD_REACTORS
330
60E
102
}
330
60E
100
AcDbXrecord
280
     1
270
     1
271
     1
  0
XRECORD
  5
611
102
{ACAD_REACTORS
330
60E
102
}
330
60E
100
AcDbXrecord
280
     1
270
     1
271
     1
  0
XRECORD
  5
77F
102
{ACAD_REACTORS
330
77E
102
}
330
77E
100
AcDbXrecord
280
     1
102
DISPLAYNAME
  1
Imperial24
102
FLAGS
 90
        0
  0
CELLSTYLEMAP
  5
73B
102
{ACAD_REACTORS
330
649
102
}
330
649
100
AcDbCellStyleMap
 90
        3
300
CELLSTYLE
  1
TABLEFORMAT_BEGIN
 90
        5
170
     1
 91
        0
 92
    32768
 62
   257
 93
        1
300
CONTENTFORMAT
  1
CONTENTFORMAT_BEGIN
 90
        0
 91
        0
 92
      512
 93
        0
300

 40
0.0
140
1.0
 94
        5
 62
     0
340
11
144
0.25
309
CONTENTFORMAT_END
171
     0
 94
        0
309
TABLEFORMAT_END
  1
CELLSTYLE_BEGIN
 90
        1
 91
        1
300
_TITLE
309
CELLSTYLE_END
300
CELLSTYLE
  1
TABLEFORMAT_BEGIN
 90
        5
170
     1
 91
        0
 92
        0
 62
   257
 93
        1
300
CONTENTFORMAT
  1
CONTENTFORMAT_BEGIN
 90
        0
 91
        0
 92
      512
 93
        0
300

 40
0.0
140
1.0
 94
        5
 62
     0
340
11
144
0.18
309
CONTENTFORMAT_END
171
     0
 94
        0
309
TABLEFORMAT_END
  1
CELLSTYLE_BEGIN
 90
        2
 91
        1
300
_HEADER
309
CELLSTYLE_END
300
CELLSTYLE
  1
TABLEFORMAT_BEGIN
 90
        5
170
     1
 91
        0
 92
        0
 62
   257
 93
        1
300
CONTENTFORMAT
  1
CONTENTFORMAT_BEGIN
 90
        0
 91
        0
 92
      512
 93
        0
300

 40
0.0
140
1.0
 94
        2
 62
     0
340
11
144
0.18
309
CONTENTFORMAT_END
171
     0
 94
        0
309
TABLEFORMAT_END
  1
CELLSTYLE_BEGIN
 90
        3
 91
        2
300
_DATA
309
CELLSTYLE_END
  0
XRECORD
  5
77D
102
{ACAD_REACTORS
330
649
102
}
330
649
100
AcDbXrecord
280
     1
102
ACAD_ROUNDTRIP_PRE2007_TABLESTYLE
 90
      512
 91
        0
  1

 92
      512
 93
        0
  2

 94
      512
 95
        0
  3

  0
XRECORD
  5
758
102
{ACAD_REACTORS
330
757
102
}
330
757
100
AcDbXrecord
280
     1
102
RTVSPost2010Prop28
280
     1
102
RTVSPost2010PropOp28
 70
     1
102
RTVSPost2010Prop29
280
     1
102
RTVSPost2010PropOp29
 70
     1
102
RTVSPost2010Prop30
280
     0
102
RTVSPost2010PropOp30
 70
     1
102
RTVSPost2010Prop31
280
     0
102
RTVSPost2010PropOp31
 70
     1
102
RTVSPost2010Prop32
280
     0
102
RTVSPost2010PropOp32
 70
     1
102
RTVSPost2010Prop33
280
     0
102
RTVSPost2010PropOp33
 70
     1
102
RTVSPost2010Prop34
280
     0
102
RTVSPost2010PropOp34
 70
     1
102
RTVSPost2010Prop35
280
     0
102
RTVSPost2010PropOp35
 70
     1
102
RTVSPost2010Prop36
280
     0
102
RTVSPost2010PropOp36
 70
     1
102
RTVSPost2010Prop37
 90
       50
102
RTVSPost2010PropOp37
 70
     1
102
RTVSPost2010Prop38
140
0.0
102
RTVSPost2010PropOp38
 70
     1
102
RTVSPost2010Prop39
140
1.0
102
RTVSPost2010PropOp39
 70
     1
102
RTVSPost2010Prop40
 90
        0
102
RTVSPost2010PropOp40
 70
     1
102
RTVSPost2010Prop41ColorIndex
 90
       18
102
RTVSPost2010Prop41ColorRGB
 90
        0
102
RTVSPost2010PropOp41
 70
     1
102
RTVSPost2010Prop42
 90
       50
102
RTVSPost2010PropOp42
 70
     1
102
RTVSPost2010Prop43
 90
        3
102
RTVSPost2010PropOp43
 70
     1
102
RTVSPost2010Prop44ColorIndex
 90
        5
102
RTVSPost2010Prop44ColorRGB
 90
      255
102
RTVSPost2010PropOp44
 70
     1
102
RTVSPost2010Prop45
280
     0
102
RTVSPost2010PropOp45
 70
     1
102
RTVSPost2010Prop46
 90
       50
102
RTVSPost2010PropOp46
 70
     1
102
RTVSPost2010Prop47
 90
       50
102
RTVSPost2010PropOp47
 70
     1
102
RTVSPost2010Prop48
 90
       50
102
RTVSPost2010PropOp48
 70
     1
102
RTVSPost2010Prop49
280
     0
102
RTVSPost2010PropOp49
 70
     1
102
RTVSPost2010Prop50
 90
       50
102
RTVSPost2010PropOp50
 70
     1
102
RTVSPost2010Prop51ColorIndex
 90
      256
102
RTVSPost2010Prop51ColorRGB
 90
-16777216
102
RTVSPost2010PropOp51
 70
     0
102
RTVSPost2010Prop52
140
1.0
102
RTVSPost2010PropOp52
 70
     0
102
RTVSPost2010Prop53
 90
        2
102
RTVSPost2010PropOp53
 70
     1
102
RTVSPost2010Prop54
  1
strokes_ogs.tif
102
RTVSPost2010PropOp54
 70
     1
102
RTVSPost2010Prop55
280
     0
102
RTVSPost2010PropOp55
 70
     1
102
RTVSPost2010Prop56
140
1.0
102
RTVSPost2010PropOp56
 70
     1
102
RTVSPost2010Prop57
140
1.0
102
RTVSPost2010PropOp57
 70
     1
102
RTVSPropertyOp0
 70
     1
102
RTVSPropertyOp1
 70
     1
102
RTVSPropertyOp2
 70
     1
102
RTVSPropertyOp3
 70
     1
102
RTVSPropertyOp4
 70
     1
102
RTVSPropertyOp5
 70
     1
102
RTVSPropertyOp6
 70
     1
102
RTVSPropertyOp7
 70
     1
102
RTVSPropertyOp8
 70
     1
102
RTVSPropertyOp9
 70
     1
102
RTVSPropertyOp10
 70
     1
102
RTVSPropertyOp11
 70
     1
102
RTVSPropertyOp12
 70
     1
102
RTVSPropertyOp13
 70
     1
102
RTVSPropertyOp14
 70
     1
102
RTVSPropertyOp15
 70
     1
102
RTVSPropertyOp16
 70
     1
102
RTVSPropertyOp17
 70
     1
102
RTVSPropertyOp18
 70
     1
102
RTVSPropertyOp19
 70
     1
102
RTVSPropertyOp20
 70
     1
102
RTVSPropertyOp21
 70
     1
102
RTVSPropertyOp22
 70
     1
102
RTVSPropertyOp23
 70
     1
102
RTVSPropertyOp24
 70
     1
102
RTVSPropertyOp25
 70
     1
102
RTVSPropertyOp26
 70
     1
102
RTVSPropertyOp27
 70
     1
102
RTVSPropertyOp28
 70
     1
102
RTVSPropertyOp29
 70
     1
102
RTVSPropertyOp30
 70
     1
102
RTVSPropertyOp31
 70
     1
102
RTVSPropertyOp32
 70
     1
102
RTVSPropertyOp33
 70
     1
102
RTVSPropertyOp34
 70
     1
102
RTVSPropertyOp35
 70
     1
102
RTVSPropertyOp36
 70
     1
102
RTVSPropertyOp37
 70
     1
102
RTVSPropertyOp38
 70
     1
102
RTVSPropertyOp39
 70
     1
102
RTVSPropertyOp40
 70
     1
102
RTVSPropertyOp41
 70
     1
102
RTVSPropertyOp42
 70
     1
102
RTVSPropertyOp43
 70
     1
102
RTVSPropertyOp44
 70
     1
102
RTVSPropertyOp45
 70
     1
102
RTVSPropertyOp46
 70
     1
102
RTVSPropertyOp47
 70
     1
102
RTVSPropertyOp48
 70
     1
102
RTVSPropertyOp49
 70
     1
102
RTVSPropertyOp50
 70
     1
102
RTVSPropertyOp51
 70
     0
102
RTVSPropertyOp52
 70
     0
102
RTVSPropertyOp53
 70
     1
102
RTVSPropertyOp54
 70
     1
102
RTVSPropertyOp55
 70
     1
102
RTVSPropertyOp56
 70
     1
102
RTVSPropertyOp57
 70
     1
102
RTVSPropertyOp58
 70
     1
102
RTVSPropertyOp59
 70
     1
102
RTVSPropertyOp60
 70
     1
102
RTVSPropertyOp61
 70
     1
102
RTVSPropertyOp62
 70
     1
  0
XRECORD
  5
756
102
{ACAD_REACTORS
330
755
102
}
330
755
100
AcDbXrecord
280
     1
102
RTVSPost2010Prop28
280
     0
102
RTVSPost2010PropOp28
 70
     1
102
RTVSPost2010Prop29
280
     1
102
RTVSPost2010PropOp29
 70
     1
102
RTVSPost2010Prop30
280
     1
102
RTVSPost2010PropOp30
 70
     1
102
RTVSPost2010Prop31
280
     0
102
RTVSPost2010PropOp31
 70
     1
102
RTVSPost2010Prop32
280
     0
102
RTVSPost2010PropOp32
 70
     1
102
RTVSPost2010Prop33
280
     0
102
RTVSPost2010PropOp33
 70
     1
102
RTVSPost2010Prop34
280
     0
102
RTVSPost2010PropOp34
 70
     1
102
RTVSPost2010Prop35
280
     0
102
RTVSPost2010PropOp35
 70
     1
102
RTVSPost2010Prop36
280
     0
102
RTVSPost2010PropOp36
 70
     1
102
RTVSPost2010Prop37
 90
       50
102
RTVSPost2010PropOp37
 70
     1
102
RTVSPost2010Prop38
140
0.0
102
RTVSPost2010PropOp38
 70
     1
102
RTVSPost2010Prop39
140
1.0
102
RTVSPost2010PropOp39
 70
     1
102
RTVSPost2010Prop40
 90
        0
102
RTVSPost2010PropOp40
 70
     1
102
RTVSPost2010Prop41ColorIndex
 90
       18
102
RTVSPost2010Prop41ColorRGB
 90
        0
102
RTVSPost2010PropOp41
 70
     1
102
RTVSPost2010Prop42
 90
       50
102
RTVSPost2010PropOp42
 70
     1
102
RTVSPost2010Prop43
 90
        3
102
RTVSPost2010PropOp43
 70
     1
102
RTVSPost2010Prop44ColorIndex
 90
        5
102
RTVSPost2010Prop44ColorRGB
 90
      255
102
RTVSPost2010PropOp44
 70
     1
102
RTVSPost2010Prop45
280
     0
102
RTVSPost2010PropOp45
 70
     1
102
RTVSPost2010Prop46
 90
       50
102
RTVSPost2010PropOp46
 70
     1
102
RTVSPost2010Prop47
 90
       50
102
RTVSPost2010PropOp47
 70
     1
102
RTVSPost2010Prop48
 90
       50
102
RTVSPost2010PropOp48
 70
     1
102
RTVSPost2010Prop49
280
     0
102
RTVSPost2010PropOp49
 70
     1
102
RTVSPost2010Prop50
 90
       50
102
RTVSPost2010PropOp50
 70
     1
102
RTVSPost2010Prop51ColorIndex
 90
      256
102
RTVSPost2010Prop51ColorRGB
 90
-16777216
102
RTVSPost2010PropOp51
 70
     0
102
RTVSPost2010Prop52
140
1.0
102
RTVSPost2010PropOp52
 70
     0
102
RTVSPost2010Prop53
 90
        2
102
RTVSPost2010PropOp53
 70
     1
102
RTVSPost2010Prop54
  1
strokes_ogs.tif
102
RTVSPost2010PropOp54
 70
     1
102
RTVSPost2010Prop55
280
     0
102
RTVSPost2010PropOp55
 70
     1
102
RTVSPost2010Prop56
140
1.0
102
RTVSPost2010PropOp56
 70
     1
102
RTVSPost2010Prop57
140
1.0
102
RTVSPost2010PropOp57
 70
     1
102
RTVSPropertyOp0
 70
     1
102
RTVSPropertyOp1
 70
     1
102
RTVSPropertyOp2
 70
     1
102
RTVSPropertyOp3
 70
     1
102
RTVSPropertyOp4
 70
     1
102
RTVSPropertyOp5
 70
     1
102
RTVSPropertyOp6
 70
     1
102
RTVSPropertyOp7
 70
     1
102
RTVSPropertyOp8
 70
     1
102
RTVSPropertyOp9
 70
     1
102
RTVSPropertyOp10
 70
     1
102
RTVSPropertyOp11
 70
     1
102
RTVSPropertyOp12
 70
     1
102
RTVSPropertyOp13
 70
     1
102
RTVSPropertyOp14
 70
     1
102
RTVSPropertyOp15
 70
     1
102
RTVSPropertyOp16
 70
     1
102
RTVSPropertyOp17
 70
     1
102
RTVSPropertyOp18
 70
     1
102
RTVSPropertyOp19
 70
     1
102
RTVSPropertyOp20
 70
     1
102
RTVSPropertyOp21
 70
     1
102
RTVSPropertyOp22
 70
     1
102
RTVSPropertyOp23
 70
     1
102
RTVSPropertyOp24
 70
     1
102
RTVSPropertyOp25
 70
     1
102
RTVSPropertyOp26
 70
     1
102
RTVSPropertyOp27
 70
     1
102
RTVSPropertyOp28
 70
     1
102
RTVSPropertyOp29
 70
     1
102
RTVSPropertyOp30
 70
     1
102
RTVSPropertyOp31
 70
     1
102
RTVSPropertyOp32
 70
     1
102
RTVSPropertyOp33
 70
     1
102
RTVSPropertyOp34
 70
     1
102
RTVSPropertyOp35
 70
     1
102
RTVSPropertyOp36
 70
     1
102
RTVSPropertyOp37
 70
     1
102
RTVSPropertyOp38
 70
     1
102
RTVSPropertyOp39
 70
     1
102
RTVSPropertyOp40
 70
     1
102
RTVSPropertyOp41
 70
     1
102
RTVSPropertyOp42
 70
     1
102
RTVSPropertyOp43
 70
     1
102
RTVSPropertyOp44
 70
     1
102
RTVSPropertyOp45
 70
     1
102
RTVSPropertyOp46
 70
     1
102
RTVSPropertyOp47
 70
     1
102
RTVSPropertyOp48
 70
     1
102
RTVSPropertyOp49
 70
     1
102
RTVSPropertyOp50
 70
     1
102
RTVSPropertyOp51
 70
     0
102
RTVSPropertyOp52
 70
     0
102
RTVSPropertyOp53
 70
     1
102
RTVSPropertyOp54
 70
     1
102
RTVSPropertyOp55
 70
     1
102
RTVSPropertyOp56
 70
     1
102
RTVSPropertyOp57
 70
     1
102
RTVSPropertyOp58
 70
     1
102
RTVSPropertyOp59
 70
     1
102
RTVSPropertyOp60
 70
     1
102
RTVSPropertyOp61
 70
     1
102
RTVSPropertyOp62
 70
     1
  0
XRECORD
  5
764
102
{ACAD_REACTORS
330
763
102
}
330
763
100
AcDbXrecord
280
     1
102
RTVSPost2010Prop28
280
     0
102
RTVSPost2010PropOp28
 70
     1
102
RTVSPost2010Prop29
280
     1
102
RTVSPost2010PropOp29
 70
     1
102
RTVSPost2010Prop30
280
     1
102
RTVSPost2010PropOp30
 70
     1
102
RTVSPost2010Prop31
280
     0
102
RTVSPost2010PropOp31
 70
     1
102
RTVSPost2010Prop32
280
     0
102
RTVSPost2010PropOp32
 70
     1
102
RTVSPost2010Prop33
280
     0
102
RTVSPost2010PropOp33
 70
     1
102
RTVSPost2010Prop34
280
     0
102
RTVSPost2010PropOp34
 70
     1
102
RTVSPost2010Prop35
280
     0
102
RTVSPost2010PropOp35
 70
     1
102
RTVSPost2010Prop36
280
     0
102
RTVSPost2010PropOp36
 70
     1
102
RTVSPost2010Prop37
 90
       50
102
RTVSPost2010PropOp37
 70
     1
102
RTVSPost2010Prop38
140
0.0
102
RTVSPost2010PropOp38
 70
     1
102
RTVSPost2010Prop39
140
1.0
102
RTVSPost2010PropOp39
 70
     1
102
RTVSPost2010Prop40
 90
        0
102
RTVSPost2010PropOp40
 70
     1
102
RTVSPost2010Prop41ColorIndex
 90
       18
102
RTVSPost2010Prop41ColorRGB
 90
        0
102
RTVSPost2010PropOp41
 70
     1
102
RTVSPost2010Prop42
 90
       50
102
RTVSPost2010PropOp42
 70
     1
102
RTVSPost2010Prop43
 90
        3
102
RTVSPost2010PropOp43
 70
     1
102
RTVSPost2010Prop44ColorIndex
 90
        5
102
RTVSPost2010Prop44ColorRGB
 90
      255
102
RTVSPost2010PropOp44
 70
     1
102
RTVSPost2010Prop45
280
     0
102
RTVSPost2010PropOp45
 70
     1
102
RTVSPost2010Prop46
 90
       50
102
RTVSPost2010PropOp46
 70
     1
102
RTVSPost2010Prop47
 90
       50
102
RTVSPost2010PropOp47
 70
     1
102
RTVSPost2010Prop48
 90
       50
102
RTVSPost2010PropOp48
 70
     1
102
RTVSPost2010Prop49
280
     0
102
RTVSPost2010PropOp49
 70
     1
102
RTVSPost2010Prop50
 90
       50
102
RTVSPost2010PropOp50
 70
     1
102
RTVSPost2010Prop51ColorIndex
 90
      256
102
RTVSPost2010Prop51ColorRGB
 90
-16777216
102
RTVSPost2010PropOp51
 70
     0
102
RTVSPost2010Prop52
140
1.0
102
RTVSPost2010PropOp52
 70
     0
102
RTVSPost2010Prop53
 90
        2
102
RTVSPost2010PropOp53
 70
     1
102
RTVSPost2010Prop54
  1
strokes_ogs.tif
102
RTVSPost2010PropOp54
 70
     1
102
RTVSPost2010Prop55
280
     0
102
RTVSPost2010PropOp55
 70
     1
102
RTVSPost2010Prop56
140
1.0
102
RTVSPost2010PropOp56
 70
     1
102
RTVSPost2010Prop57
140
1.0
102
RTVSPost2010PropOp57
 70
     1
102
RTVSPropertyOp0
 70
     1
102
RTVSPropertyOp1
 70
     1
102
RTVSPropertyOp2
 70
     1
102
RTVSPropertyOp3
 70
     1
102
RTVSPropertyOp4
 70
     1
102
RTVSPropertyOp5
 70
     1
102
RTVSPropertyOp6
 70
     1
102
RTVSPropertyOp7
 70
     1
102
RTVSPropertyOp8
 70
     1
102
RTVSPropertyOp9
 70
     1
102
RTVSPropertyOp10
 70
     1
102
RTVSPropertyOp11
 70
     1
102
RTVSPropertyOp12
 70
     1
102
RTVSPropertyOp13
 70
     1
102
RTVSPropertyOp14
 70
     1
102
RTVSPropertyOp15
 70
     1
102
RTVSPropertyOp16
 70
     1
102
RTVSPropertyOp17
 70
     1
102
RTVSPropertyOp18
 70
     1
102
RTVSPropertyOp19
 70
     1
102
RTVSPropertyOp20
 70
     1
102
RTVSPropertyOp21
 70
     1
102
RTVSPropertyOp22
 70
     1
102
RTVSPropertyOp23
 70
     1
102
RTVSPropertyOp24
 70
     1
102
RTVSPropertyOp25
 70
     1
102
RTVSPropertyOp26
 70
     1
102
RTVSPropertyOp27
 70
     1
102
RTVSPropertyOp28
 70
     1
102
RTVSPropertyOp29
 70
     1
102
RTVSPropertyOp30
 70
     1
102
RTVSPropertyOp31
 70
     1
102
RTVSPropertyOp32
 70
     1
102
RTVSPropertyOp33
 70
     1
102
RTVSPropertyOp34
 70
     1
102
RTVSPropertyOp35
 70
     1
102
RTVSPropertyOp36
 70
     1
102
RTVSPropertyOp37
 70
     1
102
RTVSPropertyOp38
 70
     1
102
RTVSPropertyOp39
 70
     1
102
RTVSPropertyOp40
 70
     1
102
RTVSPropertyOp41
 70
     1
102
RTVSPropertyOp42
 70
     1
102
RTVSPropertyOp43
 70
     1
102
RTVSPropertyOp44
 70
     1
102
RTVSPropertyOp45
 70
     1
102
RTVSPropertyOp46
 70
     1
102
RTVSPropertyOp47
 70
     1
102
RTVSPropertyOp48
 70
     1
102
RTVSPropertyOp49
 70
     1
102
RTVSPropertyOp50
 70
     1
102
RTVSPropertyOp51
 70
     0
102
RTVSPropertyOp52
 70
     0
102
RTVSPropertyOp53
 70
     1
102
RTVSPropertyOp54
 70
     1
102
RTVSPropertyOp55
 70
     1
102
RTVSPropertyOp56
 70
     1
102
RTVSPropertyOp57
 70
     1
102
RTVSPropertyOp58
 70
     1
102
RTVSPropertyOp59
 70
     1
102
RTVSPropertyOp60
 70
     1
102
RTVSPropertyOp61
 70
     1
102
RTVSPropertyOp62
 70
     1
  0
XRECORD
  5
76C
102
{ACAD_REACTORS
330
76B
102
}
330
76B
100
AcDbXrecord
280
     1
102
RTVSPost2010Prop28
280
     0
102
RTVSPost2010PropOp28
 70
     1
102
RTVSPost2010Prop29
280
     1
102
RTVSPost2010PropOp29
 70
     1
102
RTVSPost2010Prop30
280
     1
102
RTVSPost2010PropOp30
 70
     1
102
RTVSPost2010Prop31
280
     0
102
RTVSPost2010PropOp31
 70
     1
102
RTVSPost2010Prop32
280
     0
102
RTVSPost2010PropOp32
 70
     1
102
RTVSPost2010Prop33
280
     0
102
RTVSPost2010PropOp33
 70
     1
102
RTVSPost2010Prop34
280
     0
102
RTVSPost2010PropOp34
 70
     1
102
RTVSPost2010Prop35
280
     0
102
RTVSPost2010PropOp35
 70
     1
102
RTVSPost2010Prop36
280
     0
102
RTVSPost2010PropOp36
 70
     1
102
RTVSPost2010Prop37
 90
       50
102
RTVSPost2010PropOp37
 70
     1
102
RTVSPost2010Prop38
140
0.0
102
RTVSPost2010PropOp38
 70
     1
102
RTVSPost2010Prop39
140
1.0
102
RTVSPost2010PropOp39
 70
     1
102
RTVSPost2010Prop40
 90
        0
102
RTVSPost2010PropOp40
 70
     1
102
RTVSPost2010Prop41ColorIndex
 90
       18
102
RTVSPost2010Prop41ColorRGB
 90
        0
102
RTVSPost2010PropOp41
 70
     1
102
RTVSPost2010Prop42
 90
       50
102
RTVSPost2010PropOp42
 70
     1
102
RTVSPost2010Prop43
 90
        3
102
RTVSPost2010PropOp43
 70
     1
102
RTVSPost2010Prop44ColorIndex
 90
        5
102
RTVSPost2010Prop44ColorRGB
 90
      255
102
RTVSPost2010PropOp44
 70
     1
102
RTVSPost2010Prop45
280
     0
102
RTVSPost2010PropOp45
 70
     1
102
RTVSPost2010Prop46
 90
       50
102
RTVSPost2010PropOp46
 70
     1
102
RTVSPost2010Prop47
 90
       50
102
RTVSPost2010PropOp47
 70
     1
102
RTVSPost2010Prop48
 90
       50
102
RTVSPost2010PropOp48
 70
     1
102
RTVSPost2010Prop49
280
     0
102
RTVSPost2010PropOp49
 70
     1
102
RTVSPost2010Prop50
 90
       50
102
RTVSPost2010PropOp50
 70
     1
102
RTVSPost2010Prop51ColorIndex
 90
      256
102
RTVSPost2010Prop51ColorRGB
 90
-16777216
102
RTVSPost2010PropOp51
 70
     0
102
RTVSPost2010Prop52
140
1.0
102
RTVSPost2010PropOp52
 70
     0
102
RTVSPost2010Prop53
 90
        2
102
RTVSPost2010PropOp53
 70
     1
102
RTVSPost2010Prop54
  1
strokes_ogs.tif
102
RTVSPost2010PropOp54
 70
     1
102
RTVSPost2010Prop55
280
     0
102
RTVSPost2010PropOp55
 70
     1
102
RTVSPost2010Prop56
140
1.0
102
RTVSPost2010PropOp56
 70
     1
102
RTVSPost2010Prop57
140
1.0
102
RTVSPost2010PropOp57
 70
     1
102
RTVSPropertyOp0
 70
     1
102
RTVSPropertyOp1
 70
     1
102
RTVSPropertyOp2
 70
     1
102
RTVSPropertyOp3
 70
     1
102
RTVSPropertyOp4
 70
     1
102
RTVSPropertyOp5
 70
     1
102
RTVSPropertyOp6
 70
     1
102
RTVSPropertyOp7
 70
     1
102
RTVSPropertyOp8
 70
     1
102
RTVSPropertyOp9
 70
     1
102
RTVSPropertyOp10
 70
     1
102
RTVSPropertyOp11
 70
     1
102
RTVSPropertyOp12
 70
     1
102
RTVSPropertyOp13
 70
     1
102
RTVSPropertyOp14
 70
     1
102
RTVSPropertyOp15
 70
     1
102
RTVSPropertyOp16
 70
     1
102
RTVSPropertyOp17
 70
     1
102
RTVSPropertyOp18
 70
     1
102
RTVSPropertyOp19
 70
     1
102
RTVSPropertyOp20
 70
     1
102
RTVSPropertyOp21
 70
     1
102
RTVSPropertyOp22
 70
     1
102
RTVSPropertyOp23
 70
     1
102
RTVSPropertyOp24
 70
     1
102
RTVSPropertyOp25
 70
     1
102
RTVSPropertyOp26
 70
     1
102
RTVSPropertyOp27
 70
     1
102
RTVSPropertyOp28
 70
     1
102
RTVSPropertyOp29
 70
     1
102
RTVSPropertyOp30
 70
     1
102
RTVSPropertyOp31
 70
     1
102
RTVSPropertyOp32
 70
     1
102
RTVSPropertyOp33
 70
     1
102
RTVSPropertyOp34
 70
     1
102
RTVSPropertyOp35
 70
     1
102
RTVSPropertyOp36
 70
     1
102
RTVSPropertyOp37
 70
     1
102
RTVSPropertyOp38
 70
     1
102
RTVSPropertyOp39
 70
     1
102
RTVSPropertyOp40
 70
     1
102
RTVSPropertyOp41
 70
     1
102
RTVSPropertyOp42
 70
     1
102
RTVSPropertyOp43
 70
     1
102
RTVSPropertyOp44
 70
     1
102
RTVSPropertyOp45
 70
     1
102
RTVSPropertyOp46
 70
     1
102
RTVSPropertyOp47
 70
     1
102
RTVSPropertyOp48
 70
     1
102
RTVSPropertyOp49
 70
     1
102
RTVSPropertyOp50
 70
     1
102
RTVSPropertyOp51
 70
     0
102
RTVSPropertyOp52
 70
     0
102
RTVSPropertyOp53
 70
     1
102
RTVSPropertyOp54
 70
     1
102
RTVSPropertyOp55
 70
     1
102
RTVSPropertyOp56
 70
     1
102
RTVSPropertyOp57
 70
     1
102
RTVSPropertyOp58
 70
     1
102
RTVSPropertyOp59
 70
     1
102
RTVSPropertyOp60
 70
     1
102
RTVSPropertyOp61
 70
     1
102
RTVSPropertyOp62
 70
     1
  0
XRECORD
  5
75E
102
{ACAD_REACTORS
330
75D
102
}
330
75D
100
AcDbXrecord
280
     1
102
RTVSPost2010Prop28
280
     0
102
RTVSPost2010PropOp28
 70
     1
102
RTVSPost2010Prop29
280
     1
102
RTVSPost2010PropOp29
 70
     1
102
RTVSPost2010Prop30
280
     1
102
RTVSPost2010PropOp30
 70
     1
102
RTVSPost2010Prop31
280
     0
102
RTVSPost2010PropOp31
 70
     1
102
RTVSPost2010Prop32
280
     0
102
RTVSPost2010PropOp32
 70
     1
102
RTVSPost2010Prop33
280
     0
102
RTVSPost2010PropOp33
 70
     1
102
RTVSPost2010Prop34
280
     0
102
RTVSPost2010PropOp34
 70
     1
102
RTVSPost2010Prop35
280
     0
102
RTVSPost2010PropOp35
 70
     1
102
RTVSPost2010Prop36
280
     0
102
RTVSPost2010PropOp36
 70
     1
102
RTVSPost2010Prop37
 90
       50
102
RTVSPost2010PropOp37
 70
     1
102
RTVSPost2010Prop38
140
0.0
102
RTVSPost2010PropOp38
 70
     1
102
RTVSPost2010Prop39
140
1.0
102
RTVSPost2010PropOp39
 70
     1
102
RTVSPost2010Prop40
 90
        0
102
RTVSPost2010PropOp40
 70
     1
102
RTVSPost2010Prop41ColorIndex
 90
       18
102
RTVSPost2010Prop41ColorRGB
 90
        0
102
RTVSPost2010PropOp41
 70
     1
102
RTVSPost2010Prop42
 90
       50
102
RTVSPost2010PropOp42
 70
     1
102
RTVSPost2010Prop43
 90
        3
102
RTVSPost2010PropOp43
 70
     1
102
RTVSPost2010Prop44ColorIndex
 90
        5
102
RTVSPost2010Prop44ColorRGB
 90
      255
102
RTVSPost2010PropOp44
 70
     1
102
RTVSPost2010Prop45
280
     0
102
RTVSPost2010PropOp45
 70
     1
102
RTVSPost2010Prop46
 90
       50
102
RTVSPost2010PropOp46
 70
     1
102
RTVSPost2010Prop47
 90
       50
102
RTVSPost2010PropOp47
 70
     1
102
RTVSPost2010Prop48
 90
       50
102
RTVSPost2010PropOp48
 70
     1
102
RTVSPost2010Prop49
280
     0
102
RTVSPost2010PropOp49
 70
     1
102
RTVSPost2010Prop50
 90
       50
102
RTVSPost2010PropOp50
 70
     1
102
RTVSPost2010Prop51ColorIndex
 90
      256
102
RTVSPost2010Prop51ColorRGB
 90
-16777216
102
RTVSPost2010PropOp51
 70
     0
102
RTVSPost2010Prop52
140
1.0
102
RTVSPost2010PropOp52
 70
     0
102
RTVSPost2010Prop53
 90
        2
102
RTVSPost2010PropOp53
 70
     1
102
RTVSPost2010Prop54
  1
strokes_ogs.tif
102
RTVSPost2010PropOp54
 70
     1
102
RTVSPost2010Prop55
280
     0
102
RTVSPost2010PropOp55
 70
     1
102
RTVSPost2010Prop56
140
1.0
102
RTVSPost2010PropOp56
 70
     1
102
RTVSPost2010Prop57
140
1.0
102
RTVSPost2010PropOp57
 70
     1
102
RTVSPropertyOp0
 70
     1
102
RTVSPropertyOp1
 70
     1
102
RTVSPropertyOp2
 70
     1
102
RTVSPropertyOp3
 70
     1
102
RTVSPropertyOp4
 70
     1
102
RTVSPropertyOp5
 70
     1
102
RTVSPropertyOp6
 70
     1
102
RTVSPropertyOp7
 70
     1
102
RTVSPropertyOp8
 70
     1
102
RTVSPropertyOp9
 70
     1
102
RTVSPropertyOp10
 70
     1
102
RTVSPropertyOp11
 70
     1
102
RTVSPropertyOp12
 70
     1
102
RTVSPropertyOp13
 70
     1
102
RTVSPropertyOp14
 70
     1
102
RTVSPropertyOp15
 70
     1
102
RTVSPropertyOp16
 70
     1
102
RTVSPropertyOp17
 70
     1
102
RTVSPropertyOp18
 70
     1
102
RTVSPropertyOp19
 70
     1
102
RTVSPropertyOp20
 70
     1
102
RTVSPropertyOp21
 70
     1
102
RTVSPropertyOp22
 70
     1
102
RTVSPropertyOp23
 70
     1
102
RTVSPropertyOp24
 70
     1
102
RTVSPropertyOp25
 70
     1
102
RTVSPropertyOp26
 70
     1
102
RTVSPropertyOp27
 70
     1
102
RTVSPropertyOp28
 70
     1
102
RTVSPropertyOp29
 70
     1
102
RTVSPropertyOp30
 70
     1
102
RTVSPropertyOp31
 70
     1
102
RTVSPropertyOp32
 70
     1
102
RTVSPropertyOp33
 70
     1
102
RTVSPropertyOp34
 70
     1
102
RTVSPropertyOp35
 70
     1
102
RTVSPropertyOp36
 70
     1
102
RTVSPropertyOp37
 70
     1
102
RTVSPropertyOp38
 70
     1
102
RTVSPropertyOp39
 70
     1
102
RTVSPropertyOp40
 70
     1
102
RTVSPropertyOp41
 70
     1
102
RTVSPropertyOp42
 70
     1
102
RTVSPropertyOp43
 70
     1
102
RTVSPropertyOp44
 70
     1
102
RTVSPropertyOp45
 70
     1
102
RTVSPropertyOp46
 70
     1
102
RTVSPropertyOp47
 70
     1
102
RTVSPropertyOp48
 70
     1
102
RTVSPropertyOp49
 70
     1
102
RTVSPropertyOp50
 70
     1
102
RTVSPropertyOp51
 70
     0
102
RTVSPropertyOp52
 70
     0
102
RTVSPropertyOp53
 70
     1
102
RTVSPropertyOp54
 70
     1
102
RTVSPropertyOp55
 70
     1
102
RTVSPropertyOp56
 70
     1
102
RTVSPropertyOp57
 70
     1
102
RTVSPropertyOp58
 70
     1
102
RTVSPropertyOp59
 70
     1
102
RTVSPropertyOp60
 70
     1
102
RTVSPropertyOp61
 70
     1
102
RTVSPropertyOp62
 70
     1
  0
XRECORD
  5
762
102
{ACAD_REACTORS
330
761
102
}
330
761
100
AcDbXrecord
280
     1
102
RTVSPost2010Prop28
280
     0
102
RTVSPost2010PropOp28
 70
     1
102
RTVSPost2010Prop29
280
     1
102
RTVSPost2010PropOp29
 70
     1
102
RTVSPost2010Prop30
280
     1
102
RTVSPost2010PropOp30
 70
     1
102
RTVSPost2010Prop31
280
     0
102
RTVSPost2010PropOp31
 70
     1
102
RTVSPost2010Prop32
280
     0
102
RTVSPost2010PropOp32
 70
     1
102
RTVSPost2010Prop33
280
     0
102
RTVSPost2010PropOp33
 70
     1
102
RTVSPost2010Prop34
280
     0
102
RTVSPost2010PropOp34
 70
     1
102
RTVSPost2010Prop35
280
     0
102
RTVSPost2010PropOp35
 70
     1
102
RTVSPost2010Prop36
280
     0
102
RTVSPost2010PropOp36
 70
     1
102
RTVSPost2010Prop37
 90
       50
102
RTVSPost2010PropOp37
 70
     1
102
RTVSPost2010Prop38
140
0.0
102
RTVSPost2010PropOp38
 70
     1
102
RTVSPost2010Prop39
140
1.0
102
RTVSPost2010PropOp39
 70
     1
102
RTVSPost2010Prop40
 90
        0
102
RTVSPost2010PropOp40
 70
     1
102
RTVSPost2010Prop41ColorIndex
 90
       18
102
RTVSPost2010Prop41ColorRGB
 90
        0
102
RTVSPost2010PropOp41
 70
     1
102
RTVSPost2010Prop42
 90
       50
102
RTVSPost2010PropOp42
 70
     1
102
RTVSPost2010Prop43
 90
        3
102
RTVSPost2010PropOp43
 70
     1
102
RTVSPost2010Prop44ColorIndex
 90
        5
102
RTVSPost2010Prop44ColorRGB
 90
      255
102
RTVSPost2010PropOp44
 70
     1
102
RTVSPost2010Prop45
280
     0
102
RTVSPost2010PropOp45
 70
     1
102
RTVSPost2010Prop46
 90
       50
102
RTVSPost2010PropOp46
 70
     1
102
RTVSPost2010Prop47
 90
       50
102
RTVSPost2010PropOp47
 70
     1
102
RTVSPost2010Prop48
 90
       50
102
RTVSPost2010PropOp48
 70
     1
102
RTVSPost2010Prop49
280
     0
102
RTVSPost2010PropOp49
 70
     1
102
RTVSPost2010Prop50
 90
       50
102
RTVSPost2010PropOp50
 70
     1
102
RTVSPost2010Prop51ColorIndex
 90
      256
102
RTVSPost2010Prop51ColorRGB
 90
-16777216
102
RTVSPost2010PropOp51
 70
     0
102
RTVSPost2010Prop52
140
1.0
102
RTVSPost2010PropOp52
 70
     0
102
RTVSPost2010Prop53
 90
        2
102
RTVSPost2010PropOp53
 70
     1
102
RTVSPost2010Prop54
  1
strokes_ogs.tif
102
RTVSPost2010PropOp54
 70
     1
102
RTVSPost2010Prop55
280
     0
102
RTVSPost2010PropOp55
 70
     1
102
RTVSPost2010Prop56
140
1.0
102
RTVSPost2010PropOp56
 70
     1
102
RTVSPost2010Prop57
140
1.0
102
RTVSPost2010PropOp57
 70
     1
102
RTVSPropertyOp0
 70
     1
102
RTVSPropertyOp1
 70
     1
102
RTVSPropertyOp2
 70
     1
102
RTVSPropertyOp3
 70
     1
102
RTVSPropertyOp4
 70
     1
102
RTVSPropertyOp5
 70
     1
102
RTVSPropertyOp6
 70
     1
102
RTVSPropertyOp7
 70
     1
102
RTVSPropertyOp8
 70
     1
102
RTVSPropertyOp9
 70
     1
102
RTVSPropertyOp10
 70
     1
102
RTVSPropertyOp11
 70
     1
102
RTVSPropertyOp12
 70
     1
102
RTVSPropertyOp13
 70
     1
102
RTVSPropertyOp14
 70
     1
102
RTVSPropertyOp15
 70
     1
102
RTVSPropertyOp16
 70
     1
102
RTVSPropertyOp17
 70
     1
102
RTVSPropertyOp18
 70
     1
102
RTVSPropertyOp19
 70
     1
102
RTVSPropertyOp20
 70
     1
102
RTVSPropertyOp21
 70
     1
102
RTVSPropertyOp22
 70
     1
102
RTVSPropertyOp23
 70
     1
102
RTVSPropertyOp24
 70
     1
102
RTVSPropertyOp25
 70
     1
102
RTVSPropertyOp26
 70
     1
102
RTVSPropertyOp27
 70
     1
102
RTVSPropertyOp28
 70
     1
102
RTVSPropertyOp29
 70
     1
102
RTVSPropertyOp30
 70
     1
102
RTVSPropertyOp31
 70
     1
102
RTVSPropertyOp32
 70
     1
102
RTVSPropertyOp33
 70
     1
102
RTVSPropertyOp34
 70
     1
102
RTVSPropertyOp35
 70
     1
102
RTVSPropertyOp36
 70
     1
102
RTVSPropertyOp37
 70
     1
102
RTVSPropertyOp38
 70
     1
102
RTVSPropertyOp39
 70
     1
102
RTVSPropertyOp40
 70
     1
102
RTVSPropertyOp41
 70
     1
102
RTVSPropertyOp42
 70
     1
102
RTVSPropertyOp43
 70
     1
102
RTVSPropertyOp44
 70
     1
102
RTVSPropertyOp45
 70
     1
102
RTVSPropertyOp46
 70
     1
102
RTVSPropertyOp47
 70
     1
102
RTVSPropertyOp48
 70
     1
102
RTVSPropertyOp49
 70
     1
102
RTVSPropertyOp50
 70
     1
102
RTVSPropertyOp51
 70
     0
102
RTVSPropertyOp52
 70
     0
102
RTVSPropertyOp53
 70
     1
102
RTVSPropertyOp54
 70
     1
102
RTVSPropertyOp55
 70
     1
102
RTVSPropertyOp56
 70
     1
102
RTVSPropertyOp57
 70
     1
102
RTVSPropertyOp58
 70
     1
102
RTVSPropertyOp59
 70
     1
102
RTVSPropertyOp60
 70
     1
102
RTVSPropertyOp61
 70
     1
102
RTVSPropertyOp62
 70
     1
  0
XRECORD
  5
77C
102
{ACAD_REACTORS
330
77B
102
}
330
77B
100
AcDbXrecord
280
     1
102
RTVSPost2010Prop28
280
     0
102
RTVSPost2010PropOp28
 70
     1
102
RTVSPost2010Prop29
280
     1
102
RTVSPost2010PropOp29
 70
     1
102
RTVSPost2010Prop30
280
     1
102
RTVSPost2010PropOp30
 70
     1
102
RTVSPost2010Prop31
280
     0
102
RTVSPost2010PropOp31
 70
     1
102
RTVSPost2010Prop32
280
     0
102
RTVSPost2010PropOp32
 70
     1
102
RTVSPost2010Prop33
280
     0
102
RTVSPost2010PropOp33
 70
     1
102
RTVSPost2010Prop34
280
     0
102
RTVSPost2010PropOp34
 70
     1
102
RTVSPost2010Prop35
280
     0
102
RTVSPost2010PropOp35
 70
     1
102
RTVSPost2010Prop36
280
     0
102
RTVSPost2010PropOp36
 70
     1
102
RTVSPost2010Prop37
 90
       50
102
RTVSPost2010PropOp37
 70
     0
102
RTVSPost2010Prop38
140
0.0
102
RTVSPost2010PropOp38
 70
     0
102
RTVSPost2010Prop39
140
1.0
102
RTVSPost2010PropOp39
 70
     0
102
RTVSPost2010Prop40
 90
        0
102
RTVSPost2010PropOp40
 70
     0
102
RTVSPost2010Prop41ColorIndex
 90
       18
102
RTVSPost2010Prop41ColorRGB
 90
        0
102
RTVSPost2010PropOp41
 70
     0
102
RTVSPost2010Prop42
 90
       50
102
RTVSPost2010PropOp42
 70
     0
102
RTVSPost2010Prop43
 90
        3
102
RTVSPost2010PropOp43
 70
     0
102
RTVSPost2010Prop44ColorIndex
 90
        5
102
RTVSPost2010Prop44ColorRGB
 90
      255
102
RTVSPost2010PropOp44
 70
     0
102
RTVSPost2010Prop45
280
     0
102
RTVSPost2010PropOp45
 70
     1
102
RTVSPost2010Prop46
 90
       50
102
RTVSPost2010PropOp46
 70
     0
102
RTVSPost2010Prop47
 90
       50
102
RTVSPost2010PropOp47
 70
     0
102
RTVSPost2010Prop48
 90
       50
102
RTVSPost2010PropOp48
 70
     0
102
RTVSPost2010Prop49
280
     0
102
RTVSPost2010PropOp49
 70
     1
102
RTVSPost2010Prop50
 90
       50
102
RTVSPost2010PropOp50
 70
     0
102
RTVSPost2010Prop51ColorIndex
 90
      256
102
RTVSPost2010Prop51ColorRGB
 90
-16777216
102
RTVSPost2010PropOp51
 70
     0
102
RTVSPost2010Prop52
140
1.0
102
RTVSPost2010PropOp52
 70
     0
102
RTVSPost2010Prop53
 90
        2
102
RTVSPost2010PropOp53
 70
     0
102
RTVSPost2010Prop54
  1
strokes_ogs.tif
102
RTVSPost2010PropOp54
 70
     0
102
RTVSPost2010Prop55
280
     0
102
RTVSPost2010PropOp55
 70
     1
102
RTVSPost2010Prop56
140
1.0
102
RTVSPost2010PropOp56
 70
     0
102
RTVSPost2010Prop57
140
1.0
102
RTVSPost2010PropOp57
 70
     0
102
RTVSPropertyOp0
 70
     0
102
RTVSPropertyOp1
 70
     0
102
RTVSPropertyOp2
 70
     0
102
RTVSPropertyOp3
 70
     0
102
RTVSPropertyOp4
 70
     0
102
RTVSPropertyOp5
 70
     0
102
RTVSPropertyOp6
 70
     0
102
RTVSPropertyOp7
 70
     0
102
RTVSPropertyOp8
 70
     0
102
RTVSPropertyOp9
 70
     0
102
RTVSPropertyOp10
 70
     0
102
RTVSPropertyOp11
 70
     0
102
RTVSPropertyOp12
 70
     0
102
RTVSPropertyOp13
 70
     0
102
RTVSPropertyOp14
 70
     2
102
RTVSPropertyOp15
 70
     0
102
RTVSPropertyOp16
 70
     0
102
RTVSPropertyOp17
 70
     0
102
RTVSPropertyOp18
 70
     0
102
RTVSPropertyOp19
 70
     0
102
RTVSPropertyOp20
 70
     0
102
RTVSPropertyOp21
 70
     0
102
RTVSPropertyOp22
 70
     0
102
RTVSPropertyOp23
 70
     0
102
RTVSPropertyOp24
 70
     0
102
RTVSPropertyOp25
 70
     0
102
RTVSPropertyOp26
 70
     0
102
RTVSPropertyOp27
 70
     0
102
RTVSPropertyOp28
 70
     1
102
RTVSPropertyOp29
 70
     1
102
RTVSPropertyOp30
 70
     1
102
RTVSPropertyOp31
 70
     1
102
RTVSPropertyOp32
 70
     1
102
RTVSPropertyOp33
 70
     1
102
RTVSPropertyOp34
 70
     1
102
RTVSPropertyOp35
 70
     1
102
RTVSPropertyOp36
 70
     1
102
RTVSPropertyOp37
 70
     0
102
RTVSPropertyOp38
 70
     0
102
RTVSPropertyOp39
 70
     0
102
RTVSPropertyOp40
 70
     0
102
RTVSPropertyOp41
 70
     0
102
RTVSPropertyOp42
 70
     0
102
RTVSPropertyOp43
 70
     0
102
RTVSPropertyOp44
 70
     0
102
RTVSPropertyOp45
 70
     1
102
RTVSPropertyOp46
 70
     0
102
RTVSPropertyOp47
 70
     0
102
RTVSPropertyOp48
 70
     0
102
RTVSPropertyOp49
 70
     1
102
RTVSPropertyOp50
 70
     0
102
RTVSPropertyOp51
 70
     0
102
RTVSPropertyOp52
 70
     0
102
RTVSPropertyOp53
 70
     0
102
RTVSPropertyOp54
 70
     0
102
RTVSPropertyOp55
 70
     1
102
RTVSPropertyOp56
 70
     0
102
RTVSPropertyOp57
 70
     0
102
RTVSPropertyOp58
 70
     1
102
RTVSPropertyOp59
 70
     1
102
RTVSPropertyOp60
 70
     1
102
RTVSPropertyOp61
 70
     1
102
RTVSPropertyOp62
 70
     1
  0
XRECORD
  5
76A
102
{ACAD_REACTORS
330
769
102
}
330
769
100
AcDbXrecord
280
     1
102
RTVSPost2010Prop28
280
     0
102
RTVSPost2010PropOp28
 70
     1
102
RTVSPost2010Prop29
280
     1
102
RTVSPost2010PropOp29
 70
     1
102
RTVSPost2010Prop30
280
     1
102
RTVSPost2010PropOp30
 70
     1
102
RTVSPost2010Prop31
280
     0
102
RTVSPost2010PropOp31
 70
     1
102
RTVSPost2010Prop32
280
     0
102
RTVSPost2010PropOp32
 70
     1
102
RTVSPost2010Prop33
280
     0
102
RTVSPost2010PropOp33
 70
     1
102
RTVSPost2010Prop34
280
     0
102
RTVSPost2010PropOp34
 70
     1
102
RTVSPost2010Prop35
280
     0
102
RTVSPost2010PropOp35
 70
     1
102
RTVSPost2010Prop36
280
     0
102
RTVSPost2010PropOp36
 70
     1
102
RTVSPost2010Prop37
 90
       50
102
RTVSPost2010PropOp37
 70
     1
102
RTVSPost2010Prop38
140
0.0
102
RTVSPost2010PropOp38
 70
     1
102
RTVSPost2010Prop39
140
1.0
102
RTVSPost2010PropOp39
 70
     1
102
RTVSPost2010Prop40
 90
        0
102
RTVSPost2010PropOp40
 70
     1
102
RTVSPost2010Prop41ColorIndex
 90
       18
102
RTVSPost2010Prop41ColorRGB
 90
        0
102
RTVSPost2010PropOp41
 70
     1
102
RTVSPost2010Prop42
 90
       50
102
RTVSPost2010PropOp42
 70
     1
102
RTVSPost2010Prop43
 90
        3
102
RTVSPost2010PropOp43
 70
     1
102
RTVSPost2010Prop44ColorIndex
 90
        5
102
RTVSPost2010Prop44ColorRGB
 90
      255
102
RTVSPost2010PropOp44
 70
     1
102
RTVSPost2010Prop45
280
     0
102
RTVSPost2010PropOp45
 70
     1
102
RTVSPost2010Prop46
 90
       50
102
RTVSPost2010PropOp46
 70
     1
102
RTVSPost2010Prop47
 90
       50
102
RTVSPost2010PropOp47
 70
     1
102
RTVSPost2010Prop48
 90
       50
102
RTVSPost2010PropOp48
 70
     1
102
RTVSPost2010Prop49
280
     0
102
RTVSPost2010PropOp49
 70
     1
102
RTVSPost2010Prop50
 90
       50
102
RTVSPost2010PropOp50
 70
     1
102
RTVSPost2010Prop51ColorIndex
 90
      256
102
RTVSPost2010Prop51ColorRGB
 90
-16777216
102
RTVSPost2010PropOp51
 70
     0
102
RTVSPost2010Prop52
140
1.0
102
RTVSPost2010PropOp52
 70
     0
102
RTVSPost2010Prop53
 90
        2
102
RTVSPost2010PropOp53
 70
     1
102
RTVSPost2010Prop54
  1
strokes_ogs.tif
102
RTVSPost2010PropOp54
 70
     1
102
RTVSPost2010Prop55
280
     0
102
RTVSPost2010PropOp55
 70
     1
102
RTVSPost2010Prop56
140
1.0
102
RTVSPost2010PropOp56
 70
     1
102
RTVSPost2010Prop57
140
1.0
102
RTVSPost2010PropOp57
 70
     1
102
RTVSPropertyOp0
 70
     1
102
RTVSPropertyOp1
 70
     1
102
RTVSPropertyOp2
 70
     1
102
RTVSPropertyOp3
 70
     1
102
RTVSPropertyOp4
 70
     1
102
RTVSPropertyOp5
 70
     1
102
RTVSPropertyOp6
 70
     1
102
RTVSPropertyOp7
 70
     1
102
RTVSPropertyOp8
 70
     1
102
RTVSPropertyOp9
 70
     1
102
RTVSPropertyOp10
 70
     1
102
RTVSPropertyOp11
 70
     1
102
RTVSPropertyOp12
 70
     1
102
RTVSPropertyOp13
 70
     1
102
RTVSPropertyOp14
 70
     1
102
RTVSPropertyOp15
 70
     1
102
RTVSPropertyOp16
 70
     1
102
RTVSPropertyOp17
 70
     1
102
RTVSPropertyOp18
 70
     1
102
RTVSPropertyOp19
 70
     1
102
RTVSPropertyOp20
 70
     1
102
RTVSPropertyOp21
 70
     1
102
RTVSPropertyOp22
 70
     1
102
RTVSPropertyOp23
 70
     1
102
RTVSPropertyOp24
 70
     1
102
RTVSPropertyOp25
 70
     1
102
RTVSPropertyOp26
 70
     1
102
RTVSPropertyOp27
 70
     1
102
RTVSPropertyOp28
 70
     1
102
RTVSPropertyOp29
 70
     1
102
RTVSPropertyOp30
 70
     1
102
RTVSPropertyOp31
 70
     1
102
RTVSPropertyOp32
 70
     1
102
RTVSPropertyOp33
 70
     1
102
RTVSPropertyOp34
 70
     1
102
RTVSPropertyOp35
 70
     1
102
RTVSPropertyOp36
 70
     1
102
RTVSPropertyOp37
 70
     1
102
RTVSPropertyOp38
 70
     1
102
RTVSPropertyOp39
 70
     1
102
RTVSPropertyOp40
 70
     1
102
RTVSPropertyOp41
 70
     1
102
RTVSPropertyOp42
 70
     1
102
RTVSPropertyOp43
 70
     1
102
RTVSPropertyOp44
 70
     1
102
RTVSPropertyOp45
 70
     1
102
RTVSPropertyOp46
 70
     1
102
RTVSPropertyOp47
 70
     1
102
RTVSPropertyOp48
 70
     1
102
RTVSPropertyOp49
 70
     1
102
RTVSPropertyOp50
 70
     1
102
RTVSPropertyOp51
 70
     0
102
RTVSPropertyOp52
 70
     0
102
RTVSPropertyOp53
 70
     1
102
RTVSPropertyOp54
 70
     1
102
RTVSPropertyOp55
 70
     1
102
RTVSPropertyOp56
 70
     1
102
RTVSPropertyOp57
 70
     1
102
RTVSPropertyOp58
 70
     1
102
RTVSPropertyOp59
 70
     1
102
RTVSPropertyOp60
 70
     1
102
RTVSPropertyOp61
 70
     1
102
RTVSPropertyOp62
 70
     1
  0
XRECORD
  5
74E
102
{ACAD_REACTORS
330
74D
102
}
330
74D
100
AcDbXrecord
280
     1
102
RTVSPost2010Prop28
280
     0
102
RTVSPost2010PropOp28
 70
     1
102
RTVSPost2010Prop29
280
     1
102
RTVSPost2010PropOp29
 70
     1
102
RTVSPost2010Prop30
280
     1
102
RTVSPost2010PropOp30
 70
     1
102
RTVSPost2010Prop31
280
     0
102
RTVSPost2010PropOp31
 70
     1
102
RTVSPost2010Prop32
280
     0
102
RTVSPost2010PropOp32
 70
     1
102
RTVSPost2010Prop33
280
     0
102
RTVSPost2010PropOp33
 70
     1
102
RTVSPost2010Prop34
280
     0
102
RTVSPost2010PropOp34
 70
     1
102
RTVSPost2010Prop35
280
     0
102
RTVSPost2010PropOp35
 70
     1
102
RTVSPost2010Prop36
280
     0
102
RTVSPost2010PropOp36
 70
     1
102
RTVSPost2010Prop37
 90
       50
102
RTVSPost2010PropOp37
 70
     1
102
RTVSPost2010Prop38
140
0.0
102
RTVSPost2010PropOp38
 70
     1
102
RTVSPost2010Prop39
140
1.0
102
RTVSPost2010PropOp39
 70
     1
102
RTVSPost2010Prop40
 90
        0
102
RTVSPost2010PropOp40
 70
     1
102
RTVSPost2010Prop41ColorIndex
 90
       18
102
RTVSPost2010Prop41ColorRGB
 90
        0
102
RTVSPost2010PropOp41
 70
     1
102
RTVSPost2010Prop42
 90
       50
102
RTVSPost2010PropOp42
 70
     1
102
RTVSPost2010Prop43
 90
        3
102
RTVSPost2010PropOp43
 70
     1
102
RTVSPost2010Prop44ColorIndex
 90
        5
102
RTVSPost2010Prop44ColorRGB
 90
      255
102
RTVSPost2010PropOp44
 70
     1
102
RTVSPost2010Prop45
280
     0
102
RTVSPost2010PropOp45
 70
     1
102
RTVSPost2010Prop46
 90
       50
102
RTVSPost2010PropOp46
 70
     1
102
RTVSPost2010Prop47
 90
       50
102
RTVSPost2010PropOp47
 70
     1
102
RTVSPost2010Prop48
 90
       50
102
RTVSPost2010PropOp48
 70
     1
102
RTVSPost2010Prop49
280
     0
102
RTVSPost2010PropOp49
 70
     1
102
RTVSPost2010Prop50
 90
       50
102
RTVSPost2010PropOp50
 70
     1
102
RTVSPost2010Prop51ColorIndex
 90
      256
102
RTVSPost2010Prop51ColorRGB
 90
-16777216
102
RTVSPost2010PropOp51
 70
     0
102
RTVSPost2010Prop52
140
1.0
102
RTVSPost2010PropOp52
 70
     0
102
RTVSPost2010Prop53
 90
        2
102
RTVSPost2010PropOp53
 70
     1
102
RTVSPost2010Prop54
  1
strokes_ogs.tif
102
RTVSPost2010PropOp54
 70
     1
102
RTVSPost2010Prop55
280
     0
102
RTVSPost2010PropOp55
 70
     1
102
RTVSPost2010Prop56
140
1.0
102
RTVSPost2010PropOp56
 70
     1
102
RTVSPost2010Prop57
140
1.0
102
RTVSPost2010PropOp57
 70
     1
102
RTVSPropertyOp0
 70
     1
102
RTVSPropertyOp1
 70
     1
102
RTVSPropertyOp2
 70
     1
102
RTVSPropertyOp3
 70
     1
102
RTVSPropertyOp4
 70
     1
102
RTVSPropertyOp5
 70
     1
102
RTVSPropertyOp6
 70
     1
102
RTVSPropertyOp7
 70
     1
102
RTVSPropertyOp8
 70
     1
102
RTVSPropertyOp9
 70
     1
102
RTVSPropertyOp10
 70
     1
102
RTVSPropertyOp11
 70
     1
102
RTVSPropertyOp12
 70
     1
102
RTVSPropertyOp13
 70
     1
102
RTVSPropertyOp14
 70
     1
102
RTVSPropertyOp15
 70
     1
102
RTVSPropertyOp16
 70
     1
102
RTVSPropertyOp17
 70
     1
102
RTVSPropertyOp18
 70
     1
102
RTVSPropertyOp19
 70
     1
102
RTVSPropertyOp20
 70
     1
102
RTVSPropertyOp21
 70
     1
102
RTVSPropertyOp22
 70
     1
102
RTVSPropertyOp23
 70
     1
102
RTVSPropertyOp24
 70
     1
102
RTVSPropertyOp25
 70
     1
102
RTVSPropertyOp26
 70
     1
102
RTVSPropertyOp27
 70
     1
102
RTVSPropertyOp28
 70
     1
102
RTVSPropertyOp29
 70
     1
102
RTVSPropertyOp30
 70
     1
102
RTVSPropertyOp31
 70
     1
102
RTVSPropertyOp32
 70
     1
102
RTVSPropertyOp33
 70
     1
102
RTVSPropertyOp34
 70
     1
102
RTVSPropertyOp35
 70
     1
102
RTVSPropertyOp36
 70
     1
102
RTVSPropertyOp37
 70
     1
102
RTVSPropertyOp38
 70
     1
102
RTVSPropertyOp39
 70
     1
102
RTVSPropertyOp40
 70
     1
102
RTVSPropertyOp41
 70
     1
102
RTVSPropertyOp42
 70
     1
102
RTVSPropertyOp43
 70
     1
102
RTVSPropertyOp44
 70
     1
102
RTVSPropertyOp45
 70
     1
102
RTVSPropertyOp46
 70
     1
102
RTVSPropertyOp47
 70
     1
102
RTVSPropertyOp48
 70
     1
102
RTVSPropertyOp49
 70
     1
102
RTVSPropertyOp50
 70
     1
102
RTVSPropertyOp51
 70
     0
102
RTVSPropertyOp52
 70
     0
102
RTVSPropertyOp53
 70
     1
102
RTVSPropertyOp54
 70
     1
102
RTVSPropertyOp55
 70
     1
102
RTVSPropertyOp56
 70
     1
102
RTVSPropertyOp57
 70
     1
102
RTVSPropertyOp58
 70
     1
102
RTVSPropertyOp59
 70
     1
102
RTVSPropertyOp60
 70
     1
102
RTVSPropertyOp61
 70
     1
102
RTVSPropertyOp62
 70
     1
  0
XRECORD
  5
750
102
{ACAD_REACTORS
330
74F
102
}
330
74F
100
AcDbXrecord
280
     1
102
RTVSPost2010Prop28
280
     0
102
RTVSPost2010PropOp28
 70
     1
102
RTVSPost2010Prop29
280
     1
102
RTVSPost2010PropOp29
 70
     1
102
RTVSPost2010Prop30
280
     1
102
RTVSPost2010PropOp30
 70
     1
102
RTVSPost2010Prop31
280
     0
102
RTVSPost2010PropOp31
 70
     1
102
RTVSPost2010Prop32
280
     0
102
RTVSPost2010PropOp32
 70
     1
102
RTVSPost2010Prop33
280
     0
102
RTVSPost2010PropOp33
 70
     1
102
RTVSPost2010Prop34
280
     0
102
RTVSPost2010PropOp34
 70
     1
102
RTVSPost2010Prop35
280
     0
102
RTVSPost2010PropOp35
 70
     1
102
RTVSPost2010Prop36
280
     0
102
RTVSPost2010PropOp36
 70
     1
102
RTVSPost2010Prop37
 90
       50
102
RTVSPost2010PropOp37
 70
     1
102
RTVSPost2010Prop38
140
0.0
102
RTVSPost2010PropOp38
 70
     1
102
RTVSPost2010Prop39
140
1.0
102
RTVSPost2010PropOp39
 70
     1
102
RTVSPost2010Prop40
 90
        0
102
RTVSPost2010PropOp40
 70
     1
102
RTVSPost2010Prop41ColorIndex
 90
       18
102
RTVSPost2010Prop41ColorRGB
 90
        0
102
RTVSPost2010PropOp41
 70
     1
102
RTVSPost2010Prop42
 90
       50
102
RTVSPost2010PropOp42
 70
     1
102
RTVSPost2010Prop43
 90
        3
102
RTVSPost2010PropOp43
 70
     1
102
RTVSPost2010Prop44ColorIndex
 90
        5
102
RTVSPost2010Prop44ColorRGB
 90
      255
102
RTVSPost2010PropOp44
 70
     1
102
RTVSPost2010Prop45
280
     0
102
RTVSPost2010PropOp45
 70
     1
102
RTVSPost2010Prop46
 90
       50
102
RTVSPost2010PropOp46
 70
     1
102
RTVSPost2010Prop47
 90
       50
102
RTVSPost2010PropOp47
 70
     1
102
RTVSPost2010Prop48
 90
       50
102
RTVSPost2010PropOp48
 70
     1
102
RTVSPost2010Prop49
280
     0
102
RTVSPost2010PropOp49
 70
     1
102
RTVSPost2010Prop50
 90
       50
102
RTVSPost2010PropOp50
 70
     1
102
RTVSPost2010Prop51ColorIndex
 90
      256
102
RTVSPost2010Prop51ColorRGB
 90
-16777216
102
RTVSPost2010PropOp51
 70
     0
102
RTVSPost2010Prop52
140
1.0
102
RTVSPost2010PropOp52
 70
     0
102
RTVSPost2010Prop53
 90
        2
102
RTVSPost2010PropOp53
 70
     1
102
RTVSPost2010Prop54
  1
strokes_ogs.tif
102
RTVSPost2010PropOp54
 70
     1
102
RTVSPost2010Prop55
280
     0
102
RTVSPost2010PropOp55
 70
     1
102
RTVSPost2010Prop56
140
1.0
102
RTVSPost2010PropOp56
 70
     1
102
RTVSPost2010Prop57
140
1.0
102
RTVSPost2010PropOp57
 70
     1
102
RTVSPropertyOp0
 70
     1
102
RTVSPropertyOp1
 70
     1
102
RTVSPropertyOp2
 70
     1
102
RTVSPropertyOp3
 70
     1
102
RTVSPropertyOp4
 70
     1
102
RTVSPropertyOp5
 70
     1
102
RTVSPropertyOp6
 70
     1
102
RTVSPropertyOp7
 70
     1
102
RTVSPropertyOp8
 70
     1
102
RTVSPropertyOp9
 70
     1
102
RTVSPropertyOp10
 70
     1
102
RTVSPropertyOp11
 70
     1
102
RTVSPropertyOp12
 70
     1
102
RTVSPropertyOp13
 70
     1
102
RTVSPropertyOp14
 70
     1
102
RTVSPropertyOp15
 70
     1
102
RTVSPropertyOp16
 70
     1
102
RTVSPropertyOp17
 70
     1
102
RTVSPropertyOp18
 70
     1
102
RTVSPropertyOp19
 70
     1
102
RTVSPropertyOp20
 70
     1
102
RTVSPropertyOp21
 70
     1
102
RTVSPropertyOp22
 70
     1
102
RTVSPropertyOp23
 70
     1
102
RTVSPropertyOp24
 70
     1
102
RTVSPropertyOp25
 70
     1
102
RTVSPropertyOp26
 70
     1
102
RTVSPropertyOp27
 70
     1
102
RTVSPropertyOp28
 70
     1
102
RTVSPropertyOp29
 70
     1
102
RTVSPropertyOp30
 70
     1
102
RTVSPropertyOp31
 70
     1
102
RTVSPropertyOp32
 70
     1
102
RTVSPropertyOp33
 70
     1
102
RTVSPropertyOp34
 70
     1
102
RTVSPropertyOp35
 70
     1
102
RTVSPropertyOp36
 70
     1
102
RTVSPropertyOp37
 70
     1
102
RTVSPropertyOp38
 70
     1
102
RTVSPropertyOp39
 70
     1
102
RTVSPropertyOp40
 70
     1
102
RTVSPropertyOp41
 70
     1
102
RTVSPropertyOp42
 70
     1
102
RTVSPropertyOp43
 70
     1
102
RTVSPropertyOp44
 70
     1
102
RTVSPropertyOp45
 70
     1
102
RTVSPropertyOp46
 70
     1
102
RTVSPropertyOp47
 70
     1
102
RTVSPropertyOp48
 70
     1
102
RTVSPropertyOp49
 70
     1
102
RTVSPropertyOp50
 70
     1
102
RTVSPropertyOp51
 70
     0
102
RTVSPropertyOp52
 70
     0
102
RTVSPropertyOp53
 70
     1
102
RTVSPropertyOp54
 70
     1
102
RTVSPropertyOp55
 70
     1
102
RTVSPropertyOp56
 70
     1
102
RTVSPropertyOp57
 70
     1
102
RTVSPropertyOp58
 70
     1
102
RTVSPropertyOp59
 70
     1
102
RTVSPropertyOp60
 70
     1
102
RTVSPropertyOp61
 70
     1
102
RTVSPropertyOp62
 70
     1
  0
XRECORD
  5
752
102
{ACAD_REACTORS
330
751
102
}
330
751
100
AcDbXrecord
280
     1
102
RTVSPost2010Prop28
280
     0
102
RTVSPost2010PropOp28
 70
     1
102
RTVSPost2010Prop29
280
     1
102
RTVSPost2010PropOp29
 70
     1
102
RTVSPost2010Prop30
280
     1
102
RTVSPost2010PropOp30
 70
     1
102
RTVSPost2010Prop31
280
     0
102
RTVSPost2010PropOp31
 70
     1
102
RTVSPost2010Prop32
280
     0
102
RTVSPost2010PropOp32
 70
     1
102
RTVSPost2010Prop33
280
     0
102
RTVSPost2010PropOp33
 70
     1
102
RTVSPost2010Prop34
280
     0
102
RTVSPost2010PropOp34
 70
     1
102
RTVSPost2010Prop35
280
     0
102
RTVSPost2010PropOp35
 70
     1
102
RTVSPost2010Prop36
280
     0
102
RTVSPost2010PropOp36
 70
     1
102
RTVSPost2010Prop37
 90
       50
102
RTVSPost2010PropOp37
 70
     1
102
RTVSPost2010Prop38
140
0.0
102
RTVSPost2010PropOp38
 70
     1
102
RTVSPost2010Prop39
140
1.0
102
RTVSPost2010PropOp39
 70
     1
102
RTVSPost2010Prop40
 90
        0
102
RTVSPost2010PropOp40
 70
     1
102
RTVSPost2010Prop41ColorIndex
 90
       18
102
RTVSPost2010Prop41ColorRGB
 90
        0
102
RTVSPost2010PropOp41
 70
     1
102
RTVSPost2010Prop42
 90
       50
102
RTVSPost2010PropOp42
 70
     1
102
RTVSPost2010Prop43
 90
        3
102
RTVSPost2010PropOp43
 70
     1
102
RTVSPost2010Prop44ColorIndex
 90
        5
102
RTVSPost2010Prop44ColorRGB
 90
      255
102
RTVSPost2010PropOp44
 70
     1
102
RTVSPost2010Prop45
280
     0
102
RTVSPost2010PropOp45
 70
     1
102
RTVSPost2010Prop46
 90
       50
102
RTVSPost2010PropOp46
 70
     1
102
RTVSPost2010Prop47
 90
       50
102
RTVSPost2010PropOp47
 70
     1
102
RTVSPost2010Prop48
 90
       50
102
RTVSPost2010PropOp48
 70
     1
102
RTVSPost2010Prop49
280
     0
102
RTVSPost2010PropOp49
 70
     1
102
RTVSPost2010Prop50
 90
       50
102
RTVSPost2010PropOp50
 70
     1
102
RTVSPost2010Prop51ColorIndex
 90
      256
102
RTVSPost2010Prop51ColorRGB
 90
-16777216
102
RTVSPost2010PropOp51
 70
     0
102
RTVSPost2010Prop52
140
1.0
102
RTVSPost2010PropOp52
 70
     0
102
RTVSPost2010Prop53
 90
        2
102
RTVSPost2010PropOp53
 70
     1
102
RTVSPost2010Prop54
  1
strokes_ogs.tif
102
RTVSPost2010PropOp54
 70
     1
102
RTVSPost2010Prop55
280
     0
102
RTVSPost2010PropOp55
 70
     1
102
RTVSPost2010Prop56
140
1.0
102
RTVSPost2010PropOp56
 70
     1
102
RTVSPost2010Prop57
140
1.0
102
RTVSPost2010PropOp57
 70
     1
102
RTVSPropertyOp0
 70
     1
102
RTVSPropertyOp1
 70
     1
102
RTVSPropertyOp2
 70
     1
102
RTVSPropertyOp3
 70
     1
102
RTVSPropertyOp4
 70
     1
102
RTVSPropertyOp5
 70
     1
102
RTVSPropertyOp6
 70
     1
102
RTVSPropertyOp7
 70
     1
102
RTVSPropertyOp8
 70
     1
102
RTVSPropertyOp9
 70
     1
102
RTVSPropertyOp10
 70
     1
102
RTVSPropertyOp11
 70
     1
102
RTVSPropertyOp12
 70
     1
102
RTVSPropertyOp13
 70
     1
102
RTVSPropertyOp14
 70
     1
102
RTVSPropertyOp15
 70
     1
102
RTVSPropertyOp16
 70
     1
102
RTVSPropertyOp17
 70
     1
102
RTVSPropertyOp18
 70
     1
102
RTVSPropertyOp19
 70
     1
102
RTVSPropertyOp20
 70
     1
102
RTVSPropertyOp21
 70
     1
102
RTVSPropertyOp22
 70
     1
102
RTVSPropertyOp23
 70
     1
102
RTVSPropertyOp24
 70
     1
102
RTVSPropertyOp25
 70
     1
102
RTVSPropertyOp26
 70
     1
102
RTVSPropertyOp27
 70
     1
102
RTVSPropertyOp28
 70
     1
102
RTVSPropertyOp29
 70
     1
102
RTVSPropertyOp30
 70
     1
102
RTVSPropertyOp31
 70
     1
102
RTVSPropertyOp32
 70
     1
102
RTVSPropertyOp33
 70
     1
102
RTVSPropertyOp34
 70
     1
102
RTVSPropertyOp35
 70
     1
102
RTVSPropertyOp36
 70
     1
102
RTVSPropertyOp37
 70
     1
102
RTVSPropertyOp38
 70
     1
102
RTVSPropertyOp39
 70
     1
102
RTVSPropertyOp40
 70
     1
102
RTVSPropertyOp41
 70
     1
102
RTVSPropertyOp42
 70
     1
102
RTVSPropertyOp43
 70
     1
102
RTVSPropertyOp44
 70
     1
102
RTVSPropertyOp45
 70
     1
102
RTVSPropertyOp46
 70
     1
102
RTVSPropertyOp47
 70
     1
102
RTVSPropertyOp48
 70
     1
102
RTVSPropertyOp49
 70
     1
102
RTVSPropertyOp50
 70
     1
102
RTVSPropertyOp51
 70
     0
102
RTVSPropertyOp52
 70
     0
102
RTVSPropertyOp53
 70
     1
102
RTVSPropertyOp54
 70
     1
102
RTVSPropertyOp55
 70
     1
102
RTVSPropertyOp56
 70
     1
102
RTVSPropertyOp57
 70
     1
102
RTVSPropertyOp58
 70
     1
102
RTVSPropertyOp59
 70
     1
102
RTVSPropertyOp60
 70
     1
102
RTVSPropertyOp61
 70
     1
102
RTVSPropertyOp62
 70
     1
  0
XRECORD
  5
754
102
{ACAD_REACTORS
330
753
102
}
330
753
100
AcDbXrecord
280
     1
102
RTVSPost2010Prop28
280
     0
102
RTVSPost2010PropOp28
 70
     1
102
RTVSPost2010Prop29
280
     1
102
RTVSPost2010PropOp29
 70
     1
102
RTVSPost2010Prop30
280
     1
102
RTVSPost2010PropOp30
 70
     1
102
RTVSPost2010Prop31
280
     0
102
RTVSPost2010PropOp31
 70
     1
102
RTVSPost2010Prop32
280
     0
102
RTVSPost2010PropOp32
 70
     1
102
RTVSPost2010Prop33
280
     0
102
RTVSPost2010PropOp33
 70
     1
102
RTVSPost2010Prop34
280
     0
102
RTVSPost2010PropOp34
 70
     1
102
RTVSPost2010Prop35
280
     0
102
RTVSPost2010PropOp35
 70
     1
102
RTVSPost2010Prop36
280
     0
102
RTVSPost2010PropOp36
 70
     1
102
RTVSPost2010Prop37
 90
       50
102
RTVSPost2010PropOp37
 70
     1
102
RTVSPost2010Prop38
140
0.0
102
RTVSPost2010PropOp38
 70
     1
102
RTVSPost2010Prop39
140
1.0
102
RTVSPost2010PropOp39
 70
     1
102
RTVSPost2010Prop40
 90
        0
102
RTVSPost2010PropOp40
 70
     1
102
RTVSPost2010Prop41ColorIndex
 90
       18
102
RTVSPost2010Prop41ColorRGB
 90
        0
102
RTVSPost2010PropOp41
 70
     1
102
RTVSPost2010Prop42
 90
       50
102
RTVSPost2010PropOp42
 70
     1
102
RTVSPost2010Prop43
 90
        3
102
RTVSPost2010PropOp43
 70
     1
102
RTVSPost2010Prop44ColorIndex
 90
        5
102
RTVSPost2010Prop44ColorRGB
 90
      255
102
RTVSPost2010PropOp44
 70
     1
102
RTVSPost2010Prop45
280
     0
102
RTVSPost2010PropOp45
 70
     1
102
RTVSPost2010Prop46
 90
       50
102
RTVSPost2010PropOp46
 70
     1
102
RTVSPost2010Prop47
 90
       50
102
RTVSPost2010PropOp47
 70
     1
102
RTVSPost2010Prop48
 90
       50
102
RTVSPost2010PropOp48
 70
     1
102
RTVSPost2010Prop49
280
     0
102
RTVSPost2010PropOp49
 70
     1
102
RTVSPost2010Prop50
 90
       50
102
RTVSPost2010PropOp50
 70
     1
102
RTVSPost2010Prop51ColorIndex
 90
      256
102
RTVSPost2010Prop51ColorRGB
 90
-16777216
102
RTVSPost2010PropOp51
 70
     0
102
RTVSPost2010Prop52
140
1.0
102
RTVSPost2010PropOp52
 70
     0
102
RTVSPost2010Prop53
 90
        2
102
RTVSPost2010PropOp53
 70
     1
102
RTVSPost2010Prop54
  1
strokes_ogs.tif
102
RTVSPost2010PropOp54
 70
     1
102
RTVSPost2010Prop55
280
     0
102
RTVSPost2010PropOp55
 70
     1
102
RTVSPost2010Prop56
140
1.0
102
RTVSPost2010PropOp56
 70
     1
102
RTVSPost2010Prop57
140
1.0
102
RTVSPost2010PropOp57
 70
     1
102
RTVSPropertyOp0
 70
     1
102
RTVSPropertyOp1
 70
     1
102
RTVSPropertyOp2
 70
     1
102
RTVSPropertyOp3
 70
     1
102
RTVSPropertyOp4
 70
     1
102
RTVSPropertyOp5
 70
     1
102
RTVSPropertyOp6
 70
     1
102
RTVSPropertyOp7
 70
     1
102
RTVSPropertyOp8
 70
     1
102
RTVSPropertyOp9
 70
     1
102
RTVSPropertyOp10
 70
     1
102
RTVSPropertyOp11
 70
     1
102
RTVSPropertyOp12
 70
     1
102
RTVSPropertyOp13
 70
     1
102
RTVSPropertyOp14
 70
     1
102
RTVSPropertyOp15
 70
     1
102
RTVSPropertyOp16
 70
     1
102
RTVSPropertyOp17
 70
     1
102
RTVSPropertyOp18
 70
     1
102
RTVSPropertyOp19
 70
     1
102
RTVSPropertyOp20
 70
     1
102
RTVSPropertyOp21
 70
     1
102
RTVSPropertyOp22
 70
     1
102
RTVSPropertyOp23
 70
     1
102
RTVSPropertyOp24
 70
     1
102
RTVSPropertyOp25
 70
     1
102
RTVSPropertyOp26
 70
     1
102
RTVSPropertyOp27
 70
     1
102
RTVSPropertyOp28
 70
     1
102
RTVSPropertyOp29
 70
     1
102
RTVSPropertyOp30
 70
     1
102
RTVSPropertyOp31
 70
     1
102
RTVSPropertyOp32
 70
     1
102
RTVSPropertyOp33
 70
     1
102
RTVSPropertyOp34
 70
     1
102
RTVSPropertyOp35
 70
     1
102
RTVSPropertyOp36
 70
     1
102
RTVSPropertyOp37
 70
     1
102
RTVSPropertyOp38
 70
     1
102
RTVSPropertyOp39
 70
     1
102
RTVSPropertyOp40
 70
     1
102
RTVSPropertyOp41
 70
     1
102
RTVSPropertyOp42
 70
     1
102
RTVSPropertyOp43
 70
     1
102
RTVSPropertyOp44
 70
     1
102
RTVSPropertyOp45
 70
     1
102
RTVSPropertyOp46
 70
     1
102
RTVSPropertyOp47
 70
     1
102
RTVSPropertyOp48
 70
     1
102
RTVSPropertyOp49
 70
     1
102
RTVSPropertyOp50
 70
     1
102
RTVSPropertyOp51
 70
     0
102
RTVSPropertyOp52
 70
     0
102
RTVSPropertyOp53
 70
     1
102
RTVSPropertyOp54
 70
     1
102
RTVSPropertyOp55
 70
     1
102
RTVSPropertyOp56
 70
     1
102
RTVSPropertyOp57
 70
     1
102
RTVSPropertyOp58
 70
     1
102
RTVSPropertyOp59
 70
     1
102
RTVSPropertyOp60
 70
     1
102
RTVSPropertyOp61
 70
     1
102
RTVSPropertyOp62
 70
     1
  0
XRECORD
  5
75C
102
{ACAD_REACTORS
330
75B
102
}
330
75B
100
AcDbXrecord
280
     1
102
RTVSPost2010Prop28
280
     0
102
RTVSPost2010PropOp28
 70
     1
102
RTVSPost2010Prop29
280
     1
102
RTVSPost2010PropOp29
 70
     1
102
RTVSPost2010Prop30
280
     1
102
RTVSPost2010PropOp30
 70
     1
102
RTVSPost2010Prop31
280
     0
102
RTVSPost2010PropOp31
 70
     1
102
RTVSPost2010Prop32
280
     0
102
RTVSPost2010PropOp32
 70
     1
102
RTVSPost2010Prop33
280
     0
102
RTVSPost2010PropOp33
 70
     1
102
RTVSPost2010Prop34
280
     0
102
RTVSPost2010PropOp34
 70
     1
102
RTVSPost2010Prop35
280
     0
102
RTVSPost2010PropOp35
 70
     1
102
RTVSPost2010Prop36
280
     0
102
RTVSPost2010PropOp36
 70
     1
102
RTVSPost2010Prop37
 90
       50
102
RTVSPost2010PropOp37
 70
     1
102
RTVSPost2010Prop38
140
0.0
102
RTVSPost2010PropOp38
 70
     1
102
RTVSPost2010Prop39
140
1.0
102
RTVSPost2010PropOp39
 70
     1
102
RTVSPost2010Prop40
 90
        0
102
RTVSPost2010PropOp40
 70
     1
102
RTVSPost2010Prop41ColorIndex
 90
       18
102
RTVSPost2010Prop41ColorRGB
 90
        0
102
RTVSPost2010PropOp41
 70
     1
102
RTVSPost2010Prop42
 90
       50
102
RTVSPost2010PropOp42
 70
     1
102
RTVSPost2010Prop43
 90
        3
102
RTVSPost2010PropOp43
 70
     1
102
RTVSPost2010Prop44ColorIndex
 90
        5
102
RTVSPost2010Prop44ColorRGB
 90
      255
102
RTVSPost2010PropOp44
 70
     1
102
RTVSPost2010Prop45
280
     0
102
RTVSPost2010PropOp45
 70
     1
102
RTVSPost2010Prop46
 90
       50
102
RTVSPost2010PropOp46
 70
     1
102
RTVSPost2010Prop47
 90
       50
102
RTVSPost2010PropOp47
 70
     1
102
RTVSPost2010Prop48
 90
       50
102
RTVSPost2010PropOp48
 70
     1
102
RTVSPost2010Prop49
280
     0
102
RTVSPost2010PropOp49
 70
     1
102
RTVSPost2010Prop50
 90
       50
102
RTVSPost2010PropOp50
 70
     1
102
RTVSPost2010Prop51ColorIndex
 90
      256
102
RTVSPost2010Prop51ColorRGB
 90
-16777216
102
RTVSPost2010PropOp51
 70
     0
102
RTVSPost2010Prop52
140
1.0
102
RTVSPost2010PropOp52
 70
     0
102
RTVSPost2010Prop53
 90
        2
102
RTVSPost2010PropOp53
 70
     1
102
RTVSPost2010Prop54
  1
strokes_ogs.tif
102
RTVSPost2010PropOp54
 70
     1
102
RTVSPost2010Prop55
280
     0
102
RTVSPost2010PropOp55
 70
     1
102
RTVSPost2010Prop56
140
1.0
102
RTVSPost2010PropOp56
 70
     1
102
RTVSPost2010Prop57
140
1.0
102
RTVSPost2010PropOp57
 70
     1
102
RTVSPropertyOp0
 70
     1
102
RTVSPropertyOp1
 70
     1
102
RTVSPropertyOp2
 70
     1
102
RTVSPropertyOp3
 70
     1
102
RTVSPropertyOp4
 70
     1
102
RTVSPropertyOp5
 70
     1
102
RTVSPropertyOp6
 70
     1
102
RTVSPropertyOp7
 70
     1
102
RTVSPropertyOp8
 70
     1
102
RTVSPropertyOp9
 70
     1
102
RTVSPropertyOp10
 70
     1
102
RTVSPropertyOp11
 70
     1
102
RTVSPropertyOp12
 70
     1
102
RTVSPropertyOp13
 70
     1
102
RTVSPropertyOp14
 70
     1
102
RTVSPropertyOp15
 70
     1
102
RTVSPropertyOp16
 70
     1
102
RTVSPropertyOp17
 70
     1
102
RTVSPropertyOp18
 70
     1
102
RTVSPropertyOp19
 70
     1
102
RTVSPropertyOp20
 70
     1
102
RTVSPropertyOp21
 70
     1
102
RTVSPropertyOp22
 70
     1
102
RTVSPropertyOp23
 70
     1
102
RTVSPropertyOp24
 70
     1
102
RTVSPropertyOp25
 70
     1
102
RTVSPropertyOp26
 70
     1
102
RTVSPropertyOp27
 70
     1
102
RTVSPropertyOp28
 70
     1
102
RTVSPropertyOp29
 70
     1
102
RTVSPropertyOp30
 70
     1
102
RTVSPropertyOp31
 70
     1
102
RTVSPropertyOp32
 70
     1
102
RTVSPropertyOp33
 70
     1
102
RTVSPropertyOp34
 70
     1
102
RTVSPropertyOp35
 70
     1
102
RTVSPropertyOp36
 70
     1
102
RTVSPropertyOp37
 70
     1
102
RTVSPropertyOp38
 70
     1
102
RTVSPropertyOp39
 70
     1
102
RTVSPropertyOp40
 70
     1
102
RTVSPropertyOp41
 70
     1
102
RTVSPropertyOp42
 70
     1
102
RTVSPropertyOp43
 70
     1
102
RTVSPropertyOp44
 70
     1
102
RTVSPropertyOp45
 70
     1
102
RTVSPropertyOp46
 70
     1
102
RTVSPropertyOp47
 70
     1
102
RTVSPropertyOp48
 70
     1
102
RTVSPropertyOp49
 70
     1
102
RTVSPropertyOp50
 70
     1
102
RTVSPropertyOp51
 70
     0
102
RTVSPropertyOp52
 70
     0
102
RTVSPropertyOp53
 70
     1
102
RTVSPropertyOp54
 70
     1
102
RTVSPropertyOp55
 70
     1
102
RTVSPropertyOp56
 70
     1
102
RTVSPropertyOp57
 70
     1
102
RTVSPropertyOp58
 70
     1
102
RTVSPropertyOp59
 70
     1
102
RTVSPropertyOp60
 70
     1
102
RTVSPropertyOp61
 70
     1
102
RTVSPropertyOp62
 70
     1
  0
XRECORD
  5
778
102
{ACAD_REACTORS
330
777
102
}
330
777
100
AcDbXrecord
280
     1
102
RTVSPost2010Prop28
280
     0
102
RTVSPost2010PropOp28
 70
     1
102
RTVSPost2010Prop29
280
     1
102
RTVSPost2010PropOp29
 70
     1
102
RTVSPost2010Prop30
280
     1
102
RTVSPost2010PropOp30
 70
     1
102
RTVSPost2010Prop31
280
     0
102
RTVSPost2010PropOp31
 70
     1
102
RTVSPost2010Prop32
280
     0
102
RTVSPost2010PropOp32
 70
     1
102
RTVSPost2010Prop33
280
     0
102
RTVSPost2010PropOp33
 70
     1
102
RTVSPost2010Prop34
280
     0
102
RTVSPost2010PropOp34
 70
     1
102
RTVSPost2010Prop35
280
     0
102
RTVSPost2010PropOp35
 70
     1
102
RTVSPost2010Prop36
280
     0
102
RTVSPost2010PropOp36
 70
     1
102
RTVSPost2010Prop37
 90
       50
102
RTVSPost2010PropOp37
 70
     0
102
RTVSPost2010Prop38
140
0.0
102
RTVSPost2010PropOp38
 70
     0
102
RTVSPost2010Prop39
140
1.0
102
RTVSPost2010PropOp39
 70
     0
102
RTVSPost2010Prop40
 90
        0
102
RTVSPost2010PropOp40
 70
     0
102
RTVSPost2010Prop41ColorIndex
 90
       18
102
RTVSPost2010Prop41ColorRGB
 90
        0
102
RTVSPost2010PropOp41
 70
     0
102
RTVSPost2010Prop42
 90
       50
102
RTVSPost2010PropOp42
 70
     0
102
RTVSPost2010Prop43
 90
        3
102
RTVSPost2010PropOp43
 70
     0
102
RTVSPost2010Prop44ColorIndex
 90
        5
102
RTVSPost2010Prop44ColorRGB
 90
      255
102
RTVSPost2010PropOp44
 70
     0
102
RTVSPost2010Prop45
280
     0
102
RTVSPost2010PropOp45
 70
     1
102
RTVSPost2010Prop46
 90
       50
102
RTVSPost2010PropOp46
 70
     0
102
RTVSPost2010Prop47
 90
       50
102
RTVSPost2010PropOp47
 70
     0
102
RTVSPost2010Prop48
 90
       50
102
RTVSPost2010PropOp48
 70
     0
102
RTVSPost2010Prop49
280
     0
102
RTVSPost2010PropOp49
 70
     1
102
RTVSPost2010Prop50
 90
       50
102
RTVSPost2010PropOp50
 70
     0
102
RTVSPost2010Prop51ColorIndex
 90
      256
102
RTVSPost2010Prop51ColorRGB
 90
-16777216
102
RTVSPost2010PropOp51
 70
     0
102
RTVSPost2010Prop52
140
1.0
102
RTVSPost2010PropOp52
 70
     0
102
RTVSPost2010Prop53
 90
        2
102
RTVSPost2010PropOp53
 70
     0
102
RTVSPost2010Prop54
  1
strokes_ogs.tif
102
RTVSPost2010PropOp54
 70
     0
102
RTVSPost2010Prop55
280
     0
102
RTVSPost2010PropOp55
 70
     1
102
RTVSPost2010Prop56
140
1.0
102
RTVSPost2010PropOp56
 70
     0
102
RTVSPost2010Prop57
140
1.0
102
RTVSPost2010PropOp57
 70
     0
102
RTVSPropertyOp0
 70
     0
102
RTVSPropertyOp1
 70
     0
102
RTVSPropertyOp2
 70
     0
102
RTVSPropertyOp3
 70
     0
102
RTVSPropertyOp4
 70
     0
102
RTVSPropertyOp5
 70
     0
102
RTVSPropertyOp6
 70
     0
102
RTVSPropertyOp7
 70
     0
102
RTVSPropertyOp8
 70
     0
102
RTVSPropertyOp9
 70
     0
102
RTVSPropertyOp10
 70
     0
102
RTVSPropertyOp11
 70
     0
102
RTVSPropertyOp12
 70
     0
102
RTVSPropertyOp13
 70
     0
102
RTVSPropertyOp14
 70
     2
102
RTVSPropertyOp15
 70
     0
102
RTVSPropertyOp16
 70
     0
102
RTVSPropertyOp17
 70
     0
102
RTVSPropertyOp18
 70
     0
102
RTVSPropertyOp19
 70
     0
102
RTVSPropertyOp20
 70
     0
102
RTVSPropertyOp21
 70
     0
102
RTVSPropertyOp22
 70
     0
102
RTVSPropertyOp23
 70
     0
102
RTVSPropertyOp24
 70
     0
102
RTVSPropertyOp25
 70
     0
102
RTVSPropertyOp26
 70
     0
102
RTVSPropertyOp27
 70
     0
102
RTVSPropertyOp28
 70
     1
102
RTVSPropertyOp29
 70
     1
102
RTVSPropertyOp30
 70
     1
102
RTVSPropertyOp31
 70
     1
102
RTVSPropertyOp32
 70
     1
102
RTVSPropertyOp33
 70
     1
102
RTVSPropertyOp34
 70
     1
102
RTVSPropertyOp35
 70
     1
102
RTVSPropertyOp36
 70
     1
102
RTVSPropertyOp37
 70
     0
102
RTVSPropertyOp38
 70
     0
102
RTVSPropertyOp39
 70
     0
102
RTVSPropertyOp40
 70
     0
102
RTVSPropertyOp41
 70
     0
102
RTVSPropertyOp42
 70
     0
102
RTVSPropertyOp43
 70
     0
102
RTVSPropertyOp44
 70
     0
102
RTVSPropertyOp45
 70
     1
102
RTVSPropertyOp46
 70
     0
102
RTVSPropertyOp47
 70
     0
102
RTVSPropertyOp48
 70
     0
102
RTVSPropertyOp49
 70
     1
102
RTVSPropertyOp50
 70
     0
102
RTVSPropertyOp51
 70
     0
102
RTVSPropertyOp52
 70
     0
102
RTVSPropertyOp53
 70
     0
102
RTVSPropertyOp54
 70
     0
102
RTVSPropertyOp55
 70
     1
102
RTVSPropertyOp56
 70
     0
102
RTVSPropertyOp57
 70
     0
102
RTVSPropertyOp58
 70
     1
102
RTVSPropertyOp59
 70
     1
102
RTVSPropertyOp60
 70
     1
102
RTVSPropertyOp61
 70
     1
102
RTVSPropertyOp62
 70
     1
  0
XRECORD
  5
768
102
{ACAD_REACTORS
330
767
102
}
330
767
100
AcDbXrecord
280
     1
102
RTVSPost2010Prop28
280
     0
102
RTVSPost2010PropOp28
 70
     1
102
RTVSPost2010Prop29
280
     1
102
RTVSPost2010PropOp29
 70
     1
102
RTVSPost2010Prop30
280
     1
102
RTVSPost2010PropOp30
 70
     1
102
RTVSPost2010Prop31
280
     0
102
RTVSPost2010PropOp31
 70
     1
102
RTVSPost2010Prop32
280
     0
102
RTVSPost2010PropOp32
 70
     1
102
RTVSPost2010Prop33
280
     0
102
RTVSPost2010PropOp33
 70
     1
102
RTVSPost2010Prop34
280
     0
102
RTVSPost2010PropOp34
 70
     1
102
RTVSPost2010Prop35
280
     0
102
RTVSPost2010PropOp35
 70
     1
102
RTVSPost2010Prop36
280
     0
102
RTVSPost2010PropOp36
 70
     1
102
RTVSPost2010Prop37
 90
       50
102
RTVSPost2010PropOp37
 70
     1
102
RTVSPost2010Prop38
140
0.0
102
RTVSPost2010PropOp38
 70
     1
102
RTVSPost2010Prop39
140
1.0
102
RTVSPost2010PropOp39
 70
     1
102
RTVSPost2010Prop40
 90
        0
102
RTVSPost2010PropOp40
 70
     1
102
RTVSPost2010Prop41ColorIndex
 90
       18
102
RTVSPost2010Prop41ColorRGB
 90
        0
102
RTVSPost2010PropOp41
 70
     1
102
RTVSPost2010Prop42
 90
       50
102
RTVSPost2010PropOp42
 70
     1
102
RTVSPost2010Prop43
 90
        3
102
RTVSPost2010PropOp43
 70
     1
102
RTVSPost2010Prop44ColorIndex
 90
        5
102
RTVSPost2010Prop44ColorRGB
 90
      255
102
RTVSPost2010PropOp44
 70
     1
102
RTVSPost2010Prop45
280
     0
102
RTVSPost2010PropOp45
 70
     1
102
RTVSPost2010Prop46
 90
       50
102
RTVSPost2010PropOp46
 70
     1
102
RTVSPost2010Prop47
 90
       50
102
RTVSPost2010PropOp47
 70
     1
102
RTVSPost2010Prop48
 90
       50
102
RTVSPost2010PropOp48
 70
     1
102
RTVSPost2010Prop49
280
     0
102
RTVSPost2010PropOp49
 70
     1
102
RTVSPost2010Prop50
 90
       50
102
RTVSPost2010PropOp50
 70
     1
102
RTVSPost2010Prop51ColorIndex
 90
      256
102
RTVSPost2010Prop51ColorRGB
 90
-16777216
102
RTVSPost2010PropOp51
 70
     0
102
RTVSPost2010Prop52
140
1.0
102
RTVSPost2010PropOp52
 70
     0
102
RTVSPost2010Prop53
 90
        2
102
RTVSPost2010PropOp53
 70
     1
102
RTVSPost2010Prop54
  1
strokes_ogs.tif
102
RTVSPost2010PropOp54
 70
     1
102
RTVSPost2010Prop55
280
     0
102
RTVSPost2010PropOp55
 70
     1
102
RTVSPost2010Prop56
140
1.0
102
RTVSPost2010PropOp56
 70
     1
102
RTVSPost2010Prop57
140
1.0
102
RTVSPost2010PropOp57
 70
     1
102
RTVSPropertyOp0
 70
     1
102
RTVSPropertyOp1
 70
     1
102
RTVSPropertyOp2
 70
     1
102
RTVSPropertyOp3
 70
     1
102
RTVSPropertyOp4
 70
     1
102
RTVSPropertyOp5
 70
     1
102
RTVSPropertyOp6
 70
     1
102
RTVSPropertyOp7
 70
     1
102
RTVSPropertyOp8
 70
     1
102
RTVSPropertyOp9
 70
     1
102
RTVSPropertyOp10
 70
     1
102
RTVSPropertyOp11
 70
     1
102
RTVSPropertyOp12
 70
     1
102
RTVSPropertyOp13
 70
     1
102
RTVSPropertyOp14
 70
     1
102
RTVSPropertyOp15
 70
     1
102
RTVSPropertyOp16
 70
     1
102
RTVSPropertyOp17
 70
     1
102
RTVSPropertyOp18
 70
     1
102
RTVSPropertyOp19
 70
     1
102
RTVSPropertyOp20
 70
     1
102
RTVSPropertyOp21
 70
     1
102
RTVSPropertyOp22
 70
     1
102
RTVSPropertyOp23
 70
     1
102
RTVSPropertyOp24
 70
     1
102
RTVSPropertyOp25
 70
     1
102
RTVSPropertyOp26
 70
     1
102
RTVSPropertyOp27
 70
     1
102
RTVSPropertyOp28
 70
     1
102
RTVSPropertyOp29
 70
     1
102
RTVSPropertyOp30
 70
     1
102
RTVSPropertyOp31
 70
     1
102
RTVSPropertyOp32
 70
     1
102
RTVSPropertyOp33
 70
     1
102
RTVSPropertyOp34
 70
     1
102
RTVSPropertyOp35
 70
     1
102
RTVSPropertyOp36
 70
     1
102
RTVSPropertyOp37
 70
     1
102
RTVSPropertyOp38
 70
     1
102
RTVSPropertyOp39
 70
     1
102
RTVSPropertyOp40
 70
     1
102
RTVSPropertyOp41
 70
     1
102
RTVSPropertyOp42
 70
     1
102
RTVSPropertyOp43
 70
     1
102
RTVSPropertyOp44
 70
     1
102
RTVSPropertyOp45
 70
     1
102
RTVSPropertyOp46
 70
     1
102
RTVSPropertyOp47
 70
     1
102
RTVSPropertyOp48
 70
     1
102
RTVSPropertyOp49
 70
     1
102
RTVSPropertyOp50
 70
     1
102
RTVSPropertyOp51
 70
     0
102
RTVSPropertyOp52
 70
     0
102
RTVSPropertyOp53
 70
     1
102
RTVSPropertyOp54
 70
     1
102
RTVSPropertyOp55
 70
     1
102
RTVSPropertyOp56
 70
     1
102
RTVSPropertyOp57
 70
     1
102
RTVSPropertyOp58
 70
     1
102
RTVSPropertyOp59
 70
     1
102
RTVSPropertyOp60
 70
     1
102
RTVSPropertyOp61
 70
     1
102
RTVSPropertyOp62
 70
     1
  0
XRECORD
  5
77A
102
{ACAD_REACTORS
330
779
102
}
330
779
100
AcDbXrecord
280
     1
102
RTVSPost2010Prop28
280
     0
102
RTVSPost2010PropOp28
 70
     1
102
RTVSPost2010Prop29
280
     1
102
RTVSPost2010PropOp29
 70
     1
102
RTVSPost2010Prop30
280
     1
102
RTVSPost2010PropOp30
 70
     1
102
RTVSPost2010Prop31
280
     0
102
RTVSPost2010PropOp31
 70
     1
102
RTVSPost2010Prop32
280
     0
102
RTVSPost2010PropOp32
 70
     1
102
RTVSPost2010Prop33
280
     0
102
RTVSPost2010PropOp33
 70
     1
102
RTVSPost2010Prop34
280
     0
102
RTVSPost2010PropOp34
 70
     1
102
RTVSPost2010Prop35
280
     0
102
RTVSPost2010PropOp35
 70
     1
102
RTVSPost2010Prop36
280
     0
102
RTVSPost2010PropOp36
 70
     1
102
RTVSPost2010Prop37
 90
       50
102
RTVSPost2010PropOp37
 70
     0
102
RTVSPost2010Prop38
140
0.0
102
RTVSPost2010PropOp38
 70
     0
102
RTVSPost2010Prop39
140
1.0
102
RTVSPost2010PropOp39
 70
     0
102
RTVSPost2010Prop40
 90
        0
102
RTVSPost2010PropOp40
 70
     0
102
RTVSPost2010Prop41ColorIndex
 90
       18
102
RTVSPost2010Prop41ColorRGB
 90
        0
102
RTVSPost2010PropOp41
 70
     0
102
RTVSPost2010Prop42
 90
       50
102
RTVSPost2010PropOp42
 70
     0
102
RTVSPost2010Prop43
 90
        3
102
RTVSPost2010PropOp43
 70
     0
102
RTVSPost2010Prop44ColorIndex
 90
        5
102
RTVSPost2010Prop44ColorRGB
 90
      255
102
RTVSPost2010PropOp44
 70
     0
102
RTVSPost2010Prop45
280
     0
102
RTVSPost2010PropOp45
 70
     1
102
RTVSPost2010Prop46
 90
       50
102
RTVSPost2010PropOp46
 70
     0
102
RTVSPost2010Prop47
 90
       50
102
RTVSPost2010PropOp47
 70
     0
102
RTVSPost2010Prop48
 90
       50
102
RTVSPost2010PropOp48
 70
     0
102
RTVSPost2010Prop49
280
     0
102
RTVSPost2010PropOp49
 70
     1
102
RTVSPost2010Prop50
 90
       50
102
RTVSPost2010PropOp50
 70
     0
102
RTVSPost2010Prop51ColorIndex
 90
      256
102
RTVSPost2010Prop51ColorRGB
 90
-16777216
102
RTVSPost2010PropOp51
 70
     0
102
RTVSPost2010Prop52
140
1.0
102
RTVSPost2010PropOp52
 70
     0
102
RTVSPost2010Prop53
 90
        2
102
RTVSPost2010PropOp53
 70
     0
102
RTVSPost2010Prop54
  1
strokes_ogs.tif
102
RTVSPost2010PropOp54
 70
     0
102
RTVSPost2010Prop55
280
     0
102
RTVSPost2010PropOp55
 70
     1
102
RTVSPost2010Prop56
140
1.0
102
RTVSPost2010PropOp56
 70
     0
102
RTVSPost2010Prop57
140
1.0
102
RTVSPost2010PropOp57
 70
     0
102
RTVSPropertyOp0
 70
     0
102
RTVSPropertyOp1
 70
     0
102
RTVSPropertyOp2
 70
     0
102
RTVSPropertyOp3
 70
     0
102
RTVSPropertyOp4
 70
     0
102
RTVSPropertyOp5
 70
     0
102
RTVSPropertyOp6
 70
     0
102
RTVSPropertyOp7
 70
     0
102
RTVSPropertyOp8
 70
     0
102
RTVSPropertyOp9
 70
     0
102
RTVSPropertyOp10
 70
     0
102
RTVSPropertyOp11
 70
     0
102
RTVSPropertyOp12
 70
     0
102
RTVSPropertyOp13
 70
     0
102
RTVSPropertyOp14
 70
     2
102
RTVSPropertyOp15
 70
     0
102
RTVSPropertyOp16
 70
     0
102
RTVSPropertyOp17
 70
     0
102
RTVSPropertyOp18
 70
     0
102
RTVSPropertyOp19
 70
     0
102
RTVSPropertyOp20
 70
     0
102
RTVSPropertyOp21
 70
     0
102
RTVSPropertyOp22
 70
     0
102
RTVSPropertyOp23
 70
     0
102
RTVSPropertyOp24
 70
     0
102
RTVSPropertyOp25
 70
     0
102
RTVSPropertyOp26
 70
     0
102
RTVSPropertyOp27
 70
     0
102
RTVSPropertyOp28
 70
     1
102
RTVSPropertyOp29
 70
     1
102
RTVSPropertyOp30
 70
     1
102
RTVSPropertyOp31
 70
     1
102
RTVSPropertyOp32
 70
     1
102
RTVSPropertyOp33
 70
     1
102
RTVSPropertyOp34
 70
     1
102
RTVSPropertyOp35
 70
     1
102
RTVSPropertyOp36
 70
     1
102
RTVSPropertyOp37
 70
     0
102
RTVSPropertyOp38
 70
     0
102
RTVSPropertyOp39
 70
     0
102
RTVSPropertyOp40
 70
     0
102
RTVSPropertyOp41
 70
     0
102
RTVSPropertyOp42
 70
     0
102
RTVSPropertyOp43
 70
     0
102
RTVSPropertyOp44
 70
     0
102
RTVSPropertyOp45
 70
     1
102
RTVSPropertyOp46
 70
     0
102
RTVSPropertyOp47
 70
     0
102
RTVSPropertyOp48
 70
     0
102
RTVSPropertyOp49
 70
     1
102
RTVSPropertyOp50
 70
     0
102
RTVSPropertyOp51
 70
     0
102
RTVSPropertyOp52
 70
     0
102
RTVSPropertyOp53
 70
     0
102
RTVSPropertyOp54
 70
     0
102
RTVSPropertyOp55
 70
     1
102
RTVSPropertyOp56
 70
     0
102
RTVSPropertyOp57
 70
     0
102
RTVSPropertyOp58
 70
     1
102
RTVSPropertyOp59
 70
     1
102
RTVSPropertyOp60
 70
     1
102
RTVSPropertyOp61
 70
     1
102
RTVSPropertyOp62
 70
     1
  0
XRECORD
  5
760
102
{ACAD_REACTORS
330
75F
102
}
330
75F
100
AcDbXrecord
280
     1
102
RTVSPost2010Prop28
280
     0
102
RTVSPost2010PropOp28
 70
     1
102
RTVSPost2010Prop29
280
     1
102
RTVSPost2010PropOp29
 70
     1
102
RTVSPost2010Prop30
280
     1
102
RTVSPost2010PropOp30
 70
     1
102
RTVSPost2010Prop31
280
     0
102
RTVSPost2010PropOp31
 70
     1
102
RTVSPost2010Prop32
280
     0
102
RTVSPost2010PropOp32
 70
     1
102
RTVSPost2010Prop33
280
     0
102
RTVSPost2010PropOp33
 70
     1
102
RTVSPost2010Prop34
280
     0
102
RTVSPost2010PropOp34
 70
     1
102
RTVSPost2010Prop35
280
     0
102
RTVSPost2010PropOp35
 70
     1
102
RTVSPost2010Prop36
280
     0
102
RTVSPost2010PropOp36
 70
     1
102
RTVSPost2010Prop37
 90
       50
102
RTVSPost2010PropOp37
 70
     1
102
RTVSPost2010Prop38
140
0.0
102
RTVSPost2010PropOp38
 70
     1
102
RTVSPost2010Prop39
140
1.0
102
RTVSPost2010PropOp39
 70
     1
102
RTVSPost2010Prop40
 90
        0
102
RTVSPost2010PropOp40
 70
     1
102
RTVSPost2010Prop41ColorIndex
 90
       18
102
RTVSPost2010Prop41ColorRGB
 90
        0
102
RTVSPost2010PropOp41
 70
     1
102
RTVSPost2010Prop42
 90
       50
102
RTVSPost2010PropOp42
 70
     1
102
RTVSPost2010Prop43
 90
        3
102
RTVSPost2010PropOp43
 70
     1
102
RTVSPost2010Prop44ColorIndex
 90
        5
102
RTVSPost2010Prop44ColorRGB
 90
      255
102
RTVSPost2010PropOp44
 70
     1
102
RTVSPost2010Prop45
280
     0
102
RTVSPost2010PropOp45
 70
     1
102
RTVSPost2010Prop46
 90
       50
102
RTVSPost2010PropOp46
 70
     1
102
RTVSPost2010Prop47
 90
       50
102
RTVSPost2010PropOp47
 70
     1
102
RTVSPost2010Prop48
 90
       50
102
RTVSPost2010PropOp48
 70
     1
102
RTVSPost2010Prop49
280
     0
102
RTVSPost2010PropOp49
 70
     1
102
RTVSPost2010Prop50
 90
       50
102
RTVSPost2010PropOp50
 70
     1
102
RTVSPost2010Prop51ColorIndex
 90
      256
102
RTVSPost2010Prop51ColorRGB
 90
-16777216
102
RTVSPost2010PropOp51
 70
     0
102
RTVSPost2010Prop52
140
1.0
102
RTVSPost2010PropOp52
 70
     0
102
RTVSPost2010Prop53
 90
        2
102
RTVSPost2010PropOp53
 70
     1
102
RTVSPost2010Prop54
  1
strokes_ogs.tif
102
RTVSPost2010PropOp54
 70
     1
102
RTVSPost2010Prop55
280
     0
102
RTVSPost2010PropOp55
 70
     1
102
RTVSPost2010Prop56
140
1.0
102
RTVSPost2010PropOp56
 70
     1
102
RTVSPost2010Prop57
140
1.0
102
RTVSPost2010PropOp57
 70
     1
102
RTVSPropertyOp0
 70
     1
102
RTVSPropertyOp1
 70
     1
102
RTVSPropertyOp2
 70
     1
102
RTVSPropertyOp3
 70
     1
102
RTVSPropertyOp4
 70
     1
102
RTVSPropertyOp5
 70
     1
102
RTVSPropertyOp6
 70
     1
102
RTVSPropertyOp7
 70
     1
102
RTVSPropertyOp8
 70
     1
102
RTVSPropertyOp9
 70
     1
102
RTVSPropertyOp10
 70
     1
102
RTVSPropertyOp11
 70
     1
102
RTVSPropertyOp12
 70
     1
102
RTVSPropertyOp13
 70
     1
102
RTVSPropertyOp14
 70
     1
102
RTVSPropertyOp15
 70
     1
102
RTVSPropertyOp16
 70
     1
102
RTVSPropertyOp17
 70
     1
102
RTVSPropertyOp18
 70
     1
102
RTVSPropertyOp19
 70
     1
102
RTVSPropertyOp20
 70
     1
102
RTVSPropertyOp21
 70
     1
102
RTVSPropertyOp22
 70
     1
102
RTVSPropertyOp23
 70
     1
102
RTVSPropertyOp24
 70
     1
102
RTVSPropertyOp25
 70
     1
102
RTVSPropertyOp26
 70
     1
102
RTVSPropertyOp27
 70
     1
102
RTVSPropertyOp28
 70
     1
102
RTVSPropertyOp29
 70
     1
102
RTVSPropertyOp30
 70
     1
102
RTVSPropertyOp31
 70
     1
102
RTVSPropertyOp32
 70
     1
102
RTVSPropertyOp33
 70
     1
102
RTVSPropertyOp34
 70
     1
102
RTVSPropertyOp35
 70
     1
102
RTVSPropertyOp36
 70
     1
102
RTVSPropertyOp37
 70
     1
102
RTVSPropertyOp38
 70
     1
102
RTVSPropertyOp39
 70
     1
102
RTVSPropertyOp40
 70
     1
102
RTVSPropertyOp41
 70
     1
102
RTVSPropertyOp42
 70
     1
102
RTVSPropertyOp43
 70
     1
102
RTVSPropertyOp44
 70
     1
102
RTVSPropertyOp45
 70
     1
102
RTVSPropertyOp46
 70
     1
102
RTVSPropertyOp47
 70
     1
102
RTVSPropertyOp48
 70
     1
102
RTVSPropertyOp49
 70
     1
102
RTVSPropertyOp50
 70
     1
102
RTVSPropertyOp51
 70
     0
102
RTVSPropertyOp52
 70
     0
102
RTVSPropertyOp53
 70
     1
102
RTVSPropertyOp54
 70
     1
102
RTVSPropertyOp55
 70
     1
102
RTVSPropertyOp56
 70
     1
102
RTVSPropertyOp57
 70
     1
102
RTVSPropertyOp58
 70
     1
102
RTVSPropertyOp59
 70
     1
102
RTVSPropertyOp60
 70
     1
102
RTVSPropertyOp61
 70
     1
102
RTVSPropertyOp62
 70
     1
  0
XRECORD
  5
776
102
{ACAD_REACTORS
330
775
102
}
330
775
100
AcDbXrecord
280
     1
102
RTVSPost2010Prop28
280
     0
102
RTVSPost2010PropOp28
 70
     1
102
RTVSPost2010Prop29
280
     1
102
RTVSPost2010PropOp29
 70
     1
102
RTVSPost2010Prop30
280
     1
102
RTVSPost2010PropOp30
 70
     1
102
RTVSPost2010Prop31
280
     0
102
RTVSPost2010PropOp31
 70
     1
102
RTVSPost2010Prop32
280
     0
102
RTVSPost2010PropOp32
 70
     1
102
RTVSPost2010Prop33
280
     0
102
RTVSPost2010PropOp33
 70
     1
102
RTVSPost2010Prop34
280
     0
102
RTVSPost2010PropOp34
 70
     1
102
RTVSPost2010Prop35
280
     0
102
RTVSPost2010PropOp35
 70
     1
102
RTVSPost2010Prop36
280
     0
102
RTVSPost2010PropOp36
 70
     1
102
RTVSPost2010Prop37
 90
       50
102
RTVSPost2010PropOp37
 70
     1
102
RTVSPost2010Prop38
140
0.0
102
RTVSPost2010PropOp38
 70
     1
102
RTVSPost2010Prop39
140
1.0
102
RTVSPost2010PropOp39
 70
     1
102
RTVSPost2010Prop40
 90
        0
102
RTVSPost2010PropOp40
 70
     1
102
RTVSPost2010Prop41ColorIndex
 90
       18
102
RTVSPost2010Prop41ColorRGB
 90
        0
102
RTVSPost2010PropOp41
 70
     1
102
RTVSPost2010Prop42
 90
       50
102
RTVSPost2010PropOp42
 70
     1
102
RTVSPost2010Prop43
 90
        3
102
RTVSPost2010PropOp43
 70
     1
102
RTVSPost2010Prop44ColorIndex
 90
        5
102
RTVSPost2010Prop44ColorRGB
 90
      255
102
RTVSPost2010PropOp44
 70
     1
102
RTVSPost2010Prop45
280
     0
102
RTVSPost2010PropOp45
 70
     1
102
RTVSPost2010Prop46
 90
       50
102
RTVSPost2010PropOp46
 70
     1
102
RTVSPost2010Prop47
 90
       50
102
RTVSPost2010PropOp47
 70
     1
102
RTVSPost2010Prop48
 90
       50
102
RTVSPost2010PropOp48
 70
     1
102
RTVSPost2010Prop49
280
     0
102
RTVSPost2010PropOp49
 70
     1
102
RTVSPost2010Prop50
 90
       50
102
RTVSPost2010PropOp50
 70
     1
102
RTVSPost2010Prop51ColorIndex
 90
      256
102
RTVSPost2010Prop51ColorRGB
 90
-16777216
102
RTVSPost2010PropOp51
 70
     0
102
RTVSPost2010Prop52
140
1.0
102
RTVSPost2010PropOp52
 70
     0
102
RTVSPost2010Prop53
 90
        2
102
RTVSPost2010PropOp53
 70
     1
102
RTVSPost2010Prop54
  1
strokes_ogs.tif
102
RTVSPost2010PropOp54
 70
     1
102
RTVSPost2010Prop55
280
     0
102
RTVSPost2010PropOp55
 70
     1
102
RTVSPost2010Prop56
140
1.0
102
RTVSPost2010PropOp56
 70
     1
102
RTVSPost2010Prop57
140
1.0
102
RTVSPost2010PropOp57
 70
     1
102
RTVSPropertyOp0
 70
     1
102
RTVSPropertyOp1
 70
     1
102
RTVSPropertyOp2
 70
     1
102
RTVSPropertyOp3
 70
     1
102
RTVSPropertyOp4
 70
     1
102
RTVSPropertyOp5
 70
     1
102
RTVSPropertyOp6
 70
     1
102
RTVSPropertyOp7
 70
     1
102
RTVSPropertyOp8
 70
     1
102
RTVSPropertyOp9
 70
     1
102
RTVSPropertyOp10
 70
     1
102
RTVSPropertyOp11
 70
     1
102
RTVSPropertyOp12
 70
     1
102
RTVSPropertyOp13
 70
     1
102
RTVSPropertyOp14
 70
     1
102
RTVSPropertyOp15
 70
     1
102
RTVSPropertyOp16
 70
     1
102
RTVSPropertyOp17
 70
     1
102
RTVSPropertyOp18
 70
     1
102
RTVSPropertyOp19
 70
     1
102
RTVSPropertyOp20
 70
     1
102
RTVSPropertyOp21
 70
     1
102
RTVSPropertyOp22
 70
     1
102
RTVSPropertyOp23
 70
     1
102
RTVSPropertyOp24
 70
     1
102
RTVSPropertyOp25
 70
     1
102
RTVSPropertyOp26
 70
     1
102
RTVSPropertyOp27
 70
     1
102
RTVSPropertyOp28
 70
     1
102
RTVSPropertyOp29
 70
     1
102
RTVSPropertyOp30
 70
     1
102
RTVSPropertyOp31
 70
     1
102
RTVSPropertyOp32
 70
     1
102
RTVSPropertyOp33
 70
     1
102
RTVSPropertyOp34
 70
     1
102
RTVSPropertyOp35
 70
     1
102
RTVSPropertyOp36
 70
     1
102
RTVSPropertyOp37
 70
     1
102
RTVSPropertyOp38
 70
     1
102
RTVSPropertyOp39
 70
     1
102
RTVSPropertyOp40
 70
     1
102
RTVSPropertyOp41
 70
     1
102
RTVSPropertyOp42
 70
     1
102
RTVSPropertyOp43
 70
     1
102
RTVSPropertyOp44
 70
     1
102
RTVSPropertyOp45
 70
     1
102
RTVSPropertyOp46
 70
     1
102
RTVSPropertyOp47
 70
     1
102
RTVSPropertyOp48
 70
     1
102
RTVSPropertyOp49
 70
     1
102
RTVSPropertyOp50
 70
     1
102
RTVSPropertyOp51
 70
     0
102
RTVSPropertyOp52
 70
     0
102
RTVSPropertyOp53
 70
     1
102
RTVSPropertyOp54
 70
     1
102
RTVSPropertyOp55
 70
     1
102
RTVSPropertyOp56
 70
     1
102
RTVSPropertyOp57
 70
     1
102
RTVSPropertyOp58
 70
     1
102
RTVSPropertyOp59
 70
     1
102
RTVSPropertyOp60
 70
     1
102
RTVSPropertyOp61
 70
     1
102
RTVSPropertyOp62
 70
     1
  0
XRECORD
  5
774
102
{ACAD_REACTORS
330
773
102
}
330
773
100
AcDbXrecord
280
     1
102
RTVSPost2010Prop28
280
     0
102
RTVSPost2010PropOp28
 70
     1
102
RTVSPost2010Prop29
280
     1
102
RTVSPost2010PropOp29
 70
     1
102
RTVSPost2010Prop30
280
     1
102
RTVSPost2010PropOp30
 70
     1
102
RTVSPost2010Prop31
280
     0
102
RTVSPost2010PropOp31
 70
     1
102
RTVSPost2010Prop32
280
     0
102
RTVSPost2010PropOp32
 70
     1
102
RTVSPost2010Prop33
280
     0
102
RTVSPost2010PropOp33
 70
     1
102
RTVSPost2010Prop34
280
     0
102
RTVSPost2010PropOp34
 70
     1
102
RTVSPost2010Prop35
280
     0
102
RTVSPost2010PropOp35
 70
     1
102
RTVSPost2010Prop36
280
     0
102
RTVSPost2010PropOp36
 70
     1
102
RTVSPost2010Prop37
 90
       50
102
RTVSPost2010PropOp37
 70
     1
102
RTVSPost2010Prop38
140
0.0
102
RTVSPost2010PropOp38
 70
     1
102
RTVSPost2010Prop39
140
1.0
102
RTVSPost2010PropOp39
 70
     1
102
RTVSPost2010Prop40
 90
        0
102
RTVSPost2010PropOp40
 70
     1
102
RTVSPost2010Prop41ColorIndex
 90
       18
102
RTVSPost2010Prop41ColorRGB
 90
        0
102
RTVSPost2010PropOp41
 70
     1
102
RTVSPost2010Prop42
 90
       50
102
RTVSPost2010PropOp42
 70
     1
102
RTVSPost2010Prop43
 90
        3
102
RTVSPost2010PropOp43
 70
     1
102
RTVSPost2010Prop44ColorIndex
 90
        5
102
RTVSPost2010Prop44ColorRGB
 90
      255
102
RTVSPost2010PropOp44
 70
     1
102
RTVSPost2010Prop45
280
     0
102
RTVSPost2010PropOp45
 70
     1
102
RTVSPost2010Prop46
 90
       50
102
RTVSPost2010PropOp46
 70
     1
102
RTVSPost2010Prop47
 90
       50
102
RTVSPost2010PropOp47
 70
     1
102
RTVSPost2010Prop48
 90
       50
102
RTVSPost2010PropOp48
 70
     1
102
RTVSPost2010Prop49
280
     0
102
RTVSPost2010PropOp49
 70
     1
102
RTVSPost2010Prop50
 90
       50
102
RTVSPost2010PropOp50
 70
     1
102
RTVSPost2010Prop51ColorIndex
 90
      256
102
RTVSPost2010Prop51ColorRGB
 90
-16777216
102
RTVSPost2010PropOp51
 70
     0
102
RTVSPost2010Prop52
140
1.0
102
RTVSPost2010PropOp52
 70
     0
102
RTVSPost2010Prop53
 90
        2
102
RTVSPost2010PropOp53
 70
     1
102
RTVSPost2010Prop54
  1
strokes_ogs.tif
102
RTVSPost2010PropOp54
 70
     1
102
RTVSPost2010Prop55
280
     0
102
RTVSPost2010PropOp55
 70
     1
102
RTVSPost2010Prop56
140
1.0
102
RTVSPost2010PropOp56
 70
     1
102
RTVSPost2010Prop57
140
1.0
102
RTVSPost2010PropOp57
 70
     1
102
RTVSPropertyOp0
 70
     1
102
RTVSPropertyOp1
 70
     1
102
RTVSPropertyOp2
 70
     1
102
RTVSPropertyOp3
 70
     1
102
RTVSPropertyOp4
 70
     1
102
RTVSPropertyOp5
 70
     1
102
RTVSPropertyOp6
 70
     1
102
RTVSPropertyOp7
 70
     1
102
RTVSPropertyOp8
 70
     1
102
RTVSPropertyOp9
 70
     1
102
RTVSPropertyOp10
 70
     1
102
RTVSPropertyOp11
 70
     1
102
RTVSPropertyOp12
 70
     1
102
RTVSPropertyOp13
 70
     1
102
RTVSPropertyOp14
 70
     1
102
RTVSPropertyOp15
 70
     1
102
RTVSPropertyOp16
 70
     1
102
RTVSPropertyOp17
 70
     1
102
RTVSPropertyOp18
 70
     1
102
RTVSPropertyOp19
 70
     1
102
RTVSPropertyOp20
 70
     1
102
RTVSPropertyOp21
 70
     1
102
RTVSPropertyOp22
 70
     1
102
RTVSPropertyOp23
 70
     1
102
RTVSPropertyOp24
 70
     1
102
RTVSPropertyOp25
 70
     1
102
RTVSPropertyOp26
 70
     1
102
RTVSPropertyOp27
 70
     1
102
RTVSPropertyOp28
 70
     1
102
RTVSPropertyOp29
 70
     1
102
RTVSPropertyOp30
 70
     1
102
RTVSPropertyOp31
 70
     1
102
RTVSPropertyOp32
 70
     1
102
RTVSPropertyOp33
 70
     1
102
RTVSPropertyOp34
 70
     1
102
RTVSPropertyOp35
 70
     1
102
RTVSPropertyOp36
 70
     1
102
RTVSPropertyOp37
 70
     1
102
RTVSPropertyOp38
 70
     1
102
RTVSPropertyOp39
 70
     1
102
RTVSPropertyOp40
 70
     1
102
RTVSPropertyOp41
 70
     1
102
RTVSPropertyOp42
 70
     1
102
RTVSPropertyOp43
 70
     1
102
RTVSPropertyOp44
 70
     1
102
RTVSPropertyOp45
 70
     1
102
RTVSPropertyOp46
 70
     1
102
RTVSPropertyOp47
 70
     1
102
RTVSPropertyOp48
 70
     1
102
RTVSPropertyOp49
 70
     1
102
RTVSPropertyOp50
 70
     1
102
RTVSPropertyOp51
 70
     0
102
RTVSPropertyOp52
 70
     0
102
RTVSPropertyOp53
 70
     1
102
RTVSPropertyOp54
 70
     1
102
RTVSPropertyOp55
 70
     1
102
RTVSPropertyOp56
 70
     1
102
RTVSPropertyOp57
 70
     1
102
RTVSPropertyOp58
 70
     1
102
RTVSPropertyOp59
 70
     1
102
RTVSPropertyOp60
 70
     1
102
RTVSPropertyOp61
 70
     1
102
RTVSPropertyOp62
 70
     1
  0
XRECORD
  5
76E
102
{ACAD_REACTORS
330
76D
102
}
330
76D
100
AcDbXrecord
280
     1
102
RTVSPost2010Prop28
280
     0
102
RTVSPost2010PropOp28
 70
     1
102
RTVSPost2010Prop29
280
     1
102
RTVSPost2010PropOp29
 70
     1
102
RTVSPost2010Prop30
280
     1
102
RTVSPost2010PropOp30
 70
     1
102
RTVSPost2010Prop31
280
     0
102
RTVSPost2010PropOp31
 70
     1
102
RTVSPost2010Prop32
280
     0
102
RTVSPost2010PropOp32
 70
     1
102
RTVSPost2010Prop33
280
     0
102
RTVSPost2010PropOp33
 70
     1
102
RTVSPost2010Prop34
280
     0
102
RTVSPost2010PropOp34
 70
     1
102
RTVSPost2010Prop35
280
     0
102
RTVSPost2010PropOp35
 70
     1
102
RTVSPost2010Prop36
280
     0
102
RTVSPost2010PropOp36
 70
     1
102
RTVSPost2010Prop37
 90
       50
102
RTVSPost2010PropOp37
 70
     1
102
RTVSPost2010Prop38
140
0.0
102
RTVSPost2010PropOp38
 70
     1
102
RTVSPost2010Prop39
140
1.0
102
RTVSPost2010PropOp39
 70
     1
102
RTVSPost2010Prop40
 90
        0
102
RTVSPost2010PropOp40
 70
     1
102
RTVSPost2010Prop41ColorIndex
 90
       18
102
RTVSPost2010Prop41ColorRGB
 90
        0
102
RTVSPost2010PropOp41
 70
     1
102
RTVSPost2010Prop42
 90
       50
102
RTVSPost2010PropOp42
 70
     1
102
RTVSPost2010Prop43
 90
        3
102
RTVSPost2010PropOp43
 70
     1
102
RTVSPost2010Prop44ColorIndex
 90
        5
102
RTVSPost2010Prop44ColorRGB
 90
      255
102
RTVSPost2010PropOp44
 70
     1
102
RTVSPost2010Prop45
280
     0
102
RTVSPost2010PropOp45
 70
     1
102
RTVSPost2010Prop46
 90
       50
102
RTVSPost2010PropOp46
 70
     1
102
RTVSPost2010Prop47
 90
       50
102
RTVSPost2010PropOp47
 70
     1
102
RTVSPost2010Prop48
 90
       50
102
RTVSPost2010PropOp48
 70
     1
102
RTVSPost2010Prop49
280
     0
102
RTVSPost2010PropOp49
 70
     1
102
RTVSPost2010Prop50
 90
       50
102
RTVSPost2010PropOp50
 70
     1
102
RTVSPost2010Prop51ColorIndex
 90
      256
102
RTVSPost2010Prop51ColorRGB
 90
-16777216
102
RTVSPost2010PropOp51
 70
     0
102
RTVSPost2010Prop52
140
1.0
102
RTVSPost2010PropOp52
 70
     0
102
RTVSPost2010Prop53
 90
        2
102
RTVSPost2010PropOp53
 70
     1
102
RTVSPost2010Prop54
  1
strokes_ogs.tif
102
RTVSPost2010PropOp54
 70
     1
102
RTVSPost2010Prop55
280
     0
102
RTVSPost2010PropOp55
 70
     1
102
RTVSPost2010Prop56
140
1.0
102
RTVSPost2010PropOp56
 70
     1
102
RTVSPost2010Prop57
140
1.0
102
RTVSPost2010PropOp57
 70
     1
102
RTVSPropertyOp0
 70
     1
102
RTVSPropertyOp1
 70
     1
102
RTVSPropertyOp2
 70
     1
102
RTVSPropertyOp3
 70
     1
102
RTVSPropertyOp4
 70
     1
102
RTVSPropertyOp5
 70
     1
102
RTVSPropertyOp6
 70
     1
102
RTVSPropertyOp7
 70
     1
102
RTVSPropertyOp8
 70
     1
102
RTVSPropertyOp9
 70
     1
102
RTVSPropertyOp10
 70
     1
102
RTVSPropertyOp11
 70
     1
102
RTVSPropertyOp12
 70
     1
102
RTVSPropertyOp13
 70
     1
102
RTVSPropertyOp14
 70
     1
102
RTVSPropertyOp15
 70
     1
102
RTVSPropertyOp16
 70
     1
102
RTVSPropertyOp17
 70
     1
102
RTVSPropertyOp18
 70
     1
102
RTVSPropertyOp19
 70
     1
102
RTVSPropertyOp20
 70
     1
102
RTVSPropertyOp21
 70
     1
102
RTVSPropertyOp22
 70
     1
102
RTVSPropertyOp23
 70
     1
102
RTVSPropertyOp24
 70
     1
102
RTVSPropertyOp25
 70
     1
102
RTVSPropertyOp26
 70
     1
102
RTVSPropertyOp27
 70
     1
102
RTVSPropertyOp28
 70
     1
102
RTVSPropertyOp29
 70
     1
102
RTVSPropertyOp30
 70
     1
102
RTVSPropertyOp31
 70
     1
102
RTVSPropertyOp32
 70
     1
102
RTVSPropertyOp33
 70
     1
102
RTVSPropertyOp34
 70
     1
102
RTVSPropertyOp35
 70
     1
102
RTVSPropertyOp36
 70
     1
102
RTVSPropertyOp37
 70
     1
102
RTVSPropertyOp38
 70
     1
102
RTVSPropertyOp39
 70
     1
102
RTVSPropertyOp40
 70
     1
102
RTVSPropertyOp41
 70
     1
102
RTVSPropertyOp42
 70
     1
102
RTVSPropertyOp43
 70
     1
102
RTVSPropertyOp44
 70
     1
102
RTVSPropertyOp45
 70
     1
102
RTVSPropertyOp46
 70
     1
102
RTVSPropertyOp47
 70
     1
102
RTVSPropertyOp48
 70
     1
102
RTVSPropertyOp49
 70
     1
102
RTVSPropertyOp50
 70
     1
102
RTVSPropertyOp51
 70
     0
102
RTVSPropertyOp52
 70
     0
102
RTVSPropertyOp53
 70
     1
102
RTVSPropertyOp54
 70
     1
102
RTVSPropertyOp55
 70
     1
102
RTVSPropertyOp56
 70
     1
102
RTVSPropertyOp57
 70
     1
102
RTVSPropertyOp58
 70
     1
102
RTVSPropertyOp59
 70
     1
102
RTVSPropertyOp60
 70
     1
102
RTVSPropertyOp61
 70
     1
102
RTVSPropertyOp62
 70
     1
  0
XRECORD
  5
770
102
{ACAD_REACTORS
330
76F
102
}
330
76F
100
AcDbXrecord
280
     1
102
RTVSPost2010Prop28
280
     0
102
RTVSPost2010PropOp28
 70
     1
102
RTVSPost2010Prop29
280
     1
102
RTVSPost2010PropOp29
 70
     1
102
RTVSPost2010Prop30
280
     1
102
RTVSPost2010PropOp30
 70
     1
102
RTVSPost2010Prop31
280
     0
102
RTVSPost2010PropOp31
 70
     1
102
RTVSPost2010Prop32
280
     0
102
RTVSPost2010PropOp32
 70
     1
102
RTVSPost2010Prop33
280
     0
102
RTVSPost2010PropOp33
 70
     1
102
RTVSPost2010Prop34
280
     0
102
RTVSPost2010PropOp34
 70
     1
102
RTVSPost2010Prop35
280
     0
102
RTVSPost2010PropOp35
 70
     1
102
RTVSPost2010Prop36
280
     0
102
RTVSPost2010PropOp36
 70
     1
102
RTVSPost2010Prop37
 90
       50
102
RTVSPost2010PropOp37
 70
     1
102
RTVSPost2010Prop38
140
0.0
102
RTVSPost2010PropOp38
 70
     1
102
RTVSPost2010Prop39
140
1.0
102
RTVSPost2010PropOp39
 70
     1
102
RTVSPost2010Prop40
 90
        0
102
RTVSPost2010PropOp40
 70
     1
102
RTVSPost2010Prop41ColorIndex
 90
       18
102
RTVSPost2010Prop41ColorRGB
 90
        0
102
RTVSPost2010PropOp41
 70
     1
102
RTVSPost2010Prop42
 90
       50
102
RTVSPost2010PropOp42
 70
     1
102
RTVSPost2010Prop43
 90
        3
102
RTVSPost2010PropOp43
 70
     1
102
RTVSPost2010Prop44ColorIndex
 90
        5
102
RTVSPost2010Prop44ColorRGB
 90
      255
102
RTVSPost2010PropOp44
 70
     1
102
RTVSPost2010Prop45
280
     0
102
RTVSPost2010PropOp45
 70
     1
102
RTVSPost2010Prop46
 90
       50
102
RTVSPost2010PropOp46
 70
     1
102
RTVSPost2010Prop47
 90
       50
102
RTVSPost2010PropOp47
 70
     1
102
RTVSPost2010Prop48
 90
       50
102
RTVSPost2010PropOp48
 70
     1
102
RTVSPost2010Prop49
280
     0
102
RTVSPost2010PropOp49
 70
     1
102
RTVSPost2010Prop50
 90
       50
102
RTVSPost2010PropOp50
 70
     1
102
RTVSPost2010Prop51ColorIndex
 90
      256
102
RTVSPost2010Prop51ColorRGB
 90
-16777216
102
RTVSPost2010PropOp51
 70
     0
102
RTVSPost2010Prop52
140
1.0
102
RTVSPost2010PropOp52
 70
     0
102
RTVSPost2010Prop53
 90
        2
102
RTVSPost2010PropOp53
 70
     1
102
RTVSPost2010Prop54
  1
strokes_ogs.tif
102
RTVSPost2010PropOp54
 70
     1
102
RTVSPost2010Prop55
280
     0
102
RTVSPost2010PropOp55
 70
     1
102
RTVSPost2010Prop56
140
1.0
102
RTVSPost2010PropOp56
 70
     1
102
RTVSPost2010Prop57
140
1.0
102
RTVSPost2010PropOp57
 70
     1
102
RTVSPropertyOp0
 70
     1
102
RTVSPropertyOp1
 70
     1
102
RTVSPropertyOp2
 70
     1
102
RTVSPropertyOp3
 70
     1
102
RTVSPropertyOp4
 70
     1
102
RTVSPropertyOp5
 70
     1
102
RTVSPropertyOp6
 70
     1
102
RTVSPropertyOp7
 70
     1
102
RTVSPropertyOp8
 70
     1
102
RTVSPropertyOp9
 70
     1
102
RTVSPropertyOp10
 70
     1
102
RTVSPropertyOp11
 70
     1
102
RTVSPropertyOp12
 70
     1
102
RTVSPropertyOp13
 70
     1
102
RTVSPropertyOp14
 70
     1
102
RTVSPropertyOp15
 70
     1
102
RTVSPropertyOp16
 70
     1
102
RTVSPropertyOp17
 70
     1
102
RTVSPropertyOp18
 70
     1
102
RTVSPropertyOp19
 70
     1
102
RTVSPropertyOp20
 70
     1
102
RTVSPropertyOp21
 70
     1
102
RTVSPropertyOp22
 70
     1
102
RTVSPropertyOp23
 70
     1
102
RTVSPropertyOp24
 70
     1
102
RTVSPropertyOp25
 70
     1
102
RTVSPropertyOp26
 70
     1
102
RTVSPropertyOp27
 70
     1
102
RTVSPropertyOp28
 70
     1
102
RTVSPropertyOp29
 70
     1
102
RTVSPropertyOp30
 70
     1
102
RTVSPropertyOp31
 70
     1
102
RTVSPropertyOp32
 70
     1
102
RTVSPropertyOp33
 70
     1
102
RTVSPropertyOp34
 70
     1
102
RTVSPropertyOp35
 70
     1
102
RTVSPropertyOp36
 70
     1
102
RTVSPropertyOp37
 70
     1
102
RTVSPropertyOp38
 70
     1
102
RTVSPropertyOp39
 70
     1
102
RTVSPropertyOp40
 70
     1
102
RTVSPropertyOp41
 70
     1
102
RTVSPropertyOp42
 70
     1
102
RTVSPropertyOp43
 70
     1
102
RTVSPropertyOp44
 70
     1
102
RTVSPropertyOp45
 70
     1
102
RTVSPropertyOp46
 70
     1
102
RTVSPropertyOp47
 70
     1
102
RTVSPropertyOp48
 70
     1
102
RTVSPropertyOp49
 70
     1
102
RTVSPropertyOp50
 70
     1
102
RTVSPropertyOp51
 70
     0
102
RTVSPropertyOp52
 70
     0
102
RTVSPropertyOp53
 70
     1
102
RTVSPropertyOp54
 70
     1
102
RTVSPropertyOp55
 70
     1
102
RTVSPropertyOp56
 70
     1
102
RTVSPropertyOp57
 70
     1
102
RTVSPropertyOp58
 70
     1
102
RTVSPropertyOp59
 70
     1
102
RTVSPropertyOp60
 70
     1
102
RTVSPropertyOp61
 70
     1
102
RTVSPropertyOp62
 70
     1
  0
XRECORD
  5
766
102
{ACAD_REACTORS
330
765
102
}
330
765
100
AcDbXrecord
280
     1
102
RTVSPost2010Prop28
280
     0
102
RTVSPost2010PropOp28
 70
     1
102
RTVSPost2010Prop29
280
     1
102
RTVSPost2010PropOp29
 70
     1
102
RTVSPost2010Prop30
280
     1
102
RTVSPost2010PropOp30
 70
     1
102
RTVSPost2010Prop31
280
     0
102
RTVSPost2010PropOp31
 70
     1
102
RTVSPost2010Prop32
280
     0
102
RTVSPost2010PropOp32
 70
     1
102
RTVSPost2010Prop33
280
     0
102
RTVSPost2010PropOp33
 70
     1
102
RTVSPost2010Prop34
280
     0
102
RTVSPost2010PropOp34
 70
     1
102
RTVSPost2010Prop35
280
     0
102
RTVSPost2010PropOp35
 70
     1
102
RTVSPost2010Prop36
280
     0
102
RTVSPost2010PropOp36
 70
     1
102
RTVSPost2010Prop37
 90
       50
102
RTVSPost2010PropOp37
 70
     1
102
RTVSPost2010Prop38
140
0.0
102
RTVSPost2010PropOp38
 70
     1
102
RTVSPost2010Prop39
140
1.0
102
RTVSPost2010PropOp39
 70
     1
102
RTVSPost2010Prop40
 90
        0
102
RTVSPost2010PropOp40
 70
     1
102
RTVSPost2010Prop41ColorIndex
 90
       18
102
RTVSPost2010Prop41ColorRGB
 90
        0
102
RTVSPost2010PropOp41
 70
     1
102
RTVSPost2010Prop42
 90
       50
102
RTVSPost2010PropOp42
 70
     1
102
RTVSPost2010Prop43
 90
        3
102
RTVSPost2010PropOp43
 70
     1
102
RTVSPost2010Prop44ColorIndex
 90
        5
102
RTVSPost2010Prop44ColorRGB
 90
      255
102
RTVSPost2010PropOp44
 70
     1
102
RTVSPost2010Prop45
280
     0
102
RTVSPost2010PropOp45
 70
     1
102
RTVSPost2010Prop46
 90
       50
102
RTVSPost2010PropOp46
 70
     1
102
RTVSPost2010Prop47
 90
       50
102
RTVSPost2010PropOp47
 70
     1
102
RTVSPost2010Prop48
 90
       50
102
RTVSPost2010PropOp48
 70
     1
102
RTVSPost2010Prop49
280
     0
102
RTVSPost2010PropOp49
 70
     1
102
RTVSPost2010Prop50
 90
       50
102
RTVSPost2010PropOp50
 70
     1
102
RTVSPost2010Prop51ColorIndex
 90
      256
102
RTVSPost2010Prop51ColorRGB
 90
-16777216
102
RTVSPost2010PropOp51
 70
     0
102
RTVSPost2010Prop52
140
1.0
102
RTVSPost2010PropOp52
 70
     0
102
RTVSPost2010Prop53
 90
        2
102
RTVSPost2010PropOp53
 70
     1
102
RTVSPost2010Prop54
  1
strokes_ogs.tif
102
RTVSPost2010PropOp54
 70
     1
102
RTVSPost2010Prop55
280
     0
102
RTVSPost2010PropOp55
 70
     1
102
RTVSPost2010Prop56
140
1.0
102
RTVSPost2010PropOp56
 70
     1
102
RTVSPost2010Prop57
140
1.0
102
RTVSPost2010PropOp57
 70
     1
102
RTVSPropertyOp0
 70
     1
102
RTVSPropertyOp1
 70
     1
102
RTVSPropertyOp2
 70
     1
102
RTVSPropertyOp3
 70
     1
102
RTVSPropertyOp4
 70
     1
102
RTVSPropertyOp5
 70
     1
102
RTVSPropertyOp6
 70
     1
102
RTVSPropertyOp7
 70
     1
102
RTVSPropertyOp8
 70
     1
102
RTVSPropertyOp9
 70
     1
102
RTVSPropertyOp10
 70
     1
102
RTVSPropertyOp11
 70
     1
102
RTVSPropertyOp12
 70
     1
102
RTVSPropertyOp13
 70
     1
102
RTVSPropertyOp14
 70
     1
102
RTVSPropertyOp15
 70
     1
102
RTVSPropertyOp16
 70
     1
102
RTVSPropertyOp17
 70
     1
102
RTVSPropertyOp18
 70
     1
102
RTVSPropertyOp19
 70
     1
102
RTVSPropertyOp20
 70
     1
102
RTVSPropertyOp21
 70
     1
102
RTVSPropertyOp22
 70
     1
102
RTVSPropertyOp23
 70
     1
102
RTVSPropertyOp24
 70
     1
102
RTVSPropertyOp25
 70
     1
102
RTVSPropertyOp26
 70
     1
102
RTVSPropertyOp27
 70
     1
102
RTVSPropertyOp28
 70
     1
102
RTVSPropertyOp29
 70
     1
102
RTVSPropertyOp30
 70
     1
102
RTVSPropertyOp31
 70
     1
102
RTVSPropertyOp32
 70
     1
102
RTVSPropertyOp33
 70
     1
102
RTVSPropertyOp34
 70
     1
102
RTVSPropertyOp35
 70
     1
102
RTVSPropertyOp36
 70
     1
102
RTVSPropertyOp37
 70
     1
102
RTVSPropertyOp38
 70
     1
102
RTVSPropertyOp39
 70
     1
102
RTVSPropertyOp40
 70
     1
102
RTVSPropertyOp41
 70
     1
102
RTVSPropertyOp42
 70
     1
102
RTVSPropertyOp43
 70
     1
102
RTVSPropertyOp44
 70
     1
102
RTVSPropertyOp45
 70
     1
102
RTVSPropertyOp46
 70
     1
102
RTVSPropertyOp47
 70
     1
102
RTVSPropertyOp48
 70
     1
102
RTVSPropertyOp49
 70
     1
102
RTVSPropertyOp50
 70
     1
102
RTVSPropertyOp51
 70
     0
102
RTVSPropertyOp52
 70
     0
102
RTVSPropertyOp53
 70
     1
102
RTVSPropertyOp54
 70
     1
102
RTVSPropertyOp55
 70
     1
102
RTVSPropertyOp56
 70
     1
102
RTVSPropertyOp57
 70
     1
102
RTVSPropertyOp58
 70
     1
102
RTVSPropertyOp59
 70
     1
102
RTVSPropertyOp60
 70
     1
102
RTVSPropertyOp61
 70
     1
102
RTVSPropertyOp62
 70
     1
  0
XRECORD
  5
75A
102
{ACAD_REACTORS
330
759
102
}
330
759
100
AcDbXrecord
280
     1
102
RTVSPost2010Prop28
280
     0
102
RTVSPost2010PropOp28
 70
     1
102
RTVSPost2010Prop29
280
     1
102
RTVSPost2010PropOp29
 70
     1
102
RTVSPost2010Prop30
280
     1
102
RTVSPost2010PropOp30
 70
     1
102
RTVSPost2010Prop31
280
     0
102
RTVSPost2010PropOp31
 70
     1
102
RTVSPost2010Prop32
280
     0
102
RTVSPost2010PropOp32
 70
     1
102
RTVSPost2010Prop33
280
     0
102
RTVSPost2010PropOp33
 70
     1
102
RTVSPost2010Prop34
280
     0
102
RTVSPost2010PropOp34
 70
     1
102
RTVSPost2010Prop35
280
     0
102
RTVSPost2010PropOp35
 70
     1
102
RTVSPost2010Prop36
280
     0
102
RTVSPost2010PropOp36
 70
     1
102
RTVSPost2010Prop37
 90
       50
102
RTVSPost2010PropOp37
 70
     1
102
RTVSPost2010Prop38
140
0.0
102
RTVSPost2010PropOp38
 70
     1
102
RTVSPost2010Prop39
140
1.0
102
RTVSPost2010PropOp39
 70
     1
102
RTVSPost2010Prop40
 90
        0
102
RTVSPost2010PropOp40
 70
     1
102
RTVSPost2010Prop41ColorIndex
 90
       18
102
RTVSPost2010Prop41ColorRGB
 90
        0
102
RTVSPost2010PropOp41
 70
     1
102
RTVSPost2010Prop42
 90
       50
102
RTVSPost2010PropOp42
 70
     1
102
RTVSPost2010Prop43
 90
        3
102
RTVSPost2010PropOp43
 70
     1
102
RTVSPost2010Prop44ColorIndex
 90
        5
102
RTVSPost2010Prop44ColorRGB
 90
      255
102
RTVSPost2010PropOp44
 70
     1
102
RTVSPost2010Prop45
280
     0
102
RTVSPost2010PropOp45
 70
     1
102
RTVSPost2010Prop46
 90
       50
102
RTVSPost2010PropOp46
 70
     1
102
RTVSPost2010Prop47
 90
       50
102
RTVSPost2010PropOp47
 70
     1
102
RTVSPost2010Prop48
 90
       50
102
RTVSPost2010PropOp48
 70
     1
102
RTVSPost2010Prop49
280
     0
102
RTVSPost2010PropOp49
 70
     1
102
RTVSPost2010Prop50
 90
       50
102
RTVSPost2010PropOp50
 70
     1
102
RTVSPost2010Prop51ColorIndex
 90
      256
102
RTVSPost2010Prop51ColorRGB
 90
-16777216
102
RTVSPost2010PropOp51
 70
     0
102
RTVSPost2010Prop52
140
1.0
102
RTVSPost2010PropOp52
 70
     0
102
RTVSPost2010Prop53
 90
        2
102
RTVSPost2010PropOp53
 70
     1
102
RTVSPost2010Prop54
  1
strokes_ogs.tif
102
RTVSPost2010PropOp54
 70
     1
102
RTVSPost2010Prop55
280
     0
102
RTVSPost2010PropOp55
 70
     1
102
RTVSPost2010Prop56
140
1.0
102
RTVSPost2010PropOp56
 70
     1
102
RTVSPost2010Prop57
140
1.0
102
RTVSPost2010PropOp57
 70
     1
102
RTVSPropertyOp0
 70
     1
102
RTVSPropertyOp1
 70
     1
102
RTVSPropertyOp2
 70
     1
102
RTVSPropertyOp3
 70
     1
102
RTVSPropertyOp4
 70
     1
102
RTVSPropertyOp5
 70
     1
102
RTVSPropertyOp6
 70
     1
102
RTVSPropertyOp7
 70
     1
102
RTVSPropertyOp8
 70
     1
102
RTVSPropertyOp9
 70
     1
102
RTVSPropertyOp10
 70
     1
102
RTVSPropertyOp11
 70
     1
102
RTVSPropertyOp12
 70
     1
102
RTVSPropertyOp13
 70
     1
102
RTVSPropertyOp14
 70
     1
102
RTVSPropertyOp15
 70
     1
102
RTVSPropertyOp16
 70
     1
102
RTVSPropertyOp17
 70
     1
102
RTVSPropertyOp18
 70
     1
102
RTVSPropertyOp19
 70
     1
102
RTVSPropertyOp20
 70
     1
102
RTVSPropertyOp21
 70
     1
102
RTVSPropertyOp22
 70
     1
102
RTVSPropertyOp23
 70
     1
102
RTVSPropertyOp24
 70
     1
102
RTVSPropertyOp25
 70
     1
102
RTVSPropertyOp26
 70
     1
102
RTVSPropertyOp27
 70
     1
102
RTVSPropertyOp28
 70
     1
102
RTVSPropertyOp29
 70
     1
102
RTVSPropertyOp30
 70
     1
102
RTVSPropertyOp31
 70
     1
102
RTVSPropertyOp32
 70
     1
102
RTVSPropertyOp33
 70
     1
102
RTVSPropertyOp34
 70
     1
102
RTVSPropertyOp35
 70
     1
102
RTVSPropertyOp36
 70
     1
102
RTVSPropertyOp37
 70
     1
102
RTVSPropertyOp38
 70
     1
102
RTVSPropertyOp39
 70
     1
102
RTVSPropertyOp40
 70
     1
102
RTVSPropertyOp41
 70
     1
102
RTVSPropertyOp42
 70
     1
102
RTVSPropertyOp43
 70
     1
102
RTVSPropertyOp44
 70
     1
102
RTVSPropertyOp45
 70
     1
102
RTVSPropertyOp46
 70
     1
102
RTVSPropertyOp47
 70
     1
102
RTVSPropertyOp48
 70
     1
102
RTVSPropertyOp49
 70
     1
102
RTVSPropertyOp50
 70
     1
102
RTVSPropertyOp51
 70
     0
102
RTVSPropertyOp52
 70
     0
102
RTVSPropertyOp53
 70
     1
102
RTVSPropertyOp54
 70
     1
102
RTVSPropertyOp55
 70
     1
102
RTVSPropertyOp56
 70
     1
102
RTVSPropertyOp57
 70
     1
102
RTVSPropertyOp58
 70
     1
102
RTVSPropertyOp59
 70
     1
102
RTVSPropertyOp60
 70
     1
102
RTVSPropertyOp61
 70
     1
102
RTVSPropertyOp62
 70
     1
  0
XRECORD
  5
772
102
{ACAD_REACTORS
330
771
102
}
330
771
100
AcDbXrecord
280
     1
102
RTVSPost2010Prop28
280
     0
102
RTVSPost2010PropOp28
 70
     1
102
RTVSPost2010Prop29
280
     1
102
RTVSPost2010PropOp29
 70
     1
102
RTVSPost2010Prop30
280
     1
102
RTVSPost2010PropOp30
 70
     1
102
RTVSPost2010Prop31
280
     0
102
RTVSPost2010PropOp31
 70
     1
102
RTVSPost2010Prop32
280
     0
102
RTVSPost2010PropOp32
 70
     1
102
RTVSPost2010Prop33
280
     0
102
RTVSPost2010PropOp33
 70
     1
102
RTVSPost2010Prop34
280
     0
102
RTVSPost2010PropOp34
 70
     1
102
RTVSPost2010Prop35
280
     0
102
RTVSPost2010PropOp35
 70
     1
102
RTVSPost2010Prop36
280
     0
102
RTVSPost2010PropOp36
 70
     1
102
RTVSPost2010Prop37
 90
       50
102
RTVSPost2010PropOp37
 70
     1
102
RTVSPost2010Prop38
140
0.0
102
RTVSPost2010PropOp38
 70
     1
102
RTVSPost2010Prop39
140
1.0
102
RTVSPost2010PropOp39
 70
     1
102
RTVSPost2010Prop40
 90
        0
102
RTVSPost2010PropOp40
 70
     1
102
RTVSPost2010Prop41ColorIndex
 90
       18
102
RTVSPost2010Prop41ColorRGB
 90
        0
102
RTVSPost2010PropOp41
 70
     1
102
RTVSPost2010Prop42
 90
       50
102
RTVSPost2010PropOp42
 70
     1
102
RTVSPost2010Prop43
 90
        3
102
RTVSPost2010PropOp43
 70
     1
102
RTVSPost2010Prop44ColorIndex
 90
        5
102
RTVSPost2010Prop44ColorRGB
 90
      255
102
RTVSPost2010PropOp44
 70
     1
102
RTVSPost2010Prop45
280
     0
102
RTVSPost2010PropOp45
 70
     1
102
RTVSPost2010Prop46
 90
       50
102
RTVSPost2010PropOp46
 70
     1
102
RTVSPost2010Prop47
 90
       50
102
RTVSPost2010PropOp47
 70
     1
102
RTVSPost2010Prop48
 90
       50
102
RTVSPost2010PropOp48
 70
     1
102
RTVSPost2010Prop49
280
     0
102
RTVSPost2010PropOp49
 70
     1
102
RTVSPost2010Prop50
 90
       50
102
RTVSPost2010PropOp50
 70
     1
102
RTVSPost2010Prop51ColorIndex
 90
      256
102
RTVSPost2010Prop51ColorRGB
 90
-16777216
102
RTVSPost2010PropOp51
 70
     0
102
RTVSPost2010Prop52
140
1.0
102
RTVSPost2010PropOp52
 70
     0
102
RTVSPost2010Prop53
 90
        2
102
RTVSPost2010PropOp53
 70
     1
102
RTVSPost2010Prop54
  1
strokes_ogs.tif
102
RTVSPost2010PropOp54
 70
     1
102
RTVSPost2010Prop55
280
     0
102
RTVSPost2010PropOp55
 70
     1
102
RTVSPost2010Prop56
140
1.0
102
RTVSPost2010PropOp56
 70
     1
102
RTVSPost2010Prop57
140
1.0
102
RTVSPost2010PropOp57
 70
     1
102
RTVSPropertyOp0
 70
     1
102
RTVSPropertyOp1
 70
     1
102
RTVSPropertyOp2
 70
     1
102
RTVSPropertyOp3
 70
     1
102
RTVSPropertyOp4
 70
     1
102
RTVSPropertyOp5
 70
     1
102
RTVSPropertyOp6
 70
     1
102
RTVSPropertyOp7
 70
     1
102
RTVSPropertyOp8
 70
     1
102
RTVSPropertyOp9
 70
     1
102
RTVSPropertyOp10
 70
     1
102
RTVSPropertyOp11
 70
     1
102
RTVSPropertyOp12
 70
     1
102
RTVSPropertyOp13
 70
     1
102
RTVSPropertyOp14
 70
     1
102
RTVSPropertyOp15
 70
     1
102
RTVSPropertyOp16
 70
     1
102
RTVSPropertyOp17
 70
     1
102
RTVSPropertyOp18
 70
     1
102
RTVSPropertyOp19
 70
     1
102
RTVSPropertyOp20
 70
     1
102
RTVSPropertyOp21
 70
     1
102
RTVSPropertyOp22
 70
     1
102
RTVSPropertyOp23
 70
     1
102
RTVSPropertyOp24
 70
     1
102
RTVSPropertyOp25
 70
     1
102
RTVSPropertyOp26
 70
     1
102
RTVSPropertyOp27
 70
     1
102
RTVSPropertyOp28
 70
     1
102
RTVSPropertyOp29
 70
     1
102
RTVSPropertyOp30
 70
     1
102
RTVSPropertyOp31
 70
     1
102
RTVSPropertyOp32
 70
     1
102
RTVSPropertyOp33
 70
     1
102
RTVSPropertyOp34
 70
     1
102
RTVSPropertyOp35
 70
     1
102
RTVSPropertyOp36
 70
     1
102
RTVSPropertyOp37
 70
     1
102
RTVSPropertyOp38
 70
     1
102
RTVSPropertyOp39
 70
     1
102
RTVSPropertyOp40
 70
     1
102
RTVSPropertyOp41
 70
     1
102
RTVSPropertyOp42
 70
     1
102
RTVSPropertyOp43
 70
     1
102
RTVSPropertyOp44
 70
     1
102
RTVSPropertyOp45
 70
     1
102
RTVSPropertyOp46
 70
     1
102
RTVSPropertyOp47
 70
     1
102
RTVSPropertyOp48
 70
     1
102
RTVSPropertyOp49
 70
     1
102
RTVSPropertyOp50
 70
     1
102
RTVSPropertyOp51
 70
     0
102
RTVSPropertyOp52
 70
     0
102
RTVSPropertyOp53
 70
     1
102
RTVSPropertyOp54
 70
     1
102
RTVSPropertyOp55
 70
     1
102
RTVSPropertyOp56
 70
     1
102
RTVSPropertyOp57
 70
     1
102
RTVSPropertyOp58
 70
     1
102
RTVSPropertyOp59
 70
     1
102
RTVSPropertyOp60
 70
     1
102
RTVSPropertyOp61
 70
     1
102
RTVSPropertyOp62
 70
     1
  0
ENDSEC
  0
EOF
