  0
SECTION
  2
HEADER
  9
$ACADVER
  1
AC1014
  9
$ACADMAINTVER
 70
     9
  9
$DWGCODEPAGE
  3
ANSI_1252
  9
$INSBASE
 10
25.90588703704244
 20
32.40420974051119
 30
0.0
  9
$EXTMIN
 10
-25.69963576174728
 20
16.40219020991709
 30
-0.0015258207003583
  9
$EXTMAX
 10
38.84279495734148
 20
46.50918254368519
 30
0.0000000349246037
  9
$LIMMIN
 10
0.0
 20
0.0
  9
$LIMMAX
 10
17.0
 20
11.0
  9
$ORTHOMODE
 70
     1
  9
$REGENMODE
 70
     1
  9
$FILLMODE
 70
     1
  9
$QTEXTMODE
 70
     0
  9
$MIRRTEXT
 70
     1
  9
$DRAGMODE
 70
     2
  9
$LTSCALE
 40
8.0
  9
$OSMODE
 70
    55
  9
$ATTMODE
 70
     1
  9
$TEXTSIZE
 40
0.2
  9
$TRACEWID
 40
0.05
  9
$TEXTSTYLE
  7
STANDARD
  9
$CLAYER
  8
0
  9
$CELTYPE
  6
BYLAYER
  9
$CECOLOR
 62
   256
  9
$CELTSCALE
 40
1.0
  9
$DELOBJ
 70
     1
  9
$DISPSILH
 70
     0
  9
$DIMSCALE
 40
12.0
  9
$DIMASZ
 40
0.1875
  9
$DIMEXO
 40
0.10625
  9
$DIMDLI
 40
0.6459999999999999
  9
$DIMRND
 40
0.0
  9
$DIMDLE
 40
0.0
  9
$DIMEXE
 40
0.306
  9
$DIMTP
 40
0.0
  9
$DIMTM
 40
0.0
  9
$DIMTXT
 40
0.125
  9
$DIMCEN
 40
0.153
  9
$DIMTSZ
 40
0.0
  9
$DIMTOL
 70
     0
  9
$DIMLIM
 70
     0
  9
$DIMTIH
 70
     1
  9
$DIMTOH
 70
     1
  9
$DIMSE1
 70
     0
  9
$DIMSE2
 70
     0
  9
$DIMTAD
 70
     0
  9
$DIMZIN
 70
     0
  9
$DIMBLK
  1
_FILLED
  9
$DIMASO
 70
     1
  9
$DIMSHO
 70
     1
  9
$DIMPOST
  1

  9
$DIMAPOST
  1

  9
$DIMALT
 70
     0
  9
$DIMALTD
 70
     2
  9
$DIMALTF
 40
25.4
  9
$DIMLFAC
 40
1.0
  9
$DIMTOFL
 70
     0
  9
$DIMTVP
 40
0.0
  9
$DIMTIX
 70
     0
  9
$DIMSOXD
 70
     0
  9
$DIMSAH
 70
     0
  9
$DIMBLK1
  1

  9
$DIMBLK2
  1

  9
$DIMSTYLE
  2
STANDARD
  9
$DIMCLRD
 70
     0
  9
$DIMCLRE
 70
     0
  9
$DIMCLRT
 70
     0
  9
$DIMTFAC
 40
1.0
  9
$DIMGAP
 40
0.09
  9
$DIMJUST
 70
     0
  9
$DIMSD1
 70
     0
  9
$DIMSD2
 70
     0
  9
$DIMTOLJ
 70
     1
  9
$DIMTZIN
 70
     0
  9
$DIMALTZ
 70
     0
  9
$DIMALTTZ
 70
     0
  9
$DIMFIT
 70
     3
  9
$DIMUPT
 70
     0
  9
$DIMUNIT
 70
     2
  9
$DIMDEC
 70
     4
  9
$DIMTDEC
 70
     4
  9
$DIMALTU
 70
     2
  9
$DIMALTTD
 70
     2
  9
$DIMTXSTY
  7
STANDARD
  9
$DIMAUNIT
 70
     0
  9
$LUNITS
 70
     2
  9
$LUPREC
 70
     4
  9
$SKETCHINC
 40
0.1
  9
$FILLETRAD
 40
0.0
  9
$AUNITS
 70
     0
  9
$AUPREC
 70
     0
  9
$MENU
  1
acad
  9
$ELEVATION
 40
0.0
  9
$PELEVATION
 40
0.0
  9
$THICKNESS
 40
0.0
  9
$LIMCHECK
 70
     0
  9
$BLIPMODE
 70
     0
  9
$CHAMFERA
 40
0.0
  9
$CHAMFERB
 40
0.0
  9
$CHAMFERC
 40
0.0
  9
$CHAMFERD
 40
0.0
  9
$SKPOLY
 70
     0
  9
$TDCREATE
 40
2453679.188597361
  9
$TDUPDATE
 40
2453685.623103889
  9
$TDINDWG
 40
0.0360746644
  9
$TDUSRTIMER
 40
0.0360746644
  9
$USRTIMER
 70
     1
  9
$ANGBASE
 50
0.0
  9
$ANGDIR
 70
     0
  9
$PDMODE
 70
     3
  9
$PDSIZE
 40
0.3125
  9
$PLINEWID
 40
0.0
  9
$COORDS
 70
     1
  9
$SPLFRAME
 70
     0
  9
$SPLINETYPE
 70
     6
  9
$SPLINESEGS
 70
     8
  9
$ATTDIA
 70
     0
  9
$ATTREQ
 70
     1
  9
$HANDLING
 70
 22529
  9
$HANDSEED
  5
DAE
  9
$SURFTAB1
 70
     6
  9
$SURFTAB2
 70
     6
  9
$SURFTYPE
 70
     6
  9
$SURFU
 70
     6
  9
$SURFV
 70
     6
  9
$UCSNAME
  2

  9
$UCSORG
 10
0.0
 20
0.0
 30
0.0
  9
$UCSXDIR
 10
1.0
 20
0.0
 30
0.0
  9
$UCSYDIR
 10
0.0
 20
1.0
 30
0.0
  9
$PUCSNAME
  2

  9
$PUCSORG
 10
0.0
 20
0.0
 30
0.0
  9
$PUCSXDIR
 10
1.0
 20
0.0
 30
0.0
  9
$PUCSYDIR
 10
0.0
 20
1.0
 30
0.0
  9
$USERI1
 70
     0
  9
$USERI2
 70
     0
  9
$USERI3
 70
     0
  9
$USERI4
 70
     0
  9
$USERI5
 70
     0
  9
$USERR1
 40
0.0
  9
$USERR2
 40
0.0
  9
$USERR3
 40
0.0
  9
$USERR4
 40
0.0
  9
$USERR5
 40
0.0
  9
$WORLDVIEW
 70
     1
  9
$SHADEDGE
 70
     3
  9
$SHADEDIF
 70
    70
  9
$TILEMODE
 70
     1
  9
$MAXACTVP
 70
    16
  9
$PINSBASE
 10
0.0
 20
0.0
 30
0.0
  9
$PLIMCHECK
 70
     0
  9
$PEXTMIN
 10
1.000000000000000E+20
 20
1.000000000000000E+20
 30
1.000000000000000E+20
  9
$PEXTMAX
 10
-1.000000000000000E+20
 20
-1.000000000000000E+20
 30
-1.000000000000000E+20
  9
$PLIMMIN
 10
0.0
 20
0.0
  9
$PLIMMAX
 10
12.0
 20
9.0
  9
$UNITMODE
 70
     0
  9
$VISRETAIN
 70
     0
  9
$PLINEGEN
 70
     1
  9
$PSLTSCALE
 70
     0
  9
$TREEDEPTH
 70
  3020
  9
$PICKSTYLE
 70
     1
  9
$CMLSTYLE
  2
STANDARD
  9
$CMLJUST
 70
     0
  9
$CMLSCALE
 40
1.0
  9
$PROXYGRAPHICS
 70
     1
  9
$MEASUREMENT
 70
     0
  0
ENDSEC
  0
SECTION
  2
CLASSES
  0
CLASS
  1
HATCH
  2
AcDbHatch
  3
AutoCAD 2000
 90
        0
280
     0
281
     1
  0
CLASS
  1
LWPOLYLINE
  2
AcDbPolyline
  3
AutoCAD 2000
 90
        0
280
     0
281
     1
  0
CLASS
  1
ACDBDICTIONARYWDFLT
  2
AcDbDictionaryWithDefault
  3
AutoCAD 2000
 90
        0
280
     0
281
     0
  0
CLASS
  1
ACDBPLACEHOLDER
  2
AcDbPlaceHolder
  3
AutoCAD 2000
 90
        0
280
     0
281
     0
  0
CLASS
  1
LAYOUT
  2
AcDbLayout
  3
AutoCAD 2000
 90
        0
280
     0
281
     0
  0
CLASS
  1
LONG_TRANSACTION
  2
AcDbLongTransaction
  3
AutoCAD 2000
 90
        0
280
     0
281
     0
  0
CLASS
  1
LWPOLYLINE
  2
AcDbPolyline
  3
AutoCAD 2000
 90
        0
280
     0
281
     1
  0
CLASS
  1
HATCH
  2
AcDbHatch
  3
AutoCAD 2000
 90
        0
280
     0
281
     1
  0
CLASS
  1
XRECORD
  2
AcDbXrecord
  3
AutoCAD 2000
 90
        0
280
     0
281
     0
  0
CLASS
  1
DICTIONARYVAR
  2
AcDbDictionaryVar
  3
AutoCAD 2000
 90
        0
280
     0
281
     0
  0
CLASS
  1
LONG_TRANSACTION
  2
AcDbLongTransaction
  3
AutoCAD 2000
 90
        0
280
     0
281
     0
  0
CLASS
  1
LWPOLYLINE
  2
AcDbPolyline
  3
AutoCAD 2000
 90
        0
280
     0
281
     1
  0
CLASS
  1
HATCH
  2
AcDbHatch
  3
AutoCAD 2000
 90
        0
280
     0
281
     1
  0
CLASS
  1
XRECORD
  2
AcDbXrecord
  3
AutoCAD 2000
 90
        0
280
     0
281
     0
  0
ENDSEC
  0
SECTION
  2
TABLES
  0
TABLE
  2
VPORT
  5
12
330
0
100
AcDbSymbolTable
 70
     3
  0
VPORT
  5
D8A
330
12
100
AcDbSymbolTableRecord
100
AcDbViewportTableRecord
  2
*ACTIVE
 70
     0
 10
0.0
 20
0.0
 11
1.0
 21
1.0
 12
6.571579473013585
 22
31.455686271187
 13
0.0
 23
0.0
 14
1.0
 24
1.0
 15
0.0
 25
0.0
 16
0.0
 26
0.0
 36
1.0
 17
0.0
 27
0.0
 37
0.0
 40
41.43943542119568
 41
1.786792452830188
 42
50.0
 43
0.0
 44
0.0
 50
0.0
 51
0.0
 71
     0
 72
   100
 73
     1
 74
     1
 75
     0
 76
     0
 77
     0
 78
     0
  0
ENDTAB
  0
TABLE
  2
LTYPE
  5
D
330
0
100
AcDbSymbolTable
 70
     4
  0
LTYPE
  5
E
330
D
100
AcDbSymbolTableRecord
100
AcDbLinetypeTableRecord
  2
BYBLOCK
 70
     0
  3

 72
    65
 73
     0
 40
0.0
  0
LTYPE
  5
F
330
D
100
AcDbSymbolTableRecord
100
AcDbLinetypeTableRecord
  2
BYLAYER
 70
     0
  3

 72
    65
 73
     0
 40
0.0
  0
LTYPE
  5
5
330
D
100
AcDbSymbolTableRecord
100
AcDbLinetypeTableRecord
  2
CONTINUOUS
 70
     0
  3
Solid line
 72
    65
 73
     0
 40
0.0
  0
LTYPE
  5
80A
330
D
100
AcDbSymbolTableRecord
100
AcDbLinetypeTableRecord
  2
CENTER
 70
     0
  3
____ _ ____ _ ____ _ ____ _ ____ _ ____ _ ____
 72
    65
 73
     4
 40
0.6
 49
0.375
 74
     0
 49
-0.075
 74
     0
 49
0.075
 74
     0
 49
-0.075
 74
     0
  0
LTYPE
  5
E9
330
D
100
AcDbSymbolTableRecord
100
AcDbLinetypeTableRecord
  2
HIDDEN
 70
     0
  3
- - - - - - - - - - - - - - - - - - - -
 72
    65
 73
     2
 40
0.2
 49
0.1
 74
     0
 49
-0.1
 74
     0
  0
LTYPE
  5
28B
330
D
100
AcDbSymbolTableRecord
100
AcDbLinetypeTableRecord
  2
DASHED
 70
     0
  3
- - - - - - - - - - - - - - - - - - - -
 72
    65
 73
     2
 40
0.2
 49
0.1
 74
     0
 49
-0.1
 74
     0
  0
ENDTAB
  0
TABLE
  2
LAYER
  5
A
330
0
100
AcDbSymbolTable
 70
     1
  0
LAYER
  5
4
330
A
100
AcDbSymbolTableRecord
100
AcDbLayerTableRecord
  2
0
 70
     0
 62
     7
  6
CONTINUOUS
  0
ENDTAB
  0
TABLE
  2
STYLE
  5
B
330
0
100
AcDbSymbolTable
 70
     1
  0
STYLE
  5
C
330
B
100
AcDbSymbolTableRecord
100
AcDbTextStyleTableRecord
  2
STANDARD
 70
     0
 40
0.0
 41
0.8
 50
0.0
 71
     0
 42
0.2
  3
txt
  4

  0
ENDTAB
  0
TABLE
  2
VIEW
  5
10
330
0
100
AcDbSymbolTable
 70
     0
  0
ENDTAB
  0
TABLE
  2
UCS
  5
11
330
0
100
AcDbSymbolTable
 70
     0
  0
ENDTAB
  0
TABLE
  2
APPID
  5
14
330
0
100
AcDbSymbolTable
 70
     1
  0
APPID
  5
15
330
14
100
AcDbSymbolTableRecord
100
AcDbRegAppTableRecord
  2
ACAD
 70
     0
  0
ENDTAB
  0
TABLE
  2
DIMSTYLE
  5
16
330
0
100
AcDbSymbolTable
 70
     1
  0
DIMSTYLE
105
1C
330
16
100
AcDbSymbolTableRecord
100
AcDbDimStyleTableRecord
  2
STANDARD
 70
     0
  3

  4

  5
_FILLED
  6
_FILLED
  7
_FILLED
 40
1.0
 41
0.1875
 42
0.0625
 43
0.38
 44
0.18
 45
0.0
 46
0.0
 47
0.00001
 48
0.00001
140
0.125
141
0.09
142
0.0
143
25.4
144
1.0
145
0.0
146
1.0
147
0.09
 71
     0
 72
     0
 73
     1
 74
     1
 75
     0
 76
     0
 77
     0
 78
     4
170
     0
171
     2
172
     0
173
     0
174
     0
175
     0
176
     0
177
     0
178
     0
270
     2
271
     4
272
     4
273
     2
274
     2
340
C
275
     0
280
     0
281
     0
282
     0
283
     1
284
     0
285
     0
286
     0
287
     3
288
     0
  0
ENDTAB
  0
TABLE
  2
BLOCK_RECORD
  5
1
330
0
100
AcDbSymbolTable
 70
     1
  0
BLOCK_RECORD
  5
2
102
{ACAD_XDICTIONARY
360
D44
102
}
330
1
100
AcDbSymbolTableRecord
100
AcDbBlockTableRecord
  2
*MODEL_SPACE
  0
BLOCK_RECORD
  5
7
102
{ACAD_XDICTIONARY
360
D46
102
}
330
1
100
AcDbSymbolTableRecord
100
AcDbBlockTableRecord
  2
*PAPER_SPACE
  0
BLOCK_RECORD
  5
1D
330
1
100
AcDbSymbolTableRecord
100
AcDbBlockTableRecord
  2
_FILLED
  0
ENDTAB
  0
ENDSEC
  0
SECTION
  2
BLOCKS
  0
BLOCK
  5
3
330
2
100
AcDbEntity
  8
0
100
AcDbBlockBegin
  2
*MODEL_SPACE
 70
     0
 10
0.0
 20
0.0
 30
0.0
  3
*MODEL_SPACE
  1

  0
ENDBLK
  5
6
330
2
100
AcDbEntity
  8
0
100
AcDbBlockEnd
  0
BLOCK
  5
8
330
7
100
AcDbEntity
 67
     1
  8
0
100
AcDbBlockBegin
  2
*PAPER_SPACE
 70
     0
 10
0.0
 20
0.0
 30
0.0
  3
*PAPER_SPACE
  1

  0
ENDBLK
  5
9
330
7
100
AcDbEntity
 67
     1
  8
0
100
AcDbBlockEnd
  0
BLOCK
  5
1F
330
1D
100
AcDbEntity
  8
0
100
AcDbBlockBegin
  2
_FILLED
 70
     0
 10
0.0
 20
0.0
 30
0.0
  3
_FILLED
  1

  0
SOLID
  5
1E
330
1D
100
AcDbEntity
  8
0
  6
BYBLOCK
 62
     0
100
AcDbTrace
 10
0.0
 20
0.0
 30
0.0
 11
-1.0
 21
0.1666666667
 31
0.0
 12
-1.0
 22
-0.1666666667
 32
0.0
 13
-1.0
 23
-0.1666666667
 33
0.0
  0
ENDBLK
  5
20
330
1D
100
AcDbEntity
  8
0
  6
BYBLOCK
 62
     0
100
AcDbBlockEnd
  0
ENDSEC
  0
SECTION
  2
ENTITIES
  0
LWPOLYLINE
  5
21
330
2
100
AcDbEntity
  8
0
  6
CONTINUOUS
100
AcDbPolyline
 90
       80
 70
     0
 43
0.0
 10
18.89310549624242
 20
23.51726531331117
 10
19.36166126584242
 20
23.51908374371119
 10
19.83215093304242
 20
23.52240064291119
 10
20.30306690584243
 20
23.52766410051118
 10
20.77225062104243
 20
23.53537046211119
 10
21.00596762264243
 20
23.54031603491117
 10
21.24120107864244
 20
23.54616718691116
 10
21.40016263384243
 20
23.55066555971116
 10
21.56201153144245
 20
23.55576086851118
 10
21.72784767704244
 20
23.56157305571119
 10
21.85537892664243
 20
23.56647307811118
 10
21.98549081304243
 20
23.57188405891119
 10
22.11816541944244
 20
23.57786465411119
 10
22.25443669304245
 20
23.58454712451117
 10
22.39508718424243
 20
23.59205761571119
 10
22.53884197784245
 20
23.60042417251119
 10
22.68421529944242
 20
23.60966894211117
 10
22.83093539704245
 20
23.61988858211118
 10
22.97884835224245
 20
23.63117517731119
 10
23.12705757304244
 20
23.64352802371119
 10
23.27448079384243
 20
23.65692322211118
 10
23.42003575384242
 20
23.67133687011116
 10
23.56287418744244
 20
23.68675605251117
 10
23.70308383224242
 20
23.70321179651119
 10
23.84082469784245
 20
23.72072593731118
 10
23.97560988344243
 20
23.73923959811119
 10
24.10693188984243
 20
23.75868890211119
 10
24.23484773304243
 20
23.77907068931119
 10
24.35955556504243
 20
23.80039698051119
 10
24.48125352824245
 20
23.82267979011119
 10
24.63912126104244
 20
23.85389001731118
 10
24.79211999864245
 20
23.88679729091119
 10
24.94037935384243
 20
23.92137680611119
 10
25.08405259864243
 20
23.95759965411117
 10
25.22338760664244
 20
23.99542048771118
 10
25.35865590904242
 20
24.03478985571119
 10
25.49013038104245
 20
24.07566735171119
 10
25.61808927544243
 20
24.11804877251118
 10
25.74281219704244
 20
24.16193896611119
 10
25.86456016664245
 20
24.20734197411118
 10
25.98351988504242
 20
24.25425862851119
 10
26.09985947224243
 20
24.30268895491117
 10
26.21374279544243
 20
24.35263627971116
 10
26.32531671864242
 20
24.40411711171118
 10
26.43472385464242
 20
24.45715126371115
 10
26.54207449144244
 20
24.5117409261112
 10
26.64734963384245
 20
24.56781781251118
 10
26.75049796344243
 20
24.6252960237112
 10
26.85146168984245
 20
24.68408623811118
 10
26.95015713784243
 20
24.7440854685112
 10
27.04649415544243
 20
24.80518731171119
 10
27.14044351384242
 20
24.86733413251119
 10
27.23221965304245
 20
24.93066337571116
 10
27.32209793144242
 20
24.9953612509112
 10
27.45391329464244
 20
25.09535843651116
 10
27.58273189304245
 20
25.19934356451119
 10
27.66728527544245
 20
25.27115141411119
 10
27.75108885784244
 20
25.3452572685112
 10
27.83443412984245
 20
25.42196914051115
 10
27.91745360024243
 20
25.50142540291119
 10
27.99964382904242
 20
25.5830858797112
 10
28.08034239704243
 20
25.6662407517112
 10
28.15889109784242
 20
25.75012305411116
 10
28.23464860024245
 20
25.83373722371115
 10
28.30697778424244
 20
25.9160305517112
 10
28.37538639544245
 20
25.99611409411119
 10
28.43996162584243
 20
26.07375399331115
 10
28.50093553144245
 20
26.14888016131115
 10
28.55853269784245
 20
26.2214694589112
 10
28.61294782424243
 20
26.29168656131119
 10
28.66436814904243
 20
26.35974308931119
 10
28.71294773144242
 20
26.42581041251119
 10
28.75870795864244
 20
26.4898988781112
 10
28.80163704664242
 20
26.55197858371119
 10
28.84185664824242
 20
26.6122978621112
 10
28.88002216184244
 20
26.67221801891119
 10
28.91692242904243
 20
26.73337860611118
 10
28.95320459704242
 20
26.7970278237112
 10
28.98894907704244
 20
26.8628484813112
 10
29.02409458584244
 20
26.93013203971119
  0
LWPOLYLINE
  5
73
330
2
100
AcDbEntity
  8
0
  6
CONTINUOUS
100
AcDbPolyline
 90
       70
 70
     0
 43
0.0
 10
33.00153908984245
 20
31.1235095117112
 10
33.00158635704242
 20
30.78753309571115
 10
33.00025929624244
 20
30.4867034957112
 10
32.99726754744245
 20
30.21787726211115
 10
32.99238271064243
 20
29.97788348771115
 10
32.98558364344243
 20
29.76520403491119
 10
32.97712558424243
 20
29.5787340125112
 10
32.96722782904243
 20
29.41308862371119
 10
32.95583481624243
 20
29.26055566051116
 10
32.94274351384244
 20
29.11508723171115
 10
32.92780185144243
 20
28.97349120931116
 10
32.91071395224243
 20
28.83241693571119
 10
32.89106574264244
 20
28.68869961731116
 10
32.86891047064244
 20
28.54323716451119
 10
32.84437314744244
 20
28.3971357053112
 10
32.81749175704244
 20
28.25073447811115
 10
32.78828287544245
 20
28.10421015331115
 10
32.75681235064245
 20
27.95794920611115
 10
32.72318288664244
 20
27.81243178851116
 10
32.68748277144244
 20
27.66799009571119
 10
32.64975759064245
 20
27.52474038691116
 10
32.61007985944245
 20
27.38288673571119
 10
32.56856064824244
 20
27.24273325251115
 10
32.52525326424245
 20
27.1043556909112
 10
32.48025910744245
 20
26.96796875171119
 10
32.43363263384245
 20
26.83362382531118
 10
32.38540634424242
 20
26.70131182531119
 10
32.33575783544245
 20
26.57140317571119
 10
32.28487054584245
 20
26.4442223165112
 10
32.23232873304245
 20
26.31864125091115
 10
32.17773892504244
 20
26.1937342333112
 10
32.12061348824242
 20
26.06839498531115
 10
32.06040782424244
 20
25.94154562531119
 10
31.99716595704242
 20
25.8134476269112
 10
31.93099692344245
 20
25.68445827171117
 10
31.86191617464243
 20
25.55472111651118
 10
31.78994576344244
 20
25.42438208451119
 10
31.71510807224244
 20
25.29357891331119
 10
31.63744473944243
 20
25.16247477571118
 10
31.55710536184244
 20
25.0313973213112
 10
31.47417848984241
 20
24.90055032611115
 10
31.38878760184245
 20
24.77017763971119
 10
31.30115273624243
 20
24.64064704451115
 10
31.21140642104242
 20
24.51217176931115
 10
31.11973672664243
 20
24.38502912291119
 10
31.02643284664245
 20
24.25961119331118
 10
30.93174642904244
 20
24.13622907011117
 10
30.83585340824242
 20
24.01507618211118
 10
30.73922475064245
 20
23.89669208931118
 10
30.64207147224244
 20
23.78126037411119
 10
30.54454573144242
 20
23.66888674371119
 10
30.44727272344245
 20
23.56019497571119
 10
30.35076904664242
 20
23.45562780291119
 10
30.25547664984244
 20
23.35552711811119
 10
30.16153563704245
 20
23.25989050211117
 10
30.06847880504244
 20
23.16810016451118
 10
29.97595274904245
 20
23.07969538051119
 10
29.88377386904243
 20
22.99440521411119
 10
29.79160626424244
 20
22.9118420765112
 10
29.69922082584243
 20
22.83174386531119
 10
29.60651453944242
 20
22.75397085731118
 10
29.51301067224244
 20
22.67808862851116
 10
29.41831716664245
 20
22.60377138691116
 10
29.32239530584245
 20
22.53098899171119
 10
29.22483293944245
 20
22.45943666851118
 10
29.12508012984243
 20
22.38874479971117
 10
29.02293336504245
 20
22.31881874211117
 10
28.91818703704243
 20
22.24956903011116
 10
28.81015318744245
 20
22.18060913571119
 10
28.69836449624244
 20
22.11173227971116
  0
LINE
  5
BB
330
2
100
AcDbEntity
  8
0
  6
CONTINUOUS
100
AcDbLine
 10
34.15588703704244
 20
16.53544273571118
 30
0.0
 11
34.15588703704244
 21
45.90420974051119
 31
0.0
  0
LINE
  5
BC
330
2
100
AcDbEntity
  8
0
  6
CONTINUOUS
100
AcDbLine
 10
34.40588703704245
 20
16.40420974051119
 30
0.0
 11
34.40588703704245
 21
45.90420974051119
 31
0.0
  0
LWPOLYLINE
  5
BD
330
2
100
AcDbEntity
  8
0
  6
CONTINUOUS
100
AcDbPolyline
 90
       40
 70
     0
 43
0.0
 10
-14.89024665095756
 20
27.84245544771119
 10
-14.87218712775757
 20
27.79200868611118
 10
-14.85320242215755
 20
27.73976527171118
 10
-14.83323601735757
 20
27.68566124291115
 10
-14.81224988935756
 20
27.62969094371115
 10
-14.79021063495756
 20
27.57186328931115
 10
-14.76708299815757
 20
27.5121857517112
 10
-14.74282429255757
 20
27.45066004931115
 10
-14.71738997735758
 20
27.3872864525112
 10
-14.69072687015756
 20
27.32205061091116
 10
-14.66274722215757
 20
27.25487967491119
 10
-14.63335464295758
 20
27.18568617091119
 10
-14.60244971175757
 20
27.11438662371119
 10
-14.56992088455757
 20
27.04091355491115
 10
-14.53565359335755
 20
26.96520349091119
 10
-14.50873447975757
 20
26.9069022061112
 10
-14.48067157575756
 20
26.84720498531118
 10
-14.45136342055758
 20
26.7860099069112
 10
-14.42070855495757
 20
26.72321505251119
 10
-14.38859974695755
 20
26.6587194045112
 10
-14.35490666215756
 20
26.59242555651118
 10
-14.31949319495754
 20
26.52423700611118
 10
-14.28222323975757
 20
26.4540572493112
 10
-14.24298107975758
 20
26.38183781571118
 10
-14.20173256935757
 20
26.30772235491119
 10
-14.15846395655757
 20
26.23190255331115
 10
-14.11316148615755
 20
26.15457009411119
 10
-14.06585150375755
 20
26.07596709571117
 10
-14.01672075975754
 20
25.9965374189112
 10
-13.96599609895756
 20
25.91677535811115
 10
-13.91390437415755
 20
25.8371752077112
 10
-13.84270072135754
 20
25.7320521517112
 10
-13.76992641895755
 20
25.62869302531117
 10
-13.69603787175756
 20
25.52769516771116
 10
-13.62133184615754
 20
25.42944401891119
 10
-13.54546656135755
 20
25.33347740291119
 10
-13.46794059495755
 20
25.23912124291115
 10
-13.38836397255758
 20
25.14585124131119
 10
-13.30679248615757
 20
25.05374222051119
 10
-13.22339337095755
 20
24.96301878371119
  0
LWPOLYLINE
  5
E7
330
2
100
AcDbEntity
  8
0
  6
HIDDEN
100
AcDbPolyline
 90
       56
 70
     0
 43
0.0
 10
-23.69731959175757
 20
32.40420974051119
 10
-23.69142531655758
 20
32.1106119085112
 10
-23.67345027975756
 20
31.77017733411119
 10
-23.64182010055755
 20
31.37713673571116
 10
-23.59337790695758
 20
30.9232867661112
 10
-23.52218961095755
 20
30.3941207693112
 10
-23.42430646375754
 20
29.80455551971116
 10
-23.31118862375754
 20
29.24122734211119
 10
-23.18777299495758
 20
28.72101169731115
 10
-23.05766897895755
 20
28.24821799971116
 10
-22.92049269255755
 20
27.81236605251118
 10
-22.77776031975756
 20
27.4115013965112
 10
-22.62818643335756
 20
27.03711879811118
 10
-22.47064122695755
 20
26.68289324451118
 10
-22.30520688615758
 20
26.34683849731115
 10
-22.12726595335757
 20
26.0184684781112
 10
-21.93590405095755
 20
25.69603453571119
 10
-21.72862126535755
 20
25.37590076931115
 10
-21.49862415495755
 20
25.04903850691118
 10
-21.24460833735756
 20
24.71560157411116
 10
-20.96433795655757
 20
24.37508644451119
 10
-20.65564751015756
 20
24.02714491011116
 10
-20.31903844295757
 20
23.67459890051117
 10
-19.96195418695758
 20
23.32660106371119
 10
-19.59067986695754
 20
22.98990263171118
 10
-19.21596143175757
 20
22.67390053571119
 10
-18.84454104295755
 20
22.38312745891117
 10
-18.47839033735755
 20
22.11772890851119
 10
-18.11492813255755
 20
21.87450972611117
 10
-17.75133833255755
 20
21.65064412611119
 10
-17.38260470695755
 20
21.44255508931117
 10
-17.00132852135756
 20
21.24611153571119
 10
-16.60637296295756
 20
21.06111320611118
 10
-16.20144436455754
 20
20.88914283651119
 10
-15.79246367015755
 20
20.73170703971119
 10
-15.37779463655755
 20
20.58755864611116
 10
-14.94507044295755
 20
20.45370689411119
 10
-14.50493191975755
 20
20.33500769411119
 10
-14.05895895015757
 20
20.23234192131118
 10
-13.60173052935755
 20
20.14479897891119
 10
-13.13393137095757
 20
20.07291849731119
 10
-12.70180659015756
 20
20.02187318531119
 10
-12.32890496775755
 20
19.98882636611119
 10
-12.00470614215754
 20
19.96790914691119
 10
-11.72055795975757
 20
19.95529190371117
 10
-11.46973760615755
 20
19.9482586381112
 10
-11.24689685415756
 20
19.94503906691119
 10
-11.04804378375755
 20
19.94443651811117
 10
-10.86974398855757
 20
19.94558650211119
 10
-10.70940663335757
 20
19.94787420291119
 10
-10.56485330695757
 20
19.95089663811119
 10
-10.43419803815756
 20
19.95436817411119
 10
-10.31593293095757
 20
19.95806444771119
 10
-10.20890553575755
 20
19.96183068291119
 10
-10.11196950695754
 20
19.96554110531117
 10
-9.944645398157547
 20
19.97235871331119
  0
LWPOLYLINE
  5
122
330
2
100
AcDbEntity
  8
0
  6
CONTINUOUS
100
AcDbPolyline
 90
       63
 70
     0
 43
0.0
 10
-23.69401104775758
 20
32.40420974051119
 10
-23.68948052135755
 20
32.14923172451119
 10
-23.67575418855756
 20
31.85867192931115
 10
-23.65194783175755
 20
31.52884672771119
 10
-23.61630248775755
 20
31.15487894531119
 10
-23.56589256935754
 20
30.72990395171117
 10
-23.49603833575756
 20
30.24486734531118
 10
-23.40606935975755
 20
29.72364873251118
 10
-23.30620219015757
 20
29.23293507331115
 10
-23.19829741895755
 20
28.77466690051119
 10
-23.08534833255754
 20
28.35406234531117
 10
-22.96679039175756
 20
27.9626527325112
 10
-22.84348608295755
 20
27.5983735261112
 10
-22.71623582055757
 20
27.2596860829112
 10
-22.58258478055755
 20
26.93718372611115
 10
-22.44308315815757
 20
26.6302992061112
 10
-22.29740384295757
 20
26.33691719331119
 10
-22.14182279015756
 20
26.04883921731115
 10
-21.97598669415757
 20
25.76541186691119
 10
-21.79881205255755
 20
25.4850664493112
 10
-21.60609275335755
 20
25.20189645571119
 10
-21.39365768775755
 20
24.91120334371117
 10
-21.16388667335755
 20
24.61765946051116
 10
-20.91235318535754
 20
24.31726186531119
 10
-20.63909531175757
 20
24.01159562851118
 10
-20.34416376615757
 20
23.70227809571119
 10
-20.03340804455754
 20
23.39634643651119
 10
-19.70986761735756
 20
23.09732021411119
 10
-19.38211181415755
 20
22.81304502051119
 10
-19.05380729255756
 20
22.54606627331119
 10
-18.73042305255756
 20
22.29994732291119
 10
-18.41014191335757
 20
22.07228566211119
 10
-18.09164611175757
 20
21.86132720131119
 10
-17.77295720935757
 20
21.6651485597112
 10
-17.45075639495755
 20
21.48136201731119
 10
-17.11952153095757
 20
21.30680982851116
 10
-16.77722791975756
 20
21.14071090851119
 10
-16.42610287655756
 20
20.98427819491119
 10
-16.06876145095755
 20
20.83822148611119
 10
-15.70956219175758
 20
20.70358223171119
 10
-15.34471972295757
 20
20.57871271651116
 10
-14.96476751495757
 20
20.46148639971116
 10
-14.57936782375756
 20
20.35599321251119
 10
-14.18975921895754
 20
20.26286395811119
 10
-13.79370733095754
 20
20.18174687491119
 10
-13.38637520615755
 20
20.11193928771119
 10
-12.97996364295755
 20
20.05559336931119
 10
-12.61639577095755
 20
20.01606080611119
 10
-12.29692355655754
 20
19.98915908291118
 10
-12.01402044135756
 20
19.97121417091119
 10
-11.76200986055756
 20
19.9597024157112
 10
-11.53629306375757
 20
19.95273125091117
 10
-11.33303069735757
 20
19.94900269251118
 10
-11.14939626695755
 20
19.94760923331119
 10
-10.98288279975754
 20
19.94787872611117
 10
-10.83137459495755
 20
19.94929844771118
 10
-10.69329442855755
 20
19.95150046851117
 10
-10.56718336935755
 20
19.95423412611119
 10
-10.45175091815757
 20
19.95731340131119
 10
-10.34594229415755
 20
19.96057947171117
 10
-10.24901049095757
 20
19.96392060291118
 10
-10.16012799495754
 20
19.96724784771119
 10
-9.935436948557551
 20
19.97638731011119
  0
LINE
  5
163
330
2
100
AcDbEntity
  8
0
  6
CONTINUOUS
100
AcDbLine
 10
-25.59411296295755
 20
16.40420974051119
 30
0.0
 11
-25.59411296295755
 21
45.90420974051119
 31
0.0
  0
LINE
  5
164
330
2
100
AcDbEntity
  8
0
  6
CONTINUOUS
100
AcDbLine
 10
-25.34411296295755
 20
16.53544273571118
 30
0.0
 11
-25.34411296295755
 21
45.90420974051119
 31
0.0
  0
LWPOLYLINE
  5
165
330
2
100
AcDbEntity
  8
0
  6
CONTINUOUS
100
AcDbPolyline
 90
        9
 70
     0
 43
0.0
 10
1.566039265842448
 20
32.40420974051119
 10
1.585642104242438
 20
31.32847517571116
 10
1.643935569842426
 20
30.26371855171118
 10
1.738738373042451
 20
29.22652910531116
 10
1.859664142642429
 20
28.27653515651116
 10
1.994451328242448
 20
27.43965120131119
 10
2.138303544242447
 20
26.69279654851115
 10
2.290071720242451
 20
26.01132377411116
 10
2.45027201464245
 20
25.37626317571116
  0
LWPOLYLINE
  5
170
330
2
100
AcDbEntity
  8
0
  6
CONTINUOUS
100
AcDbPolyline
 90
        9
 70
     0
 43
0.0
 10
2.917229837042427
 20
25.5462233197112
 10
2.728748189042448
 20
26.30902684291118
 10
2.559835603442451
 20
27.1059512237112
 10
2.412284989042447
 20
27.93613270851119
 10
2.288267189042429
 20
28.79557381891117
 10
2.189880017842426
 20
29.67804643011115
 10
2.118635657842446
 20
30.57844185411116
 10
2.075586053042428
 20
31.49139041251117
 10
2.06135044824245
 20
32.4042046925112
  0
LWPOLYLINE
  5
17B
330
2
100
AcDbEntity
  8
0
  6
CONTINUOUS
100
AcDbPolyline
 90
        6
 70
     0
 43
0.0
 10
-5.548722628557584
 20
21.28799133091119
 10
-3.85496355815755
 20
21.30164822531119
 10
-2.06674838375757
 20
21.31886841571119
 10
-0.1709080365575488
 20
21.34009773251119
 10
1.846540872242428
 20
21.3657817661112
 10
3.296741682980822
 20
21.38634915588102
  0
LWPOLYLINE
  5
183
330
2
100
AcDbEntity
  8
0
  6
CONTINUOUS
100
AcDbPolyline
 90
        3
 70
     0
 43
0.0
 10
11.12322659864244
 20
20.51893003811119
 10
-5.313829002957547
 20
20.09094196451119
 10
-9.594112962957552
 20
19.97858387491119
  0
LWPOLYLINE
  5
188
330
2
100
AcDbEntity
  8
0
  6
CONTINUOUS
100
AcDbPolyline
 90
       18
 70
     0
 43
0.0
 10
4.290468197042429
 20
22.56846539011117
 10
3.15046760184245
 20
22.53758814851116
 10
2.157684963442449
 20
22.50155357731117
 10
1.279335488242452
 20
22.45968797091119
 10
0.4813209506424272
 20
22.41269467331119
 10
-0.2503037437575699
 20
22.36349496931116
 10
-0.9195473437575714
 20
22.31466715491116
 10
-1.531841231757553
 20
22.26782025571118
 10
-2.095040386957549
 20
22.22387154851119
 10
-2.613533746957571
 20
22.18364185251118
 10
-3.100164103757549
 20
22.14704977891119
 10
-3.572222044557548
 20
22.11344926531117
 10
-4.039535470157574
 20
22.08262371331119
 10
-4.501530193357552
 20
22.05529568451119
 10
-4.960222132557561
 20
22.03224029251118
 10
-5.419942257357547
 20
22.01443354211119
 10
-5.887278914957548
 20
22.00331444931116
 10
-6.374486081357574
 20
22.00117661731118
  0
LINE
  5
19D
330
2
100
AcDbEntity
  8
0
  6
CONTINUOUS
100
AcDbLine
 10
34.40588703704245
 20
16.40420974051119
 30
0.0
 11
-25.59411296295755
 21
16.40420974051119
 31
0.0
  0
LINE
  5
19E
330
2
100
AcDbEntity
  8
0
  6
CONTINUOUS
100
AcDbLine
 10
34.15588703704244
 20
16.53544273571118
 30
0.0
 11
-25.34411296295755
 21
16.53544273571118
 31
0.0
  0
LWPOLYLINE
  5
1A0
330
2
100
AcDbEntity
  8
0
  6
CONTINUOUS
100
AcDbPolyline
 90
        3
 70
     0
 43
0.0
 10
1.854880094642439
 20
23.22164432131118
 10
2.135364099442426
 20
23.23545883011117
 10
2.599689488242447
 20
23.25907853091119
  0
LINE
  5
1A5
330
2
100
AcDbEntity
  8
0
  6
CONTINUOUS
100
AcDbLine
 10
-25.59411296295755
 20
16.53581727171119
 30
0.0
 11
-25.34411296295755
 21
16.53581727171119
 31
0.0
  0
LINE
  5
1A6
330
2
100
AcDbEntity
  8
0
  6
CONTINUOUS
100
AcDbLine
 10
-25.59411296295755
 20
17.75886748291117
 30
0.0
 11
-25.34411296295755
 21
17.75886748291117
 31
0.0
  0
LWPOLYLINE
  5
1A7
330
2
100
AcDbEntity
  8
0
  6
CONTINUOUS
100
AcDbPolyline
 90
       70
 70
     0
 43
0.0
 10
-13.22339337095755
 20
24.96301878371119
 10
-13.15561927495755
 20
24.89206610371116
 10
-13.08528405255756
 20
24.82137860131115
 10
-13.01233510535756
 20
24.75098483331118
 10
-12.93672792775754
 20
24.68091913091118
 10
-12.85845037255757
 20
24.61123894371116
 10
-12.77749838695757
 20
24.5420075021112
 10
-12.69386780775758
 20
24.47328992131119
 10
-12.60755403335755
 20
24.40515885891119
 10
-12.51855235495756
 20
24.33768885731119
 10
-12.42685323015757
 20
24.27094974531117
 10
-12.33242779015755
 20
24.20499247011119
 10
-12.23524233735756
 20
24.13986326531119
 10
-12.13525460455755
 20
24.07560391971117
 10
-12.03238806055755
 20
24.0122384541112
 10
-11.92655760295755
 20
23.94978644771117
 10
-11.81767228295754
 20
23.88826749571117
 10
-11.70561773095758
 20
23.8277012749112
 10
-11.59027372935756
 20
23.76810748131117
 10
-11.47152448135754
 20
23.70951064931119
 10
-11.34927187335755
 20
23.65195466851119
 10
-11.22342221895755
 20
23.59548826691117
 10
-11.09387235175755
 20
23.54015897091119
 10
-10.96048119495755
 20
23.48600950211118
 10
-10.82309819655755
 20
23.43308137891119
 10
-10.68158291815757
 20
23.38142228451118
 10
-10.53583540775757
 20
23.33110455011119
 10
-10.38576582695755
 20
23.28220667331119
 10
-10.23125957895754
 20
23.23480194531117
 10
-10.07210302375755
 20
23.18894284131118
 10
-9.908057761357554
 20
23.14467663171118
 10
-9.781661724557551
 20
23.11255223331117
 10
-9.652218338957553
 20
23.08137926851117
 10
-9.519564257357572
 20
23.05118657571117
 10
-9.383536129357551
 20
23.02200299651117
 10
-9.244018393357549
 20
22.99386662051119
 10
-9.101086631757553
 20
22.96685253411119
 10
-8.954864214157552
 20
22.94104507331118
 10
-8.805474511757552
 20
22.91652857571119
 10
-8.653061540557573
 20
22.89338252291119
 10
-8.497851895757548
 20
22.87166697411119
 10
-8.340092822157572
 20
22.85143713411119
 10
-8.180031559757551
 20
22.83274820451116
 10
-7.963534108557553
 20
22.81030689891119
 10
-7.744397954957548
 20
22.79074324131117
 10
-7.523637630157551
 20
22.77409734691116
 10
-7.30231270855755
 20
22.76038157891119
 10
-7.081662927757548
 20
22.74949732771119
 10
-6.86297306215755
 20
22.74131824291116
 10
-6.647237418957573
 20
22.73570366211116
 10
-6.434288415757549
 20
22.73245570691119
 10
-6.223668001357552
 20
22.73136218691119
 10
-6.014912836557584
 20
22.73222712451119
 10
-5.80753844295755
 20
22.7349193533112
 10
-5.601055052557569
 20
22.73932391651119
 10
-5.394802766157553
 20
22.74533719171118
 10
-5.187441132557552
 20
22.75290088931119
 10
-4.977459570957549
 20
22.76196805091119
 10
-4.817482754957552
 20
22.76972284451119
 10
-4.65536961735755
 20
22.77825322371117
 10
-4.491071007757568
 20
22.78753020611117
 10
-4.323592799757548
 20
22.79758366691119
 10
-4.152117364557568
 20
22.80843195331117
 10
-3.977478022157569
 20
22.81998843011119
 10
-3.800718724557569
 20
22.83215062851118
 10
-3.622075012557573
 20
22.84485772291118
 10
-3.381203564557551
 20
22.86254435331119
 10
-3.138282887757569
 20
22.88089067971118
 10
-2.894554386957551
 20
22.89967730851118
 10
-1.830740674957553
 20
22.98318465251119
  0
LWPOLYLINE
  5
1EF
330
2
100
AcDbEntity
  8
0
  6
CONTINUOUS
100
AcDbPolyline
 90
        9
 70
     0
 43
0.0
 10
-6.530365628557561
 20
21.31709069731118
 10
-6.418075655757547
 20
21.31071251971119
 10
-6.314823698957553
 20
21.30556045251118
 10
-6.219815308557571
 20
21.30142721571118
 10
-6.132337140557552
 20
21.29813971171118
 10
-6.051745588557551
 20
21.29555319651119
 10
-5.977457166157549
 20
21.29354647651119
 10
-5.909080423757572
 20
21.29200411811119
 10
-5.789774417357548
 20
21.28991180451119
  0
LINE
  5
1FE
330
2
100
AcDbEntity
  8
0
  6
HIDDEN
100
AcDbLine
 10
-9.518276812557573
 20
19.97695826211119
 30
0.0
 11
-9.546297482957569
 21
19.97652029731119
 31
0.0
  0
LINE
  5
1FF
330
2
100
AcDbEntity
  8
0
  6
CONTINUOUS
100
AcDbLine
 10
-9.530223441357549
 20
19.98044651651119
 30
0.0
 11
-9.57350642535755
 21
19.97988865731119
 31
0.0
  0
LWPOLYLINE
  5
200
330
2
100
AcDbEntity
  8
0
  6
CONTINUOUS
100
AcDbPolyline
 90
        4
 70
     0
 43
0.0
 10
-9.873098150157574
 20
19.97919810051119
 10
-9.863274882957568
 20
19.97876798851119
 10
-9.853612414157552
 20
19.97850152291118
 10
-9.844112962957552
 20
19.97843291171119
  0
LWPOLYLINE
  5
206
330
2
100
AcDbEntity
  8
0
  6
HIDDEN
100
AcDbPolyline
 90
        4
 70
     0
 43
0.0
 10
-9.873119706957552
 20
19.97553135011119
 10
-9.863301326157554
 20
19.97509832131119
 10
-9.853645737357553
 20
19.97483019011116
 10
-9.844156145357572
 20
19.97476077251119
  0
LINE
  5
20C
330
2
100
AcDbEntity
  8
0
  6
CONTINUOUS
100
AcDbLine
 10
-9.935436948557551
 20
19.97638731011119
 30
0.0
 11
-9.873098150157574
 21
19.97919810051119
 31
0.0
  0
LINE
  5
20D
330
2
100
AcDbEntity
  8
0
  6
HIDDEN
100
AcDbLine
 10
-9.944645398157547
 20
19.97235871331119
 30
0.0
 11
-9.873119706957552
 21
19.97553135011119
 31
0.0
  0
LINE
  5
20E
330
2
100
AcDbEntity
  8
0
  6
HIDDEN
100
AcDbLine
 10
-9.546297482957569
 20
19.97652029731119
 30
0.0
 11
-9.607408729357572
 21
19.97587062051118
 31
0.0
  0
LINE
  5
20F
330
2
100
AcDbEntity
  8
0
  6
CONTINUOUS
100
AcDbLine
 10
-9.57350642535755
 20
19.97988865731119
 30
0.0
 11
-9.66654321255757
 21
19.97913677571119
 31
0.0
  0
LINE
  5
210
330
2
100
AcDbEntity
  8
0
  6
HIDDEN
100
AcDbLine
 10
-9.607408729357572
 20
19.97587062051118
 30
0.0
 11
-9.72713445255755
 21
19.97517028931119
 31
0.0
  0
LINE
  5
211
330
2
100
AcDbEntity
  8
0
  6
HIDDEN
100
AcDbLine
 10
-9.727134551757572
 20
19.97517028931119
 30
0.0
 11
-9.844156145357572
 21
19.97476077251119
 31
0.0
  0
LINE
  5
212
330
2
100
AcDbEntity
  8
0
  6
CONTINUOUS
100
AcDbLine
 10
-9.66654321255757
 20
19.97913677571119
 30
0.0
 11
-9.844112962957552
 21
19.97843291171119
 31
0.0
  0
LINE
  5
213
330
2
100
AcDbEntity
  8
0
  6
CONTINUOUS
100
AcDbLine
 10
-9.504562711757571
 20
19.98095672931119
 30
0.0
 11
-9.513442306957571
 21
19.98074864291119
 31
0.0
  0
LINE
  5
214
330
2
100
AcDbEntity
  8
0
  6
HIDDEN
100
AcDbLine
 10
-9.504694196557551
 20
19.97726284291118
 30
0.0
 11
-9.518276812557573
 21
19.97695826211119
 31
0.0
  0
LINE
  5
215
330
2
100
AcDbEntity
  8
0
  6
CONTINUOUS
100
AcDbLine
 10
-9.513442306957571
 20
19.98074864291119
 30
0.0
 11
-9.530223441357549
 21
19.98044651651119
 31
0.0
  0
LWPOLYLINE
  5
217
330
2
100
AcDbEntity
  8
0
  6
CONTINUOUS
100
AcDbPolyline
 90
       18
 70
     0
 43
0.0
 10
-13.68264725415755
 20
24.46422020611118
 10
-13.53573603335755
 20
24.29506819971119
 10
-13.36371087975757
 20
24.1213992781112
 10
-13.16286655015756
 20
23.94302194531118
 10
-12.92891065095756
 20
23.75994295011119
 10
-12.65718097415756
 20
23.57260629571119
 10
-12.34270980455755
 20
23.38192903331119
 10
-11.98031158535757
 20
23.18934043971118
 10
-11.56546661575757
 20
22.99715516771116
 10
-11.09523092615756
 20
22.80873259331116
 10
-10.56910622215757
 20
22.62843287331119
 10
-9.989597466957548
 20
22.46133618211119
 10
-9.364534902157572
 20
22.31326222211116
 10
-8.712348217357572
 20
22.19088728611116
 10
-8.052954169357548
 20
22.09883063651119
 10
-7.425751010957569
 20
22.04056560931118
 10
-6.862987246157572
 20
22.01123497411117
 10
-6.374486081357574
 20
22.00117661731118
  0
LWPOLYLINE
  5
22B
330
2
100
AcDbEntity
  8
0
  6
CONTINUOUS
100
AcDbPolyline
 90
       18
 70
     0
 43
0.0
 10
-13.84219631975754
 20
24.34744518851118
 10
-13.62069526535755
 20
24.09055312291119
 10
-13.36681866535757
 20
23.82054042531119
 10
-13.09042576935755
 20
23.55409979011119
 10
-12.81025097255756
 20
23.31128298851119
 10
-12.52488940295757
 20
23.09010101411119
 10
-12.22439395655757
 20
22.88239743011119
 10
-11.90468112935758
 20
22.68621789891119
 10
-11.56279025735756
 20
22.50109502051118
 10
-11.19406901095754
 20
22.32623912291117
 10
-10.79385782855754
 20
22.16157992291118
 10
-10.35210916295756
 20
22.00579688291119
 10
-9.852836711757561
 20
21.8573645309112
 10
-9.281331540557573
 20
21.71531226531119
 10
-8.62643182535757
 20
21.57942079331118
 10
-7.901264103757569
 20
21.45915942371117
 10
-7.181379470157551
 20
21.37038817891117
 10
-6.530365628557561
 20
21.31709069731118
  0
LINE
  5
23F
330
2
100
AcDbEntity
  8
0
  6
CONTINUOUS
100
AcDbLine
 10
-13.74171242375757
 20
24.40420933731118
 30
0.0
 11
-13.68264629895756
 21
24.46422106051119
 31
0.0
  0
LWPOLYLINE
  5
240
330
2
100
AcDbEntity
  8
0
  6
CONTINUOUS
100
AcDbPolyline
 90
        4
 70
     0
 43
0.0
 10
-13.74170168775757
 20
24.40421884291119
 10
-13.77546436615756
 20
24.38487331971117
 10
-13.80898114535756
 20
24.36593923491119
 10
-13.84219631975754
 20
24.34744518851118
  0
LINE
  5
24F
330
2
100
AcDbEntity
  8
0
  6
CONTINUOUS
100
AcDbLine
 10
-5.612178446157571
 20
21.28810719811116
 30
0.0
 11
-5.548722628557584
 21
21.28799133091119
 31
0.0
  0
LINE
  5
250
330
2
100
AcDbEntity
  8
0
  6
CONTINUOUS
100
AcDbLine
 10
-5.691778308557573
 20
21.28871228451119
 30
0.0
 11
-5.612178446157571
 21
21.28810719811116
 31
0.0
  0
LINE
  5
251
330
2
100
AcDbEntity
  8
0
  6
CONTINUOUS
100
AcDbLine
 10
-5.789774417357548
 20
21.28991180451119
 30
0.0
 11
-5.691778308557573
 21
21.28871228451119
 31
0.0
  0
LINE
  5
252
330
2
100
AcDbEntity
  8
0
  6
CONTINUOUS
100
AcDbLine
 10
-0.6447197965575527
 20
23.07120244451118
 30
0.0
 11
-0.3872372877575714
 21
23.08888948611117
 31
0.0
  0
LINE
  5
253
330
2
100
AcDbEntity
  8
0
  6
CONTINUOUS
100
AcDbLine
 10
-1.830740674957553
 20
22.98318465251119
 30
0.0
 11
-1.50372739815755
 21
23.00840488291119
 31
0.0
  0
LINE
  5
254
330
2
100
AcDbEntity
  8
0
  6
CONTINUOUS
100
AcDbLine
 10
-1.50372739815755
 20
23.00840488291119
 30
0.0
 11
-1.200061794957548
 21
23.03126179171119
 31
0.0
  0
LINE
  5
255
330
2
100
AcDbEntity
  8
0
  6
CONTINUOUS
100
AcDbLine
 10
-1.200061794957548
 20
23.03126179171119
 30
0.0
 11
-0.9144090381575722
 21
23.05211585411119
 31
0.0
  0
LINE
  5
256
330
2
100
AcDbEntity
  8
0
  6
CONTINUOUS
100
AcDbLine
 10
-0.9144090381575722
 20
23.05211585411119
 30
0.0
 11
-0.6447197965575527
 21
23.07120244451118
 31
0.0
  0
LWPOLYLINE
  5
257
330
2
100
AcDbEntity
  8
0
  6
CONTINUOUS
100
AcDbPolyline
 90
       10
 70
     0
 43
0.0
 10
-0.3872372877575714
 20
23.08888948611117
 10
-0.0550107917575531
 20
23.11098518691119
 10
0.1091540434424303
 20
23.12159896611119
 10
0.3558133586424503
 20
23.13716927171118
 10
0.6038233842424461
 20
23.15236018531119
 10
0.8535471890424304
 20
23.16717731971118
 10
1.104349257842429
 20
23.18156947651117
 10
1.355356507442451
 20
23.19547464611119
 10
1.605744161842451
 20
23.20884440291119
 10
1.854880094642439
 20
23.22164432131118
  0
LWPOLYLINE
  5
265
330
2
100
AcDbEntity
  8
0
  6
CONTINUOUS
100
AcDbPolyline
 90
        4
 70
     0
 43
0.0
 10
14.16470797569404
 20
21.57071077231803
 10
17.07702152184244
 20
21.62760991171118
 10
20.32981780504245
 20
21.6944677197112
 10
23.96053043064245
 20
21.77297287971117
  0
LWPOLYLINE
  5
26B
330
2
100
AcDbEntity
  8
0
  6
CONTINUOUS
100
AcDbPolyline
 90
       20
 70
     0
 43
0.0
 10
25.46065492504244
 20
22.50762378371119
 10
25.11924327224242
 20
22.48231612131118
 10
24.78833419064243
 20
22.46670700611119
 10
24.45783069944244
 20
22.45731966531117
 10
24.12206481304242
 20
22.45218211811119
 10
23.77768024504244
 20
22.45002465251118
 10
23.42176586264243
 20
22.44995958531116
 10
23.05385183384244
 20
22.45132719811118
 10
22.66675494904242
 20
22.45366253091118
 10
22.24722568024245
 20
22.45693987651117
 10
21.78829591384244
 20
22.46140891811117
 10
21.29085922104243
 20
22.46729937571119
 10
20.75649145464244
 20
22.47485548131119
 10
20.18669015864245
 20
22.48433801571118
 10
19.56445562104242
 20
22.49637427651117
 10
18.87025095704243
 20
22.51160236931116
 10
18.08401228664244
 20
22.53069256131119
 10
17.22449295384242
 20
22.55335105891117
 10
16.39137088984244
 20
22.57666849571117
 10
14.74962232024245
 20
22.62394025251118
  0
LINE
  5
281
330
2
100
AcDbEntity
  8
0
  6
CONTINUOUS
100
AcDbLine
 10
22.78709754904242
 20
20.82369690851119
 30
0.0
 11
17.70298430584245
 21
20.69056378371119
 31
0.0
  0
LWPOLYLINE
  5
282
330
2
100
AcDbEntity
  8
0
  6
CONTINUOUS
100
AcDbPolyline
 90
        5
 70
     0
 43
0.0
 10
6.071871981264756
 20
21.42843108053148
 10
6.295923806642448
 20
21.43190308131116
 10
8.738853166642428
 20
21.47249034851118
 10
11.33095264184243
 20
21.51807236451119
 10
12.09114482084887
 20
21.53217553290887
  0
LWPOLYLINE
  5
289
330
2
100
AcDbEntity
  8
0
  6
DASHED
100
AcDbPolyline
 90
       11
 70
     0
 43
0.0
 10
11.13166281944244
 20
23.26570920131119
 10
10.82335952024244
 20
23.29774901251119
 10
10.51489866904245
 20
23.32824305091119
 10
10.20614510424245
 20
23.35720467011118
 10
9.897250571442427
 20
23.38461963491117
 10
9.588081003442439
 20
23.41049985091119
 10
9.278785811442446
 20
23.43483281091118
 10
8.969233955442447
 20
23.45762882371117
 10
8.659571805042446
 20
23.47887710691117
 10
8.349671243442429
 20
23.49858645251116
 10
8.039676918642427
 20
23.51674767171118
  0
LWPOLYLINE
  5
297
330
2
100
AcDbEntity
  8
0
  6
DASHED
100
AcDbPolyline
 90
       11
 70
     0
 43
0.0
 10
10.99981098264243
 20
22.09359193571118
 10
10.71500105624242
 20
22.12478089731119
 10
10.43002106104243
 20
22.15438469251118
 10
10.14470340184244
 20
22.1824204797112
 10
9.859234529842439
 20
22.20886969731118
 10
9.573467209842448
 20
22.23374591171119
 10
9.287566142642447
 20
22.25703470851116
 10
9.001406693042426
 20
22.27874631651118
 10
8.715130965042447
 20
22.29887003011119
 10
8.428636392242452
 20
22.31741330051116
 10
8.142044382642438
 20
22.33436851971116
  0
LINE
  5
2A4
330
2
100
AcDbEntity
  8
0
  6
CONTINUOUS
100
AcDbLine
 10
10.84409179384245
 20
23.49162568611119
 30
0.0
 11
11.36116430584245
 21
23.49736727811119
 31
0.0
  0
LWPOLYLINE
  5
2AA
330
2
100
AcDbEntity
  8
0
  6
DASHED
100
AcDbPolyline
 90
       50
 70
     0
 43
0.0
 10
8.039676925042428
 20
23.51674753091118
 10
7.896374797042426
 20
23.52302865891118
 10
7.752940821042429
 20
23.52581854211119
 10
7.609485037042446
 20
23.52512727811117
 10
7.48898087384245
 20
23.52186177251118
 10
7.368577848242452
 20
23.51615213571119
 10
7.248231293042451
 20
23.50799850851119
 10
7.128065005042429
 20
23.49740730851117
 10
6.96831143224243
 20
23.47951318051116
 10
6.809089096242431
 20
23.45730824771119
 10
6.650537985842447
 20
23.43080480131119
 10
6.532359896242439
 20
23.40815643491116
 10
6.41467444664245
 20
23.38310760611119
 10
6.297797193842427
 20
23.35572739011119
 10
6.181502825842429
 20
23.32596117891117
 10
6.066202093042448
 20
23.29391371491119
 10
5.951586051442447
 20
23.25949941411117
 10
5.838139152242447
 20
23.22286558531119
 10
5.725476590642429
 20
23.18388613891116
 10
5.614155949042427
 20
23.14275367171119
 10
5.503720803442448
 20
23.09929986851119
 10
5.394792185842447
 20
23.05377089091119
 10
5.286851061042426
 20
23.00594794531119
 10
5.180576158642452
 20
22.95613135811119
 10
5.07539189304245
 20
22.90405178051119
 10
4.972023997042427
 20
22.85007033411119
 10
4.86985044184243
 20
22.79386023651119
 10
4.769636656242425
 20
22.73584207331118
 10
4.670724358642431
 20
22.67563549251116
 10
4.573907187442429
 20
22.61372537891119
 10
4.478490677042429
 20
22.54966553571116
 10
4.385694814642448
 20
22.48429479331119
 10
4.294390317042427
 20
22.41683808131119
 10
4.204648523442429
 20
22.34730760611118
 10
4.11654077304243
 20
22.27571557091118
 10
4.031633491442448
 20
22.20337906531119
 10
3.948442217842426
 20
22.12907912451119
 10
3.867036654642447
 20
22.05283067011116
 10
3.787486507442451
 20
21.97464863011116
 10
3.711275488242449
 20
21.89604302691118
 10
3.636991835442429
 20
21.81561178371116
 10
3.564708102642427
 20
21.73337784291119
 10
3.494496853042448
 20
21.64936415011119
 10
3.427686472242427
 20
21.56521869731119
 10
3.363016077042431
 20
21.47941784771117
 10
3.300560221042431
 20
21.39199781251119
 10
3.240393457842429
 20
21.30299480131118
 10
3.190625576242439
 20
21.22535584451117
 10
3.142646904242425
 20
21.14660914691119
 10
3.096504763442439
 20
21.06678685251117
  0
LWPOLYLINE
  5
2DE
330
2
100
AcDbEntity
  8
0
  6
DASHED
100
AcDbPolyline
 90
       55
 70
     0
 43
0.0
 10
8.142044382642438
 20
22.33436851971116
 10
8.09195604024245
 20
22.33668172931119
 10
8.041828849842445
 20
22.33797731011117
 10
7.99152359384243
 20
22.33825626051118
 10
7.941223605042452
 20
22.33751503331117
 10
7.890828413042427
 20
22.33575074211118
 10
7.840479089842446
 20
22.33296681571118
 10
7.79011945144245
 20
22.3291597069112
 10
7.739847011442449
 20
22.32433631651119
 10
7.689646473842429
 20
22.31849574051119
 10
7.639573779442429
 20
22.31164497891117
 10
7.589624182642438
 20
22.30378395811119
 10
7.539842728242447
 20
22.29492028131119
 10
7.490215025842431
 20
22.28505135491117
 10
7.440795493042429
 20
22.27418790371119
 10
7.391573141042428
 20
22.26232726531117
 10
7.342598688242446
 20
22.24948134051119
 10
7.293879032242429
 20
22.23565194051117
 10
7.245446545842426
 20
22.22084817571119
 10
7.197322654642448
 20
22.20507674691118
 10
7.149524721842439
 20
22.18834341411118
 10
7.102081678642448
 20
22.17065838371117
 10
7.055002958642447
 20
22.15202516611118
 10
7.008324797042448
 20
22.13245810211118
 10
6.962048891442449
 20
22.11195783011119
 10
6.916221013042431
 20
22.09054464611119
 10
6.870832825842427
 20
22.06821459811119
 10
6.825939325042426
 20
22.04499479491117
 10
6.781522411442452
 20
22.02087585731119
 10
6.737644451442449
 20
21.99589168451119
 10
6.694279435442439
 20
21.97002743811118
 10
6.651496097842439
 20
21.94332412931119
 10
6.609261493042438
 20
21.91576114051119
 10
6.567650859442451
 20
21.88738760611117
 10
6.52662411704243
 20
21.85817616611119
 10
6.486262600242426
 20
21.82818480131119
 10
6.446519446642426
 20
21.79737871171119
 10
6.407479421042452
 20
21.76582362851117
 10
6.369091549042451
 20
21.73347834371119
 10
6.331441749042426
 20
21.70041516131119
 10
6.294477213042426
 20
21.66658759971119
 10
6.258286601842428
 20
21.63207672131119
 10
6.222813550642428
 20
21.59682870371119
 10
6.188152049842429
 20
21.5609371213112
 10
6.154239355442427
 20
21.52433720291119
 10
6.121170222642447
 20
21.48713144611119
 10
6.088880168242425
 20
21.44924759491117
 10
6.057455713842429
 20
21.41078684611119
 10
6.026839931442452
 20
21.37167926051118
 10
5.997113360242451
 20
21.33202700771117
 10
5.968224382642446
 20
21.29176065091118
 10
5.940262128242451
 20
21.25100472611116
 10
5.913164065842451
 20
21.20966843171119
 10
5.88703014424243
 20
21.16790615971119
 10
5.861786611442425
 20
21.12560247651117
  0
LINE
  5
317
330
2
100
AcDbEntity
  8
0
  6
CONTINUOUS
100
AcDbLine
 10
6.472186747442449
 20
23.43322304931119
 30
0.0
 11
7.04370804344245
 21
23.44156440771119
 31
0.0
  0
LWPOLYLINE
  5
318
330
2
100
AcDbEntity
  8
0
  6
CONTINUOUS
100
AcDbPolyline
 90
        2
 70
     0
 43
0.0
 10
4.514121112923398
 20
22.5735867640826
 10
4.290468197042429
 20
22.56846539011117
  0
LINE
  5
31C
330
2
100
AcDbEntity
  8
0
  6
DASHED
100
AcDbLine
 10
5.237107067442451
 20
21.04306804451118
 30
0.0
 11
3.582955987442446
 21
21.01505957091116
 31
0.0
  0
LWPOLYLINE
  5
31D
330
2
100
AcDbEntity
  8
0
  6
DASHED
100
AcDbPolyline
 90
       47
 70
     0
 43
0.0
 10
3.582955987442446
 20
21.01505957091116
 10
3.540473918642447
 20
21.01445242851116
 10
3.49980367864245
 20
21.01409182211119
 10
3.460991446642452
 20
21.0139656957112
 10
3.423975885042452
 20
21.01406229571119
 10
3.38876278584243
 20
21.01437121891119
 10
3.355306729842439
 20
21.01488350851117
 10
3.323645203442438
 20
21.01558994371116
 10
3.29372274584243
 20
21.01648396931119
 10
3.265564923442425
 20
21.01755806691119
 10
3.239165457842446
 20
21.01880628611118
 10
3.214507213042452
 20
21.02022452291119
 10
3.191632294642445
 20
21.02180621731119
 10
3.170515014642447
 20
21.02355024291117
 10
3.151209776242438
 20
21.02545052931118
 10
3.142463504242428
 20
21.02643229891119
 10
3.133727957042452
 20
21.02750539171118
 10
3.125908368242448
 20
21.02855770691118
 10
3.118103313842439
 20
21.02971240611118
 10
3.111238891442425
 20
21.03083114691119
 10
3.104394293042446
 20
21.03206619651119
 10
3.09849543224243
 20
21.03324884131119
 10
3.092626123442428
 20
21.03456808131119
 10
3.087728217842439
 20
21.03580918371119
 10
3.082872646642428
 20
21.03721129091118
 10
3.078988240242452
 20
21.03850116931117
 10
3.075181185842438
 20
21.03999612931116
 10
3.072341870642446
 20
21.04133581891119
 10
3.069622792242427
 20
21.04291790531117
 10
3.068380837042425
 20
21.04379620771119
 10
3.067241632242428
 20
21.04479773251117
 10
3.066268259442452
 20
21.04597117411118
 10
3.065697243442428
 20
21.04697005731117
 10
3.065315590642427
 20
21.04804606051119
 10
3.065186873842449
 20
21.04915507171119
 10
3.065368469042439
 20
21.05031283971119
 10
3.065818477042427
 20
21.05142547811119
 10
3.066454541042446
 20
21.05246015971118
 10
3.067548766642445
 20
21.05375777731117
 10
3.068798185842439
 20
21.05488228291119
 10
3.070148033842428
 20
21.05588486691117
 10
3.073172571442427
 20
21.05777282371117
 10
3.076337171442446
 20
21.05941801251118
 10
3.080674025842426
 20
21.06134574051118
 10
3.085101237042451
 20
21.06305592931116
 10
3.090773907442439
 20
21.06501006851117
 10
3.096503889842452
 20
21.06678719331117
  0
LWPOLYLINE
  5
34E
330
2
100
AcDbEntity
  8
0
  6
DASHED
100
AcDbPolyline
 90
        9
 70
     0
 43
0.0
 10
5.738016027442427
 20
21.08752815811119
 10
5.753157707442426
 20
21.09244733251117
 10
5.76832236344245
 20
21.09729564291119
 10
5.783508942642427
 20
21.10207515491117
 10
5.798716397042426
 20
21.10678792931119
 10
5.814454347442449
 20
21.11159062371119
 10
5.830212609842448
 20
21.11632606211117
 10
5.845990318642449
 20
21.12099607171118
 10
5.861786611442425
 20
21.12560247651117
  0
LWPOLYLINE
  5
359
330
2
100
AcDbEntity
  8
0
  6
DASHED
100
AcDbPolyline
 90
       26
 70
     0
 43
0.0
 10
5.738016027442427
 20
21.08752815811119
 10
5.73328591224245
 20
21.08606739331119
 10
5.728515454642447
 20
21.08474111331119
 10
5.722645312242448
 20
21.08325260131118
 10
5.716747219442439
 20
21.08188027331117
 10
5.709726577842445
 20
21.08036970531117
 10
5.702684317042439
 20
21.07896269091119
 10
5.694535288242448
 20
21.07744228771119
 10
5.686369406642427
 20
21.07601530051118
 10
5.66792616664243
 20
21.07307182051119
 10
5.647439105842451
 20
21.07015326211116
 10
5.625079662642448
 20
21.06728922211117
 10
5.601059136242426
 20
21.06450864611119
 10
5.575566617842426
 20
21.06183327011119
 10
5.548776704242428
 20
21.05928064931116
 10
5.521017792242446
 20
21.05687920771116
 10
5.492560542642451
 20
21.05464669571117
 10
5.463649947442448
 20
21.05259532451118
 10
5.434488003442439
 20
21.05073185891119
 10
5.40528913944243
 20
21.04906205251118
 10
5.376189625842428
 20
21.04758579171117
 10
5.347381608242429
 20
21.04630492451117
 10
5.318952648242429
 20
21.04521563491118
 10
5.291049918642428
 20
21.04431620931116
 10
5.263725949042452
 20
21.04360141731119
 10
5.237107067442451
 20
21.04306804451118
  0
LWPOLYLINE
  5
375
330
2
100
AcDbEntity
  8
0
  6
CONTINUOUS
100
AcDbPolyline
 90
        3
 70
     0
 43
0.0
 10
4.322673830642429
 20
23.37171505731119
 10
4.441890517042452
 20
23.37499745731119
 10
4.527728733042451
 20
23.37739481091119
  0
LWPOLYLINE
  5
37A
330
2
100
AcDbEntity
  8
0
  6
CONTINUOUS
100
AcDbPolyline
 90
       30
 70
     0
 43
0.0
 10
2.91722988184243
 20
25.5462233357112
 10
2.944722531442451
 20
25.45088023011115
 10
2.981555544242439
 20
25.34569606051116
 10
3.028365320242428
 20
25.23022488131116
 10
3.086523549042439
 20
25.10346479971116
 10
3.157829272242452
 20
24.96475546371115
 10
3.245475605042429
 20
24.81230531331116
 10
3.35294114264245
 20
24.6459729901112
 10
3.477126856242449
 20
24.47622689731119
 10
3.609427081842426
 20
24.31741482851117
 10
3.743177206642428
 20
24.17672564931119
 10
3.871141033842448
 20
24.05720174691117
 10
3.989058813042447
 20
23.95738545251119
 10
4.097124457842426
 20
23.87333160131119
 10
4.196234374642429
 20
23.80189747651118
 10
4.286968857842438
 20
23.74099586531116
 10
4.369952453042429
 20
23.68899426691119
 10
4.445757118642447
 20
23.64461766211118
 10
4.514929078642438
 20
23.60682945411119
 10
4.577949808242451
 20
23.57478853731119
 10
4.63526871864245
 20
23.54778660771118
 10
4.687325323442451
 20
23.52521010371118
 10
4.734505425842428
 20
23.50653994851117
 10
4.777158913842427
 20
23.49132557731118
 10
4.815611462642451
 20
23.47916799811119
 10
4.850180384242449
 20
23.46970666371119
 10
4.881161040242446
 20
23.46261807971116
 10
4.908814038642447
 20
23.45761165891117
 10
4.933407206642428
 20
23.45441639011116
 10
4.955172637042451
 20
23.45278503811119
  0
LINE
  5
39A
330
2
100
AcDbEntity
  8
0
  6
CONTINUOUS
100
AcDbLine
 10
3.596526145842446
 20
23.32334945571119
 30
0.0
 11
3.979451832242446
 21
23.35326937571119
 31
0.0
  0
LINE
  5
39B
330
2
100
AcDbEntity
  8
0
  6
CONTINUOUS
100
AcDbLine
 10
3.369212117042451
 20
23.30666759331119
 30
0.0
 11
3.596526145842446
 21
23.32334945571119
 31
0.0
  0
LINE
  5
39C
330
2
100
AcDbEntity
  8
0
  6
CONTINUOUS
100
AcDbLine
 10
3.195337987442428
 20
23.29470666851119
 30
0.0
 11
3.369212117042451
 21
23.30666759331119
 31
0.0
  0
LINE
  5
39D
330
2
100
AcDbEntity
  8
0
  6
CONTINUOUS
100
AcDbLine
 10
3.018907766642428
 20
23.28332129091119
 30
0.0
 11
3.195337987442428
 21
23.29470666851119
 31
0.0
  0
LINE
  5
39E
330
2
100
AcDbEntity
  8
0
  6
CONTINUOUS
100
AcDbLine
 10
2.840302696242446
 20
23.27254087971118
 30
0.0
 11
3.018907766642428
 21
23.28332129091119
 31
0.0
  0
LINE
  5
39F
330
2
100
AcDbEntity
  8
0
  6
CONTINUOUS
100
AcDbLine
 10
2.599689488242447
 20
23.25907853091119
 30
0.0
 11
2.840302696242446
 21
23.27254087971118
 31
0.0
  0
LWPOLYLINE
  5
3A0
330
2
100
AcDbEntity
  8
0
  6
CONTINUOUS
100
AcDbPolyline
 90
        8
 70
     0
 43
0.0
 10
3.979451832242446
 20
23.35326937571119
 10
4.011012779442452
 20
23.35569484771116
 10
4.042546981042448
 20
23.35796951971117
 10
4.074061317042449
 20
23.36009071811119
 10
4.105554613042428
 20
23.36205635651117
 10
4.136993467442451
 20
23.36386667811119
 10
4.168336419442439
 20
23.36552250371117
 10
4.199546254642427
 20
23.36702621411117
  0
LINE
  5
3AA
330
2
100
AcDbEntity
  8
0
  6
CONTINUOUS
100
AcDbLine
 10
4.199546254642427
 20
23.36702621411117
 30
0.0
 11
4.261489893042451
 21
23.3696132237112
 31
0.0
  0
LINE
  5
3AB
330
2
100
AcDbEntity
  8
0
  6
CONTINUOUS
100
AcDbLine
 10
4.261489893042451
 20
23.3696132237112
 30
0.0
 11
4.322673830642429
 21
23.37171505731119
 31
0.0
  0
LWPOLYLINE
  5
3AC
330
2
100
AcDbEntity
  8
0
  6
CONTINUOUS
100
AcDbPolyline
 90
       21
 70
     0
 43
0.0
 10
2.60006336184243
 20
23.25821648771119
 10
2.594836232242428
 20
23.27491521411118
 10
2.589110480242439
 20
23.30356511811119
 10
2.582939006642448
 20
23.34396745091119
 10
2.576357528242439
 20
23.39588581091119
 10
2.56943140024245
 20
23.45874620291118
 10
2.56217805784243
 20
23.53232669251116
 10
2.554601937842448
 20
23.61661995331118
 10
2.546769387442452
 20
23.71094339331119
 10
2.538730681842451
 20
23.81470343651119
 10
2.53055844984243
 20
23.92693412611119
 10
2.522283086642445
 20
24.04717848931119
 10
2.513914563442426
 20
24.17531333411119
 10
2.505516902642426
 20
24.31040134851119
 10
2.497147557042438
 20
24.45152990851116
 10
2.488883352242439
 20
24.5973687933112
 10
2.480744910642428
 20
24.74751416451116
 10
2.472745672242439
 20
24.9017486397112
 10
2.464956465842448
 20
25.05874799011115
 10
2.457426323442447
 20
25.21752781891118
 10
2.45027200664245
 20
25.37626317571116
  0
LWPOLYLINE
  5
3C3
330
2
100
AcDbEntity
  8
0
  6
CONTINUOUS
100
AcDbPolyline
 90
        3
 70
     0
 43
0.0
 10
5.905887037042447
 20
23.42395403011116
 10
6.188331360242429
 20
23.42873249731118
 10
6.472186747442449
 20
23.43322304931119
  0
LINE
  5
3C8
330
2
100
AcDbEntity
  8
0
  6
CONTINUOUS
100
AcDbLine
 10
4.859923301042428
 20
23.39232969411119
 30
0.0
 11
5.015015285042451
 21
23.39878421251119
 31
0.0
  0
LINE
  5
3C9
330
2
100
AcDbEntity
  8
0
  6
CONTINUOUS
100
AcDbLine
 10
5.015015285042451
 20
23.39878421251119
 30
0.0
 11
5.17391774584243
 21
23.40472864291119
 31
0.0
  0
LINE
  5
3CA
330
2
100
AcDbEntity
  8
0
  6
CONTINUOUS
100
AcDbLine
 10
5.17391774584243
 20
23.40472864291119
 30
0.0
 11
5.336620613042427
 21
23.41013799651119
 31
0.0
  0
LINE
  5
3CB
330
2
100
AcDbEntity
  8
0
  6
CONTINUOUS
100
AcDbLine
 10
5.336620613042427
 20
23.41013799651119
 30
0.0
 11
5.447182089842428
 21
23.41343580931119
 31
0.0
  0
LINE
  5
3CC
330
2
100
AcDbEntity
  8
0
  6
CONTINUOUS
100
AcDbLine
 10
5.447182089842428
 20
23.41343580931119
 30
0.0
 11
5.559406955442426
 21
23.41647486531118
 31
0.0
  0
LINE
  5
3CD
330
2
100
AcDbEntity
  8
0
  6
CONTINUOUS
100
AcDbLine
 10
5.559406955442426
 20
23.41647486531118
 30
0.0
 11
5.673292827442452
 21
23.41924659971118
 31
0.0
  0
LINE
  5
3CE
330
2
100
AcDbEntity
  8
0
  6
CONTINUOUS
100
AcDbLine
 10
5.673292827442452
 20
23.41924659971118
 30
0.0
 11
5.788819294642451
 21
23.42174269571118
 31
0.0
  0
LINE
  5
3CF
330
2
100
AcDbEntity
  8
0
  6
CONTINUOUS
100
AcDbLine
 10
5.788819294642451
 20
23.42174269571118
 30
0.0
 11
5.905887037042447
 21
23.42395403011116
 31
0.0
  0
LWPOLYLINE
  5
3D0
330
2
100
AcDbEntity
  8
0
  6
CONTINUOUS
100
AcDbPolyline
 90
        3
 70
     0
 43
0.0
 10
4.569253406642445
 20
23.37882112611116
 10
4.589645873842428
 20
23.37965903171117
 10
4.708560918642447
 20
23.3854530813112
  0
LINE
  5
3D5
330
2
100
AcDbEntity
  8
0
  6
CONTINUOUS
100
AcDbLine
 10
4.527728733042451
 20
23.37739481091119
 30
0.0
 11
4.569253406642445
 21
23.37882112611116
 31
0.0
  0
LINE
  5
3D6
330
2
100
AcDbEntity
  8
0
  6
CONTINUOUS
100
AcDbLine
 10
4.708560918642447
 20
23.3854530813112
 30
0.0
 11
4.859923301042428
 21
23.39232969411119
 31
0.0
  0
LINE
  5
3D7
330
2
100
AcDbEntity
  8
0
  6
CONTINUOUS
100
AcDbLine
 10
10.43221997464245
 20
23.48664852451119
 30
0.0
 11
10.84409179384245
 21
23.49162568611119
 31
0.0
  0
LWPOLYLINE
  5
3D8
330
2
100
AcDbEntity
  8
0
  6
CONTINUOUS
100
AcDbPolyline
 90
        2
 70
     0
 43
0.0
 10
8.84989323552967
 20
23.46581770120465
 10
9.801211747442451
 20
23.47852963811119
  0
LINE
  5
3DC
330
2
100
AcDbEntity
  8
0
  6
CONTINUOUS
100
AcDbLine
 10
9.801211747442451
 20
23.47852963811119
 30
0.0
 11
10.43221997464245
 21
23.48664852451119
 31
0.0
  0
LINE
  5
3DF
330
2
100
AcDbEntity
  8
0
  6
CONTINUOUS
100
AcDbLine
 10
17.70298430584245
 20
20.69056378371119
 30
0.0
 11
11.12322659864244
 21
20.51893003811119
 31
0.0
  0
LINE
  5
3E0
330
2
100
AcDbEntity
  8
0
  6
CONTINUOUS
100
AcDbLine
 10
14.86816729144244
 20
23.51654140291118
 30
0.0
 11
15.55517088184243
 21
23.51716573731118
 31
0.0
  0
LWPOLYLINE
  5
3E1
330
2
100
AcDbEntity
  8
0
  6
DASHED
100
AcDbPolyline
 90
       51
 70
     0
 43
0.0
 10
14.37497249624245
 20
21.25775686051119
 10
14.33427789464242
 20
21.32351296131119
 10
14.29232552504243
 20
21.38847743171119
 10
14.24908448504243
 20
21.45269753891119
 10
14.20462048504242
 20
21.51607607011119
 10
14.15889151384244
 20
21.57867270371116
 10
14.11197368984241
 20
21.64038355971119
 10
14.06381697144245
 20
21.7012740957112
 10
14.01450789304244
 20
21.76123519811119
 10
13.96398734104244
 20
21.82033848771119
 10
13.91235234744245
 20
21.87847071651118
 10
13.85953490584245
 20
21.93570818691117
 10
13.80564249144242
 20
21.99193467971119
 10
13.75059822104245
 20
22.04723017731119
 10
13.69451982264244
 20
22.10147663811119
 10
13.63732172344242
 20
22.15475662851119
 10
13.57913162904245
 20
22.20695139811118
 10
13.51985561304245
 20
22.25814500451119
 10
13.45963089944243
 20
22.30821911651119
 10
13.39835564984241
 20
22.35725823971117
 10
13.33617606744245
 20
22.4051455309112
 10
13.27298294424243
 20
22.45196494371117
 10
13.20893080824242
 20
22.49760213891117
 10
13.14390373624245
 20
22.54213957251118
 10
13.07806382424244
 20
22.58546635971116
 10
13.01128917304242
 20
22.62766259331118
 10
12.94374860504243
 20
22.66862171171119
 10
12.87531508504243
 20
22.70842064451119
 10
12.80616322584243
 20
22.74695794851119
 10
12.73616176184243
 20
22.78430667971119
 10
12.66549009944245
 20
22.82037120931116
 10
12.59401370424242
 20
22.85522011011116
 10
12.52191572504244
 20
22.88876416771118
 10
12.44905938584244
 20
22.92106694531119
 10
12.37563046584244
 20
22.95204614371118
 10
12.30149097464244
 20
22.98175991651119
 10
12.22682821624245
 20
23.01013325571119
 10
12.15150410744245
 20
23.03721858531119
 10
12.07570628344242
 20
23.06294848291119
 10
11.99929765464244
 20
23.08736944451119
 10
11.92246502584242
 20
23.11042180291117
 10
11.84507342584242
 20
23.13214602211118
 10
11.76730767224245
 20
23.15249025891118
 10
11.68903590744243
 20
23.17148898371117
 10
11.61043979864244
 20
23.18909811491117
 10
11.53139173624242
 20
23.20534622211118
 10
11.45206943064243
 20
23.22019681731116
 10
11.37235071704245
 20
23.2336727725112
 10
11.29240668984245
 20
23.24574511651118
 10
11.21212090744243
 20
23.25643141251119
 10
11.13166281944244
 20
23.26570920131119
  0
LWPOLYLINE
  5
416
330
2
100
AcDbEntity
  8
0
  6
CONTINUOUS
100
AcDbPolyline
 90
        3
 70
     0
 43
0.0
 10
14.74962232024245
 20
22.62394025251118
 10
13.82358108984244
 20
22.64872441091117
 10
12.94442658310232
 20
22.66821056054013
  0
LINE
  5
41B
330
2
100
AcDbEntity
  8
0
  6
DASHED
100
AcDbLine
 10
13.74619552344245
 20
21.18714591971117
 30
0.0
 11
12.72607977944242
 21
21.16987308131119
 31
0.0
  0
LWPOLYLINE
  5
41C
330
2
100
AcDbEntity
  8
0
  6
DASHED
100
AcDbPolyline
 90
       34
 70
     0
 43
0.0
 10
12.72607977944242
 20
21.16987308131119
 10
12.70027582904244
 20
21.16951821571119
 10
12.67429623704242
 20
21.16932783971118
 10
12.64827781624242
 20
21.16930836291119
 10
12.62227446584245
 20
21.16946579171119
 10
12.59642666424243
 20
21.16980593091119
 10
12.57080695864245
 20
21.17033522691119
 10
12.54557728664242
 20
21.17105849411119
 10
12.52086095224244
 20
21.17198084611119
 10
12.49685966104244
 20
21.17310359971119
 10
12.47372062904244
 20
21.17442884611119
 10
12.45163922424242
 20
21.17595478851116
 10
12.44124427864242
 20
21.17677616451119
 10
12.43085557944245
 20
21.17767305891119
 10
12.42121835064244
 20
21.17858101891119
 10
12.41158926264245
 20
21.17957146531119
 10
12.40276978104245
 20
21.18056182051118
 10
12.39396105944244
 20
21.18164380131119
 10
12.38604916824245
 20
21.18270784291117
 10
12.37815188504242
 20
21.18387477891117
 10
12.37125188344242
 20
21.18499720931116
 10
12.36437168984243
 20
21.18623640611119
 10
12.35855554264245
 20
21.18740007651119
 10
12.35276828344243
 20
21.18869660931119
 10
12.34804952664242
 20
21.18988700771119
 10
12.34337165944244
 20
21.19123614851119
 10
12.33974506904245
 20
21.19244308131119
 10
12.33619186904245
 20
21.19383716771119
 10
12.33449196504244
 20
21.19461103331119
 10
12.33283546904245
 20
21.19547846211119
 10
12.33123872184243
 20
21.19647375331119
 10
12.33020337624245
 20
21.19724479171117
 10
12.32926430424242
 20
21.19811777731119
 10
12.32848250584243
 20
21.19911947651117
  0
LWPOLYLINE
  5
440
330
2
100
AcDbEntity
  8
0
  6
DASHED
100
AcDbPolyline
 90
       43
 70
     0
 43
0.0
 10
12.29563835384245
 20
21.23454195811119
 10
12.27766633464244
 20
21.26758356291119
 10
12.25890104664244
 20
21.30018386691119
 10
12.23929907544246
 20
21.33241313891119
 10
12.21892589624244
 20
21.36415980131118
 10
12.19774481304244
 20
21.39547863011117
 10
12.17581606264244
 20
21.42627879491119
 10
12.15311354424243
 20
21.45659636611117
 10
12.12969031864244
 20
21.48636058691117
 10
12.10552721464245
 20
21.51559659011118
 10
12.08067263544243
 20
21.5442470813112
 10
12.05509498584243
 20
21.57234868611119
 10
12.02885621944244
 20
21.59983402691119
 10
12.00190781784245
 20
21.62675338211117
 10
11.97432948984244
 20
21.65302703011116
 10
11.94606683704245
 20
21.67870634211119
 10
11.91720673464244
 20
21.70371233571118
 10
11.88769354104245
 20
21.72809310691119
 10
11.85761667064243
 20
21.75177502691117
 10
11.82691568024245
 20
21.77480564291117
 10
11.79568577304245
 20
21.7971137965112
 10
11.76385996504242
 20
21.81874722851117
 10
11.73154077304243
 20
21.83963641411119
 10
11.69865523544243
 20
21.85982834531118
 10
11.66531251064245
 20
21.87925606371119
 10
11.63143460344242
 20
21.89796480611117
 10
11.59713627544245
 20
21.91589118371119
 10
11.56233913144242
 20
21.93307608131117
 10
11.52715888024243
 20
21.94946243331119
 10
11.49152183704242
 20
21.96508474691118
 10
11.45553950104245
 20
21.97989446851116
 10
11.41913492344242
 20
21.99392336131117
 10
11.38242307704244
 20
22.00712731651119
 10
11.34531097784243
 20
22.01953926051119
 10
11.30792959864243
 20
22.03111496451117
 10
11.27018374264243
 20
22.04188329251118
 10
11.23220668504242
 20
22.05180566051119
 10
11.19393164504244
 20
22.06089984771119
 10
11.15546409464243
 20
22.06914118691119
 10
11.11677117784245
 20
22.07653810531118
 10
11.07792374424242
 20
22.08307839491119
 10
11.03892408504245
 20
22.08876406211119
 10
10.99981098264243
 20
22.09359193571118
  0
LWPOLYLINE
  5
46D
330
2
100
AcDbEntity
  8
0
  6
DASHED
100
AcDbPolyline
 90
       42
 70
     0
 43
0.0
 10
14.37497249624245
 20
21.25775686051119
 10
14.37647162424242
 20
21.25675131011119
 10
14.37787776184242
 20
21.25561783331116
 10
14.37913164184244
 20
21.25429369091119
 10
14.37987536504245
 20
21.25322833731117
 10
14.38042566104245
 20
21.25206809091119
 10
14.38069272504245
 20
21.25084219171118
 10
14.38062854264242
 20
21.24966361891117
 10
14.38029782264244
 20
21.24850404771119
 10
14.37976197464244
 20
21.24741448291119
 10
14.37881874104245
 20
21.24612737571119
 10
14.37768869944243
 20
21.24501037091119
 10
14.37644208984242
 20
21.24401712771118
 10
14.37371133784245
 20
21.24221632291117
 10
14.37084075384244
 20
21.24066383971117
 10
14.36699084184245
 20
21.23890579331118
 10
14.36304835544243
 20
21.23735731971119
 10
14.35813480504243
 20
21.23565061891119
 10
14.35316850424244
 20
21.23410887331118
 10
14.34724184024244
 20
21.23244518051119
 10
14.34127728024245
 20
21.23092072291119
 10
14.33438024184243
 20
21.22930077891119
 10
14.32745661944243
 20
21.22779926531116
 10
14.31179039864242
 20
21.22475148291119
 10
14.29431644984242
 20
21.22177672291118
 10
14.27511948504245
 20
21.21888394051117
 10
14.25421359384245
 20
21.21607190531119
 10
14.23165036344242
 20
21.21334642691118
 10
14.20746875864244
 20
21.21071211331118
 10
14.18165435224244
 20
21.20816910051117
 10
14.15426720664243
 20
21.20572610531117
 10
14.12526709464243
 20
21.20338347811119
 10
14.09467999384244
 20
21.2011486349112
 10
14.06249878424245
 20
21.19902714851119
 10
14.02868795064245
 20
21.19702411651118
 10
13.99328673144245
 20
21.19515010051117
 10
13.95622629304244
 20
21.19341076931117
 10
13.91754062104245
 20
21.19181817891116
 10
13.87717886584245
 20
21.19038170691119
 10
13.83517304504245
 20
21.18911509571118
 10
13.79151439704244
 20
21.18803159011119
 10
13.74619552344245
 20
21.18714591971117
  0
LINE
  5
499
330
2
100
AcDbEntity
  8
0
  6
CONTINUOUS
100
AcDbLine
 10
12.97066201944242
 20
23.51034466051119
 30
0.0
 11
13.36908404664242
 21
23.51235200931118
 31
0.0
  0
LINE
  5
49A
330
2
100
AcDbEntity
  8
0
  6
CONTINUOUS
100
AcDbLine
 10
12.56099317144244
 20
23.50780223491119
 30
0.0
 11
12.97066201944242
 21
23.51034466051119
 31
0.0
  0
LINE
  5
49B
330
2
100
AcDbEntity
  8
0
  6
CONTINUOUS
100
AcDbLine
 10
11.36116430584245
 20
23.49736727811119
 30
0.0
 11
11.70952465944245
 21
23.50085744611119
 31
0.0
  0
LINE
  5
49C
330
2
100
AcDbEntity
  8
0
  6
CONTINUOUS
100
AcDbLine
 10
11.70952465944245
 20
23.50085744611119
 30
0.0
 11
12.13886003544244
 21
23.50464643651119
 31
0.0
  0
LINE
  5
49D
330
2
100
AcDbEntity
  8
0
  6
CONTINUOUS
100
AcDbLine
 10
12.13886003544244
 20
23.50464643651119
 30
0.0
 11
12.56099317144244
 21
23.50780223491119
 31
0.0
  0
LINE
  5
49E
330
2
100
AcDbEntity
  8
0
  6
CONTINUOUS
100
AcDbLine
 10
13.36908404664242
 20
23.51235200931118
 30
0.0
 11
13.88570918904241
 21
23.51433707011119
 31
0.0
  0
LINE
  5
49F
330
2
100
AcDbEntity
  8
0
  6
CONTINUOUS
100
AcDbLine
 10
13.88570918904241
 20
23.51433707011119
 30
0.0
 11
14.38580398424242
 21
23.51568521411118
 31
0.0
  0
LINE
  5
4A0
330
2
100
AcDbEntity
  8
0
  6
CONTINUOUS
100
AcDbLine
 10
14.38580398424242
 20
23.51568521411118
 30
0.0
 11
14.86816729144244
 21
23.51654140291118
 31
0.0
  0
LINE
  5
4A1
330
2
100
AcDbEntity
  8
0
  6
CONTINUOUS
100
AcDbLine
 10
16.60723625464243
 20
23.51719214531116
 30
0.0
 11
18.41962307544243
 21
23.51653533251119
 31
0.0
  0
LWPOLYLINE
  5
4A2
330
2
100
AcDbEntity
  8
0
  6
CONTINUOUS
100
AcDbPolyline
 90
        3
 70
     0
 43
0.0
 10
15.55517088184243
 20
23.51716573731118
 10
16.40478806584243
 20
23.51724977571119
 10
16.60723625464243
 20
23.51719214531116
  0
LINE
  5
4A7
330
2
100
AcDbEntity
  8
0
  6
CONTINUOUS
100
AcDbLine
 10
18.41962307544243
 20
23.51653533251119
 30
0.0
 11
18.89310549624242
 21
23.51726531331117
 31
0.0
  0
LWPOLYLINE
  5
4A8
330
2
100
AcDbEntity
  8
0
  6
CONTINUOUS
100
AcDbPolyline
 90
       15
 70
     0
 43
0.0
 10
25.46065492504244
 20
22.50762378371119
 10
25.78751591864242
 20
22.54351458851118
 10
26.13411970424245
 20
22.59776359971118
 10
26.46944448344243
 20
22.66909193571119
 10
26.79939820024245
 20
22.75869545091119
 10
27.13203442264244
 20
22.86871244611117
 10
27.46242186104243
 20
22.99818005571118
 10
27.78157780024243
 20
23.14367396291119
 10
28.08091684664245
 20
23.30034047811119
 10
28.35218249944245
 20
23.46185981891119
 10
28.59248602264244
 20
23.62395111491119
 10
28.80847920344243
 20
23.78912313411119
 10
29.01329657144243
 20
23.96634587331119
 10
29.22160697304242
 20
24.16976845731119
 10
29.44422577944244
 20
24.41252098691117
  0
LWPOLYLINE
  5
4B9
330
2
100
AcDbEntity
  8
0
  6
CONTINUOUS
100
AcDbPolyline
 90
       35
 70
     0
 43
0.0
 10
28.69811547864244
 20
22.11198129891117
 10
28.58424777464245
 20
22.04455784611117
 10
28.46538627224243
 20
21.97660991491119
 10
28.34156465624244
 20
21.90828381251118
 10
28.21350392184243
 20
21.84005939971119
 10
28.08277820024242
 20
21.77277536611117
 10
27.95230834104243
 20
21.70793941571119
 10
27.82447063544245
 20
21.64672581731119
 10
27.69951705784242
 20
21.58916448451118
 10
27.57678801944244
 20
21.53485021091118
 10
27.45578309304242
 20
21.48347911011116
 10
27.33612790744244
 20
21.43482226211119
 10
27.21747447704243
 20
21.38867806691119
 10
27.09952715064241
 20
21.34488264451118
 10
26.98202723224244
 20
21.30330212291116
 10
26.86475076664243
 20
21.26382885891119
 10
26.74754783544244
 20
21.22639100131117
 10
26.63031926584243
 20
21.19093952291119
 10
26.51297686264245
 20
21.15743314531119
 10
26.39545166104243
 20
21.12583978211117
 10
26.27762412024245
 20
21.09611810531116
 10
26.15930290584245
 20
21.06821692611116
 10
26.04042697144242
 20
21.04212374691118
 10
25.92099376024243
 20
21.01784013251119
 10
25.80086492664245
 20
20.99534226051119
 10
25.67991781144245
 20
20.97461653891119
 10
25.55812067224245
 20
20.95566939651119
 10
25.43540887224244
 20
20.93850375971119
 10
25.31167801944244
 20
20.92312081731118
 10
25.18688731704244
 20
20.90953350211119
 10
25.06093006904242
 20
20.89775048131119
 10
24.93359936184244
 20
20.88777854851119
 10
24.80474440344242
 20
20.87963949411118
 10
24.67461885144244
 20
20.87337741091118
 10
24.54378246584242
 20
20.86903993731118
  0
LWPOLYLINE
  5
4DE
330
2
100
AcDbEntity
  8
0
  6
CONTINUOUS
100
AcDbPolyline
 90
        8
 70
     0
 43
0.0
 10
29.44075431384245
 20
24.31570285891119
 10
29.28341718744245
 20
24.14279364451118
 10
29.12102575224243
 20
23.9738466461112
 10
28.95045277944243
 20
23.80644942051117
 10
28.76722681624242
 20
23.63764652451119
 10
28.56077049944243
 20
23.46072739971118
 10
28.31413861144243
 20
23.26715064771117
 10
28.03426783064244
 20
23.06915464771118
  0
LINE
  5
4ED
330
2
100
AcDbEntity
  8
0
  6
CONTINUOUS
100
AcDbLine
 10
24.54378246584242
 20
20.86903993731118
 30
0.0
 11
23.60946890584244
 21
20.84503532131118
 31
0.0
  0
LINE
  5
4EE
330
2
100
AcDbEntity
  8
0
  6
CONTINUOUS
100
AcDbLine
 10
23.60946890584244
 20
20.84503532131118
 30
0.0
 11
22.78709754904242
 21
20.82369690851119
 31
0.0
  0
LWPOLYLINE
  5
4EF
330
2
100
AcDbEntity
  8
0
  6
CONTINUOUS
100
AcDbPolyline
 90
       10
 70
     0
 43
0.0
 10
28.03426783064244
 20
23.06915464771118
 10
27.75913567864245
 20
22.89442318531119
 10
27.50522095704244
 20
22.74828037411118
 10
27.26174474424245
 20
22.61980798371119
 10
27.01594887064244
 20
22.50028594851116
 10
26.76174188344244
 20
22.38720690211118
 10
26.49443958584242
 20
22.27972274691117
 10
26.20940897784242
 20
22.17748009891117
 10
25.90114768344243
 20
22.08050964131119
 10
25.56040092824243
 20
21.98910533891119
  0
LWPOLYLINE
  5
4FB
330
2
100
AcDbEntity
  8
0
  6
CONTINUOUS
100
AcDbPolyline
 90
        5
 70
     0
 43
0.0
 10
23.96053043064245
 20
21.77297287971117
 10
24.34979170424245
 20
21.79266054691119
 10
24.74768600504244
 20
21.83484077251117
 10
25.15223222104244
 20
21.90021870211117
 10
25.56040092824243
 20
21.98910533891119
  0
LINE
  5
505
330
2
100
AcDbEntity
  8
0
  6
CONTINUOUS
100
AcDbLine
 10
34.15588703704244
 20
16.53581727171119
 30
0.0
 11
34.40588703704245
 21
16.53581727171119
 31
0.0
  0
LINE
  5
506
330
2
100
AcDbEntity
  8
0
  6
CONTINUOUS
100
AcDbLine
 10
34.15588703704244
 20
17.75886748291117
 30
0.0
 11
34.40588703704245
 21
17.75886748291117
 31
0.0
  0
LWPOLYLINE
  5
508
330
2
100
AcDbEntity
  8
0
  6
CONTINUOUS
100
AcDbPolyline
 90
       31
 70
     0
 43
0.0
 10
30.15588703704244
 20
23.25423559651119
 10
30.11234335544244
 20
23.2110050653112
 10
30.06847880504244
 20
23.16810016451118
 10
30.02239230584243
 20
23.12371300451118
 10
29.97595274904245
 20
23.07969538051119
 10
29.93003454424244
 20
23.03686522371119
 10
29.88377386904243
 20
22.99440521411119
 10
29.83785683704245
 20
22.95293746851119
 10
29.79160626424244
 20
22.9118420765112
 10
29.74557611544246
 20
22.87160545731117
 10
29.69922082584243
 20
22.83174386531119
 10
29.65302576984241
 20
22.79266891651117
 10
29.60651453944242
 20
22.75397085731118
 10
29.55991720824243
 20
22.71583923651118
 10
29.51301067224244
 20
22.67808862851116
 10
29.46581566424242
 20
22.64073665731119
 10
29.41831716664245
 20
22.60377138691116
 10
29.37050458104243
 20
22.56718468131117
 10
29.32239530584245
 20
22.53098899171119
 10
29.27375967704245
 20
22.49501437091119
 10
29.22483293944245
 20
22.45943666851118
 10
29.17510018424243
 20
22.42388803811118
 10
29.12508012984243
 20
22.38874479971117
 10
29.07414827544243
 20
22.35357504451119
 10
29.02293336504245
 20
22.31881874211117
 10
28.97069934584244
 20
22.28398340291117
 10
28.91818703704243
 20
22.24956903011116
 10
28.86430788344245
 20
22.21487336611119
 10
28.81015318744245
 20
22.18060913571119
 10
28.75435932824243
 20
22.14592707491117
 10
28.69829256504245
 20
22.11168873891119
  0
LINE
  5
529
330
2
100
AcDbEntity
  8
0
  6
CONTINUOUS
100
AcDbLine
 10
29.44423123224244
 20
24.41252655171119
 30
0.0
 11
29.44832332984245
 21
24.38579334371117
 31
0.0
  0
LINE
  5
52A
330
2
100
AcDbEntity
  8
0
  6
CONTINUOUS
100
AcDbLine
 10
29.44832624024245
 20
24.38579088771119
 30
0.0
 11
29.44075431384245
 21
24.31570285891119
 31
0.0
  0
LWPOLYLINE
  5
52B
330
2
100
AcDbEntity
  8
0
  6
CONTINUOUS
100
AcDbPolyline
 90
        6
 70
     0
 43
0.0
 10
-5.548722628557584
 20
43.52042815011119
 10
-3.85496355815755
 20
43.50677125571118
 10
-2.06674838375757
 20
43.48955106531121
 10
-0.1709080365575488
 20
43.46832174851118
 10
1.846540872242428
 20
43.4426377149112
 10
3.296741682980801
 20
43.42207032514136
  0
LWPOLYLINE
  5
533
330
2
100
AcDbEntity
  8
0
  6
CONTINUOUS
100
AcDbPolyline
 90
       18
 70
     0
 43
0.0
 10
4.290468197042429
 20
42.23995409091119
 10
3.15046760184245
 20
42.27083133251119
 10
2.157684963442449
 20
42.30686590371118
 10
1.279335488242452
 20
42.34873151011117
 10
0.4813209506424272
 20
42.39572480771116
 10
-0.2503037437575699
 20
42.44492451171118
 10
-0.9195473437575714
 20
42.49375232611117
 10
-1.531841231757553
 20
42.54059922531118
 10
-2.095040386957549
 20
42.58454793251118
 10
-2.613533746957571
 20
42.62477762851119
 10
-3.100164103757549
 20
42.66136970211118
 10
-3.572222044557548
 20
42.69497021571118
 10
-4.039535470157574
 20
42.72579576771116
 10
-4.501530193357552
 20
42.7531237965112
 10
-4.960222132557561
 20
42.77617919011118
 10
-5.419942257357547
 20
42.79398593891116
 10
-5.887278914957548
 20
42.80510503331117
 10
-6.374486081357574
 20
42.80724286371119
  0
LINE
  5
547
330
2
100
AcDbEntity
  8
0
  6
HIDDEN
100
AcDbLine
 10
21.78277724504244
 20
44.01419262051118
 30
0.0
 11
-6.870690692557573
 21
44.7619071645112
 31
0.0
  0
LINE
  5
548
330
2
100
AcDbEntity
  8
0
  6
CONTINUOUS
100
AcDbLine
 10
33.90588703704244
 20
46.15420974051119
 30
0.0
 11
-25.09411296295755
 21
46.15420974051119
 31
0.0
  0
LINE
  5
549
330
2
100
AcDbEntity
  8
0
  6
CONTINUOUS
100
AcDbLine
 10
33.90588703704244
 20
46.40420974051119
 30
0.0
 11
-25.09411296295755
 21
46.40420974051119
 31
0.0
  0
LWPOLYLINE
  5
54A
330
2
100
AcDbEntity
  8
0
  6
CONTINUOUS
100
AcDbPolyline
 90
        3
 70
     0
 43
0.0
 10
21.70616281144244
 20
44.01295678691122
 10
20.30620469944244
 20
44.04965842531118
 10
-4.37204433095755
 20
44.6929135725112
  0
LWPOLYLINE
  5
54F
330
2
100
AcDbEntity
  8
0
  6
CONTINUOUS
100
AcDbPolyline
 90
        9
 70
     0
 43
0.0
 10
1.566039265842448
 20
32.40420974051119
 10
1.585642104242438
 20
33.47994430531119
 10
1.643935569842426
 20
34.5447009293112
 10
1.738738373042451
 20
35.5818903757112
 10
1.859664142642429
 20
36.53188432451119
 10
1.994451328242448
 20
37.36876827971116
 10
2.138303544242447
 20
38.1156229341112
 10
2.290071720242451
 20
38.79709570691119
 10
2.45027201464245
 20
39.43215630531119
  0
LWPOLYLINE
  5
55A
330
2
100
AcDbEntity
  8
0
  6
CONTINUOUS
100
AcDbPolyline
 90
        9
 70
     0
 43
0.0
 10
2.917229837042427
 20
39.26219616131115
 10
2.728748664242431
 20
38.4993947133112
 10
2.559836446642449
 20
37.70247258691119
 10
2.412286075442452
 20
36.87229351651117
 10
2.288268374642427
 20
36.0128549341112
 10
2.189881147442449
 20
35.13038491171119
 10
2.118636573042451
 20
34.2299921117112
 10
2.075586584242429
 20
33.31704605091116
 10
2.06135044824245
 20
32.4042046925112
  0
LINE
  5
565
330
2
100
AcDbEntity
  8
0
  6
CONTINUOUS
100
AcDbLine
 10
2.486669123442439
 20
41.55530392771118
 30
0.0
 11
1.854880430642438
 21
41.58677514371118
 31
0.0
  0
LWPOLYLINE
  5
566
330
2
100
AcDbEntity
  8
0
  6
CONTINUOUS
100
AcDbPolyline
 90
       61
 70
     0
 43
0.0
 10
-10.24368919175755
 20
44.8443064061112
 10
-10.33930318375755
 20
44.8476215469112
 10
-10.44367526055757
 20
44.85087131491119
 10
-10.55762823815754
 20
44.85395071171118
 10
-10.68201505575756
 20
44.85670233091116
 10
-10.81811941895755
 20
44.85894634851118
 10
-10.96733460615755
 20
44.86044507491118
 10
-11.13125803815756
 20
44.86084973731118
 10
-11.31197932135757
 20
44.85966987651116
 10
-11.51193644295756
 20
44.85625982691118
 10
-11.73388311975756
 20
44.84975362691119
 10
-11.98151217735755
 20
44.83892045091119
 10
-12.25931232295758
 20
44.8219617373112
 10
-12.57279713895756
 20
44.7964517373112
 10
-12.92908734535754
 20
44.75895559011118
 10
-13.33188534535756
 20
44.70480097411118
 10
-13.74100063815754
 20
44.6364692221112
 10
-14.13951124295755
 20
44.55659392771116
 10
-14.53026996615756
 20
44.46490187811119
 10
-14.91709621095755
 20
44.36071535331118
 10
-15.29926863975757
 20
44.24441811011118
 10
-15.66641720455754
 20
44.12022894371119
 10
-16.02660040775757
 20
43.98661439171118
 10
-16.38509010535756
 20
43.84155293091118
 10
-16.73789908135757
 20
43.6859102381112
 10
-17.08209027495755
 20
43.52046139971119
 10
-17.41518994695755
 20
43.34648168771116
 10
-17.73885539655755
 20
43.16340351331118
 10
-18.05838908615754
 20
42.9682522445112
 10
-18.37749364775754
 20
42.75845887651118
 10
-18.69823382535756
 20
42.5320695565112
 10
-19.02192744935757
 20
42.2873536653112
 10
-19.35048818375757
 20
42.02185137411118
 10
-19.67931808935755
 20
41.73837176611118
 10
-20.00428793575756
 20
41.4397697565112
 10
-20.31693177575755
 20
41.13373639651118
 10
-20.61433834855755
 20
40.8235639117112
 10
-20.88982717575754
 20
40.51712300131121
 10
-21.14402600935755
 20
40.2152248509112
 10
-21.37573175815757
 20
39.9208527085112
 10
-21.59019953095757
 20
39.6289938685112
 10
-21.78470747815757
 20
39.34479440611116
 10
-21.96329077255757
 20
39.06382018051115
 10
-22.13023421415755
 20
38.78012779331115
 10
-22.28688509415757
 20
38.49174387811117
 10
-22.43346717255758
 20
38.19828731011119
 10
-22.57362637575758
 20
37.89179650851116
 10
-22.70797659015757
 20
37.5695778397112
 10
-22.83584227815757
 20
37.23138726051115
 10
-22.95963782375756
 20
36.86799937091118
 10
-23.07878158535754
 20
36.4772606125112
 10
-23.19224196455755
 20
36.05769312771119
 10
-23.30072155655756
 20
35.6003579773112
 10
-23.40125820935756
 20
35.11025255811119
 10
-23.49214500935757
 20
34.58814956131115
 10
-23.56348579335757
 20
34.0968837341112
 10
-23.61488898055755
 20
33.66676022531118
 10
-23.65119744935753
 20
33.2885136381112
 10
-23.67542860455755
 20
32.95516036451116
 10
-23.68939889895757
 20
32.66163245411116
 10
-23.69401104775758
 20
32.40420974051119
  0
LWPOLYLINE
  5
5A5
330
2
100
AcDbEntity
  8
0
  6
HIDDEN
100
AcDbPolyline
 90
       54
 70
     0
 43
0.0
 10
-10.20413560615754
 20
44.8464123981112
 10
-10.30970000295756
 20
44.8501463069112
 10
-10.42635357415757
 20
44.85382197411118
 10
-10.55532556295754
 20
44.85729255811119
 10
-10.69789660775758
 20
44.86033755491118
 10
-10.85591266695755
 20
44.86268104611116
 10
-11.03148369735757
 20
44.86394124931118
 10
-11.22721487335755
 20
44.86353322531118
 10
-11.44646862855755
 20
44.86062733251119
 10
-11.69313133735758
 20
44.85407895491118
 10
-11.97235940775755
 20
44.84220753891119
 10
-12.29070148135755
 20
44.8224319965112
 10
-12.65641728295756
 20
44.79109539971119
 10
-13.08113618535756
 20
44.74250925411118
 10
-13.54781552135757
 20
44.6728054237112
 10
-14.00795855495755
 20
44.58671520131119
 10
-14.45560623975757
 20
44.4856270349112
 10
-14.89729855175755
 20
44.36844751331119
 10
-15.33254203975758
 20
44.2356520749112
 10
-15.74962182535756
 20
44.09232246211118
 10
-16.15966430695755
 20
43.93607871811116
 10
-16.56616540295755
 20
43.76515168451118
 10
-16.96322041415754
 20
43.58095230051119
 10
-17.34666689415756
 20
43.38516995011116
 10
-17.71714772135757
 20
43.17785657411119
 10
-18.08171721735758
 20
42.9551529885112
 10
-18.44584453575754
 20
42.71328087811119
 10
-18.81246591975758
 20
42.4493759741112
 10
-19.18415344775755
 20
42.16028351171118
 10
-19.55966488135757
 20
41.84555968451118
 10
-19.93245777095756
 20
41.50946821091119
 10
-20.29160714535754
 20
41.16145825891118
 10
-20.63100358375754
 20
40.80797611971118
 10
-20.94230232615754
 20
40.4590500685112
 10
-21.22543087655755
 20
40.1169705149112
 10
-21.48166092295756
 20
39.78248498371115
 10
-21.71385632615755
 20
39.45432639651119
 10
-21.92288397415757
 20
39.13332146851115
 10
-22.11555622855755
 20
38.81052945571116
 10
-22.29471560295755
 20
38.4818189437112
 10
-22.46114765095757
 20
38.14573786051118
 10
-22.61944296775757
 20
37.79195531171117
 10
-22.76978914215757
 20
37.41795545251119
 10
-22.91313539655758
 20
37.01792383651115
 10
-23.05094758855757
 20
36.58291113891115
 10
-23.18164825255755
 20
36.11122482051115
 10
-23.30571592135754
 20
35.59208107651119
 10
-23.41961804135755
 20
35.02934771331115
 10
-23.51872460775757
 20
34.43741416131115
 10
-23.59145616935756
 20
33.9011183309112
 10
-23.64082362055757
 20
33.44192725411119
 10
-23.67302520295754
 20
33.04458382211118
 10
-23.69131933895758
 20
32.70063751651119
 10
-23.69731959175757
 20
32.40420974051119
  0
LWPOLYLINE
  5
5DD
330
2
100
AcDbEntity
  8
0
  6
CONTINUOUS
100
AcDbPolyline
 90
       41
 70
     0
 43
0.0
 10
-13.22339336455755
 20
39.84540070371119
 10
-13.30702648935755
 20
39.75441679971117
 10
-13.38881555335754
 20
39.6620465405112
 10
-13.46858469895758
 20
39.56852835971119
 10
-13.54627573895757
 20
39.47394173251117
 10
-13.62230114535755
 20
39.37773028611118
 10
-13.69719105575757
 20
39.27917869411115
 10
-13.77130386855755
 20
39.17780091651119
 10
-13.84431102535756
 20
39.07402808771115
 10
-13.91571223175755
 20
38.96852063171115
 10
-13.96790663975755
 20
38.88868435171116
 10
-14.01869542215757
 20
38.80873467331119
 10
-14.06785771975757
 20
38.72916243651118
 10
-14.11517267335757
 20
38.6504584829112
 10
-14.16045923815755
 20
38.5730627405112
 10
-14.20369563815756
 20
38.49721149091115
 10
-14.24489991975755
 20
38.42309010531119
 10
-14.28409012455755
 20
38.35088395811115
 10
-14.32130419015757
 20
38.28073099331115
 10
-14.35665964135755
 20
38.21257946851119
 10
-14.39029389895755
 20
38.1463302093112
 10
-14.42234438215757
 20
38.08188405091115
 10
-14.45294257735756
 20
38.01914115971115
 10
-14.48219622375757
 20
37.95799906691115
 10
-14.51020712615755
 20
37.89835464451115
 10
-14.53707708615755
 20
37.84010475971115
 10
-14.57128358695757
 20
37.76445964131116
 10
-14.60375640455754
 20
37.69104805571117
 10
-14.63460920935757
 20
37.61980769571119
 10
-14.66395276775756
 20
37.5506720157112
 10
-14.69188622855756
 20
37.48355753411115
 10
-14.71850583815756
 20
37.41837652931119
 10
-14.74389928775755
 20
37.3550557053112
 10
-14.76812004135757
 20
37.29357946691115
 10
-14.79121301575759
 20
37.23394664611118
 10
-14.81322110055756
 20
37.17615795811116
 10
-14.83417909255757
 20
37.12022167651119
 10
-14.85411976935755
 20
37.0661479613112
 10
-14.87308035335755
 20
37.01393301891119
 10
-14.89111586215756
 20
36.96351723651119
 10
-14.92465535335755
 20
36.8677667437112
  0
LINE
  5
608
330
2
100
AcDbEntity
  8
0
  6
CONTINUOUS
100
AcDbLine
 10
-14.92384025575755
 20
27.93829435971119
 30
0.0
 11
-14.89024665095756
 21
27.84245544771119
 31
0.0
  0
LWPOLYLINE
  5
609
330
2
100
AcDbEntity
  8
0
  6
CONTINUOUS
100
AcDbPolyline
 90
       29
 70
     0
 43
0.0
 10
-16.39974725415754
 20
32.40420974051119
 10
-16.39930250695755
 20
32.33865325891119
 10
-16.39797220775756
 20
32.27333281731119
 10
-16.39576227015757
 20
32.20826588771117
 10
-16.39267860935754
 20
32.14346994051115
 10
-16.38872611175757
 20
32.07895079651118
 10
-16.38390556935755
 20
32.01466769251115
 10
-16.37821674535757
 20
31.9505682125112
 10
-16.37165940295756
 20
31.88659994531119
 10
-16.36423156455757
 20
31.8227109901112
 10
-16.35592427975754
 20
31.75885150531115
 10
-16.34672685255755
 20
31.69497215971119
 10
-16.33662859015754
 20
31.6310236269112
 10
-16.32561813575755
 20
31.56695957731119
 10
-16.31368147335757
 20
31.50274570211115
 10
-16.30080392455757
 20
31.43835068771119
 10
-16.28697081095757
 20
31.37374322531115
 10
-16.27216602375757
 20
31.3088900797112
 10
-16.25636772935757
 20
31.24375031331115
 10
-16.23955266375756
 20
31.17828106051115
 10
-16.22169756615756
 20
31.11243945891115
 10
-16.20277735495756
 20
31.04618185731115
 10
-16.18275969415755
 20
30.9794614653112
 10
-16.16161043015755
 20
30.9122306989112
 10
-16.13929540775754
 20
30.84444198211119
 10
-16.11578446215757
 20
30.77605972931115
 10
-16.09106337895755
 20
30.70709633891115
 10
-16.06512193095755
 20
30.63757620291116
 10
-16.03794988935757
 20
30.5675237181112
  0
LWPOLYLINE
  5
628
330
2
100
AcDbEntity
  8
0
  6
CONTINUOUS
100
AcDbPolyline
 90
       33
 70
     0
 43
0.0
 10
-18.74803281255755
 20
32.40420974051119
 10
-18.74600898695757
 20
32.29555973891118
 10
-18.73994253895756
 20
32.18782471011115
 10
-18.72986134375757
 20
32.0815225469112
 10
-18.71582139175754
 20
31.97717178691116
 10
-18.69790512295756
 20
31.87527621571115
 10
-18.67620716775755
 20
31.77627208451116
 10
-18.65078808935757
 20
31.68041190211118
 10
-18.62169159015755
 20
31.58794425891119
 10
-18.58889104295758
 20
31.4989903597112
 10
-18.55223473735755
 20
31.41352267651118
 10
-18.51158037415754
 20
31.33174935651115
 10
-18.46666339815757
 20
31.25380842531118
 10
-18.41768077255755
 20
31.18066032291119
 10
-18.36382243335757
 20
31.11180392451117
 10
-18.30339000615758
 20
31.04629961571117
 10
-18.23507161255756
 20
30.98429998051119
 10
-18.15841979495755
 20
30.92635123171115
 10
-18.07538674855757
 20
30.8729381805112
 10
-17.98604602055755
 20
30.8212191181112
 10
-17.88838114695758
 20
30.77009931331119
 10
-17.78115151015757
 20
30.72041027971119
 10
-17.66497444135757
 20
30.67350992931119
 10
-17.53935566695756
 20
30.6297014541112
 10
-17.40437514055756
 20
30.58878585251119
 10
-17.26098094535754
 20
30.54976638531115
 10
-17.10924832615757
 20
30.51000848931119
 10
-16.94869985255755
 20
30.46481432931119
 10
-16.77673764775758
 20
30.4055124733112
 10
-16.60158618375754
 20
30.32289966371115
 10
-16.41995482535756
 20
30.20788887011116
 10
-16.22547903335754
 20
30.05467222691118
 10
-16.04456691975755
 20
29.88485534211119
  0
LWPOLYLINE
  5
64B
330
2
100
AcDbEntity
  8
0
  6
CONTINUOUS
100
AcDbPolyline
 90
       13
 70
     0
 43
0.0
 10
-15.26239331175757
 20
29.01903470851115
 10
-15.25503613255757
 20
28.99950027971115
 10
-15.24783820455755
 20
28.97992387011118
 10
-15.24079910535755
 20
28.9603048285112
 10
-15.23391840935758
 20
28.94064250051119
 10
-15.22719586055757
 20
28.92093671331119
 10
-15.22063185415754
 20
28.90118921571115
 10
-15.21422695815755
 20
28.88140223651117
 10
-15.20798173415758
 20
28.86157800291115
 10
-15.20189659175755
 20
28.84171825571115
 10
-15.19597133415757
 20
28.82182278371115
 10
-15.19020560775757
 20
28.80189089411115
 10
-15.14931859175757
 20
28.65633129731119
  0
LWPOLYLINE
  5
65A
330
2
100
AcDbEntity
  8
0
  6
CONTINUOUS
100
AcDbPolyline
 90
        6
 70
     0
 43
0.0
 10
-15.57958557895757
 20
29.34202920291119
 10
-15.48671451335756
 20
29.22501641571119
 10
-15.39392434855756
 20
29.1039585981112
 10
-15.31122336775757
 20
28.9874088109112
 10
-15.24001560775758
 20
28.8771551149112
 10
-15.17992407175756
 20
28.7733461949112
  0
LWPOLYLINE
  5
662
330
2
100
AcDbEntity
  8
0
  6
CONTINUOUS
100
AcDbPolyline
 90
        9
 70
     0
 43
0.0
 10
-15.14931859175757
 20
28.65633129731119
 10
-15.11274846055757
 20
28.53020047331119
 10
-15.07509425255757
 20
28.40448205251115
 10
-15.03660521255756
 20
28.2801414685112
 10
-15.01701817735758
 20
28.21842028771115
 10
-14.99698403175757
 20
28.15635082371119
 10
-14.97625974375755
 20
28.09322800451118
 10
-14.95460516615759
 20
28.0284198253112
 10
-14.92384025575755
 20
27.93829435971119
  0
LINE
  5
66D
330
2
100
AcDbEntity
  8
0
  6
CONTINUOUS
100
AcDbLine
 10
-15.55658568615754
 20
29.5968510861112
 30
0.0
 11
-15.62003560135755
 21
29.7015973453112
 31
0.0
  0
LWPOLYLINE
  5
66E
330
2
100
AcDbEntity
  8
0
  6
CONTINUOUS
100
AcDbPolyline
 90
        3
 70
     0
 43
0.0
 10
-15.62003145415757
 20
29.7015997693112
 10
-15.62594134375754
 20
29.71171331811118
 10
-15.63247203175754
 20
29.72316628451119
  0
LINE
  5
673
330
2
100
AcDbEntity
  8
0
  6
CONTINUOUS
100
AcDbLine
 10
-15.45546930535755
 20
29.42281917891119
 30
0.0
 11
-15.55658568615754
 21
29.5968510861112
 31
0.0
  0
LINE
  5
674
330
2
100
AcDbEntity
  8
0
  6
CONTINUOUS
100
AcDbLine
 10
-15.42773982855757
 20
29.3730069485112
 30
0.0
 11
-15.45546930535755
 21
29.42281917891119
 31
0.0
  0
LWPOLYLINE
  5
675
330
2
100
AcDbEntity
  8
0
  6
CONTINUOUS
100
AcDbPolyline
 90
        8
 70
     0
 43
0.0
 10
-16.04455272295757
 20
29.88478132131115
 10
-15.97548102535755
 20
29.81277319491116
 10
-15.91439577095757
 20
29.74560708451119
 10
-15.85835772455756
 20
29.68119788451119
 10
-15.79990103015757
 20
29.61178574691115
 10
-15.73554136135757
 20
29.5340862701112
 10
-15.66266096135754
 20
29.4448708733112
 10
-15.57958557895757
 20
29.34202920291119
  0
LWPOLYLINE
  5
67F
330
2
100
AcDbEntity
  8
0
  6
CONTINUOUS
100
AcDbPolyline
 90
       19
 70
     0
 43
0.0
 10
-15.49069227015755
 20
29.48415980931119
 10
-15.47554967175757
 20
29.45900931971115
 10
-15.46070078855754
 20
29.43377296771117
 10
-15.44614419335756
 20
29.40845064451116
 10
-15.43187845895758
 20
29.38304223651115
 10
-15.41790215975754
 20
29.35754763171115
 10
-15.40421386695757
 20
29.3319667181112
 10
-15.39081247495757
 20
29.30629993571119
 10
-15.37769815815755
 20
29.2805499213112
 10
-15.36487140935756
 20
29.25471987011118
 10
-15.35233272615758
 20
29.22881297091118
 10
-15.34008260135755
 20
29.20283241571116
 10
-15.32812152935756
 20
29.17678139651119
 10
-15.31644972775757
 20
29.1506624557112
 10
-15.30506631495757
 20
29.12447555811116
 10
-15.29397012935754
 20
29.09822001731118
 10
-15.28316000935754
 20
29.0718951517112
 10
-15.27263479495755
 20
29.0455002749112
 10
-15.26239332615756
 20
29.01903470371115
  0
LWPOLYLINE
  5
694
330
2
100
AcDbEntity
  8
0
  6
CONTINUOUS
100
AcDbPolyline
 90
       20
 70
     0
 43
0.0
 10
-16.03794982535757
 20
30.5675237421112
 10
-16.01908728135757
 20
30.52039549251119
 10
-15.99982168935756
 20
30.47342467011119
 10
-15.98015679015755
 20
30.42660459011119
 10
-15.96009763335757
 20
30.37993152451119
 10
-15.93965449415755
 20
30.3334135389112
 10
-15.91883895335756
 20
30.2870616541112
 10
-15.89766246375757
 20
30.24088594051116
 10
-15.87613595815756
 20
30.19489268771119
 10
-15.85427023815755
 20
30.14908724131117
 10
-15.83207611335754
 20
30.10347506851116
 10
-15.80956439815756
 20
30.05806213891119
 10
-15.78674591655757
 20
30.0128545437112
 10
-15.76363029255756
 20
29.9678557325112
 10
-15.74022237895756
 20
29.9230585901112
 10
-15.71652582695756
 20
29.87845335971115
 10
-15.68044737575755
 20
29.8118850013112
 10
-15.64373747975756
 20
29.74569956451119
 10
-15.62008305895756
 20
29.70382287491119
 10
-15.59617715335756
 20
29.66207947491119
  0
LWPOLYLINE
  5
6AA
330
2
100
AcDbEntity
  8
0
  6
CONTINUOUS
100
AcDbPolyline
 90
       20
 70
     0
 43
0.0
 10
-15.59610807175758
 20
35.14645976771118
 10
-15.62007811655756
 20
35.10460525251119
 10
-15.64379616135758
 20
35.06261529571119
 10
-15.68052641095756
 20
34.99639035331119
 10
-15.71662162535756
 20
34.9297872477112
 10
-15.74032621575759
 20
34.88516376291116
 10
-15.76373887975754
 20
34.84035410531117
 10
-15.78685529735756
 20
34.7953501357112
 10
-15.80967022055757
 20
34.75014585411119
 10
-15.83217467975757
 20
34.70474377571119
 10
-15.85435877255756
 20
34.65914854851115
 10
-15.87621256935757
 20
34.6133647101112
 10
-15.89772601095757
 20
34.56739637091115
 10
-15.91888901095757
 20
34.52124753411115
 10
-15.93969137415757
 20
34.4749230077112
 10
-15.96012249735756
 20
34.42843083491115
 10
-15.98017167495754
 20
34.38177986211115
 10
-15.99982928615759
 20
34.3349764605112
 10
-16.01909006375754
 20
34.28801709251115
 10
-16.03794982535757
 20
34.24089573891118
  0
LWPOLYLINE
  5
6C0
330
2
100
AcDbEntity
  8
0
  6
CONTINUOUS
100
AcDbPolyline
 90
       33
 70
     0
 43
0.0
 10
-18.74803281255755
 20
32.40420974051119
 10
-18.74600898695757
 20
32.5128597437112
 10
-18.73994253895756
 20
32.62059477091119
 10
-18.72986134375757
 20
32.72689693411115
 10
-18.71582139175754
 20
32.8312476957112
 10
-18.69790512295756
 20
32.9331432653112
 10
-18.67620716775755
 20
33.03214739651119
 10
-18.65078808935757
 20
33.12800757891119
 10
-18.62169159015755
 20
33.22047522211116
 10
-18.58889104295758
 20
33.30942912131115
 10
-18.55223473735755
 20
33.3948968045112
 10
-18.51158037415754
 20
33.4766701261112
 10
-18.46666339815757
 20
33.5546110557112
 10
-18.41768077255755
 20
33.62775915811119
 10
-18.36382243335757
 20
33.6966155565112
 10
-18.30339000615758
 20
33.76211986531117
 10
-18.23507161255756
 20
33.82411950051116
 10
-18.15841979495755
 20
33.8820682493112
 10
-18.07538674855757
 20
33.93548130051115
 10
-17.98604602055755
 20
33.98720036291115
 10
-17.88838114695758
 20
34.03832016771116
 10
-17.78115151015757
 20
34.08800920131119
 10
-17.66497444135757
 20
34.13490955171119
 10
-17.53935566695756
 20
34.17871802691115
 10
-17.40437514055756
 20
34.21963362851119
 10
-17.26098094535754
 20
34.25865309571119
 10
-17.10924832615757
 20
34.29841099171119
 10
-16.94869985255755
 20
34.34360515171118
 10
-16.77673764775758
 20
34.40290700771118
 10
-16.60158618375754
 20
34.4855198189112
 10
-16.41995482535756
 20
34.60053061091119
 10
-16.22547903335754
 20
34.7537472541112
 10
-16.04456691975755
 20
34.92356414051119
  0
LWPOLYLINE
  5
6E3
330
2
100
AcDbEntity
  8
0
  6
CONTINUOUS
100
AcDbPolyline
 90
       29
 70
     0
 43
0.0
 10
-16.03794988935757
 20
34.24089576451118
 10
-16.06512209095754
 20
34.17084285571116
 10
-16.09106367175755
 20
34.10132234531118
 10
-16.11578486055756
 20
34.03235862371118
 10
-16.13929588615756
 20
33.96397607811115
 10
-16.16161096775755
 20
33.89618710851115
 10
-16.18276027015755
 20
33.82895613891119
 10
-16.20277794535755
 20
33.7622356061112
 10
-16.22169814535756
 20
33.6959779405112
 10
-16.23955321095755
 20
33.6301363581112
 10
-16.25636822375756
 20
33.56466719331115
 10
-16.27216645735757
 20
33.4995275645112
 10
-16.28697118055757
 20
33.4346745837112
 10
-16.30080423495755
 20
33.37006729571115
 10
-16.31368172775756
 20
33.3056724621112
 10
-16.32561833895755
 20
33.24145876451118
 10
-16.33662875015756
 20
33.17739489411119
 10
-16.34672697095757
 20
33.1134465309112
 10
-16.35592436455755
 20
33.0495673533112
 10
-16.36423162215754
 20
32.9857080285112
 10
-16.37165943655756
 20
32.92181922851119
 10
-16.37821676135757
 20
32.8578511117112
 10
-16.38390557255755
 20
32.7937517661112
 10
-16.38872610695759
 20
32.72946876931115
 10
-16.39267859975754
 20
32.66494969571116
 10
-16.39576226215754
 20
32.60015377251116
 10
-16.39797220295756
 20
32.53508682371119
 10
-16.39930250535755
 20
32.46976632131119
 10
-16.39974725415754
 20
32.40420974051119
  0
LINE
  5
702
330
2
100
AcDbEntity
  8
0
  6
CONTINUOUS
100
AcDbLine
 10
-14.92465535335755
 20
36.8677667437112
 30
0.0
 11
-14.95535431495756
 21
36.77777662051116
 31
0.0
  0
LWPOLYLINE
  5
703
330
2
100
AcDbEntity
  8
0
  6
CONTINUOUS
100
AcDbPolyline
 90
       19
 70
     0
 43
0.0
 10
-15.26239332615756
 20
35.78938477891119
 10
-15.27263479175755
 20
35.76291921571117
 10
-15.28316000295754
 20
35.73652434691115
 10
-15.29397011975754
 20
35.71019948771118
 10
-15.30506630215757
 20
35.6839439565112
 10
-15.31644971015757
 20
35.65775706851118
 10
-15.32812150375755
 20
35.6316381405112
 10
-15.34008256935757
 20
35.6055871325112
 10
-15.35233268615755
 20
35.57960659011115
 10
-15.36487136295755
 20
35.5536997037112
 10
-15.37769810535755
 20
35.52786966211115
 10
-15.39081241735755
 20
35.50211965571119
 10
-15.40421380775757
 20
35.47645287331119
 10
-15.41790210375757
 20
35.45087195491118
 10
-15.43187840775755
 20
35.4253773421112
 10
-15.44614414535756
 20
35.3999689245112
 10
-15.46070074375757
 20
35.37464659331115
 10
-15.47554962695755
 20
35.3494102381112
 10
-15.49069222055757
 20
35.32425975171119
  0
LWPOLYLINE
  5
718
330
2
100
AcDbEntity
  8
0
  6
CONTINUOUS
100
AcDbPolyline
 90
        3
 70
     0
 43
0.0
 10
-15.63247203015754
 20
35.08525319811119
 10
-15.62594091655755
 20
35.09670690371118
 10
-15.62203070695756
 20
35.1034380845112
  0
LWPOLYLINE
  5
71D
330
2
100
AcDbEntity
  8
0
  6
CONTINUOUS
100
AcDbPolyline
 90
        3
 70
     0
 43
0.0
 10
-15.55597696135754
 20
35.21258737091119
 10
-15.45519779495757
 20
35.38608286531115
 10
-15.42774419015756
 20
35.43540460931117
  0
LINE
  5
722
330
2
100
AcDbEntity
  8
0
  6
CONTINUOUS
100
AcDbLine
 10
-15.62203070695756
 20
35.1034380845112
 30
0.0
 11
-15.61994068295757
 21
35.10697504771119
 31
0.0
  0
LINE
  5
723
330
2
100
AcDbEntity
  8
0
  6
CONTINUOUS
100
AcDbLine
 10
-15.61999677255758
 20
35.10688541891116
 30
0.0
 11
-15.55597696135754
 21
35.21258737091119
 31
0.0
  0
LWPOLYLINE
  5
724
330
2
100
AcDbEntity
  8
0
  6
CONTINUOUS
100
AcDbPolyline
 90
        8
 70
     0
 43
0.0
 10
-16.04455272295757
 20
34.9236381597112
 10
-15.97548102535755
 20
34.99564628611119
 10
-15.91439577095757
 20
35.06281239651116
 10
-15.85835772455756
 20
35.12722159651116
 10
-15.79990103015757
 20
35.1966337341112
 10
-15.73554136135757
 20
35.27433321091115
 10
-15.66266096135754
 20
35.36354860771115
 10
-15.57958557895757
 20
35.46639027811116
  0
LWPOLYLINE
  5
72E
330
2
100
AcDbEntity
  8
0
  6
CONTINUOUS
100
AcDbPolyline
 90
       12
 70
     0
 43
0.0
 10
-15.19020560775757
 20
36.0065285885112
 10
-15.19597133415757
 20
35.98659669731119
 10
-15.20189659175755
 20
35.96670122691119
 10
-15.20798173415758
 20
35.94684147811119
 10
-15.21422695815755
 20
35.9270172445112
 10
-15.22063185415754
 20
35.9072302653112
 10
-15.22719586055757
 20
35.88748276771116
 10
-15.23391840935758
 20
35.86777698051119
 10
-15.24079910535755
 20
35.84811465251116
 10
-15.24783820455755
 20
35.8284956109112
 10
-15.25503613255757
 20
35.8089192013112
 10
-15.26239331175757
 20
35.78938477251119
  0
LWPOLYLINE
  5
73C
330
2
100
AcDbEntity
  8
0
  6
CONTINUOUS
100
AcDbPolyline
 90
        6
 70
     0
 43
0.0
 10
-15.57958557895757
 20
35.46639027811116
 10
-15.48671451335756
 20
35.58340306531118
 10
-15.39392434855756
 20
35.70446088291117
 10
-15.31122336775757
 20
35.82101067011118
 10
-15.24001560775758
 20
35.93126436611118
 10
-15.17992407175756
 20
36.03507328611115
  0
LWPOLYLINE
  5
744
330
2
100
AcDbEntity
  8
0
  6
CONTINUOUS
100
AcDbPolyline
 90
        9
 70
     0
 43
0.0
 10
-14.95535431495756
 20
36.77777662051116
 10
-14.97695248135755
 20
36.7130989309112
 10
-14.99761519495754
 20
36.65012908771117
 10
-15.01758347175754
 20
36.58823242851116
 10
-15.03710183815755
 20
36.52669967811116
 10
-15.07545275335755
 20
36.40275979811116
 10
-15.11297923495757
 20
36.2774356781112
 10
-15.14943056135757
 20
36.1516957677112
 10
-15.19020560775757
 20
36.0065285885112
  0
ARC
  5
74F
330
2
100
AcDbEntity
  8
0
  6
CONTINUOUS
100
AcDbCircle
 10
-25.09411296295755
 20
45.90420974051119
 30
0.0
 40
0.5
100
AcDbArc
 50
90.0
 51
180.0
  0
ARC
  5
750
330
2
100
AcDbEntity
  8
0
  6
CONTINUOUS
100
AcDbCircle
 10
-25.09411296295755
 20
45.90420974051119
 30
0.0
 40
0.25
100
AcDbArc
 50
90.0
 51
180.0
  0
LINE
  5
751
330
2
100
AcDbEntity
  8
0
  6
CONTINUOUS
100
AcDbLine
 10
-4.37204433095755
 20
44.6929135725112
 30
0.0
 11
-8.352067526157568
 21
44.7970408397112
 31
0.0
  0
LWPOLYLINE
  5
752
330
2
100
AcDbEntity
  8
0
  6
CONTINUOUS
100
AcDbPolyline
 90
        8
 70
     0
 43
0.0
 10
-6.530365628557561
 20
43.49132878531119
 10
-6.418075655757547
 20
43.49770696131119
 10
-6.314823698957553
 20
43.50285903011118
 10
-6.219815308557571
 20
43.50699226691119
 10
-6.132337140557552
 20
43.51027976931118
 10
-6.051745588557551
 20
43.5128662845112
 10
-5.977457166157549
 20
43.5148730045112
 10
-5.909080423757572
 20
43.5164153645112
  0
LWPOLYLINE
  5
75C
330
2
100
AcDbEntity
  8
0
  6
CONTINUOUS
100
AcDbPolyline
 90
       68
 70
     0
 43
0.0
 10
-3.13827913095757
 20
41.92752851491118
 10
-3.381199881357574
 20
41.94587485251119
 10
-3.62207142535756
 20
41.96356150051116
 10
-3.800715223757549
 20
41.9762686077112
 10
-3.977474614157571
 20
41.98843082051118
 10
-4.15211405575755
 20
41.99998731331118
 10
-4.323589590157553
 20
42.01083561571119
 10
-4.491067898957552
 20
42.02088909411119
 10
-4.655366606157571
 20
42.03016609251119
 10
-4.817479838157552
 20
42.03869648931117
 10
-4.97745673735757
 20
42.04645129891119
 10
-5.187438390157552
 20
42.05551848291119
 10
-5.394800092557574
 20
42.0630822013112
 10
-5.601052436557552
 20
42.06909549731119
 10
-5.807535871757551
 20
42.07350008451117
 10
-6.01491030535756
 20
42.07619233571119
 10
-6.223665500557572
 20
42.07705729571119
 10
-6.434285938957572
 20
42.07596379971121
 10
-6.647234962957568
 20
42.07271586851118
 10
-6.862970628557548
 20
42.06710131491118
 10
-7.081660524557548
 20
42.05892225731119
 10
-7.302310345357568
 20
42.04803803491119
 10
-7.523635319757573
 20
42.03432229411117
 10
-7.744395710157547
 20
42.01767642371118
 10
-7.963531942157572
 20
41.99811279171117
 10
-8.18002947815755
 20
41.9756715069112
 10
-8.340090806157547
 20
41.95698259491118
 10
-8.497849948557572
 20
41.93675276771119
 10
-8.653059663757574
 20
41.91503723171118
 10
-8.805472708557573
 20
41.89189119011118
 10
-8.954862484557551
 20
41.86737470211119
 10
-9.101084977357572
 20
41.8415672493112
 10
-9.244016814157561
 20
41.81455316931118
 10
-9.383534623757569
 20
41.78641679811116
 10
-9.519562822157553
 20
41.75723322211118
 10
-9.652216970957553
 20
41.72704053411118
 10
-9.781660418957571
 20
41.69586757091116
 10
-9.90805651815755
 20
41.6637431725112
 10
-10.07210185895755
 20
41.61947696611119
 10
-10.23125848615757
 20
41.57361786211118
 10
-10.38576480455755
 20
41.5262131325112
 10
-10.53583445095755
 20
41.4773152525112
 10
-10.68158202535757
 20
41.42699751331119
 10
-10.82309736455757
 20
41.37533841411118
 10
-10.96048042055757
 20
41.32241028611119
 10
-11.09387163335755
 20
41.26826081091119
 10
-11.22342155175755
 20
41.21293150691122
 10
-11.34927125575757
 20
41.15646509571118
 10
-11.47152391175757
 20
41.09890910531118
 10
-11.59027320615757
 20
41.0403122637112
 10
-11.70561725095754
 20
40.98071846051118
 10
-11.81767184295755
 20
40.92015222851119
 10
-11.92655720295755
 20
40.8586332653112
 10
-12.03238769575759
 20
40.79618124611118
 10
-12.13525427655756
 20
40.7328157677112
 10
-12.23524204295755
 20
40.66855640931118
 10
-12.33242752775754
 20
40.6034271901112
 10
-12.42685299815758
 20
40.53746990211116
 10
-12.51855215175757
 20
40.47073077411119
 10
-12.60755385895754
 20
40.4032607581112
 10
-12.69386765895754
 20
40.3351296797112
 10
-12.77749826375756
 20
40.26641208131119
 10
-12.85845027335756
 20
40.1971806221112
 10
-12.93672785095755
 20
40.12750041891115
 10
-13.01233505095757
 20
40.05743470051115
 10
-13.08528401415755
 20
39.9870409165112
 10
-13.15561925255758
 20
39.9163534013112
 10
-13.22339336455755
 20
39.84540070371119
  0
LWPOLYLINE
  5
7A2
330
2
100
AcDbEntity
  8
0
  6
CONTINUOUS
100
AcDbPolyline
 90
       18
 70
     0
 43
0.0
 10
-13.84219631975754
 20
40.46097429251119
 10
-13.62069526535755
 20
40.71786635811119
 10
-13.36681866535757
 20
40.9878790557112
 10
-13.09042576935755
 20
41.25431969091119
 10
-12.81025097255756
 20
41.4971364925112
 10
-12.52488940295757
 20
41.71831846691119
 10
-12.22439395655757
 20
41.9260220509112
 10
-11.90468112935758
 20
42.12220158211119
 10
-11.56279025735756
 20
42.30732446211118
 10
-11.19406901095754
 20
42.48218035811118
 10
-10.79385782855754
 20
42.64683955971119
 10
-10.35210916295756
 20
42.80262259811118
 10
-9.852836711757561
 20
42.9510549501112
 10
-9.281331540557573
 20
43.0931072157112
 10
-8.62643182535757
 20
43.22899868771119
 10
-7.901264103757569
 20
43.34926005731119
 10
-7.181379470157551
 20
43.4380313037112
 10
-6.530365628557561
 20
43.49132878531119
  0
LWPOLYLINE
  5
7B6
330
2
100
AcDbEntity
  8
0
  6
CONTINUOUS
100
AcDbPolyline
 90
       18
 70
     0
 43
0.0
 10
-13.68264725415755
 20
40.3441992749112
 10
-13.53573603335755
 20
40.5133512813112
 10
-13.36371087975757
 20
40.68702020291119
 10
-13.16286655015756
 20
40.86539753571119
 10
-12.92891065095756
 20
41.04847653091119
 10
-12.65718097415756
 20
41.2358131853112
 10
-12.34270980455755
 20
41.42649044931118
 10
-11.98031158535757
 20
41.61907904131118
 10
-11.56546661575757
 20
41.8112643133112
 10
-11.09523092615756
 20
41.99968688771119
 10
-10.56910622215757
 20
42.17998660771118
 10
-9.989597466957548
 20
42.3470832989112
 10
-9.364534902157572
 20
42.49515725891117
 10
-8.712348217357572
 20
42.61753219491118
 10
-8.052954169357548
 20
42.70958884451118
 10
-7.425751010957569
 20
42.76785387171119
 10
-6.862987246157572
 20
42.79718450691118
 10
-6.374486081357574
 20
42.80724286371119
  0
LINE
  5
7CA
330
2
100
AcDbEntity
  8
0
  6
CONTINUOUS
100
AcDbLine
 10
-13.74171242375757
 20
40.40421014371119
 30
0.0
 11
-13.68264629895756
 21
40.34419842211116
 31
0.0
  0
LWPOLYLINE
  5
7CB
330
2
100
AcDbEntity
  8
0
  6
CONTINUOUS
100
AcDbPolyline
 90
        4
 70
     0
 43
0.0
 10
-13.74170168775757
 20
40.40420063811118
 10
-13.77546436615756
 20
40.42354616131118
 10
-13.80898114535756
 20
40.44248024611118
 10
-13.84219631975754
 20
40.46097429251119
  0
LWPOLYLINE
  5
7D1
330
2
100
AcDbEntity
  8
0
  6
HIDDEN
100
AcDbPolyline
 90
        3
 70
     0
 43
0.0
 10
-6.870690692557573
 20
44.7619071645112
 10
-8.730436506957573
 20
44.81073041571116
 10
-9.511070249357572
 20
44.8313140493112
  0
LINE
  5
7D6
330
2
100
AcDbEntity
  8
0
  6
CONTINUOUS
100
AcDbLine
 10
-8.352067526157568
 20
44.7970408397112
 30
0.0
 11
-9.504562711757571
 21
44.82746275171118
 31
0.0
  0
LINE
  5
7D7
330
2
100
AcDbEntity
  8
0
  6
HIDDEN
100
AcDbLine
 10
-9.526611412557571
 20
44.83160858531118
 30
0.0
 11
-9.556953034957572
 21
44.83203449891118
 31
0.0
  0
LWPOLYLINE
  5
7D8
330
2
100
AcDbEntity
  8
0
  6
CONTINUOUS
100
AcDbPolyline
 90
        3
 70
     0
 43
0.0
 10
-9.87308785095756
 20
44.82922090691118
 10
-9.858417210957568
 20
44.8298070685112
 10
-9.844112962957552
 20
44.82998656931118
  0
LINE
  5
7DD
330
2
100
AcDbEntity
  8
0
  6
CONTINUOUS
100
AcDbLine
 10
-9.726991822157572
 20
44.8295634957112
 30
0.0
 11
-9.844112962957552
 21
44.82998656931118
 31
0.0
  0
LINE
  5
7DE
330
2
100
AcDbEntity
  8
0
  6
HIDDEN
100
AcDbLine
 10
-9.62453577895755
 20
44.83268822051118
 30
0.0
 11
-9.844156145357572
 21
44.83365870851119
 31
0.0
  0
LINE
  5
7DF
330
2
100
AcDbEntity
  8
0
  6
HIDDEN
100
AcDbLine
 10
-9.556953034957572
 20
44.83203449891118
 30
0.0
 11
-9.62453577895755
 21
44.83268822051118
 31
0.0
  0
LINE
  5
7E0
330
2
100
AcDbEntity
  8
0
  6
CONTINUOUS
100
AcDbLine
 10
-10.07565276775756
 20
44.83781528931118
 30
0.0
 11
-10.24368919175755
 21
44.8443064061112
 31
0.0
  0
LWPOLYLINE
  5
7E1
330
2
100
AcDbEntity
  8
0
  6
HIDDEN
100
AcDbPolyline
 90
        3
 70
     0
 43
0.0
 10
-9.873109415757554
 20
44.8328876589112
 10
-9.94347879175757
 20
44.8360131229112
 10
-10.20413560615754
 20
44.8464123981112
  0
LWPOLYLINE
  5
7E6
330
2
100
AcDbEntity
  8
0
  6
CONTINUOUS
100
AcDbPolyline
 90
        3
 70
     0
 43
0.0
 10
-9.87308785095756
 20
44.82922090691118
 10
-9.934401127757553
 20
44.83198979171118
 10
-10.07565276775756
 20
44.83781528931118
  0
LWPOLYLINE
  5
7EB
330
2
100
AcDbEntity
  8
0
  6
HIDDEN
100
AcDbPolyline
 90
        4
 70
     0
 43
0.0
 10
-9.873109415757554
 20
44.8328876589112
 10
-9.863296401357573
 20
44.83332133891116
 10
-9.853638422157573
 20
44.8335894221112
 10
-9.844156145357572
 20
44.83365870851119
  0
LINE
  5
7F1
330
2
100
AcDbEntity
  8
0
  6
HIDDEN
100
AcDbLine
 10
-9.511070249357572
 20
44.8313140493112
 30
0.0
 11
-9.526611412557571
 21
44.83160858531118
 31
0.0
  0
LINE
  5
7F2
330
2
100
AcDbEntity
  8
0
  6
CONTINUOUS
100
AcDbLine
 10
-2.000662279757548
 20
41.83851214691119
 30
0.0
 11
-2.712020705357574
 21
41.89449821411119
 31
0.0
  0
LINE
  5
7F3
330
2
100
AcDbEntity
  8
0
  6
CONTINUOUS
100
AcDbLine
 10
-5.789774417357548
 20
43.51850767651121
 30
0.0
 11
-5.691778308557573
 21
43.51970719651117
 31
0.0
  0
LINE
  5
7F4
330
2
100
AcDbEntity
  8
0
  6
CONTINUOUS
100
AcDbLine
 10
-5.691778308557573
 20
43.51970719651117
 30
0.0
 11
-5.612178446157571
 21
43.52031228451119
 31
0.0
  0
LINE
  5
7F5
330
2
100
AcDbEntity
  8
0
  6
CONTINUOUS
100
AcDbLine
 10
-5.612178446157571
 20
43.52031228451119
 30
0.0
 11
-5.548722628557584
 21
43.52042815011119
 31
0.0
  0
LINE
  5
7F6
330
2
100
AcDbEntity
  8
0
  6
CONTINUOUS
100
AcDbLine
 10
-5.909080423757572
 20
43.5164153645112
 30
0.0
 11
-5.789774417357548
 21
43.51850767651121
 31
0.0
  0
LINE
  5
7F7
330
2
100
AcDbEntity
  8
0
  6
CONTINUOUS
100
AcDbLine
 10
-2.712020705357574
 20
41.89449821411119
 30
0.0
 11
-3.13827913095757
 21
41.92752851491118
 31
0.0
  0
LWPOLYLINE
  5
7F8
330
2
100
AcDbEntity
  8
0
  6
CONTINUOUS
100
AcDbPolyline
 90
        8
 70
     0
 43
0.0
 10
1.854880430642438
 20
41.58677514371118
 10
1.605744915442429
 20
41.5995750381112
 10
1.355357763442427
 20
41.61294476611118
 10
1.10435105624245
 20
41.62684990371121
 10
0.8535495106424519
 20
41.64124202531119
 10
0.6038261570424482
 20
41.65605912931119
 10
0.3558164690424519
 20
41.67125001571119
 10
0.1091573714424499
 20
41.68682030211118
  0
LINE
  5
802
330
2
100
AcDbEntity
  8
0
  6
CONTINUOUS
100
AcDbLine
 10
-0.5147434877575705
 20
41.72822543171119
 30
0.0
 11
-0.7777408173575538
 21
41.7465580445112
 31
0.0
  0
LINE
  5
803
330
2
100
AcDbEntity
  8
0
  6
CONTINUOUS
100
AcDbLine
 10
-0.7777408173575538
 20
41.7465580445112
 30
0.0
 11
-1.055180081357548
 21
41.7664987805112
 31
0.0
  0
LINE
  5
804
330
2
100
AcDbEntity
  8
0
  6
CONTINUOUS
100
AcDbLine
 10
-1.055180081357548
 20
41.7664987805112
 30
0.0
 11
-1.29893943975756
 21
41.78452781251118
 31
0.0
  0
LINE
  5
805
330
2
100
AcDbEntity
  8
0
  6
CONTINUOUS
100
AcDbLine
 10
-1.29893943975756
 20
41.78452781251118
 30
0.0
 11
-1.610331593357571
 21
41.80817898371119
 31
0.0
  0
LINE
  5
806
330
2
100
AcDbEntity
  8
0
  6
CONTINUOUS
100
AcDbLine
 10
-1.610331593357571
 20
41.80817898371119
 30
0.0
 11
-2.000662279757548
 21
41.83851214691119
 31
0.0
  0
LINE
  5
807
330
2
100
AcDbEntity
  8
0
  6
CONTINUOUS
100
AcDbLine
 10
0.1091573714424499
 20
41.68682030211118
 30
0.0
 11
-0.220064372557573
 21
41.70830923491118
 31
0.0
  0
LINE
  5
808
330
2
100
AcDbEntity
  8
0
  6
CONTINUOUS
100
AcDbLine
 10
-0.220064372557573
 20
41.70830923491118
 30
0.0
 11
-0.5147434877575705
 21
41.72822543171119
 31
0.0
  0
LINE
  5
809
330
2
100
AcDbEntity
  8
0
  6
CENTER
 62
     1
100
AcDbLine
 10
17.83209866736055
 20
32.40420974051119
 30
0.0
 11
38.84082524861429
 21
32.40420974051119
 31
0.0
  0
LWPOLYLINE
  5
80B
330
2
100
AcDbEntity
  8
0
  6
CONTINUOUS
100
AcDbPolyline
 90
       19
 70
     0
 43
0.0
 10
25.46065492504244
 20
42.30079569891119
 10
25.11924327224242
 20
42.32610335971119
 10
24.78833419064243
 20
42.34171247491116
 10
24.45783069944244
 20
42.35109981571119
 10
24.12206481304242
 20
42.35623736291119
 10
23.77768024504244
 20
42.35839483011119
 10
23.42176586264243
 20
42.35845989571117
 10
23.05385183384244
 20
42.3570922829112
 10
22.66675494904242
 20
42.35475695011118
 10
22.24722568024245
 20
42.35147960611118
 10
21.78829591384244
 20
42.34701056291117
 10
21.29085922104243
 20
42.3411201053112
 10
20.75649145464244
 20
42.3335639997112
 10
20.18669015864245
 20
42.3240814669112
 10
19.56445562104242
 20
42.31204520451117
 10
18.87025095704243
 20
42.29681711171119
 10
18.08401228664244
 20
42.2777269197112
 10
17.22449295384242
 20
42.25506842211117
 10
16.39137088984244
 20
42.23175098691117
  0
LWPOLYLINE
  5
820
330
2
100
AcDbEntity
  8
0
  6
CONTINUOUS
100
AcDbPolyline
 90
       83
 70
     0
 43
0.0
 10
29.02409488504243
 20
37.87828686051119
 10
28.98859104344242
 20
37.94623679331115
 10
28.95250005304243
 20
38.01264492291119
 10
28.91590060824245
 20
38.0767780445112
 10
28.87871980184245
 20
38.13831148611118
 10
28.84027833784244
 20
38.19855470531115
 10
28.79974532664245
 20
38.25922568611119
 10
28.75643393624243
 20
38.32174484451115
 10
28.71023359224244
 20
38.38634231011118
 10
28.66117777944244
 20
38.45295064451116
 10
28.60925887544245
 20
38.5215538461112
 10
28.55430481144244
 20
38.59234167171115
 10
28.49610241144245
 20
38.66555531651119
 10
28.43443818264245
 20
38.74137784451116
 10
28.36909738424245
 20
38.81975980131119
 10
28.29986496024243
 20
38.90059359651115
 10
28.22667314264243
 20
38.98360883651119
 10
28.15004332824244
 20
39.06788388611116
 10
28.07064420184243
 20
39.1523343005112
 10
27.98913990264245
 20
39.2359430717112
 10
27.90617637944242
 20
39.31796294531119
 10
27.82239503064244
 20
39.39771410371119
 10
27.73827815704243
 20
39.47468420611119
 10
27.65367164504245
 20
39.54903083171117
 10
27.56826227704245
 20
39.62107903811116
 10
27.43802052184244
 20
39.72545212771118
 10
27.30458734904245
 20
39.8258777453112
 10
27.21351178744242
 20
39.8908839213112
 10
27.12044685944245
 20
39.95453383171119
 10
27.02512394584245
 20
40.01700671171119
 10
26.92733910264244
 20
40.07843017251116
 10
26.82714711544242
 20
40.13872531971119
 10
26.72466745144243
 20
40.19776163651118
 10
26.62000433464243
 20
40.25541851811115
 10
26.51320102744245
 20
40.31161502371119
 10
26.40428555544243
 20
40.36628012291117
 10
26.29325796984243
 20
40.41935731011119
 10
26.18000644344245
 20
40.47084817571115
 10
26.06439117784245
 20
40.52076883811119
 10
25.94626271384244
 20
40.5691340221112
 10
25.82543294424245
 20
40.61595291651116
 10
25.70170409944245
 20
40.66123332291119
 10
25.57486430104244
 20
40.7049812301112
 10
25.44464522904245
 20
40.74719538051119
 10
25.31076446104243
 20
40.7878727069112
 10
25.17293739544246
 20
40.82700291651116
 10
25.03087073624245
 20
40.86454681091118
 10
24.88426901624242
 20
40.90045796611116
 10
24.77117665464243
 20
40.9262934685112
 10
24.65531930584244
 20
40.95117413731119
 10
24.53664915704244
 20
40.9750896669112
 10
24.41511839384244
 20
40.99802975171118
 10
24.29064601304244
 20
41.0199884941112
 10
24.16301825784245
 20
41.0409776301112
 10
24.03198817784245
 20
41.06101330211117
 10
23.89730882264243
 20
41.08011165251119
 10
23.75892427064245
 20
41.0982687757112
 10
23.61754269624245
 20
41.11540056451116
 10
23.47387981624243
 20
41.1314272637112
 10
23.32791740184242
 20
41.14636670211118
 10
23.12994054904243
 20
41.16464539331116
 10
22.93043124504242
 20
41.18103286531118
 10
22.73230369784243
 20
41.1954957357112
 10
22.58611182904245
 20
41.20508557251119
 10
22.44202949144242
 20
41.21371466531118
 10
22.30008140024244
 20
41.22150208451119
 10
22.16161893464244
 20
41.22848071491119
 10
22.02781515544244
 20
41.2346837741112
 10
21.89780320984245
 20
41.24023200291119
 10
21.77044831224244
 20
41.24525147971119
 10
21.64558388824243
 20
41.2498021165112
 10
21.48289271224243
 20
41.25521593731119
 10
21.32368334584243
 20
41.25998006371119
 10
21.16687591384243
 20
41.26420119811117
 10
20.93407499704242
 20
41.26971134531117
 10
20.70221712504245
 20
41.27437887491118
 10
20.23634853144243
 20
41.28163830691116
 10
19.76857055384245
 20
41.28656986531118
 10
19.53469665944244
 20
41.28831082691118
 10
19.30199297304243
 20
41.28964111011121
 10
19.07119945464243
 20
41.2906131421112
 10
18.84119554424245
 20
41.29128152131116
 10
18.53228532184245
 20
41.29179049251118
  0
LWPOLYLINE
  5
875
330
2
100
AcDbEntity
  8
0
  6
CONTINUOUS
100
AcDbPolyline
 90
        4
 70
     0
 43
0.0
 10
14.16470797454165
 20
43.23770870872685
 10
17.07702152184244
 20
43.18080956931118
 10
20.32981780504245
 20
43.1139517613112
 10
23.96053043064245
 20
43.03544660131118
  0
LWPOLYLINE
  5
87B
330
2
100
AcDbEntity
  8
0
  6
DASHED
100
AcDbPolyline
 90
       11
 70
     0
 43
0.0
 10
10.99981098264243
 20
42.71482754531118
 10
10.71500105624242
 20
42.68363858371119
 10
10.43002106104243
 20
42.65403478851118
 10
10.14470340184244
 20
42.62599900131118
 10
9.859234529842439
 20
42.59954978371118
 10
9.573467209842448
 20
42.57467356931118
 10
9.287566142642447
 20
42.5513847741112
 10
9.001406693042426
 20
42.52967316451119
 10
8.715130965042447
 20
42.50954945091118
 10
8.428636393842438
 20
42.49100618051119
 10
8.142044382642438
 20
42.47405096131117
  0
LWPOLYLINE
  5
888
330
2
100
AcDbEntity
  8
0
  6
CONTINUOUS
100
AcDbPolyline
 90
        5
 70
     0
 43
0.0
 10
6.071871981981388
 20
43.37998840047977
 10
6.295923806642448
 20
43.37651639971119
 10
8.738853166642428
 20
43.33592913251118
 10
11.33095264184243
 20
43.29034711651118
 10
12.09114482084889
 20
43.2762439481135
  0
LWPOLYLINE
  5
88F
330
2
100
AcDbEntity
  8
0
  6
DASHED
100
AcDbPolyline
 90
       11
 70
     0
 43
0.0
 10
11.13166281944244
 20
41.5427102797112
 10
10.82335952024244
 20
41.51067046851119
 10
10.51489866904245
 20
41.48017643011118
 10
10.20614510424245
 20
41.45121481251118
 10
9.897250571442427
 20
41.42379984611119
 10
9.588081003442439
 20
41.3979196317112
 10
9.278785811442446
 20
41.37358667011119
 10
8.969233955442447
 20
41.35079065731119
 10
8.659571805042446
 20
41.32954237571119
 10
8.349671243442429
 20
41.30983302851118
 10
8.039676918642427
 20
41.29167180931119
  0
LINE
  5
89C
330
2
100
AcDbEntity
  8
0
  6
CONTINUOUS
100
AcDbLine
 10
10.95674257784244
 20
41.31548970691119
 30
0.0
 11
10.41502692024244
 21
41.3219850957112
 31
0.0
  0
LWPOLYLINE
  5
89D
330
2
100
AcDbEntity
  8
0
  6
DASHED
100
AcDbPolyline
 90
       26
 70
     0
 43
0.0
 10
5.738016027442427
 20
43.7208913229112
 10
5.73328591224245
 20
43.72235208771118
 10
5.728515454642447
 20
43.72367836771118
 10
5.722645312242448
 20
43.7251668797112
 10
5.716747219442439
 20
43.7265392077112
 10
5.709726577842445
 20
43.72804977731118
 10
5.702684317042439
 20
43.72945679011118
 10
5.694535288242448
 20
43.73097719491116
 10
5.686369406642427
 20
43.73240418051119
 10
5.66792616664243
 20
43.73534766051119
 10
5.647439105842451
 20
43.73826621891118
 10
5.625079662642448
 20
43.74113025891119
 10
5.601059136242426
 20
43.74391083491116
 10
5.575566617842426
 20
43.7465862109112
 10
5.548776704242428
 20
43.74913883331117
 10
5.521017792242446
 20
43.75154027331118
 10
5.492560542642451
 20
43.75377278531118
 10
5.463649947442448
 20
43.75582415651118
 10
5.434488003442439
 20
43.75768762211118
 10
5.40528913944243
 20
43.75935742851118
 10
5.376189625842428
 20
43.76083368931119
 10
5.347381608242429
 20
43.76211455651119
 10
5.318952648242429
 20
43.76320384611119
 10
5.291049918642428
 20
43.76410327171117
 10
5.263725949042452
 20
43.7648180653112
 10
5.237107067442451
 20
43.76535143651119
  0
LWPOLYLINE
  5
8B9
330
2
100
AcDbEntity
  8
0
  6
DASHED
100
AcDbPolyline
 90
       50
 70
     0
 43
0.0
 10
8.039676925042428
 20
41.29167195171118
 10
7.896374797042426
 20
41.28539082211119
 10
7.752940821042429
 20
41.2826009405112
 10
7.609485037042446
 20
41.28329220291118
 10
7.48898087384245
 20
41.2865577101112
 10
7.368577848242452
 20
41.29226734531118
 10
7.248231293042451
 20
41.3004209725112
 10
7.128065005042429
 20
41.3110121741112
 10
6.96831143224243
 20
41.32890630051119
 10
6.809089096242431
 20
41.3511112333112
 10
6.650537985842447
 20
41.37761467971119
 10
6.532359896242439
 20
41.40026304611118
 10
6.41467444664245
 20
41.42531187491118
 10
6.297797193842427
 20
41.4526920909112
 10
6.181502825842429
 20
41.48245830371118
 10
6.066202093042448
 20
41.5145057661112
 10
5.951586051442447
 20
41.54892006691119
 10
5.838139152242447
 20
41.5855538957112
 10
5.725476590642429
 20
41.62453334211119
 10
5.614155949042427
 20
41.66566580931117
 10
5.503720803442448
 20
41.70911961251118
 10
5.394792185842447
 20
41.7546485901112
 10
5.286851061042426
 20
41.80247153731118
 10
5.180576158642452
 20
41.8522881229112
 10
5.07539189304245
 20
41.90436770211118
 10
4.972023997042427
 20
41.95834914691118
 10
4.86985044184243
 20
42.01455924451116
 10
4.769636656242425
 20
42.07257740771118
 10
4.670724358642431
 20
42.13278398851119
 10
4.573907187442429
 20
42.19469410211118
 10
4.478490677042429
 20
42.25875394531118
 10
4.385694814642448
 20
42.32412468931116
 10
4.294390317042427
 20
42.39158139971118
 10
4.204648523442429
 20
42.46111187491118
 10
4.11654077304243
 20
42.5327039101112
 10
4.031633491442448
 20
42.60504041571119
 10
3.948442217842426
 20
42.6793403581112
 10
3.867036654642447
 20
42.75558881091117
 10
3.787486507442451
 20
42.83377085251117
 10
3.711275488242449
 20
42.91237645411118
 10
3.636991835442429
 20
42.99280769731118
 10
3.564708102642427
 20
43.0750416397112
 10
3.494496853042448
 20
43.1590553309112
 10
3.427686472242427
 20
43.24320078371118
 10
3.363016077042431
 20
43.32900163331117
 10
3.300560221042431
 20
43.41642166851116
 10
3.240393457842429
 20
43.50542467971118
 10
3.190625576242439
 20
43.58306363651118
 10
3.142646904242425
 20
43.66181033411118
 10
3.096504763442439
 20
43.74163262851118
  0
LWPOLYLINE
  5
8ED
330
2
100
AcDbEntity
  8
0
  6
DASHED
100
AcDbPolyline
 90
       55
 70
     0
 43
0.0
 10
8.142044382642438
 20
42.47405096131117
 10
8.09195604024245
 20
42.4717377517112
 10
8.041828849842445
 20
42.47044217091118
 10
7.99152359384243
 20
42.47016322051118
 10
7.941223605042452
 20
42.4709044477112
 10
7.890828413042427
 20
42.47266873891118
 10
7.840479089842446
 20
42.47545266531119
 10
7.79011945144245
 20
42.4792597741112
 10
7.739847011442449
 20
42.48408316451116
 10
7.689646473842429
 20
42.48992374051119
 10
7.639573779442429
 20
42.49677450211118
 10
7.589624182642438
 20
42.5046355229112
 10
7.539842728242447
 20
42.51349920131116
 10
7.490215025842431
 20
42.52336812611119
 10
7.440795493042429
 20
42.5342315773112
 10
7.391573141042428
 20
42.54609221571118
 10
7.342598688242446
 20
42.5589381405112
 10
7.293879032242429
 20
42.57276754211119
 10
7.245446545842426
 20
42.5875713053112
 10
7.197322654642448
 20
42.60334273411118
 10
7.149524721842439
 20
42.6200760669112
 10
7.102081678642448
 20
42.6377610973112
 10
7.055002958642447
 20
42.65639431651118
 10
7.008324797042448
 20
42.67596137891118
 10
6.962048891442449
 20
42.6964616509112
 10
6.916221013042431
 20
42.71787483491118
 10
6.870832825842427
 20
42.7402048829112
 10
6.825939325042426
 20
42.76342468611119
 10
6.781522411442452
 20
42.78754362531119
 10
6.737644451442449
 20
42.8125277965112
 10
6.694279435442439
 20
42.83839204291118
 10
6.651496097842439
 20
42.8650953517112
 10
6.609261493042438
 20
42.89265834051121
 10
6.567650859442451
 20
42.92103187491119
 10
6.52662411704243
 20
42.9502433149112
 10
6.486262600242426
 20
42.9802346797112
 10
6.446519446642426
 20
43.01104076931119
 10
6.407479421042452
 20
43.04259585251119
 10
6.369091549042451
 20
43.07494113731118
 10
6.331441749042426
 20
43.10800431971119
 10
6.294477213042426
 20
43.14183188131116
 10
6.258286601842428
 20
43.17634275971116
 10
6.222813550642428
 20
43.21159077731119
 10
6.188152049842429
 20
43.2474823597112
 10
6.154239355442427
 20
43.28408227811118
 10
6.121170222642447
 20
43.32128803491116
 10
6.088880168242425
 20
43.35917188611119
 10
6.057455713842429
 20
43.39763263651116
 10
6.026839931442452
 20
43.43674022051118
 10
5.997113360242451
 20
43.47639247331119
 10
5.968224382642446
 20
43.51665883011119
 10
5.940262128242451
 20
43.55741475491117
 10
5.913164065842451
 20
43.5987510493112
 10
5.88703014424243
 20
43.6405133229112
 10
5.861786611442425
 20
43.68281700451118
  0
LWPOLYLINE
  5
926
330
2
100
AcDbEntity
  8
0
  6
CONTINUOUS
100
AcDbPolyline
 90
        2
 70
     0
 43
0.0
 10
6.683460938553345
 20
41.37211127005167
 10
6.48799288824243
 20
41.37495430211117
  0
LWPOLYLINE
  5
92A
330
2
100
AcDbEntity
  8
0
  6
CONTINUOUS
100
AcDbPolyline
 90
       21
 70
     0
 43
0.0
 10
2.60006336184243
 20
41.55020299331119
 10
2.594836232242428
 20
41.53350426691119
 10
2.589110480242439
 20
41.5048543629112
 10
2.582939006642448
 20
41.4644520317112
 10
2.576357528242439
 20
41.4125336701112
 10
2.56943140024245
 20
41.3496732781112
 10
2.56217805784243
 20
41.27609278851119
 10
2.554601937842448
 20
41.19179952931119
 10
2.546769387442452
 20
41.09747608771118
 10
2.538730681842451
 20
40.99371604451119
 10
2.53055844984243
 20
40.88148535491121
 10
2.522283086642445
 20
40.76124099171116
 10
2.513914563442426
 20
40.63310614851118
 10
2.505516902642426
 20
40.49801813251116
 10
2.497147557042438
 20
40.35688957251119
 10
2.488883352242439
 20
40.21105068771118
 10
2.480744910642428
 20
40.06090531651119
 10
2.472745672242439
 20
39.90667084131115
 10
2.464956465842448
 20
39.74967149091119
 10
2.457426323442447
 20
39.5908916621112
 10
2.45027200664245
 20
39.43215630531119
  0
LWPOLYLINE
  5
941
330
2
100
AcDbEntity
  8
0
  6
CONTINUOUS
100
AcDbPolyline
 90
       30
 70
     0
 43
0.0
 10
2.91722988184243
 20
39.26219614531118
 10
2.944722531442451
 20
39.3575392509112
 10
2.981555544242439
 20
39.46272342051119
 10
3.028365320242428
 20
39.57819459971119
 10
3.086523549042439
 20
39.70495468131119
 10
3.157829272242452
 20
39.84366401731119
 10
3.245475605042429
 20
39.9961141677112
 10
3.35294114264245
 20
40.16244649091118
 10
3.477126856242449
 20
40.33219258371116
 10
3.609427081842426
 20
40.49100465251117
 10
3.743177206642428
 20
40.6316938333112
 10
3.871141033842448
 20
40.75121773411118
 10
3.989058813042447
 20
40.85103402851117
 10
4.097124457842426
 20
40.9350878797112
 10
4.196234374642429
 20
41.00652200611119
 10
4.286968857842438
 20
41.06742361571119
 10
4.369952453042429
 20
41.1194252141112
 10
4.445757118642447
 20
41.16380181891119
 10
4.514929078642438
 20
41.20159002691116
 10
4.577949808242451
 20
41.23363094371121
 10
4.63526871864245
 20
41.26063287331118
 10
4.687325323442451
 20
41.28320937731118
 10
4.734505425842428
 20
41.30187953251118
 10
4.777158913842427
 20
41.3170939037112
 10
4.815611462642451
 20
41.32925148451121
 10
4.850180384242449
 20
41.3387128173112
 10
4.881161040242446
 20
41.34580140291117
 10
4.908814038642447
 20
41.35080782211119
 10
4.933407206642428
 20
41.35400309251119
 10
4.955172637042451
 20
41.35563444291119
  0
LWPOLYLINE
  5
961
330
2
100
AcDbEntity
  8
0
  6
CONTINUOUS
100
AcDbPolyline
 90
        2
 70
     0
 43
0.0
 10
4.514121112923383
 20
42.23483271693978
 10
4.290468197042429
 20
42.23995409091119
  0
LINE
  5
965
330
2
100
AcDbEntity
  8
0
  6
CONTINUOUS
100
AcDbLine
 10
4.527475137842429
 20
41.4310327437112
 30
0.0
 11
4.352476689842447
 21
41.43581110211118
 31
0.0
  0
LINE
  5
966
330
2
100
AcDbEntity
  8
0
  6
CONTINUOUS
100
AcDbLine
 10
4.010955089842425
 20
41.45272893091117
 30
0.0
 11
3.652453443442439
 21
41.48080819651116
 31
0.0
  0
LINE
  5
967
330
2
100
AcDbEntity
  8
0
  6
CONTINUOUS
100
AcDbLine
 10
2.720299352242449
 20
41.5427333421112
 30
0.0
 11
2.48666873784245
 21
41.55529637571118
 31
0.0
  0
LINE
  5
968
330
2
100
AcDbEntity
  8
0
  6
CONTINUOUS
100
AcDbLine
 10
2.900044091442438
 20
41.53235238531118
 30
0.0
 11
2.720299352242449
 21
41.5427333421112
 31
0.0
  0
LINE
  5
969
330
2
100
AcDbEntity
  8
0
  6
CONTINUOUS
100
AcDbLine
 10
3.077985344242449
 20
41.52136990691121
 30
0.0
 11
2.900044091442438
 21
41.53235238531118
 31
0.0
  0
LINE
  5
96A
330
2
100
AcDbEntity
  8
0
  6
CONTINUOUS
100
AcDbLine
 10
3.25359264024243
 20
41.50978727811116
 30
0.0
 11
3.077985344242449
 21
41.52136990691121
 31
0.0
  0
LINE
  5
96B
330
2
100
AcDbEntity
  8
0
  6
CONTINUOUS
100
AcDbLine
 10
3.426553088242428
 20
41.49764946051118
 30
0.0
 11
3.25359264024243
 21
41.50978727811116
 31
0.0
  0
LINE
  5
96C
330
2
100
AcDbEntity
  8
0
  6
CONTINUOUS
100
AcDbLine
 10
3.652453443442439
 20
41.48080819651116
 30
0.0
 11
3.426553088242428
 21
41.49764946051118
 31
0.0
  0
LINE
  5
96D
330
2
100
AcDbEntity
  8
0
  6
CONTINUOUS
100
AcDbLine
 10
4.352476689842447
 20
41.43581110211118
 30
0.0
 11
4.291769072242431
 21
41.43771610371118
 31
0.0
  0
LWPOLYLINE
  5
96E
330
2
100
AcDbEntity
  8
0
  6
CONTINUOUS
100
AcDbPolyline
 90
        9
 70
     0
 43
0.0
 10
4.291769072242431
 20
41.43771610371118
 10
4.230228285042429
 20
41.44004869891119
 10
4.199204117042427
 20
41.44140899811119
 10
4.168032078642426
 20
41.44291234371118
 10
4.136731782642428
 20
41.4445672381112
 10
4.105339637042447
 20
41.44637601731119
 10
4.073896246642448
 20
41.44833947491119
 10
4.04243433144245
 20
41.45045781891122
 10
4.010955089842425
 20
41.45272893091117
  0
LWPOLYLINE
  5
979
330
2
100
AcDbEntity
  8
0
  6
DASHED
100
AcDbPolyline
 90
        9
 70
     0
 43
0.0
 10
5.738016027442427
 20
43.7208913229112
 10
5.753157707442426
 20
43.71597215011118
 10
5.76832236344245
 20
43.71112383811118
 10
5.783508942642427
 20
43.70634432611118
 10
5.798716397042426
 20
43.70163155171119
 10
5.814454347442449
 20
43.6968288573112
 10
5.830212609842448
 20
43.69209341891118
 10
5.845990318642449
 20
43.68742340931118
 10
5.861786611442425
 20
43.68281700451118
  0
LINE
  5
984
330
2
100
AcDbEntity
  8
0
  6
CONTINUOUS
100
AcDbLine
 10
6.48799288824243
 20
41.37495430211117
 30
0.0
 11
5.847168675442446
 21
41.3855349261112
 31
0.0
  0
LINE
  5
985
330
2
100
AcDbEntity
  8
0
  6
CONTINUOUS
100
AcDbLine
 10
5.847168675442446
 20
41.3855349261112
 30
0.0
 11
5.730858008242449
 21
41.38788977571119
 31
0.0
  0
LINE
  5
986
330
2
100
AcDbEntity
  8
0
  6
CONTINUOUS
100
AcDbLine
 10
5.730858008242449
 20
41.38788977571119
 30
0.0
 11
5.616145486642452
 21
41.39052474851118
 31
0.0
  0
LINE
  5
987
330
2
100
AcDbEntity
  8
0
  6
CONTINUOUS
100
AcDbLine
 10
5.616145486642452
 20
41.39052474851118
 30
0.0
 11
5.503090963442446
 21
41.39343112611117
 31
0.0
  0
LINE
  5
988
330
2
100
AcDbEntity
  8
0
  6
CONTINUOUS
100
AcDbLine
 10
5.503090963442446
 20
41.39343112611117
 30
0.0
 11
5.391697766642451
 21
41.39660070851118
 31
0.0
  0
LINE
  5
989
330
2
100
AcDbEntity
  8
0
  6
CONTINUOUS
100
AcDbLine
 10
5.391697766642451
 20
41.39660070851118
 30
0.0
 11
5.227736992242427
 21
41.40182754211119
 31
0.0
  0
LINE
  5
98A
330
2
100
AcDbEntity
  8
0
  6
CONTINUOUS
100
AcDbLine
 10
5.227736992242427
 20
41.40182754211119
 30
0.0
 11
5.067563363442445
 21
41.40759455011118
 31
0.0
  0
LINE
  5
98B
330
2
100
AcDbEntity
  8
0
  6
CONTINUOUS
100
AcDbLine
 10
5.067563363442445
 20
41.40759455011118
 30
0.0
 11
4.91120642424245
 21
41.4138867469112
 31
0.0
  0
LINE
  5
98C
330
2
100
AcDbEntity
  8
0
  6
CONTINUOUS
100
AcDbLine
 10
4.91120642424245
 20
41.4138867469112
 30
0.0
 11
4.758601955442429
 21
41.4206286893112
 31
0.0
  0
LWPOLYLINE
  5
98D
330
2
100
AcDbEntity
  8
0
  6
CONTINUOUS
100
AcDbPolyline
 90
        3
 70
     0
 43
0.0
 10
4.589571965042452
 20
41.42876378531116
 10
4.56911221304243
 20
41.42960398211118
 10
4.527475137842429
 20
41.4310327437112
  0
LINE
  5
992
330
2
100
AcDbEntity
  8
0
  6
CONTINUOUS
100
AcDbLine
 10
4.758601955442429
 20
41.4206286893112
 30
0.0
 11
4.589571965042452
 21
41.42876378531116
 31
0.0
  0
LINE
  5
993
330
2
100
AcDbEntity
  8
0
  6
CONTINUOUS
100
AcDbLine
 10
9.795559173042448
 20
41.3299647421112
 30
0.0
 11
8.849738702220854
 21
41.34259117672553
 31
0.0
  0
LINE
  5
994
330
2
100
AcDbEntity
  8
0
  6
CONTINUOUS
100
AcDbLine
 10
10.41502692024244
 20
41.3219850957112
 30
0.0
 11
9.795559173042448
 21
41.3299647421112
 31
0.0
  0
LINE
  5
995
330
2
100
AcDbEntity
  8
0
  6
DASHED
100
AcDbLine
 10
5.237107067442451
 20
43.76535143651119
 30
0.0
 11
3.582955987442446
 21
43.79335991011117
 31
0.0
  0
LWPOLYLINE
  5
996
330
2
100
AcDbEntity
  8
0
  6
DASHED
100
AcDbPolyline
 90
       47
 70
     0
 43
0.0
 10
3.582955987442446
 20
43.79335991011117
 10
3.540473918642447
 20
43.79396705251119
 10
3.49980367864245
 20
43.79432765891118
 10
3.460991448242438
 20
43.79445378531116
 10
3.423975885042452
 20
43.79435718531119
 10
3.38876278584243
 20
43.7940482637112
 10
3.355306729842439
 20
43.79353597411119
 10
3.323645203442438
 20
43.79282953891117
 10
3.29372274584243
 20
43.79193551171119
 10
3.265564923442425
 20
43.79086141411116
 10
3.239165457842446
 20
43.7896131965112
 10
3.214507213042452
 20
43.78819495811121
 10
3.191632294642445
 20
43.78661326531118
 10
3.170515014642447
 20
43.78486923811118
 10
3.151209776242438
 20
43.78296895331118
 10
3.142463504242428
 20
43.78198718211118
 10
3.133727957042452
 20
43.78091408931118
 10
3.125908368242448
 20
43.77986177411119
 10
3.118103313842439
 20
43.77870707491118
 10
3.111238891442425
 20
43.77758833411118
 10
3.104394293042446
 20
43.7763532845112
 10
3.09849543224243
 20
43.77517064131118
 10
3.092626123442428
 20
43.77385139971116
 10
3.087728217842439
 20
43.77261029731118
 10
3.082872646642428
 20
43.77120819171119
 10
3.078988240242452
 20
43.76991831171119
 10
3.075181185842438
 20
43.76842335331119
 10
3.072341870642446
 20
43.76708366371116
 10
3.069622792242427
 20
43.76550157571119
 10
3.068380837042425
 20
43.7646232733112
 10
3.067241632242428
 20
43.76362174851118
 10
3.066268259442452
 20
43.76244830851118
 10
3.065697243442428
 20
43.76144942371118
 10
3.065315590642427
 20
43.7603734205112
 10
3.065186873842449
 20
43.75926441091118
 10
3.065368469042439
 20
43.7581066413112
 10
3.065818477042427
 20
43.7569940045112
 10
3.066454541042446
 20
43.75595932131119
 10
3.067548766642445
 20
43.75466170371118
 10
3.068798185842439
 20
43.75353719811122
 10
3.070148033842428
 20
43.75253461571119
 10
3.073172571442427
 20
43.75064665891119
 10
3.076337171442446
 20
43.74900146851118
 10
3.080674025842426
 20
43.74707374051118
 10
3.085101237042451
 20
43.74536355331119
 10
3.090773907442439
 20
43.74340941251119
 10
3.096503889842452
 20
43.74163228771118
  0
LWPOLYLINE
  5
9C7
330
2
100
AcDbEntity
  8
0
  6
CONTINUOUS
100
AcDbPolyline
 90
        4
 70
     0
 43
0.0
 10
16.39137088984244
 20
42.23175098691117
 10
14.74962232024245
 20
42.18447922851118
 10
13.82358108984244
 20
42.15969507011118
 10
12.94442658310229
 20
42.14020892048225
  0
LINE
  5
9CD
330
2
100
AcDbEntity
  8
0
  6
CONTINUOUS
100
AcDbLine
 10
15.55409194104242
 20
41.29125427331118
 30
0.0
 11
14.88426038264245
 21
41.29185608291118
 31
0.0
  0
LINE
  5
9CE
330
2
100
AcDbEntity
  8
0
  6
DASHED
100
AcDbLine
 10
13.74619552344245
 20
43.6212735613112
 30
0.0
 11
12.72607977944242
 21
43.6385463997112
 31
0.0
  0
LINE
  5
9CF
330
2
100
AcDbEntity
  8
0
  6
CONTINUOUS
100
AcDbLine
 10
13.03735426264245
 20
41.29770721571119
 30
0.0
 11
12.63759204984244
 21
41.30010348451119
 31
0.0
  0
LWPOLYLINE
  5
9D0
330
2
100
AcDbEntity
  8
0
  6
DASHED
100
AcDbPolyline
 90
       51
 70
     0
 43
0.0
 10
14.37497249624245
 20
43.55066262051116
 10
14.33427789464242
 20
43.48490651971118
 10
14.29232552504243
 20
43.4199420493112
 10
14.24908448504243
 20
43.35572194211119
 10
14.20462048504242
 20
43.2923434125112
 10
14.15889151384244
 20
43.22974677891119
 10
14.11197368984241
 20
43.1680359213112
 10
14.06381697144245
 20
43.10714538531118
 10
14.01450789304244
 20
43.04718428291119
 10
13.96398734104244
 20
42.9880809933112
 10
13.91235234744245
 20
42.92994876451118
 10
13.85953490584245
 20
42.87271129411118
 10
13.80564249144242
 20
42.81648480131116
 10
13.75059822104245
 20
42.7611893053112
 10
13.69451982264244
 20
42.70694284291121
 10
13.63732172344242
 20
42.65366285251121
 10
13.57913162904245
 20
42.6014680829112
 10
13.51985561304245
 20
42.55027447651116
 10
13.45963089944243
 20
42.50020036451118
 10
13.39835564984241
 20
42.45116124131118
 10
13.33617606904245
 20
42.40327395011118
 10
13.27298294424243
 20
42.35645453731118
 10
13.20893080824242
 20
42.31081734211119
 10
13.14390373624245
 20
42.26627991011119
 10
13.07806382424244
 20
42.22295312131118
 10
13.01128917304242
 20
42.18075688771119
 10
12.94374860504243
 20
42.1397977693112
 10
12.87531508504243
 20
42.09999883651116
 10
12.80616322584243
 20
42.0614615341112
 10
12.73616176184243
 20
42.02411280291116
 10
12.66549009944245
 20
41.98804827171119
 10
12.59401370424242
 20
41.95319937091119
 10
12.52191572504244
 20
41.91965531331118
 10
12.44905938584244
 20
41.88735253571119
 10
12.37563046584244
 20
41.85637333891119
 10
12.30149097464244
 20
41.8266595645112
 10
12.22682821624245
 20
41.79828622531118
 10
12.15150410744245
 20
41.77120089571118
 10
12.07570628344242
 20
41.74547099811118
 10
11.99929765464244
 20
41.7210500365112
 10
11.92246502584242
 20
41.69799767811119
 10
11.84507342584242
 20
41.67627345891119
 10
11.76730767224245
 20
41.65592922211118
 10
11.68903590744243
 20
41.63693049731119
 10
11.61043979864244
 20
41.61932136771119
 10
11.53139173624242
 20
41.60307326051119
 10
11.45206943064243
 20
41.58822266371117
 10
11.37235071704245
 20
41.57474670851118
 10
11.29240668984245
 20
41.56267436451119
 10
11.21212090744243
 20
41.55198806851117
 10
11.13166281944244
 20
41.5427102797112
  0
LWPOLYLINE
  5
A05
330
2
100
AcDbEntity
  8
0
  6
DASHED
100
AcDbPolyline
 90
       43
 70
     0
 43
0.0
 10
12.29563835384245
 20
43.5738775229112
 10
12.27766633464244
 20
43.54083591971118
 10
12.25890104664244
 20
43.50823561411118
 10
12.23929907544246
 20
43.47600634211116
 10
12.21892589624244
 20
43.44425967971119
 10
12.19774481304244
 20
43.41294085251118
 10
12.17581606264244
 20
43.3821406861112
 10
12.15311354424243
 20
43.35182311651118
 10
12.12969031864244
 20
43.32205889411119
 10
12.10552721464245
 20
43.2928228909112
 10
12.08067263544243
 20
43.26417239971118
 10
12.05509498584243
 20
43.2360707949112
 10
12.02885621944244
 20
43.20858545411119
 10
12.00190781784245
 20
43.18166610051119
 10
11.97432948984244
 20
43.15539245091119
 10
11.94606683704245
 20
43.1297131389112
 10
11.91720673464244
 20
43.10470714531118
 10
11.88769354104245
 20
43.08032637411119
 10
11.85761667064243
 20
43.05664445411119
 10
11.82691568024245
 20
43.03361383811119
 10
11.79568577304245
 20
43.0113056845112
 10
11.76385996504242
 20
42.98967225251118
 10
11.73154077304243
 20
42.96878306851119
 10
11.69865523544243
 20
42.94859113571118
 10
11.66531251064245
 20
42.9291634173112
 10
11.63143460344242
 20
42.91045467491119
 10
11.59713627544245
 20
42.8925282973112
 10
11.56233913144242
 20
42.87534339971119
 10
11.52715888024243
 20
42.85895704931118
 10
11.49152183704242
 20
42.84333473411118
 10
11.45553950264245
 20
42.82852501251119
 10
11.41913492344242
 20
42.81449611971118
 10
11.38242307704244
 20
42.80129216451117
 10
11.34531097784243
 20
42.7888802205112
 10
11.30792959864243
 20
42.77730451651118
 10
11.27018374264243
 20
42.7665361885112
 10
11.23220668504242
 20
42.7566138205112
 10
11.19393164504244
 20
42.74751963331119
 10
11.15546409464243
 20
42.73927829411118
 10
11.11677117784245
 20
42.7318813757112
 10
11.07792374424242
 20
42.7253410861112
 10
11.03892408504245
 20
42.7196554189112
 10
10.99981098264243
 20
42.71482754531118
  0
LWPOLYLINE
  5
A32
330
2
100
AcDbEntity
  8
0
  6
DASHED
100
AcDbPolyline
 90
       34
 70
     0
 43
0.0
 10
12.72607977944242
 20
43.6385463997112
 10
12.70027582904244
 20
43.6389012653112
 10
12.67429623704242
 20
43.63909164291118
 10
12.64827781624242
 20
43.6391111181112
 10
12.62227446584245
 20
43.63895368931119
 10
12.59642666424243
 20
43.63861355011119
 10
12.57080695864245
 20
43.63808425571119
 10
12.54557728664242
 20
43.6373609869112
 10
12.52086095224244
 20
43.6364386365112
 10
12.49685966264244
 20
43.63531588131118
 10
12.47372062904244
 20
43.63399063491118
 10
12.45163922424242
 20
43.63246469251118
 10
12.44124427864242
 20
43.6316433165112
 10
12.43085557944245
 20
43.63074642211119
 10
12.42121835064244
 20
43.62983846211119
 10
12.41158926424245
 20
43.62884801571119
 10
12.40276978264245
 20
43.62785766051118
 10
12.39396105944244
 20
43.62677567971118
 10
12.38604916824245
 20
43.6257116397112
 10
12.37815188504242
 20
43.62454470211119
 10
12.37125188344242
 20
43.62342227331118
 10
12.36437168984243
 20
43.62218307491116
 10
12.35855554264245
 20
43.6210194061112
 10
12.35276828344243
 20
43.61972287171122
 10
12.34804952664242
 20
43.6185324749112
 10
12.34337165944244
 20
43.61718333251118
 10
12.33974506904245
 20
43.6159763997112
 10
12.33619186904245
 20
43.61458231331119
 10
12.33449196504244
 20
43.61380844771119
 10
12.33283546904245
 20
43.61294101891118
 10
12.33123872184243
 20
43.6119457277112
 10
12.33020337624245
 20
43.61117468931118
 10
12.32926430424242
 20
43.6103017053112
 10
12.32848250584243
 20
43.60930000451119
  0
LINE
  5
A56
330
2
100
AcDbEntity
  8
0
  6
CONTINUOUS
100
AcDbLine
 10
12.63759204984244
 20
41.30010348451119
 30
0.0
 11
12.22556684024245
 21
41.30307937251117
 31
0.0
  0
LINE
  5
A57
330
2
100
AcDbEntity
  8
0
  6
CONTINUOUS
100
AcDbLine
 10
12.22556684024245
 20
41.30307937251117
 30
0.0
 11
11.80586492024242
 21
41.30666087651118
 31
0.0
  0
LINE
  5
A58
330
2
100
AcDbEntity
  8
0
  6
CONTINUOUS
100
AcDbLine
 10
11.80586492024242
 20
41.30666087651118
 30
0.0
 11
11.37897735544243
 21
41.31086459171117
 31
0.0
  0
LINE
  5
A59
330
2
100
AcDbEntity
  8
0
  6
CONTINUOUS
100
AcDbLine
 10
11.37897735544243
 20
41.31086459171117
 30
0.0
 11
10.95674257784244
 21
41.31548970691119
 31
0.0
  0
LWPOLYLINE
  5
A5A
330
2
100
AcDbEntity
  8
0
  6
DASHED
100
AcDbPolyline
 90
       42
 70
     0
 43
0.0
 10
14.37497249624245
 20
43.55066262051116
 10
14.37647162424242
 20
43.55166817091119
 10
14.37787776184242
 20
43.55280164771119
 10
14.37913164184244
 20
43.55412579171118
 10
14.37987536504245
 20
43.55519114371119
 10
14.38042566104245
 20
43.55635139171119
 10
14.38069272504245
 20
43.55757728931118
 10
14.38062854264242
 20
43.55875586211118
 10
14.38029782264244
 20
43.5599154333112
 10
14.37976197464244
 20
43.5610049997112
 10
14.37881874104245
 20
43.5622921069112
 10
14.37768869944243
 20
43.56340911171119
 10
14.37644208984242
 20
43.56440235331118
 10
14.37371133784245
 20
43.56620315811119
 10
14.37084075384244
 20
43.56775564131118
 10
14.36699084184245
 20
43.56951368931118
 10
14.36304835544243
 20
43.5710621613112
 10
14.35813480504243
 20
43.57276886211121
 10
14.35316850424244
 20
43.57431060771119
 10
14.34724184024244
 20
43.57597430051121
 10
14.34127728024245
 20
43.5774987581112
 10
14.33438024184243
 20
43.5791187037112
 10
14.32745661944243
 20
43.58062021571117
 10
14.31179039864242
 20
43.58366799811119
 10
14.29431644984242
 20
43.58664275811119
 10
14.27511948504245
 20
43.58953554051118
 10
14.25421359384245
 20
43.59234757571118
 10
14.23165036504242
 20
43.5950730541112
 10
14.20746875864244
 20
43.59770736771119
 10
14.18165435224244
 20
43.60025038211119
 10
14.15426720664243
 20
43.6026933757112
 10
14.12526709464243
 20
43.60503600291116
 10
14.09467999384244
 20
43.60727084611116
 10
14.06249878424245
 20
43.60939233411118
 10
14.02868795064245
 20
43.61139536451119
 10
13.99328673144245
 20
43.61326938051118
 10
13.95622629304244
 20
43.61500871171119
 10
13.91754062104245
 20
43.61660130211117
 10
13.87717886584245
 20
43.6180377741112
 10
13.83517304504245
 20
43.61930438691118
 10
13.79151439704244
 20
43.62038789091122
 10
13.74619552344245
 20
43.6212735613112
  0
LINE
  5
A86
330
2
100
AcDbEntity
  8
0
  6
CONTINUOUS
100
AcDbLine
 10
14.88426038264245
 20
41.29185608291118
 30
0.0
 11
14.41481508664244
 21
41.2926711613112
 31
0.0
  0
LINE
  5
A87
330
2
100
AcDbEntity
  8
0
  6
CONTINUOUS
100
AcDbLine
 10
14.41481508664244
 20
41.2926711613112
 30
0.0
 11
13.92832925304245
 21
41.29394709251118
 31
0.0
  0
LINE
  5
A88
330
2
100
AcDbEntity
  8
0
  6
CONTINUOUS
100
AcDbLine
 10
13.92832925304245
 20
41.29394709251118
 30
0.0
 11
13.42550249784243
 21
41.29581839491118
 31
0.0
  0
LINE
  5
A89
330
2
100
AcDbEntity
  8
0
  6
CONTINUOUS
100
AcDbLine
 10
13.42550249784243
 20
41.29581839491118
 30
0.0
 11
13.03735426264245
 21
41.29770721571119
 31
0.0
  0
LINE
  5
A8A
330
2
100
AcDbEntity
  8
0
  6
CONTINUOUS
100
AcDbLine
 10
17.87980191864242
 20
41.29188888771119
 30
0.0
 11
16.77660722424244
 21
41.2912912925112
 31
0.0
  0
LINE
  5
A8B
330
2
100
AcDbEntity
  8
0
  6
CONTINUOUS
100
AcDbLine
 10
16.77660722424244
 20
41.2912912925112
 30
0.0
 11
16.38363691064245
 21
41.29116508131119
 31
0.0
  0
LINE
  5
A8C
330
2
100
AcDbEntity
  8
0
  6
CONTINUOUS
100
AcDbLine
 10
16.38363691064245
 20
41.29116508131119
 30
0.0
 11
15.55409194104242
 21
41.29125427331118
 31
0.0
  0
LINE
  5
A8D
330
2
100
AcDbEntity
  8
0
  6
CONTINUOUS
100
AcDbLine
 10
18.53228532184245
 20
41.29179049251118
 30
0.0
 11
17.87980191864242
 21
41.29188888771119
 31
0.0
  0
LWPOLYLINE
  5
A8E
330
2
100
AcDbEntity
  8
0
  6
CONTINUOUS
100
AcDbPolyline
 90
        5
 70
     0
 43
0.0
 10
29.15228707064241
 20
37.61543520931116
 10
29.12439788984242
 20
37.6746380669112
 10
29.09746167864244
 20
37.73066289411116
 10
29.07166557784245
 20
37.7833333229112
 10
29.03549584504244
 20
37.85587993571116
  0
LWPOLYLINE
  5
A95
330
2
100
AcDbEntity
  8
0
  6
CONTINUOUS
100
AcDbPolyline
 90
       71
 70
     0
 43
0.0
 10
32.99913092824245
 20
32.8851841341112
 10
33.00153908984245
 20
33.68490996931118
 10
33.00158635704242
 20
34.0208863853112
 10
33.00025929624244
 20
34.32171598531116
 10
32.99726754744245
 20
34.59054221891119
 10
32.99238271064243
 20
34.8305359933112
 10
32.98558364344243
 20
35.04321544611116
 10
32.97712558424243
 20
35.22968546851117
 10
32.96722782904243
 20
35.39533085731119
 10
32.95583481624243
 20
35.54786382051119
 10
32.94274351384244
 20
35.69333224931119
 10
32.92780185144243
 20
35.83492827171119
 10
32.91071395224243
 20
35.97600254531119
 10
32.89106574264244
 20
36.11971986531119
 10
32.86891047064244
 20
36.26518231811115
 10
32.84437314744244
 20
36.41128377571115
 10
32.81749175704244
 20
36.5576850029112
 10
32.78828287544245
 20
36.70420932771119
 10
32.75681235064245
 20
36.8504702749112
 10
32.72318288664244
 20
36.99598769411119
 10
32.68748277144244
 20
37.14042938531119
 10
32.64975759064245
 20
37.28367909411119
 10
32.61007985944245
 20
37.42553274531116
 10
32.56856064824244
 20
37.56568622851119
 10
32.52525326424245
 20
37.70406379011117
 10
32.48025910744245
 20
37.84045072931116
 10
32.43363263384245
 20
37.9747956573112
 10
32.38540634424242
 20
38.10710765571119
 10
32.33575783544245
 20
38.23701630531116
 10
32.28487054584245
 20
38.36419716451115
 10
32.23232873304245
 20
38.4897782301112
 10
32.17773892504244
 20
38.61468524771117
 10
32.12061348824242
 20
38.74002449571119
 10
32.06040782424244
 20
38.86687385571116
 10
31.99716595704242
 20
38.99497185411116
 10
31.93099692344245
 20
39.1239612093112
 10
31.86191617464243
 20
39.25369836451119
 10
31.78994576344244
 20
39.38403739651119
 10
31.71510807224244
 20
39.51484056771119
 10
31.63744473944243
 20
39.64594470531119
 10
31.55710536184244
 20
39.77702215971118
 10
31.47417848984241
 20
39.90786915491119
 10
31.38878760184245
 20
40.03824184131116
 10
31.30115273624243
 20
40.16777243651119
 10
31.21140642104242
 20
40.2962477117112
 10
31.11973672664243
 20
40.42339035811119
 10
31.02643284664245
 20
40.54880828931118
 10
30.93174642904244
 20
40.67219041091118
 10
30.83585340824242
 20
40.7933433005112
 10
30.73922475064245
 20
40.9117273917112
 10
30.64207147224244
 20
41.02715910691119
 10
30.54454573144242
 20
41.13953273731119
 10
30.44727272344245
 20
41.24822450691119
 10
30.35076904664242
 20
41.3527916781112
 10
30.25547664984244
 20
41.4528923629112
 10
30.16153563704245
 20
41.54852897891117
 10
30.06847880504244
 20
41.64031931651118
 10
29.97595274904245
 20
41.72872410051119
 10
29.88377386904243
 20
41.81401426691119
 10
29.79160626424244
 20
41.89657740611116
 10
29.69922082584243
 20
41.9766756157112
 10
29.60651453944242
 20
42.05444862371118
 10
29.51301067224244
 20
42.13033085251118
 10
29.41831716664245
 20
42.20464809571118
 10
29.32239530584245
 20
42.27743048931119
 10
29.22483293944245
 20
42.34898281251119
 10
29.12508012984243
 20
42.41967468131119
 10
29.02293336504245
 20
42.48960073891118
 10
28.91818703704243
 20
42.55885045091119
 10
28.81015318744245
 20
42.62781034531122
 10
28.69836449624244
 20
42.69668720131119
  0
LWPOLYLINE
  5
ADE
330
2
100
AcDbEntity
  8
0
  6
CONTINUOUS
100
AcDbPolyline
 90
       39
 70
     0
 43
0.0
 10
27.70880612664242
 20
32.40420974051119
 10
27.70864720664244
 20
32.3823131885112
 10
27.70812961784243
 20
32.35905014851116
 10
27.70713026264245
 20
32.33314738531118
 10
27.70543895544246
 20
32.3033197597112
 10
27.70284201784242
 20
32.26932403331119
 10
27.69917203064241
 20
32.23141884291115
 10
27.69424741944245
 20
32.18967730691119
 10
27.68775682424243
 20
32.14385670691118
 10
27.67926137624245
 20
32.09348899011115
 10
27.66816141464242
 20
32.03783914211115
 10
27.65351424824243
 20
31.97546780131119
 10
27.63413425784245
 20
31.90513475331119
 10
27.60876407864245
 20
31.8264558349112
 10
27.57908397304244
 20
31.74711509251119
 10
27.55019757784244
 20
31.67907904291115
 10
27.52233968184244
 20
31.61986886211119
 10
27.49571664024244
 20
31.5679369277112
 10
27.47046022584243
 20
31.5221446493112
 10
27.44662369624242
 20
31.4815753437112
 10
27.42421187384245
 20
31.44548456771116
 10
27.40319874904243
 20
31.41326071651119
 10
27.38353927544243
 20
31.38439627651115
 10
27.36517636024243
 20
31.35846541411118
 10
27.34804635544245
 20
31.33510854691115
 10
27.33208241144243
 20
31.31401983651119
 10
27.31721686584243
 20
31.2949376125112
 10
27.30338299384245
 20
31.2776369757112
 10
27.29051541784242
 20
31.26192294211119
 10
27.27855132664243
 20
31.24762622051119
 10
27.26743077144245
 20
31.23459908131119
 10
27.25709687384243
 20
31.22271208771115
 10
27.24749595384243
 20
31.21185144771115
 10
27.23857750104242
 20
31.20191674371119
 10
27.23029409624246
 20
31.19281905571119
 10
27.22260142744242
 20
31.1844794973112
 10
27.21545829304243
 20
31.17682805251115
 10
27.20882614904245
 20
31.16980212931119
 10
27.20266897784245
 20
31.16334562211119
  0
LWPOLYLINE
  5
B07
330
2
100
AcDbEntity
  8
0
  6
CONTINUOUS
100
AcDbPolyline
 90
       22
 70
     0
 43
0.0
 10
25.90471930264245
 20
30.6021283693112
 10
25.77091315704242
 20
30.60650333251115
 10
25.63754677464243
 20
30.62097721251118
 10
25.50549746264245
 20
30.64549569731116
 10
25.37562236664244
 20
30.6799133261112
 10
25.24862648664245
 20
30.72404694051115
 10
25.12522956664244
 20
30.7776534701112
 10
25.00621313144245
 20
30.8403886941112
 10
24.89221217784245
 20
30.9119050941112
 10
24.78382142424244
 20
30.99182812771116
 10
24.68159937784243
 20
31.0797631277112
 10
24.58602854104245
 20
31.17534873251119
 10
24.49788386584244
 20
31.2778447661112
 10
24.41764963544243
 20
31.38667618051119
 10
24.34576590904242
 20
31.5012402829112
 10
24.28266967064244
 20
31.62082455811119
 10
24.22867523064245
 20
31.74481814211119
 10
24.18403269784242
 20
31.8727070461112
 10
24.14904814904243
 20
32.00374216771115
 10
24.12401538904243
 20
32.13679943171115
 10
24.10905857464245
 20
32.27068906211119
 10
24.10411734904243
 20
32.40420974051119
  0
CIRCLE
  5
B1F
330
2
100
AcDbEntity
  8
0
  6
CONTINUOUS
100
AcDbCircle
 10
25.90588703704244
 20
32.40420974051119
 30
0.0
 40
1.271446609599999
  0
LINE
  5
B20
330
2
100
AcDbEntity
  8
0
  6
CENTER
 62
     1
100
AcDbLine
 10
25.90588703704244
 20
36.0889424194149
 30
0.0
 11
25.90588703704244
 21
28.71947706160748
 31
0.0
  0
LWPOLYLINE
  5
B21
330
2
100
AcDbEntity
  8
0
  6
CONTINUOUS
100
AcDbPolyline
 90
       34
 70
     0
 43
0.0
 10
27.13609491704243
 20
31.0972316669112
 10
27.12473941624244
 20
31.08657559331115
 10
27.11831901624245
 20
31.08063070211119
 10
27.11133670904244
 20
31.07423005891115
 10
27.10373987864242
 20
31.06734138851115
 10
27.09546758104242
 20
31.0599281309112
 10
27.08645202424245
 20
31.05195151651119
 10
27.07661751064245
 20
31.04337041411119
 10
27.06587912024243
 20
31.03414114211119
 10
27.05414135384244
 20
31.02421747171115
 10
27.04129657144244
 20
31.01355069411118
 10
27.02722303544244
 20
31.00208971011119
 10
27.01178266904245
 20
30.98978128131119
 10
26.99481836344244
 20
30.97657040771119
 10
26.97615074904244
 20
30.9624009197112
 10
26.95557430584244
 20
30.9472162813112
 10
26.93285276664242
 20
30.9309609597112
 10
26.90771334104245
 20
30.91358221411116
 10
26.87983926584244
 20
30.89503236611119
 10
26.84886266424244
 20
30.87527341731117
 10
26.81435242744242
 20
30.85428115971117
 10
26.77580161624244
 20
30.83205284611119
 10
26.73261090904245
 20
30.80861749891119
 10
26.68406769144245
 20
30.78405065091115
 10
26.62931900824244
 20
30.75849530851115
 10
26.56733738904245
 20
30.73219246851115
 10
26.49687971704244
 20
30.70552730371119
 10
26.41636398744245
 20
30.67907746051119
 10
26.32694379704244
 20
30.65452081411118
 10
26.24018253304242
 20
30.63536803651115
 10
26.14771922104245
 20
30.61984755651119
 10
26.06496185944244
 20
30.61010675971115
 10
25.98894183064244
 20
30.6045373997112
 10
25.90471930264245
 20
30.6021283693112
  0
LINE
  5
B45
330
2
100
AcDbEntity
  8
0
  6
CONTINUOUS
100
AcDbLine
 10
27.20266897784245
 20
31.16334562211119
 30
0.0
 11
27.19164739064241
 21
31.15194437251119
 31
0.0
  0
LINE
  5
B46
330
2
100
AcDbEntity
  8
0
  6
CONTINUOUS
100
AcDbLine
 10
27.19164739064241
 20
31.15194437251119
 30
0.0
 11
27.18215334904245
 21
31.14228071971115
 31
0.0
  0
LINE
  5
B47
330
2
100
AcDbEntity
  8
0
  6
CONTINUOUS
100
AcDbLine
 10
27.18215334904245
 20
31.14228071971115
 30
0.0
 11
27.17397225464245
 21
31.13406821091115
 31
0.0
  0
LINE
  5
B48
330
2
100
AcDbEntity
  8
0
  6
CONTINUOUS
100
AcDbLine
 10
27.17397225464245
 20
31.13406821091115
 30
0.0
 11
27.16693925784243
 21
31.1270898125112
 31
0.0
  0
LINE
  5
B49
330
2
100
AcDbEntity
  8
0
  6
CONTINUOUS
100
AcDbLine
 10
27.16693925784243
 20
31.1270898125112
 30
0.0
 11
27.15390713784245
 21
31.1143211101112
 31
0.0
  0
LINE
  5
B4A
330
2
100
AcDbEntity
  8
0
  6
CONTINUOUS
100
AcDbLine
 10
27.15390713784245
 20
31.1143211101112
 30
0.0
 11
27.14572676984242
 21
31.1064149293112
 31
0.0
  0
LINE
  5
B4B
330
2
100
AcDbEntity
  8
0
  6
CONTINUOUS
100
AcDbLine
 10
27.14572676984242
 20
31.1064149293112
 30
0.0
 11
27.13609491704243
 21
31.0972316669112
 31
0.0
  0
LWPOLYLINE
  5
B4C
330
2
100
AcDbEntity
  8
0
  6
CONTINUOUS
100
AcDbPolyline
 90
       23
 70
     0
 43
0.0
 10
25.90471930264245
 20
34.20629111171115
 10
25.77699147704243
 20
34.20233407331119
 10
25.64962834904241
 20
34.1891744621112
 10
25.52339350424245
 20
34.1668539421112
 10
25.39904266744243
 20
34.1354926477112
 10
25.27719845624243
 20
34.0952441901112
 10
25.15847940664242
 20
34.0463063949112
 10
25.04356767224243
 20
33.9889617613112
 10
24.93304867864245
 20
33.92351330691119
 10
24.82744857624246
 20
33.85027832931115
 10
24.72726815224243
 20
33.7695968829112
 10
24.63293099704245
 20
33.68177531971119
 10
24.54501139384244
 20
33.58730355651118
 10
24.46407798744245
 20
33.48678384771119
 10
24.39051928984241
 20
33.38070984291116
 10
24.32472000184245
 20
33.26964330851117
 10
24.26702904984245
 20
33.1541902813112
 10
24.21769577624245
 20
33.0348505309112
 10
24.17694398264242
 20
32.91209405091118
 10
24.14504487064245
 20
32.7866302717112
 10
24.12223932184243
 20
32.65946766531115
 10
24.10861797784242
 20
32.5316456429112
 10
24.10411731704245
 20
32.40420974051119
  0
LWPOLYLINE
  5
B65
330
2
100
AcDbEntity
  8
0
  6
CONTINUOUS
100
AcDbPolyline
 90
       33
 70
     0
 43
0.0
 10
27.12473762424242
 20
33.7218455565112
 10
27.11831712824245
 20
33.72779051811119
 10
27.11133472184243
 20
33.73419123491117
 10
27.10373778744243
 20
33.74107997891119
 10
27.09546538104243
 20
33.7484933101112
 10
27.08644971224242
 20
33.75646999811115
 10
27.07661508024244
 20
33.76505117251119
 10
27.06587656664243
 20
33.77428051491119
 10
27.05413867384243
 20
33.78420425571118
 10
27.04129375864244
 20
33.79487110051115
 10
27.02722008504243
 20
33.80633214851119
 10
27.01177957784244
 20
33.81864063811116
 10
26.99481512664245
 20
33.83185156291119
 10
26.97614736184245
 20
33.84602109731119
 10
26.95557076664245
 20
33.86120577411119
 10
26.93284907064244
 20
33.8774611229112
 10
26.90770948824244
 20
33.89483988291115
 10
26.87983525624243
 20
33.9133897293112
 10
26.84885850104242
 20
33.93314866051119
 10
26.81434811384242
 20
33.95414087971118
 10
26.77579716184244
 20
33.97636913091119
 10
26.73260632664244
 20
33.99980438851119
 10
26.68406300184244
 20
34.02437111651116
 10
26.62931423704245
 20
34.0499263021112
 10
26.56733257784245
 20
34.07622894851115
 10
26.49687491704245
 20
34.10289387971118
 10
26.41635935544245
 20
34.12934342371116
 10
26.32693979224242
 20
34.1538996557112
 10
26.24017927544243
 20
34.1730520797112
 10
26.14771683064245
 20
34.18857226211119
 10
26.06496041464243
 20
34.19831285891118
 10
25.98894110104243
 20
34.20388211971115
 10
25.90471930264245
 20
34.20629111171115
  0
LINE
  5
B88
330
2
100
AcDbEntity
  8
0
  6
CONTINUOUS
100
AcDbLine
 10
27.13609330264245
 20
33.7111893421112
 30
0.0
 11
27.12473762424242
 21
33.7218455565112
 31
0.0
  0
LINE
  5
B89
330
2
100
AcDbEntity
  8
0
  6
CONTINUOUS
100
AcDbLine
 10
27.14572531864245
 20
33.70200594691115
 30
0.0
 11
27.13609330264245
 21
33.7111893421112
 31
0.0
  0
LINE
  5
B8A
330
2
100
AcDbEntity
  8
0
  6
CONTINUOUS
100
AcDbLine
 10
27.15390584184243
 20
33.69409963171119
 30
0.0
 11
27.14572531864245
 21
33.70200594691115
 31
0.0
  0
LINE
  5
B8B
330
2
100
AcDbEntity
  8
0
  6
CONTINUOUS
100
AcDbLine
 10
27.16693802744242
 20
33.6813308845112
 30
0.0
 11
27.15390584184243
 21
33.69409963171119
 31
0.0
  0
LINE
  5
B8C
330
2
100
AcDbEntity
  8
0
  6
CONTINUOUS
100
AcDbLine
 10
27.17397073624245
 20
33.67435278531115
 30
0.0
 11
27.16693802744242
 21
33.6813308845112
 31
0.0
  0
LINE
  5
B8D
330
2
100
AcDbEntity
  8
0
  6
CONTINUOUS
100
AcDbLine
 10
27.18215150744242
 20
33.66614062211116
 30
0.0
 11
27.17397073624245
 21
33.67435278531115
 31
0.0
  0
LINE
  5
B8E
330
2
100
AcDbEntity
  8
0
  6
CONTINUOUS
100
AcDbLine
 10
27.19164515864243
 20
33.65647739811118
 30
0.0
 11
27.18215150744242
 21
33.66614062211116
 31
0.0
  0
LWPOLYLINE
  5
B8F
330
2
100
AcDbEntity
  8
0
  6
CONTINUOUS
100
AcDbPolyline
 90
       40
 70
     0
 43
0.0
 10
27.70880592824243
 20
32.40420974051119
 10
27.70864694744244
 20
32.42612414691118
 10
27.70812904024242
 20
32.44938855011119
 10
27.70712924824245
 20
32.47529362531119
 10
27.70543734264242
 20
32.50512408931115
 10
27.70283967544244
 20
32.53912257251119
 10
27.69916885464245
 20
32.57703032451115
 10
27.69424325624243
 20
32.61877441411115
 10
27.68775142424245
 20
32.66459775491119
 10
27.67925440184242
 20
32.71496856931119
 10
27.66815237304243
 20
32.77062219971119
 10
27.65350245144245
 20
32.83299815811119
 10
27.63411893144244
 20
32.90333625251119
 10
27.60874533624245
 20
32.98201753571118
 10
27.57906412664245
 20
33.06135390051119
 10
27.55017865144245
 20
33.12938261251119
 10
27.52232178264245
 20
33.18858695331115
 10
27.49569984664245
 20
33.2405140573112
 10
27.47044456824243
 20
33.28630228451118
 10
27.44660916344244
 20
33.32686815811115
 10
27.42419843064245
 20
33.3629560093112
 10
27.40318634744243
 20
33.39517735171119
 10
27.38352785624245
 20
33.42403963011119
 10
27.36516586584242
 20
33.44996861731115
 10
27.34803672184245
 20
33.47332385411116
 10
27.33207357784245
 20
33.4944111405112
 10
27.31720877304245
 20
33.5134921149112
 10
27.30337558744244
 20
33.5307916541112
 10
27.29050864344245
 20
33.54650471811118
 10
27.27854513304242
 20
33.56080058371119
 10
27.26742511384244
 20
33.5738269645112
 10
27.25709170744242
 20
33.5857132845112
 10
27.24749123864244
 20
33.59657332451115
 10
27.23857320024242
 20
33.60650749251115
 10
27.23029017464245
 20
33.6156047021112
 10
27.22259785304244
 20
33.62394383491118
 10
27.21545503704246
 20
33.6315948973112
 10
27.20882318584244
 20
33.63862047651119
 10
27.20266627864244
 20
33.64507667491119
 10
27.19164515864243
 20
33.65647739811118
  0
LWPOLYLINE
  5
BB9
330
2
100
AcDbEntity
  8
0
  6
CONTINUOUS
100
AcDbPolyline
 90
        3
 70
     0
 43
0.0
 10
32.99855565464243
 20
32.40420974051119
 10
32.99913092824245
 20
31.92323534691115
 10
33.00153908984245
 20
31.1235095117112
  0
LWPOLYLINE
  5
BBE
330
2
100
AcDbEntity
  8
0
  6
CONTINUOUS
100
AcDbPolyline
 90
       20
 70
     0
 43
0.0
 10
31.91655695864243
 20
31.09170974051119
 10
31.90156803064245
 20
31.0961218365112
 10
31.88628036504245
 20
31.10978328931119
 10
31.87119186104244
 20
31.1325910573112
 10
31.85639594744245
 20
31.1644029869112
 10
31.84201000024243
 20
31.2049609981112
 10
31.82811704344244
 20
31.25402716131119
 10
31.81483264184242
 20
31.31118787331115
 10
31.80223109624245
 20
31.3761232429112
 10
31.79042313624245
 20
31.44826580131118
 10
31.77947372344245
 20
31.52723379651115
 10
31.76948255864245
 20
31.61233876771118
 10
31.76050942584243
 20
31.70311830691119
 10
31.75264452184242
 20
31.79870871011115
 10
31.74596032024244
 20
31.89816645251116
 10
31.74054651864244
 20
31.99969334211115
 10
31.73641032344242
 20
32.10206116771115
 10
31.73352816024243
 20
32.20411102531119
 10
31.73184579224244
 20
32.30512569891115
 10
31.73130159544246
 20
32.40420974051119
  0
LWPOLYLINE
  5
BD4
330
2
100
AcDbEntity
  8
0
  6
CONTINUOUS
100
AcDbPolyline
 90
       20
 70
     0
 43
0.0
 10
32.09668663544245
 20
32.40420974051119
 10
32.09622488984244
 20
32.30879036291119
 10
32.09476299384245
 20
32.20995678371119
 10
32.09220149464245
 20
32.10886887971119
 10
32.08845176024245
 20
32.00648268131115
 10
32.08346066264245
 20
31.90425468131115
 10
32.07722062744243
 20
31.80382993731118
 10
32.06983534424244
 20
31.7075987645112
 10
32.06138186264245
 20
31.61660757891116
 10
32.05190690584243
 20
31.53132249251118
 10
32.04143511704244
 20
31.4520342525112
 10
32.03006014104242
 20
31.37952164771116
 10
32.01784711384245
 20
31.31422113571119
 10
32.00489655384243
 20
31.2566742045112
 10
31.99128072984241
 20
31.2072010013112
 10
31.97711306424243
 20
31.1662126349112
 10
31.96248360344245
 20
31.13396218531116
 10
31.94750866104245
 20
31.1107018957112
 10
31.93228951544245
 20
31.09658364771116
 10
31.91655695864243
 20
31.09170974051119
  0
LINE
  5
BEA
330
2
100
AcDbEntity
  8
0
  6
CONTINUOUS
100
AcDbLine
 10
29.88608054904244
 20
31.60719671011119
 30
0.0
 11
29.88492347704244
 21
31.98278370851119
 31
0.0
  0
LWPOLYLINE
  5
BEB
330
2
100
AcDbEntity
  8
0
  6
CONTINUOUS
100
AcDbPolyline
 90
       51
 70
     0
 43
0.0
 10
29.22850795704244
 20
27.36107513571119
 10
29.24477863224244
 20
27.3981992397112
 10
29.26167295384244
 20
27.43724113891116
 10
29.27920444344245
 20
27.47827750691115
 10
29.29737040344242
 20
27.52135675651115
 10
29.31614612184245
 20
27.56652883651119
 10
29.33550232664242
 20
27.6138497453112
 10
29.35541353944245
 20
27.66339814371116
 10
29.37586348824243
 20
27.7152805661112
 10
29.39686893304243
 20
27.7696923709112
 10
29.41844604504243
 20
27.8268433565112
 10
29.44057558904244
 20
27.88691222371119
 10
29.46323364344245
 20
27.9500763565112
 10
29.48641293464243
 20
28.01653895331119
 10
29.51010365304245
 20
28.08651033091115
 10
29.53426916664244
 20
28.16020348931115
 10
29.55062195704245
 20
28.2115102397112
 10
29.56715412024244
 20
28.26465824131119
 10
29.58385326584245
 20
28.3197396589112
 10
29.60070466584243
 20
28.37684718851119
 10
29.61768423224244
 20
28.43607566371119
 10
29.63476554104243
 20
28.49752045251119
 10
29.65192091064243
 20
28.5612873741112
 10
29.66911765944244
 20
28.6275240525112
 10
29.68632185144244
 20
28.69638856451115
 10
29.70349316504243
 20
28.76802370051118
 10
29.72056572664245
 20
28.84251111971116
 10
29.73746727704242
 20
28.91991719331119
 10
29.74998945944244
 20
28.9799577821112
 10
29.76235458904243
 20
29.04188988451119
 10
29.77454245464242
 20
29.10592593411115
 10
29.78653284504243
 20
29.17227836931115
 10
29.79828659544244
 20
29.24105432131119
 10
29.80968874264245
 20
29.3119397197112
 10
29.82062561944245
 20
29.38471411971116
 10
29.83106453464245
 20
29.4599527853112
 10
29.84096419384245
 20
29.53808302531115
 10
29.85016787384245
 20
29.6181446061112
 10
29.85849000024242
 20
29.6988304093112
 10
29.86574499544243
 20
29.77883331491119
 10
29.87180212344245
 20
29.85713135971119
 10
29.87675001144244
 20
29.93384317411118
 10
29.88072544824243
 20
30.00916183491119
 10
29.88383851384245
 20
30.08243759171119
 10
29.88619544664244
 20
30.15300352931117
 10
29.88791384664244
 20
30.2209669293112
 10
29.88911414744242
 20
30.28662862531115
 10
29.88991678584243
 20
30.35028944291116
 10
29.89054770744245
 20
30.43244710051115
 10
29.89079821464243
 20
30.5115100637112
 10
29.89059735544245
 20
30.6601061421112
  0
LINE
  5
C20
330
2
100
AcDbEntity
  8
0
  6
CONTINUOUS
100
AcDbLine
 10
29.19760037144245
 20
27.29179011171118
 30
0.0
 11
29.22850795704244
 21
27.36107513571119
 31
0.0
  0
LWPOLYLINE
  5
C21
330
2
100
AcDbEntity
  8
0
  6
CONTINUOUS
100
AcDbPolyline
 90
        6
 70
     0
 43
0.0
 10
29.07233604664245
 20
27.0264439901112
 10
29.09887172344243
 20
27.08066225891119
 10
29.12632251864243
 20
27.13782755971115
 10
29.15422215224244
 20
27.19713748771118
 10
29.16839500024242
 20
27.22773559171119
 10
29.19760037144245
 20
27.29179011171118
  0
LWPOLYLINE
  5
C29
330
2
100
AcDbEntity
  8
0
  6
CONTINUOUS
100
AcDbPolyline
 90
        3
 70
     0
 43
0.0
 10
29.02409458584244
 20
26.93013203971119
 10
29.03545920024242
 20
26.95246772291119
 10
29.07233604664245
 20
27.0264439901112
  0
LINE
  5
C2E
330
2
100
AcDbEntity
  8
0
  6
CONTINUOUS
100
AcDbLine
 10
29.89059735544245
 20
30.6601061421112
 30
0.0
 11
29.88770624184245
 21
31.22150742051116
 31
0.0
  0
LINE
  5
C2F
330
2
100
AcDbEntity
  8
0
  6
CONTINUOUS
100
AcDbLine
 10
29.88770624184245
 20
31.22150742051116
 30
0.0
 11
29.88608054904244
 21
31.60719671011119
 31
0.0
  0
LWPOLYLINE
  5
C30
330
2
100
AcDbEntity
  8
0
  6
CONTINUOUS
100
AcDbPolyline
 90
       51
 70
     0
 43
0.0
 10
29.89081027704244
 20
34.27710261731116
 10
29.89062932184244
 20
34.3593333933112
 10
29.89026162744242
 20
34.42316395491118
 10
29.88959216504243
 20
34.48908773411119
 10
29.88851183064243
 20
34.55739468771119
 10
29.88691152344244
 20
34.62837476931119
 10
29.88468135224245
 20
34.70213783491115
 10
29.88170827704244
 20
34.77807335011116
 10
29.87785565784243
 20
34.8556513421112
 10
29.87289561304243
 20
34.93538451331119
 10
29.86664751864245
 20
35.01766164291117
 10
29.85921102104242
 20
35.1013331805112
 10
29.85075583704242
 20
35.18486499491118
 10
29.84145168344243
 20
35.26672295011116
 10
29.83144627384243
 20
35.34576145571119
 10
29.82079931544243
 20
35.42238909411119
 10
29.80956976824242
 20
35.4971698045112
 10
29.79790159544243
 20
35.56973479171119
 10
29.78593673784244
 20
35.63962453891119
 10
29.77372404184242
 20
35.70694937571116
 10
29.76128908184245
 20
35.77196209891118
 10
29.74865743384244
 20
35.83491549891116
 10
29.73155695864242
 20
35.91599920931119
 10
29.71423379384244
 20
35.99394435651118
 10
29.69676945144245
 20
36.06882398371115
 10
29.67923856024244
 20
36.14072772611118
 10
29.66168821304243
 20
36.2098115837112
 10
29.64415861624244
 20
36.2762481501112
 10
29.62668823064241
 20
36.34019906211119
 10
29.60930851544245
 20
36.40178213731116
 10
29.59204918744243
 20
36.4611042349112
 10
29.57493757144245
 20
36.51827075491115
 10
29.55799143224244
 20
36.57338126051115
 10
29.54122615064241
 20
36.62653385571116
 10
29.51644956504244
 20
36.70279189091115
 10
29.49215796024245
 20
36.77511023491115
 10
29.46838878584244
 20
36.84372994531119
 10
29.44515546264245
 20
36.90887679011118
 10
29.42246902584244
 20
36.9707656349112
 10
29.40035495704245
 20
37.02958303811115
 10
29.37883473144245
 20
37.08551450531115
 10
29.35789930904245
 20
37.1387696573112
 10
29.33753742104242
 20
37.18954712291119
 10
29.31775937304244
 20
37.23797745571118
 10
29.29858216344245
 20
37.28416795171119
 10
29.28002801784242
 20
37.32820093411118
 10
29.26211389464244
 20
37.37015280451117
 10
29.24483047384242
 20
37.41010122051119
 10
29.22815662744243
 20
37.4481407085112
 10
29.21205025784244
 20
37.48443201731118
 10
29.18134528024244
 20
37.55244750851119
  0
LINE
  5
C65
330
2
100
AcDbEntity
  8
0
  6
CONTINUOUS
100
AcDbLine
 10
29.88695569304245
 20
33.4208729581112
 30
0.0
 11
29.89049607864243
 21
34.1224294957112
 31
0.0
  0
LINE
  5
C66
330
2
100
AcDbEntity
  8
0
  6
CONTINUOUS
100
AcDbLine
 10
29.89049607864243
 20
34.1224294957112
 30
0.0
 11
29.89081027704244
 21
34.27710261731116
 31
0.0
  0
LINE
  5
C67
330
2
100
AcDbEntity
  8
0
  6
CONTINUOUS
100
AcDbLine
 10
29.88492347704244
 20
31.98278370851119
 30
0.0
 11
29.88443681464243
 21
32.25105150531115
 31
0.0
  0
LINE
  5
C68
330
2
100
AcDbEntity
  8
0
  6
CONTINUOUS
100
AcDbLine
 10
29.88443681464243
 20
32.25105150531115
 30
0.0
 11
29.88437053624243
 21
32.4821452477112
 31
0.0
  0
LINE
  5
C69
330
2
100
AcDbEntity
  8
0
  6
CONTINUOUS
100
AcDbLine
 10
29.88437053624243
 20
32.4821452477112
 30
0.0
 11
29.88484874424244
 21
32.79409862051119
 31
0.0
  0
LINE
  5
C6A
330
2
100
AcDbEntity
  8
0
  6
CONTINUOUS
100
AcDbLine
 10
29.88484874424244
 20
32.79409862051119
 30
0.0
 11
29.88695569304245
 21
33.4208729581112
 31
0.0
  0
LWPOLYLINE
  5
C6B
330
2
100
AcDbEntity
  8
0
  6
CONTINUOUS
100
AcDbPolyline
 90
       20
 70
     0
 43
0.0
 10
31.91655695704243
 20
33.71670974051119
 10
31.93229878104244
 20
33.7118300781112
 10
31.94751788664243
 20
33.6977061613112
 10
31.96249303704245
 20
33.67443960451117
 10
31.97712228664242
 20
33.6421833869112
 10
31.99128997944242
 20
33.60118836291118
 10
32.00490545944242
 20
33.5517093997112
 10
32.01785601784244
 20
33.4941548765112
 10
32.03006837784243
 20
33.42884969731119
 10
32.04144279064244
 20
33.35633190851118
 10
32.05191407224244
 20
33.2770378413112
 10
32.06138961784245
 20
33.19173565091119
 10
32.06984175384244
 20
33.10074495651119
 10
32.07722363544245
 20
33.00454610531119
 10
32.08346017304243
 20
32.90417364451119
 10
32.08844969464244
 20
32.80198531491118
 10
32.09219860024242
 20
32.69964446531119
 10
32.09476060344245
 20
32.59858251011115
 10
32.09622388984245
 20
32.49973221891116
 10
32.09668663544245
 20
32.40420974051119
  0
LWPOLYLINE
  5
C81
330
2
100
AcDbEntity
  8
0
  6
CONTINUOUS
100
AcDbPolyline
 90
       20
 70
     0
 43
0.0
 10
31.73130159544246
 20
32.40420974051119
 10
31.73184532344242
 20
32.50325113091119
 10
31.73352728184243
 20
32.60426915971118
 10
31.73640962744242
 20
32.70633798691119
 10
31.74054671384245
 20
32.8087303069112
 10
31.74596143224245
 20
32.91027150851116
 10
31.75264739064245
 20
33.00974922211119
 10
31.76051351704242
 20
33.10534645571115
 10
31.76948707704243
 20
33.1961226141112
 10
31.77947806424244
 20
33.2812196909112
 10
31.79042830744243
 20
33.3601880029112
 10
31.80223682424243
 20
33.43232841251119
 10
31.81483907704245
 20
33.49726196291115
 10
31.82812375384244
 20
33.55441855171119
 10
31.84201735224245
 20
33.6034817805112
 10
31.85640360664243
 20
33.64403549091119
 10
31.87120006744243
 20
33.6758434173112
 10
31.88628877464245
 20
33.6986462877112
 10
31.90157687544243
 20
33.71230285571115
 10
31.91655695704243
 20
33.71670974051119
  0
LINE
  5
C97
330
2
100
AcDbEntity
  8
0
  6
CONTINUOUS
100
AcDbLine
 10
29.18134528024244
 20
37.55244750851119
 30
0.0
 11
29.15228707064241
 21
37.61543520931116
 31
0.0
  0
LINE
  5
C98
330
2
100
AcDbEntity
  8
0
  6
CONTINUOUS
100
AcDbLine
 10
32.99855565464243
 20
32.40420974051119
 30
0.0
 11
32.99913092824245
 21
32.8851841341112
 31
0.0
  0
LWPOLYLINE
  5
C99
330
2
100
AcDbEntity
  8
0
  6
HIDDEN
100
AcDbPolyline
 90
       27
 70
     0
 43
0.0
 10
28.69900900344243
 20
42.69812405891116
 10
28.54914162904245
 20
42.78655099491118
 10
28.39063409784245
 20
42.8757285085112
 10
28.22432398904244
 20
42.96514227491118
 10
28.05342855064245
 20
43.05299396291118
 10
27.88397278584243
 20
43.1360714541112
 10
27.71945126424245
 20
43.21280107331119
 10
27.55888441464245
 20
43.28389403011118
 10
27.40116817304245
 20
43.35004272771118
 10
27.24548824504245
 20
43.41172592931118
 10
27.09112936344244
 20
43.4693167309112
 10
26.93752440664244
 20
43.52311313091118
 10
26.78420677144242
 20
43.57333975811118
 10
26.63088636504243
 20
43.62012257251118
 10
26.47736958904244
 20
43.66356001571119
 10
26.32348640344243
 20
43.70375155811117
 10
26.16888364024243
 20
43.74081787331118
 10
26.01334543704246
 20
43.77481427651119
 10
25.85680398104244
 20
43.80574403331118
 10
25.69895562264242
 20
43.83363800131118
 10
25.53965411704243
 20
43.85847487331119
 10
25.37876089944242
 20
43.88024340451116
 10
25.21609309624246
 20
43.89894382691119
 10
25.05146406584245
 20
43.91455950691119
 10
24.88445907064245
 20
43.92707084771117
 10
24.71497274424243
 20
43.93640851651119
 10
24.54397492984245
 20
43.9424710765112
  0
LWPOLYLINE
  5
CB6
330
2
100
AcDbEntity
  8
0
  6
CONTINUOUS
100
AcDbPolyline
 90
       35
 70
     0
 43
0.0
 10
28.69811547864244
 20
42.69643818211119
 10
28.58424777464245
 20
42.76386163491119
 10
28.46538627224243
 20
42.83180956611121
 10
28.34156465624244
 20
42.90013566851118
 10
28.21350392184243
 20
42.9683600813112
 10
28.08277820024242
 20
43.03564411491118
 10
27.95230834104243
 20
43.10048006531118
 10
27.82447063544245
 20
43.16169366371116
 10
27.69951705784242
 20
43.21925499651118
 10
27.57678801944244
 20
43.27356927011118
 10
27.45578309304242
 20
43.32494037091118
 10
27.33612790744244
 20
43.37359721891118
 10
27.21747447704243
 20
43.4197414157112
 10
27.09952715064241
 20
43.46353683811119
 10
26.98202723224244
 20
43.50511735811119
 10
26.86475076664243
 20
43.5445906221112
 10
26.74754783544244
 20
43.5820284813112
 10
26.63031926584243
 20
43.6174799581112
 10
26.51297686264245
 20
43.65098633731119
 10
26.39545166104243
 20
43.68257969891118
 10
26.27762412024245
 20
43.71230137571117
 10
26.15930290584245
 20
43.74020255491117
 10
26.04042697144242
 20
43.76629573411119
 10
25.92099376024243
 20
43.79057934851118
 10
25.80086492664245
 20
43.81307722051121
 10
25.67991781144245
 20
43.83380294211116
 10
25.55812067224245
 20
43.85275008451119
 10
25.43540887224244
 20
43.8699157213112
 10
25.31167801944244
 20
43.88529866371118
 10
25.18688731704244
 20
43.89888597891117
 10
25.06093006904242
 20
43.91066899971116
 10
24.93359936184244
 20
43.92064093411116
 10
24.80474440344242
 20
43.92877998851119
 10
24.67461885144244
 20
43.93504207011119
 10
24.54378246584242
 20
43.9393795437112
  0
LWPOLYLINE
  5
CDB
330
2
100
AcDbEntity
  8
0
  6
CONTINUOUS
100
AcDbPolyline
 90
        8
 70
     0
 43
0.0
 10
29.44075431384245
 20
40.4927166221112
 10
29.28341718744245
 20
40.66562583651119
 10
29.12102575224243
 20
40.8345728349112
 10
28.95045277944243
 20
41.00197006051118
 10
28.76722681624242
 20
41.1707729565112
 10
28.56077049944243
 20
41.34769208131118
 10
28.31413861144243
 20
41.54126883331119
 10
28.03426783064244
 20
41.73926483331118
  0
LWPOLYLINE
  5
CE5
330
2
100
AcDbEntity
  8
0
  6
CONTINUOUS
100
AcDbPolyline
 90
       15
 70
     0
 43
0.0
 10
25.46065492504244
 20
42.30079569891119
 10
25.78751591864242
 20
42.26490489251119
 10
26.13411970424245
 20
42.2106558813112
 10
26.46944448344243
 20
42.1393275469112
 10
26.79939820024245
 20
42.04972403011118
 10
27.13203442264244
 20
41.93970703491118
 10
27.46242186104243
 20
41.81023942531118
 10
27.78157780024243
 20
41.6647455181112
 10
28.08091684664245
 20
41.50807900291119
 10
28.35218249944245
 20
41.34655966211115
 10
28.59248602264244
 20
41.18446836611115
 10
28.80847920344243
 20
41.0192963485112
 10
29.01329657144243
 20
40.84207360771119
 10
29.22160697304242
 20
40.63865102371116
 10
29.44422577944244
 20
40.39589849411117
  0
LWPOLYLINE
  5
CF6
330
2
100
AcDbEntity
  8
0
  6
CONTINUOUS
100
AcDbPolyline
 90
       10
 70
     0
 43
0.0
 10
28.03426783064244
 20
41.73926483331118
 10
27.75913567864245
 20
41.9139962957112
 10
27.50522095704244
 20
42.06013910691118
 10
27.26174474424245
 20
42.1886114973112
 10
27.01594887064244
 20
42.30813353251119
 10
26.76174188344244
 20
42.4212125789112
 10
26.49443958584242
 20
42.52869673411118
 10
26.20940897784242
 20
42.63093938211119
 10
25.90114768344243
 20
42.7279098397112
 10
25.56040092824243
 20
42.81931414211118
  0
LWPOLYLINE
  5
D02
330
2
100
AcDbEntity
  8
0
  6
CONTINUOUS
100
AcDbPolyline
 90
        5
 70
     0
 43
0.0
 10
23.96053043064245
 20
43.03544660131118
 10
24.34979170424245
 20
43.0157589341112
 10
24.74768600504244
 20
42.97357870851118
 10
25.15223222104244
 20
42.90820077891118
 10
25.56040092824243
 20
42.81931414211118
  0
LINE
  5
D09
330
2
100
AcDbEntity
  8
0
  6
CONTINUOUS
100
AcDbLine
 10
24.25834840024243
 20
43.94668126371118
 30
0.0
 11
23.22592141784242
 21
43.97331603331119
 31
0.0
  0
LINE
  5
D0A
330
2
100
AcDbEntity
  8
0
  6
HIDDEN
100
AcDbLine
 10
24.54397492984245
 20
43.9424710765112
 30
0.0
 11
23.17423857464242
 21
43.97786676291116
 31
0.0
  0
LWPOLYLINE
  5
D0B
330
2
100
AcDbEntity
  8
0
  6
CONTINUOUS
100
AcDbPolyline
 90
        3
 70
     0
 43
0.0
 10
23.22592141784242
 20
43.97331603331119
 10
22.28421290104245
 20
43.99783869731118
 10
21.70616281144244
 20
44.01295678691122
  0
LINE
  5
D10
330
2
100
AcDbEntity
  8
0
  6
HIDDEN
100
AcDbLine
 10
23.17423857464242
 20
43.97786676291116
 30
0.0
 11
21.78277724504244
 21
44.01419262051118
 31
0.0
  0
LINE
  5
D11
330
2
100
AcDbEntity
  8
0
  6
CONTINUOUS
100
AcDbLine
 10
24.54378246584242
 20
43.9393795437112
 30
0.0
 11
24.25834840024243
 21
43.94668126371118
 31
0.0
  0
LINE
  5
D12
330
2
100
AcDbEntity
  8
0
  6
CONTINUOUS
100
AcDbLine
 10
29.44423123224244
 20
40.3958929293112
 30
0.0
 11
29.44832332984245
 21
40.4226261373112
 31
0.0
  0
LINE
  5
D13
330
2
100
AcDbEntity
  8
0
  6
CONTINUOUS
100
AcDbLine
 10
29.44832624024245
 20
40.4226285933112
 30
0.0
 11
29.44075431384245
 21
40.4927166221112
 31
0.0
  0
LINE
  5
D14
330
2
100
AcDbEntity
  8
0
  6
CONTINUOUS
100
AcDbLine
 10
29.03549584504244
 20
37.85587993571116
 30
0.0
 11
29.02409488504243
 21
37.87828686051119
 31
0.0
  0
ARC
  5
D15
330
2
100
AcDbEntity
  8
0
  6
CONTINUOUS
100
AcDbCircle
 10
33.90588703704244
 20
45.90420974051119
 30
0.0
 40
0.5
100
AcDbArc
 50
0.0
 51
90.0
  0
ARC
  5
D16
330
2
100
AcDbEntity
  8
0
  6
CONTINUOUS
100
AcDbCircle
 10
33.90588703704244
 20
45.90420974051119
 30
0.0
 40
0.25
100
AcDbArc
 50
0.0
 51
90.0
  0
ENDSEC
  0
SECTION
  2
OBJECTS
  0
DICTIONARY
  5
1A
330
0
100
AcDbDictionary
  3
ACAD_GROUP
350
18
  3
ACAD_LAYOUT
350
D1A
  3
ACAD_MLINESTYLE
350
19
  3
ACAD_PLOTSETTINGS
350
D1B
  3
ACAD_PLOTSTYLENAME
350
D18
  3
ACDBHEADERROUNDTRIPXREC
350
D8B
  3
ACDBVARIABLEDICTIONARY
350
D88
  0
DICTIONARY
  5
D44
330
2
100
AcDbDictionary
280
     1
  3
ACAD_LAYOUTSELFREF
360
DAC
  0
DICTIONARY
  5
D46
330
7
100
AcDbDictionary
280
     1
  3
ACAD_LAYOUTSELFREF
360
DAD
  0
DICTIONARY
  5
18
102
{ACAD_REACTORS
330
1A
102
}
330
1A
100
AcDbDictionary
  0
DICTIONARY
  5
D1A
102
{ACAD_REACTORS
330
1A
102
}
330
1A
100
AcDbDictionary
  0
DICTIONARY
  5
19
102
{ACAD_REACTORS
330
1A
102
}
330
1A
100
AcDbDictionary
  3
STANDARD
350
1B
  0
DICTIONARY
  5
D1B
102
{ACAD_REACTORS
330
1A
102
}
330
1A
100
AcDbDictionary
  0
ACDBDICTIONARYWDFLT
  5
D18
102
{ACAD_REACTORS
330
1A
102
}
330
1A
100
AcDbDictionary
281
     1
  3
Normal
350
D19
100
AcDbDictionaryWithDefault
340
D19
  0
DICTIONARY
  5
D8B
102
{ACAD_REACTORS
330
1A
102
}
330
1A
100
AcDbDictionary
  3
CEPSNTYPE
350
D95
  3
DIMSTYLEDATA
350
D99
  3
FINGERPRINTGUID
350
D96
  3
HYPERLINKBASE
350
D8E
  3
INSUNITS
350
D94
  3
LAYOUTDICT
350
D90
  3
LWETCUNION
350
D93
  3
PLOTSETDICT
350
D91
  3
PLOTSTYLNAMDICT
350
D92
  3
PSVPSCALE
350
D98
  3
PUCSBASE
350
D9C
  3
PUCSORGBACK
350
DA2
  3
PUCSORGBOTTOM
350
D9E
  3
PUCSORGFRONT
350
DA1
  3
PUCSORGLEFT
350
D9F
  3
PUCSORGRIGHT
350
DA0
  3
PUCSORGTOP
350
D9D
  3
PUCSORTHOREF
350
D9A
  3
PUCSORTHOVIEW
350
D9B
  3
STYLESHEET
350
D8F
  3
TSTACKALIGN
350
D8C
  3
TSTACKSIZE
350
D8D
  3
UCSBASE
350
DA5
  3
UCSORGBACK
350
DAB
  3
UCSORGBOTTOM
350
DA7
  3
UCSORGFRONT
350
DAA
  3
UCSORGLEFT
350
DA8
  3
UCSORGRIGHT
350
DA9
  3
UCSORGTOP
350
DA6
  3
UCSORTHOREF
350
DA3
  3
UCSORTHOVIEW
350
DA4
  3
VERSIONGUID
350
D97
  0
DICTIONARY
  5
D88
102
{ACAD_REACTORS
330
1A
102
}
330
1A
100
AcDbDictionary
  3
DIMASSOC
350
D89
  0
XRECORD
  5
DAC
102
{ACAD_REACTORS
330
D44
102
}
330
D44
100
AcDbXrecord
340
2
  0
XRECORD
  5
DAD
102
{ACAD_REACTORS
330
D46
102
}
330
D46
100
AcDbXrecord
340
7
  0
MLINESTYLE
  5
1B
102
{ACAD_REACTORS
330
19
102
}
330
19
100
AcDbMlineStyle
  2
STANDARD
 70
     0
  3

 62
   256
 51
90.0
 52
90.0
 71
     2
 49
0.5
 62
   256
  6
BYLAYER
 49
-0.5
 62
   256
  6
BYLAYER
  0
ACDBPLACEHOLDER
  5
D19
102
{ACAD_REACTORS
330
D18
102
}
330
D18
100
AcDbPlaceHolder
280
     0
  0
XRECORD
  5
D95
102
{ACAD_REACTORS
330
D8B
102
}
330
D8B
100
AcDbXrecord
 90
        0
  0
XRECORD
  5
D99
102
{ACAD_REACTORS
330
D8B
102
}
330
D8B
100
AcDbXrecord
1000
DSTYLE
1002
{
1070
   341
340
1D
1070
   342
340
1D
1002
}
  0
XRECORD
  5
D96
102
{ACAD_REACTORS
330
D8B
102
}
330
D8B
100
AcDbXrecord
  1
{CE5C0EBE-E78F-4844-90ED-F3DA645F456B}
  0
XRECORD
  5
D8E
102
{ACAD_REACTORS
330
D8B
102
}
330
D8B
100
AcDbXrecord
  1

  0
XRECORD
  5
D94
102
{ACAD_REACTORS
330
D8B
102
}
330
D8B
100
AcDbXrecord
 90
        0
  0
XRECORD
  5
D90
102
{ACAD_REACTORS
330
D8B
102
}
330
D8B
100
AcDbXrecord
340
D1A
  0
XRECORD
  5
D93
102
{ACAD_REACTORS
330
D8B
102
}
330
D8B
100
AcDbXrecord
 90
    14877
  0
XRECORD
  5
D91
102
{ACAD_REACTORS
330
D8B
102
}
330
D8B
100
AcDbXrecord
340
D1B
  0
XRECORD
  5
D92
102
{ACAD_REACTORS
330
D8B
102
}
330
D8B
100
AcDbXrecord
340
D18
  0
XRECORD
  5
D98
102
{ACAD_REACTORS
330
D8B
102
}
330
D8B
100
AcDbXrecord
 40
0.0
  0
XRECORD
  5
D9C
102
{ACAD_REACTORS
330
D8B
102
}
330
D8B
100
AcDbXrecord
340
0
  0
XRECORD
  5
DA2
102
{ACAD_REACTORS
330
D8B
102
}
330
D8B
100
AcDbXrecord
 10
0.0
 20
0.0
 30
0.0
  0
XRECORD
  5
D9E
102
{ACAD_REACTORS
330
D8B
102
}
330
D8B
100
AcDbXrecord
 10
0.0
 20
0.0
 30
0.0
  0
XRECORD
  5
DA1
102
{ACAD_REACTORS
330
D8B
102
}
330
D8B
100
AcDbXrecord
 10
0.0
 20
0.0
 30
0.0
  0
XRECORD
  5
D9F
102
{ACAD_REACTORS
330
D8B
102
}
330
D8B
100
AcDbXrecord
 10
0.0
 20
0.0
 30
0.0
  0
XRECORD
  5
DA0
102
{ACAD_REACTORS
330
D8B
102
}
330
D8B
100
AcDbXrecord
 10
0.0
 20
0.0
 30
0.0
  0
XRECORD
  5
D9D
102
{ACAD_REACTORS
330
D8B
102
}
330
D8B
100
AcDbXrecord
 10
0.0
 20
0.0
 30
0.0
  0
XRECORD
  5
D9A
102
{ACAD_REACTORS
330
D8B
102
}
330
D8B
100
AcDbXrecord
340
0
  0
XRECORD
  5
D9B
102
{ACAD_REACTORS
330
D8B
102
}
330
D8B
100
AcDbXrecord
 70
     0
  0
XRECORD
  5
D8F
102
{ACAD_REACTORS
330
D8B
102
}
330
D8B
100
AcDbXrecord
  1

  0
XRECORD
  5
D8C
102
{ACAD_REACTORS
330
D8B
102
}
330
D8B
100
AcDbXrecord
 90
        1
  0
XRECORD
  5
D8D
102
{ACAD_REACTORS
330
D8B
102
}
330
D8B
100
AcDbXrecord
 90
       70
  0
XRECORD
  5
DA5
102
{ACAD_REACTORS
330
D8B
102
}
330
D8B
100
AcDbXrecord
340
0
  0
XRECORD
  5
DAB
102
{ACAD_REACTORS
330
D8B
102
}
330
D8B
100
AcDbXrecord
 10
0.0
 20
0.0
 30
0.0
  0
XRECORD
  5
DA7
102
{ACAD_REACTORS
330
D8B
102
}
330
D8B
100
AcDbXrecord
 10
0.0
 20
0.0
 30
0.0
  0
XRECORD
  5
DAA
102
{ACAD_REACTORS
330
D8B
102
}
330
D8B
100
AcDbXrecord
 10
0.0
 20
0.0
 30
0.0
  0
XRECORD
  5
DA8
102
{ACAD_REACTORS
330
D8B
102
}
330
D8B
100
AcDbXrecord
 10
0.0
 20
0.0
 30
0.0
  0
XRECORD
  5
DA9
102
{ACAD_REACTORS
330
D8B
102
}
330
D8B
100
AcDbXrecord
 10
0.0
 20
0.0
 30
0.0
  0
XRECORD
  5
DA6
102
{ACAD_REACTORS
330
D8B
102
}
330
D8B
100
AcDbXrecord
 10
0.0
 20
0.0
 30
0.0
  0
XRECORD
  5
DA3
102
{ACAD_REACTORS
330
D8B
102
}
330
D8B
100
AcDbXrecord
340
0
  0
XRECORD
  5
DA4
102
{ACAD_REACTORS
330
D8B
102
}
330
D8B
100
AcDbXrecord
 70
     0
  0
XRECORD
  5
D97
102
{ACAD_REACTORS
330
D8B
102
}
330
D8B
100
AcDbXrecord
  1
{EFD0631A-24FC-4D25-B7FF-25D347516873}
  0
DICTIONARYVAR
  5
D89
102
{ACAD_REACTORS
330
D88
102
}
330
D88
100
DictionaryVariables
280
     0
  1
1
  0
ENDSEC
  0
EOF
