  0
SECTION
  2
HEADER
  9
$ACADVER
  1
AC1015
  9
$ACADMAINTVER
 70
    20
  9
$DWGCODEPAGE
  3
ANSI_1252
  9
$INSBASE
 10
0.0
 20
0.0
 30
0.0
  9
$EXTMIN
 10
1488.007714284051
 20
786.0597190438165
 30
0.0
  9
$EXTMAX
 10
1560.007701909051
 20
828.0558526681165
 30
0.0
  9
$LIMMIN
 10
0.0
 20
0.0
  9
$LIMMAX
 10
420.0
 20
297.0
  9
$ORTHOMODE
 70
     0
  9
$REGENMODE
 70
     1
  9
$FILLMODE
 70
     1
  9
$QTEXTMODE
 70
     0
  9
$MIRRTEXT
 70
     0
  9
$LTSCALE
 40
1.0
  9
$ATTMODE
 70
     1
  9
$TEXTSIZE
 40
2.5
  9
$TRACEWID
 40
1.0
  9
$TEXTSTYLE
  7
Standard
  9
$CLAYER
  8
0
  9
$CELTYPE
  6
ByLayer
  9
$CECOLOR
 62
   256
  9
$CELTSCALE
 40
1.0
  9
$DISPSILH
 70
     0
  9
$DIMSCALE
 40
1.0
  9
$DIMASZ
 40
2.5
  9
$DIMEXO
 40
0.625
  9
$DIMDLI
 40
3.75
  9
$DIMRND
 40
0.0
  9
$DIMDLE
 40
0.0
  9
$DIMEXE
 40
1.25
  9
$DIMTP
 40
0.0
  9
$DIMTM
 40
0.0
  9
$DIMTXT
 40
2.5
  9
$DIMCEN
 40
2.5
  9
$DIMTSZ
 40
0.0
  9
$DIMTOL
 70
     0
  9
$DIMLIM
 70
     0
  9
$DIMTIH
 70
     0
  9
$DIMTOH
 70
     0
  9
$DIMSE1
 70
     0
  9
$DIMSE2
 70
     0
  9
$DIMTAD
 70
     1
  9
$DIMZIN
 70
     8
  9
$DIMBLK
  1

  9
$DIMASO
 70
     1
  9
$DIMSHO
 70
     1
  9
$DIMPOST
  1

  9
$DIMAPOST
  1

  9
$DIMALT
 70
     0
  9
$DIMALTD
 70
     3
  9
$DIMALTF
 40
0.03937007874016
  9
$DIMLFAC
 40
1.0
  9
$DIMTOFL
 70
     1
  9
$DIMTVP
 40
0.0
  9
$DIMTIX
 70
     0
  9
$DIMSOXD
 70
     0
  9
$DIMSAH
 70
     0
  9
$DIMBLK1
  1

  9
$DIMBLK2
  1

  9
$DIMSTYLE
  2
ISO-25
  9
$DIMCLRD
 70
     0
  9
$DIMCLRE
 70
     0
  9
$DIMCLRT
 70
     0
  9
$DIMTFAC
 40
1.0
  9
$DIMGAP
 40
0.625
  9
$DIMJUST
 70
     0
  9
$DIMSD1
 70
     0
  9
$DIMSD2
 70
     0
  9
$DIMTOLJ
 70
     0
  9
$DIMTZIN
 70
     8
  9
$DIMALTZ
 70
     0
  9
$DIMALTTZ
 70
     0
  9
$DIMUPT
 70
     0
  9
$DIMDEC
 70
     2
  9
$DIMTDEC
 70
     2
  9
$DIMALTU
 70
     2
  9
$DIMALTTD
 70
     3
  9
$DIMTXSTY
  7
Standard
  9
$DIMAUNIT
 70
     0
  9
$DIMADEC
 70
     0
  9
$DIMALTRND
 40
0.0
  9
$DIMAZIN
 70
     0
  9
$DIMDSEP
 70
    44
  9
$DIMATFIT
 70
     3
  9
$DIMFRAC
 70
     0
  9
$DIMLDRBLK
  1

  9
$DIMLUNIT
 70
     2
  9
$DIMLWD
 70
    -2
  9
$DIMLWE
 70
    -2
  9
$DIMTMOVE
 70
     0
  9
$LUNITS
 70
     2
  9
$LUPREC
 70
     4
  9
$SKETCHINC
 40
1.0
  9
$FILLETRAD
 40
0.0
  9
$AUNITS
 70
     0
  9
$AUPREC
 70
     0
  9
$MENU
  1
.
  9
$ELEVATION
 40
0.0
  9
$PELEVATION
 40
0.0
  9
$THICKNESS
 40
0.0
  9
$LIMCHECK
 70
     0
  9
$CHAMFERA
 40
0.0
  9
$CHAMFERB
 40
0.0
  9
$CHAMFERC
 40
0.0
  9
$CHAMFERD
 40
0.0
  9
$SKPOLY
 70
     0
  9
$TDCREATE
 40
2456624.493187176
  9
$TDUCREATE
 40
2456624.701520509
  9
$TDUPDATE
 40
2456624.497548796
  9
$TDUUPDATE
 40
2456624.705882130
  9
$TDINDWG
 40
0.0037017940
  9
$TDUSRTIMER
 40
0.0037017708
  9
$USRTIMER
 70
     1
  9
$ANGBASE
 50
0.0
  9
$ANGDIR
 70
     0
  9
$PDMODE
 70
     0
  9
$PDSIZE
 40
0.0
  9
$PLINEWID
 40
0.0
  9
$SPLFRAME
 70
     0
  9
$SPLINETYPE
 70
     6
  9
$SPLINESEGS
 70
     8
  9
$HANDSEED
  5
47E
  9
$SURFTAB1
 70
     6
  9
$SURFTAB2
 70
     6
  9
$SURFTYPE
 70
     6
  9
$SURFU
 70
     6
  9
$SURFV
 70
     6
  9
$UCSBASE
  2

  9
$UCSNAME
  2

  9
$UCSORG
 10
0.0
 20
0.0
 30
0.0
  9
$UCSXDIR
 10
1.0
 20
0.0
 30
0.0
  9
$UCSYDIR
 10
0.0
 20
1.0
 30
0.0
  9
$UCSORTHOREF
  2

  9
$UCSORTHOVIEW
 70
     0
  9
$UCSORGTOP
 10
0.0
 20
0.0
 30
0.0
  9
$UCSORGBOTTOM
 10
0.0
 20
0.0
 30
0.0
  9
$UCSORGLEFT
 10
0.0
 20
0.0
 30
0.0
  9
$UCSORGRIGHT
 10
0.0
 20
0.0
 30
0.0
  9
$UCSORGFRONT
 10
0.0
 20
0.0
 30
0.0
  9
$UCSORGBACK
 10
0.0
 20
0.0
 30
0.0
  9
$PUCSBASE
  2

  9
$PUCSNAME
  2

  9
$PUCSORG
 10
0.0
 20
0.0
 30
0.0
  9
$PUCSXDIR
 10
1.0
 20
0.0
 30
0.0
  9
$PUCSYDIR
 10
0.0
 20
1.0
 30
0.0
  9
$PUCSORTHOREF
  2

  9
$PUCSORTHOVIEW
 70
     0
  9
$PUCSORGTOP
 10
0.0
 20
0.0
 30
0.0
  9
$PUCSORGBOTTOM
 10
0.0
 20
0.0
 30
0.0
  9
$PUCSORGLEFT
 10
0.0
 20
0.0
 30
0.0
  9
$PUCSORGRIGHT
 10
0.0
 20
0.0
 30
0.0
  9
$PUCSORGFRONT
 10
0.0
 20
0.0
 30
0.0
  9
$PUCSORGBACK
 10
0.0
 20
0.0
 30
0.0
  9
$USERI1
 70
     0
  9
$USERI2
 70
     0
  9
$USERI3
 70
     0
  9
$USERI4
 70
     0
  9
$USERI5
 70
     0
  9
$USERR1
 40
0.0
  9
$USERR2
 40
0.0
  9
$USERR3
 40
0.0
  9
$USERR4
 40
0.0
  9
$USERR5
 40
0.0
  9
$WORLDVIEW
 70
     1
  9
$SHADEDGE
 70
     3
  9
$SHADEDIF
 70
    70
  9
$TILEMODE
 70
     1
  9
$MAXACTVP
 70
    64
  9
$PINSBASE
 10
0.0
 20
0.0
 30
0.0
  9
$PLIMCHECK
 70
     0
  9
$PEXTMIN
 10
0.0
 20
0.0
 30
0.0
  9
$PEXTMAX
 10
0.0
 20
0.0
 30
0.0
  9
$PLIMMIN
 10
0.0
 20
0.0
  9
$PLIMMAX
 10
12.0
 20
9.0
  9
$UNITMODE
 70
     0
  9
$VISRETAIN
 70
     1
  9
$PLINEGEN
 70
     0
  9
$PSLTSCALE
 70
     1
  9
$TREEDEPTH
 70
  3020
  9
$CMLSTYLE
  2
Standard
  9
$CMLJUST
 70
     0
  9
$CMLSCALE
 40
20.0
  9
$PROXYGRAPHICS
 70
     1
  9
$MEASUREMENT
 70
     1
  9
$CELWEIGHT
370
    -1
  9
$ENDCAPS
280
     0
  9
$JOINSTYLE
280
     0
  9
$LWDISPLAY
290
     0
  9
$INSUNITS
 70
     4
  9
$HYPERLINKBASE
  1

  9
$STYLESHEET
  1

  9
$XEDIT
290
     1
  9
$CEPSNTYPE
380
     0
  9
$PSTYLEMODE
290
     1
  9
$FINGERPRINTGUID
  2
{A757B95B-33AC-4050-8B26-CF83AC8DB212}
  9
$VERSIONGUID
  2
{0F0BEFA5-ACB6-425F-B415-B2B302C1BFA9}
  9
$EXTNAMES
290
     1
  9
$PSVPSCALE
 40
0.0
  9
$OLESTARTUP
290
     0
  0
ENDSEC
  0
SECTION
  2
CLASSES
  0
CLASS
  1
ACDBDICTIONARYWDFLT
  2
AcDbDictionaryWithDefault
  3
ObjectDBX Classes
 90
        0
280
     0
281
     0
  0
CLASS
  1
ACDBPLACEHOLDER
  2
AcDbPlaceHolder
  3
ObjectDBX Classes
 90
        0
280
     0
281
     0
  0
CLASS
  1
LAYOUT
  2
AcDbLayout
  3
ObjectDBX Classes
 90
        0
280
     0
281
     0
  0
CLASS
  1
DICTIONARYVAR
  2
AcDbDictionaryVar
  3
ObjectDBX Classes
 90
        0
280
     0
281
     0
  0
CLASS
  1
TABLESTYLE
  2
AcDbTableStyle
  3
ObjectDBX Classes
 90
     4095
280
     0
281
     0
  0
CLASS
  1
MATERIAL
  2
AcDbMaterial
  3
ObjectDBX Classes
 90
     1153
280
     0
281
     0
  0
CLASS
  1
VISUALSTYLE
  2
AcDbVisualStyle
  3
ObjectDBX Classes
 90
     4095
280
     0
281
     0
  0
CLASS
  1
SCALE
  2
AcDbScale
  3
ObjectDBX Classes
 90
     1153
280
     0
281
     0
  0
CLASS
  1
MLEADERSTYLE
  2
AcDbMLeaderStyle
  3
ACDB_MLEADERSTYLE_CLASS
 90
     4095
280
     0
281
     0
  0
CLASS
  1
CELLSTYLEMAP
  2
AcDbCellStyleMap
  3
ObjectDBX Classes
 90
     1152
280
     0
281
     0
  0
CLASS
  1
EXACXREFPANELOBJECT
  2
ExAcXREFPanelObject
  3
EXAC_ESW
 90
    33793
280
     0
281
     0
  0
CLASS
  1
NPOCOLLECTION
  2
AcDbImpNonPersistentObjectsCollection
  3
ObjectDBX Classes
 90
    33921
280
     0
281
     0
  0
CLASS
  1
LAYER_INDEX
  2
AcDbLayerIndex
  3
ObjectDBX Classes
 90
    32768
280
     0
281
     0
  0
CLASS
  1
SPATIAL_INDEX
  2
AcDbSpatialIndex
  3
ObjectDBX Classes
 90
    32768
280
     0
281
     0
  0
CLASS
  1
IDBUFFER
  2
AcDbIdBuffer
  3
ObjectDBX Classes
 90
    32768
280
     0
281
     0
  0
ENDSEC
  0
SECTION
  2
TABLES
  0
TABLE
  2
VPORT
  5
8
102
{ACAD_XDICTIONARY
360
456
102
}
330
0
100
AcDbSymbolTable
 70
     1
  0
VPORT
  5
EA
330
8
100
AcDbSymbolTableRecord
100
AcDbViewportTableRecord
  2
*Active
 70
     0
 10
0.0
 20
0.0
 11
1.0
 21
1.0
 12
1539.704154549307
 22
806.0473155541217
 13
0.0
 23
0.0
 14
10.0
 24
10.0
 15
10.0
 25
10.0
 16
0.0
 26
0.0
 36
1.0
 17
0.0
 27
0.0
 37
0.0
 40
79.6976214625291
 41
2.286075949367088
 42
50.0
 43
0.0
 44
0.0
 50
0.0
 51
0.0
 71
     0
 72
  1000
 73
     1
 74
     3
 75
     0
 76
     0
 77
     0
 78
     0
281
     0
 65
     1
110
0.0
120
0.0
130
0.0
111
1.0
121
0.0
131
0.0
112
0.0
122
1.0
132
0.0
 79
     0
146
0.0
  0
ENDTAB
  0
TABLE
  2
LTYPE
  5
5
330
0
100
AcDbSymbolTable
 70
     2
  0
LTYPE
  5
14
330
5
100
AcDbSymbolTableRecord
100
AcDbLinetypeTableRecord
  2
ByBlock
 70
     0
  3

 72
    65
 73
     0
 40
0.0
  0
LTYPE
  5
15
330
5
100
AcDbSymbolTableRecord
100
AcDbLinetypeTableRecord
  2
ByLayer
 70
     0
  3

 72
    65
 73
     0
 40
0.0
  0
LTYPE
  5
16
330
5
100
AcDbSymbolTableRecord
100
AcDbLinetypeTableRecord
  2
Continuous
 70
     0
  3
Solid line
 72
    65
 73
     0
 40
0.0
  0
LTYPE
  5
213
330
5
100
AcDbSymbolTableRecord
100
AcDbLinetypeTableRecord
  2
CENTER
 70
     0
  3
____ _ ____ _ ____ _ ____ _ ____ _ ____ _ ____
 72
    65
 73
     4
 40
0.6
 49
0.375
 74
     0
 49
-0.075
 74
     0
 49
0.075
 74
     0
 49
-0.075
 74
     0
  0
ENDTAB
  0
TABLE
  2
LAYER
  5
2
330
0
100
AcDbSymbolTable
 70
     3
  0
LAYER
  5
10
102
{ACAD_XDICTIONARY
360
13C
102
}
330
2
100
AcDbSymbolTableRecord
100
AcDbLayerTableRecord
  2
0
 70
     0
 62
     7
  6
Continuous
370
    -3
390
F
  0
LAYER
  5
214
330
2
100
AcDbSymbolTableRecord
100
AcDbLayerTableRecord
  2
DEFAULT_1
 70
     0
 62
     7
  6
CENTER
370
    -3
390
F
  0
LAYER
  5
3F9
330
2
100
AcDbSymbolTableRecord
100
AcDbLayerTableRecord
  2
Defpoints
 70
     0
 62
     7
  6
Continuous
290
     0
370
    -3
390
F
  0
ENDTAB
  0
TABLE
  2
STYLE
  5
3
330
0
100
AcDbSymbolTable
 70
     2
  0
STYLE
  5
11
330
3
100
AcDbSymbolTableRecord
100
AcDbTextStyleTableRecord
  2
Standard
 70
     0
 40
0.0
 41
1.0
 50
0.0
 71
     0
 42
2.5
  3
arial.ttf
  4

1001
ACAD
1000
Arial
1071
       34
  0
STYLE
  5
132
330
3
100
AcDbSymbolTableRecord
100
AcDbTextStyleTableRecord
  2
Annotatif
 70
     0
 40
0.0
 41
1.0
 50
0.0
 71
     0
 42
2.5
  3
arial.ttf
  4

1001
AcadAnnotative
1000
AnnotativeData
1002
{
1070
     1
1070
     1
1002
}
1001
ACAD
1000
Arial
1071
       34
  0
ENDTAB
  0
TABLE
  2
VIEW
  5
6
330
0
100
AcDbSymbolTable
 70
     0
  0
ENDTAB
  0
TABLE
  2
UCS
  5
7
330
0
100
AcDbSymbolTable
 70
     0
  0
ENDTAB
  0
TABLE
  2
APPID
  5
9
330
0
100
AcDbSymbolTable
 70
     7
  0
APPID
  5
12
330
9
100
AcDbSymbolTableRecord
100
AcDbRegAppTableRecord
  2
ACAD
 70
     0
  0
APPID
  5
9E
330
9
100
AcDbSymbolTableRecord
100
AcDbRegAppTableRecord
  2
ACAD_PSEXT
 70
     0
  0
APPID
  5
133
330
9
100
AcDbSymbolTableRecord
100
AcDbRegAppTableRecord
  2
AcadAnnoPO
 70
     0
  0
APPID
  5
134
330
9
100
AcDbSymbolTableRecord
100
AcDbRegAppTableRecord
  2
AcadAnnotative
 70
     0
  0
APPID
  5
135
330
9
100
AcDbSymbolTableRecord
100
AcDbRegAppTableRecord
  2
ACAD_DSTYLE_DIMJAG
 70
     0
  0
APPID
  5
136
330
9
100
AcDbSymbolTableRecord
100
AcDbRegAppTableRecord
  2
ACAD_DSTYLE_DIMTALN
 70
     0
  0
APPID
  5
165
330
9
100
AcDbSymbolTableRecord
100
AcDbRegAppTableRecord
  2
ACAD_MLEADERVER
 70
     0
  0
ENDTAB
  0
TABLE
  2
DIMSTYLE
  5
A
330
0
100
AcDbSymbolTable
 70
     4
100
AcDbDimStyleTable
 71
     2
340
27
340
137
  0
DIMSTYLE
105
1B0
330
A
100
AcDbSymbolTableRecord
100
AcDbDimStyleTableRecord
  2
Standard
 70
     0
340
11
  0
DIMSTYLE
105
137
330
A
100
AcDbSymbolTableRecord
100
AcDbDimStyleTableRecord
  2
Annotatif
 70
     0
 40
0.0
 41
2.5
 42
0.625
 43
3.75
 44
1.25
 73
     0
 74
     0
 77
     1
 78
     8
140
2.5
141
2.5
143
0.03937007874016
147
0.625
171
     3
172
     1
271
     2
272
     2
274
     3
278
    44
283
     0
284
     8
340
11
1001
AcadAnnotative
1000
AnnotativeData
1002
{
1070
     1
1070
     1
1002
}
1001
ACAD_DSTYLE_DIMJAG
1070
   388
1040
1.5
1001
ACAD_DSTYLE_DIMTALN
1070
   392
1070
     0
  0
DIMSTYLE
105
27
330
A
100
AcDbSymbolTableRecord
100
AcDbDimStyleTableRecord
  2
ISO-25
 70
     0
 41
2.5
 42
0.625
 43
3.75
 44
1.25
 73
     0
 74
     0
 77
     1
 78
     8
140
2.5
141
2.5
143
0.03937007874016
147
0.625
171
     3
172
     1
271
     2
272
     2
274
     3
278
    44
283
     0
284
     8
340
11
  0
DIMSTYLE
105
215
330
A
100
AcDbSymbolTableRecord
100
AcDbDimStyleTableRecord
  2
DIMSTYLE_2
 70
     0
 41
2.0
 44
0.125
 47
0.001
 48
0.001
 78
     4
140
1.333333333299999
147
0.0625
271
     3
272
     3
284
     4
340
11
341
1FB
342
1FB
343
1FB
344
1FB
  0
ENDTAB
  0
TABLE
  2
BLOCK_RECORD
  5
1
330
0
100
AcDbSymbolTable
 70
     6
  0
BLOCK_RECORD
  5
1F
102
{ACAD_XDICTIONARY
360
1CE
102
}
330
1
100
AcDbSymbolTableRecord
100
AcDbBlockTableRecord
  2
*Model_Space
340
22
  0
BLOCK_RECORD
  5
D2
330
1
100
AcDbSymbolTableRecord
100
AcDbBlockTableRecord
  2
*Paper_Space
340
D3
  0
BLOCK_RECORD
  5
D6
330
1
100
AcDbSymbolTableRecord
100
AcDbBlockTableRecord
  2
*Paper_Space0
340
D7
  0
BLOCK_RECORD
  5
1FB
330
1
100
AcDbSymbolTableRecord
100
AcDbBlockTableRecord
  2
_FILLED
340
0
102
{BLKREFS
331
206
331
207
331
210
331
211
331
418
331
419
331
422
331
423
102
}
  0
ENDTAB
  0
ENDSEC
  0
SECTION
  2
BLOCKS
  0
BLOCK
  5
20
330
1F
100
AcDbEntity
  8
0
100
AcDbBlockBegin
  2
*Model_Space
 70
     0
 10
0.0
 20
0.0
 30
0.0
  3
*Model_Space
  1

  0
ENDBLK
  5
21
330
1F
100
AcDbEntity
  8
0
100
AcDbBlockEnd
  0
BLOCK
  5
D4
330
D2
100
AcDbEntity
 67
     1
  8
0
100
AcDbBlockBegin
  2
*Paper_Space
 70
     0
 10
0.0
 20
0.0
 30
0.0
  3
*Paper_Space
  1

  0
ENDBLK
  5
D5
330
D2
100
AcDbEntity
 67
     1
  8
0
100
AcDbBlockEnd
  0
BLOCK
  5
D8
330
D6
100
AcDbEntity
 67
     1
  8
0
100
AcDbBlockBegin
  2
*Paper_Space0
 70
     0
 10
0.0
 20
0.0
 30
0.0
  3
*Paper_Space0
  1

  0
ENDBLK
  5
D9
330
D6
100
AcDbEntity
 67
     1
  8
0
100
AcDbBlockEnd
  0
BLOCK
  5
1FC
330
1FB
100
AcDbEntity
  8
0
100
AcDbBlockBegin
  2
_FILLED
 70
     0
 10
0.0
 20
0.0
 30
0.0
  3
_FILLED
  1

  0
SOLID
  5
1FD
330
1FB
100
AcDbEntity
  8
0
  6
ByBlock
 62
     0
100
AcDbTrace
 10
0.0
 20
0.0
 30
0.0
 11
-1.0
 21
0.1666666667
 31
0.0
 12
-1.0
 22
-0.1666666667
 32
0.0
 13
-1.0
 23
-0.1666666667
 33
0.0
  0
ENDBLK
  5
1FE
330
1FB
100
AcDbEntity
  8
0
  6
ByBlock
 62
     0
100
AcDbBlockEnd
  0
ENDSEC
  0
SECTION
  2
ENTITIES
  0
LWPOLYLINE
  5
30C
330
1F
100
AcDbEntity
  8
0
  6
Continuous
 62
     7
100
AcDbPolyline
 90
        7
 70
     0
 43
0.0
 10
1488.035507051151
 20
805.9510393417165
 10
1488.046110221051
 20
805.7570554512164
 10
1488.104637465651
 20
804.9923362172163
 10
1488.188243281051
 20
804.2417555748164
 10
1488.295717355351
 20
803.5058951413164
 10
1488.425780290251
 20
802.7856432499165
 10
1488.574411975251
 20
802.0935996878165
  0
LWPOLYLINE
  5
30D
330
1F
100
AcDbEntity
  8
0
  6
Continuous
 62
     7
100
AcDbPolyline
 90
        3
 70
     0
 43
0.0
 10
1488.007714284051
 20
807.0577858560165
 10
1488.023557019551
 20
806.2221182905165
 10
1488.035507051151
 20
805.9510393417165
  0
LWPOLYLINE
  5
30E
330
1F
100
AcDbEntity
  8
0
  6
Continuous
 62
     7
100
AcDbPolyline
 90
       24
 70
     0
 43
0.0
 10
1489.729428206251
 20
807.0577858560165
 10
1489.730808278351
 20
806.8593196891166
 10
1489.734792832751
 20
806.6666656887164
 10
1489.741407400351
 20
806.4737516654165
 10
1489.750737321151
 20
806.2794554605165
 10
1489.762716862151
 20
806.0857555655164
 10
1489.777301829551
 20
805.8930465329165
 10
1489.794527552551
 20
805.7006700256165
 10
1489.814387629251
 20
805.5086764067166
 10
1489.836883409251
 20
805.3170310252165
 10
1489.862018064051
 20
805.1257008175165
 10
1489.889794268751
 20
804.9346702775164
 10
1489.920215346951
 20
804.7439272983165
 10
1489.953290505851
 20
804.5534321631166
 10
1489.989034308151
 20
804.3631314871165
 10
1490.027458903051
 20
804.1730004894164
 10
1490.068573030851
 20
803.9830386734164
 10
1490.112385955251
 20
803.7932462314165
 10
1490.158887345251
 20
803.6037038976164
 10
1490.208157838251
 20
803.4141370984166
 10
1490.260201486551
 20
803.2246045377164
 10
1490.314857080651
 20
803.0357127440165
 10
1490.372034724451
 20
802.8477191940165
 10
1490.431536648651
 20
802.6612375955163
  0
LWPOLYLINE
  5
30F
330
1F
100
AcDbEntity
  8
0
  6
Continuous
 62
     7
100
AcDbPolyline
 90
       19
 70
     0
 43
0.0
 10
1489.651245558951
 20
807.0577858560165
 10
1489.652920761451
 20
806.7950411368165
 10
1489.657910513451
 20
806.5352939520165
 10
1489.666161192951
 20
806.2784271043165
 10
1489.677621122351
 20
806.0242832007164
 10
1489.692264907051
 20
805.7723424508164
 10
1489.710079465051
 20
805.5222187442165
 10
1489.731042761551
 20
805.2738075438165
 10
1489.755149283551
 20
805.0268724253164
 10
1489.782404250051
 20
804.7811745756165
 10
1489.812844622851
 20
804.5363043293164
 10
1489.846583070851
 20
804.2913695998166
 10
1489.883661517051
 20
804.0461858161163
 10
1489.924085954951
 20
803.8008417290164
 10
1489.967846606451
 20
803.5554922418166
 10
1490.014622406951
 20
803.3118249282164
 10
1490.064256868751
 20
803.0703301409165
 10
1490.116640764651
 20
802.8311833772164
 10
1490.171660427151
 20
802.5945520740165
  0
LWPOLYLINE
  5
310
330
1F
100
AcDbEntity
  8
0
  6
Continuous
 62
     7
100
AcDbPolyline
 90
        3
 70
     0
 43
0.0
 10
1488.035507051151
 20
808.1645323702165
 10
1488.023557019551
 20
807.8934534214166
 10
1488.007714284051
 20
807.0577858560165
  0
LWPOLYLINE
  5
311
330
1F
100
AcDbEntity
  8
0
  6
Continuous
 62
     7
100
AcDbPolyline
 90
        7
 70
     0
 43
0.0
 10
1488.574411975251
 20
812.0219720241165
 10
1488.425780290251
 20
811.3299284620165
 10
1488.295717355351
 20
810.6096765706165
 10
1488.188243281051
 20
809.8738161371164
 10
1488.104637465651
 20
809.1232354947164
 10
1488.046110221051
 20
808.3585162608164
 10
1488.035507051151
 20
808.1645323702165
  0
LWPOLYLINE
  5
312
330
1F
100
AcDbEntity
  8
0
  6
Continuous
 62
     7
100
AcDbPolyline
 90
       19
 70
     0
 43
0.0
 10
1490.17166042725
 20
811.5210196379164
 10
1490.116646919851
 20
811.2844155939164
 10
1490.064170752951
 20
811.0448359289165
 10
1490.014387246251
 20
810.8025634854165
 10
1489.967456417751
 20
810.5579716812165
 10
1489.923711305651
 20
810.3125453588166
 10
1489.883343759151
 20
810.0673738915164
 10
1489.846322895751
 20
809.8224006661165
 10
1489.812631769951
 20
809.5776422548166
 10
1489.782216496051
 20
809.3328001650164
 10
1489.755012032751
 20
809.0873825219166
 10
1489.730935335651
 20
808.8405832685165
 10
1489.709991794451
 20
808.5922257079165
 10
1489.692205818051
 20
808.3423152184165
 10
1489.677577345151
 20
808.0904398679164
 10
1489.66612624535
 20
807.8362388933165
 10
1489.657890998251
 20
807.5795168418164
 10
1489.652915160251
 20
807.3200923052164
 10
1489.651245558951
 20
807.0577858560165
  0
LWPOLYLINE
  5
313
330
1F
100
AcDbEntity
  8
0
  6
Continuous
 62
     7
100
AcDbPolyline
 90
        4
 70
     0
 43
0.0
 10
1488.896956271551
 20
813.2500469586165
 10
1488.808927204451
 20
812.9422603873164
 10
1488.683450959151
 20
812.4707524065165
 10
1488.574411790951
 20
812.0219712289165
  0
LWPOLYLINE
  5
314
330
1F
100
AcDbEntity
  8
0
  6
Continuous
 62
     7
100
AcDbPolyline
 90
        5
 70
     0
 43
0.0
 10
1489.862290904951
 20
815.8888544504165
 10
1489.548761983851
 20
815.1409191683164
 10
1489.262473982351
 20
814.3787578535164
 10
1489.004304134451
 20
813.6041008368165
 10
1488.896956271551
 20
813.2500469586165
  0
LWPOLYLINE
  5
315
330
1F
100
AcDbEntity
  8
0
  6
Continuous
 62
     7
100
AcDbPolyline
 90
       26
 70
     0
 43
0.0
 10
1489.862290904951
 20
798.2267172615165
 10
1490.258201025051
 20
797.3803666522164
 10
1490.688995013051
 20
796.5551297641164
 10
1491.153466197451
 20
795.7527577456164
 10
1491.650392074751
 20
794.9748789749165
 10
1492.178497744351
 20
794.2228640319165
 10
1492.736412948451
 20
793.4981206812165
 10
1493.322771872151
 20
792.8019709106165
 10
1493.936226977851
 20
792.1354662525165
 10
1494.575200834951
 20
791.4998253176166
 10
1495.238208506251
 20
790.8961104292164
 10
1495.92398213135
 20
790.3250037973165
 10
1496.631038392051
 20
789.7873196135165
 10
1497.358014586451
 20
789.2837629092165
 10
1498.103690369751
 20
788.8148267078165
 10
1498.866460712851
 20
788.3811890997165
 10
1499.644826534151
 20
787.9834510641164
 10
1500.437506813451
 20
787.6219999010165
 10
1501.243175684051
 20
787.2971859578165
 10
1502.060049108151
 20
787.0095546437164
 10
1502.885782958851
 20
786.7596791774165
 10
1503.717901933951
 20
786.5479964196165
 10
1504.555668875751
 20
786.3744808905164
 10
1505.399849975551
 20
786.2388571859164
 10
1506.250041588151
 20
786.1411204868164
 10
1507.10552026995
 20
786.0814483218165
  0
LWPOLYLINE
  5
316
330
1F
100
AcDbEntity
  8
0
  6
Continuous
 62
     7
100
AcDbPolyline
 90
       87
 70
     0
 43
0.0
 10
1491.339409276951
 20
798.9187042248166
 10
1491.437470639251
 20
798.6699956434165
 10
1491.538553100151
 20
798.4224069439164
 10
1491.642646906251
 20
798.1759978980164
 10
1491.749739260551
 20
797.9308324165165
 10
1491.859807735351
 20
797.6869922409165
 10
1491.972830594351
 20
797.4445523232165
 10
1492.088788115851
 20
797.2035790520164
 10
1492.207659011951
 20
796.9641385512164
 10
1492.329419531651
 20
796.7262982360165
 10
1492.453993944651
 20
796.4902189239165
 10
1492.581183516751
 20
796.2562764627165
 10
1492.710937662551
 20
796.0245595593164
 10
1492.843214730851
 20
795.7951371033165
 10
1492.977955840051
 20
795.5681022840165
 10
1493.115101041751
 20
795.3435427794166
 10
1493.254610215651
 20
795.1215083095164
 10
1493.396443758451
 20
794.9020449747165
 10
1493.540561654951
 20
794.6851969404165
 10
1493.686918738451
 20
794.4710130697164
 10
1493.835317538851
 20
794.2597526227165
 10
1493.985614920851
 20
794.0515783602164
 10
1494.137744629951
 20
793.8465432785164
 10
1494.291638762951
 20
793.6446990463165
 10
1494.447190780251
 20
793.4461413450165
 10
1494.604205824951
 20
793.2510641587165
 10
1494.762523344851
 20
793.0596040133165
 10
1494.922015822451
 20
792.8718547213165
 10
1495.082587285451
 20
792.6878653665164
 10
1495.244152691551
 20
792.5076664311164
 10
1495.406748174751
 20
792.3311540435165
 10
1495.570400617751
 20
792.1582438756165
 10
1495.735090796451
 20
791.9889005218164
 10
1495.900793465851
 20
791.8230948768165
 10
1496.067416512851
 20
791.6608642693165
 10
1496.234958586651
 20
791.5021560111165
 10
1496.404074742951
 20
791.3463252269165
 10
1496.575747881151
 20
791.1924782036164
 10
1496.750557257651
 20
791.0401099900164
 10
1496.928914230351
 20
790.8889070981165
 10
1497.110857933651
 20
790.7388962445164
 10
1497.296184858651
 20
790.5902998156165
 10
1497.484849309851
 20
790.4431988673165
 10
1497.676759864051
 20
790.2977091276165
 10
1497.871818313751
 20
790.1539464034165
 10
1498.069925938151
 20
790.0120184858165
 10
1498.271132694851
 20
789.8719237163164
 10
1498.475451519251
 20
789.7336903803164
 10
1498.682846681651
 20
789.5973782395165
 10
1498.89329067355
 20
789.4630404051165
 10
1499.106768819051
 20
789.3307204100165
 10
1499.323268727851
 20
789.2004598202166
 10
1499.542670627351
 20
789.0723630833165
 10
1499.764878506251
 20
788.9465138850165
 10
1499.989798633451
 20
788.8229934295164
 10
1500.217271196351
 20
788.7019130451164
 10
1500.447274474751
 20
788.5833046534164
 10
1500.679778071751
 20
788.4672055484164
 10
1500.914552662751
 20
788.3537482947165
 10
1501.151196709451
 20
788.2431375151164
 10
1501.389722996551
 20
788.1353727497164
 10
1501.630104600151
 20
788.0304770825165
 10
1501.870370521051
 20
787.9292826787165
 10
1502.113040672951
 20
787.8307180738164
 10
1502.358544794051
 20
787.7346767664165
 10
1502.595091244951
 20
787.6455971383165
 10
1502.818276917651
 20
787.5648275819164
 10
1503.025373565451
 20
787.4930590830165
 10
1503.218832363351
 20
787.4290496733165
 10
1503.403878371051
 20
787.3707487561165
 10
1503.583628341851
 20
787.3169831305165
 10
1503.758919105651
 20
787.2673870272165
 10
1503.930529283151
 20
787.2216223843166
 10
1504.099751580951
 20
787.1791943289165
 10
1504.268654014051
 20
787.1395054139164
 10
1504.439185415851
 20
787.1021191343165
 10
1504.613200352351
 20
787.0666866689165
 10
1504.793164542451
 20
787.0327887253165
 10
1504.980665569251
 20
787.0002828302165
 10
1505.175828088151
 20
786.9693254978165
 10
1505.379240323951
 20
786.9399967864165
 10
1505.592308688351
 20
786.9122862837165
 10
1505.81604288515
 20
786.8862792717164
 10
1506.051355706451
 20
786.8621024311164
 10
1506.300689487051
 20
786.8397720983165
 10
1506.566673851251
 20
786.8193665268165
 10
1506.851983559851
 20
786.8010242061164
  0
LWPOLYLINE
  5
317
330
1F
100
AcDbEntity
  8
0
  6
Continuous
 62
     7
100
AcDbPolyline
 90
        4
 70
     0
 43
0.0
 10
1491.245689795551
 20
799.1653531237164
 10
1491.276538152151
 20
799.0831277010165
 10
1491.307777245751
 20
799.0009114221164
 10
1491.339409276951
 20
798.9187042248166
  0
LWPOLYLINE
  5
318
330
1F
100
AcDbEntity
  8
0
  6
Continuous
 62
     7
100
AcDbPolyline
 90
       19
 70
     0
 43
0.0
 10
1490.431536648651
 20
802.6612375955163
 10
1490.479010806551
 20
802.5182065649165
 10
1490.530795988351
 20
802.3671393740164
 10
1490.587182659851
 20
802.2079935619165
 10
1490.648583834551
 20
802.0404127479165
 10
1490.715423868751
 20
801.8640989776166
 10
1490.787649444451
 20
801.6800315717166
 10
1490.862549742251
 20
801.4955327741166
 10
1490.939519054151
 20
801.3120624031165
 10
1491.018703242451
 20
801.1291938246165
 10
1491.100070586151
 20
800.9469460500165
 10
1491.183609063051
 20
800.7652865508164
 10
1491.269317181551
 20
800.5841580435165
 10
1491.357223647551
 20
800.4034496895165
 10
1491.447396874951
 20
800.2229860879165
 10
1491.539901270051
 20
800.0426193567165
 10
1491.634771939851
 20
799.8622731472164
 10
1491.732040213951
 20
799.6818881021165
 10
1491.831743478451
 20
799.5014011895165
  0
LWPOLYLINE
  5
319
330
1F
100
AcDbEntity
  8
0
  6
Continuous
 62
     7
100
AcDbPolyline
 90
        5
 70
     0
 43
0.0
 10
1488.896956271551
 20
800.8655247533166
 10
1489.004304134451
 20
800.5114708752165
 10
1489.262473982351
 20
799.7368138584165
 10
1489.548761983851
 20
798.9746525436165
 10
1489.862290904951
 20
798.2267172615165
  0
LWPOLYLINE
  5
31A
330
1F
100
AcDbEntity
  8
0
  6
Continuous
 62
     7
100
AcDbPolyline
 90
       16
 70
     0
 43
0.0
 10
1490.194906791651
 20
802.4984272150165
 10
1490.249971012051
 20
802.2778092364164
 10
1490.307487166051
 20
802.0567881266165
 10
1490.367384658351
 20
801.8353718367164
 10
1490.429598501351
 20
801.6135645857165
 10
1490.494058288651
 20
801.3914064012165
 10
1490.560664481351
 20
801.1690469265165
 10
1490.629343566651
 20
800.9465548760164
 10
1490.700080557951
 20
800.7238326161164
 10
1490.772860120551
 20
800.5007852267166
 10
1490.847640846551
 20
800.2773576728165
 10
1490.92435019735
 20
800.0535916695165
 10
1491.002668004751
 20
799.8302447555166
 10
1491.082396955251
 20
799.6076895760165
 10
1491.163436472551
 20
799.3860253674165
 10
1491.245689795551
 20
799.1653531237164
  0
LWPOLYLINE
  5
31B
330
1F
100
AcDbEntity
  8
0
  6
Continuous
 62
     7
100
AcDbPolyline
 90
        4
 70
     0
 43
0.0
 10
1488.574411790951
 20
802.0936004831165
 10
1488.683450959151
 20
801.6448193054165
 10
1488.808927204451
 20
801.1733113246165
 10
1488.896956271551
 20
800.8655247533166
  0
LWPOLYLINE
  5
31C
330
1F
100
AcDbEntity
  8
0
  6
Continuous
 62
     7
100
AcDbPolyline
 90
        4
 70
     0
 43
0.0
 10
1490.171660427151
 20
802.5945520740165
 10
1490.179368544751
 20
802.5624707063165
 10
1490.187117444451
 20
802.5304291175165
 10
1490.194906791651
 20
802.4984272150165
  0
LWPOLYLINE
  5
31D
330
1F
100
AcDbEntity
  8
0
  6
Continuous
 62
     7
100
AcDbPolyline
 90
        4
 70
     0
 43
0.0
 10
1490.194906791651
 20
811.6171444969165
 10
1490.187117438951
 20
811.5851425718165
 10
1490.179368539351
 20
811.5531009832164
 10
1490.17166042725
 20
811.5210196379164
  0
LWPOLYLINE
  5
31E
330
1F
100
AcDbEntity
  8
0
  6
Continuous
 62
     7
100
AcDbPolyline
 90
       24
 70
     0
 43
0.0
 10
1490.431536691051
 20
811.4543341055165
 10
1490.373032206351
 20
811.2710527810165
 10
1490.316133350951
 20
811.0841573676164
 10
1490.261273199551
 20
810.8947660002165
 10
1490.208927541951
 20
810.7043135301164
 10
1490.159590687151
 20
810.5146508451165
 10
1490.113007161651
 20
810.3249335406164
 10
1490.069121689551
 20
810.1349854288166
 10
1490.027956440751
 20
809.9449479117165
 10
1489.989483228351
 20
809.7547420095166
 10
1489.953682544551
 20
809.5643080186166
 10
1489.920549278851
 20
809.3736486322164
 10
1489.890077727651
 20
809.1827602059165
 10
1489.862256543051
 20
808.9915935744164
 10
1489.837079781151
 20
808.8001189637164
 10
1489.814544329351
 20
808.6083139841164
 10
1489.794649060051
 20
808.4161604198165
 10
1489.777394073251
 20
808.2236412304165
 10
1489.762776563451
 20
808.0306837182165
 10
1489.750794159151
 20
807.8371500203164
 10
1489.741464716351
 20
807.6432121582165
 10
1489.734796647551
 20
807.4490449062164
 10
1489.730776849051
 20
807.2539793272165
 10
1489.729428206251
 20
807.0577858560165
  0
LWPOLYLINE
  5
31F
330
1F
100
AcDbEntity
  8
0
  6
Continuous
 62
     7
100
AcDbPolyline
 90
       16
 70
     0
 43
0.0
 10
1491.245689795651
 20
814.9502185881164
 10
1491.163505497651
 20
814.7297332995165
 10
1491.082490239551
 20
814.5081398527166
 10
1491.002733073151
 20
814.2855105074165
 10
1490.924336662851
 20
814.0619410131163
 10
1490.847610938551
 20
813.8381257618165
 10
1490.772841357151
 20
813.6147297202164
 10
1490.700089562751
 20
813.3917670616165
 10
1490.629380281451
 20
813.1691340694164
 10
1490.560713198551
 20
812.9466849577166
 10
1490.494101432151
 20
812.7243116121164
 10
1490.429632375251
 20
812.5021258283165
 10
1490.367413108151
 20
812.2803031203165
 10
1490.307507266851
 20
812.0588593141164
 10
1490.249981157051
 20
811.8378022644165
 10
1490.194906791651
 20
811.6171444969165
  0
LWPOLYLINE
  5
320
330
1F
100
AcDbEntity
  8
0
  6
Continuous
 62
     7
100
AcDbPolyline
 90
        4
 70
     0
 43
0.0
 10
1491.339409274851
 20
815.1968674877165
 10
1491.307771028551
 20
815.1146440320164
 10
1491.276532003551
 20
815.0324277259164
 10
1491.245689795651
 20
814.9502185881164
  0
LWPOLYLINE
  5
321
330
1F
100
AcDbEntity
  8
0
  6
Continuous
 62
     7
100
AcDbPolyline
 90
       18
 70
     0
 43
0.0
 10
1491.831743478651
 20
814.6141705223165
 10
1491.730584947151
 20
814.4310169143164
 10
1491.631951860651
 20
814.2480020550165
 10
1491.535786816951
 20
814.0650272895165
 10
1491.442056190951
 20
813.8820286099164
 10
1491.350722980451
 20
813.6989250967165
 10
1491.261716261251
 20
813.5155537133165
 10
1491.174970036251
 20
813.3317408947165
 10
1491.090457585751
 20
813.1473766560164
 10
1491.008168360851
 20
812.9623729921165
 10
1490.928124692751
 20
812.7767172771164
 10
1490.850390807251
 20
812.5905036094165
 10
1490.774909405551
 20
812.4035292071166
 10
1490.701512252751
 20
812.2152697135165
 10
1490.630451308751
 20
812.0262556018165
 10
1490.561754448051
 20
811.8364641372165
 10
1490.495415097251
 20
811.6457590295166
 10
1490.431536691051
 20
811.4543341055165
  0
LWPOLYLINE
  5
322
330
1F
100
AcDbEntity
  8
0
  6
Continuous
 62
     7
100
AcDbPolyline
 90
       75
 70
     0
 43
0.0
 10
1491.831743478451
 20
799.5014011895165
 10
1491.937578039051
 20
799.3150303497165
 10
1492.046342885051
 20
799.1294634568165
 10
1492.158046741751
 20
798.9447269734165
 10
1492.272715854951
 20
798.7608162095165
 10
1492.390472986351
 20
798.5775801060165
 10
1492.511312154351
 20
798.3950791986164
 10
1492.635169883651
 20
798.2134530869164
 10
1492.761985652351
 20
798.0328314787165
 10
1492.891716639251
 20
797.8533136470165
 10
1493.024386694351
 20
797.6749017720164
 10
1493.160033214451
 20
797.4975825107165
 10
1493.298720764351
 20
797.3213114493164
 10
1493.440518014851
 20
797.1460447113165
 10
1493.585433721451
 20
796.9718172581165
 10
1493.733465760951
 20
796.7986766935165
 10
1493.884607230351
 20
796.6266742570164
 10
1494.038917988951
 20
796.4557861634165
 10
1494.196446459951
 20
796.2860053753165
 10
1494.357207065451
 20
796.1173637041165
 10
1494.521194226851
 20
795.9499134409164
 10
1494.688285184951
 20
795.7838225901165
 10
1494.858410250651
 20
795.6191994665165
 10
1495.031568276051
 20
795.4560818827165
 10
1495.207768516351
 20
795.2944975506165
 10
1495.387030742751
 20
795.1344651905165
 10
1495.569377279851
 20
794.9760024051165
 10
1495.754788980151
 20
794.8191623832165
 10
1495.943293825051
 20
794.6639587119165
 10
1496.134829728351
 20
794.5104785455165
 10
1496.329313583851
 20
794.3588196268165
 10
1496.526656739451
 20
794.2090794707164
 10
1496.725422293251
 20
794.0623439380165
 10
1496.924772960551
 20
793.9192054765165
 10
1497.124264741251
 20
793.7799347483164
 10
1497.323829117351
 20
793.6445168433165
 10
1497.523543299151
 20
793.5128417764165
 10
1497.723421561251
 20
793.3848465976165
 10
1497.923345093151
 20
793.2605522857165
 10
1498.122996586751
 20
793.1400899383164
 10
1498.322157946751
 20
793.0235132144165
 10
1498.520744544351
 20
792.9107944179165
 10
1498.718734782551
 20
792.8018713803164
 10
1498.916143192751
 20
792.6966629598165
 10
1499.112986924951
 20
792.5950895716165
 10
1499.309291453951
 20
792.4970697587164
 10
1499.505107238051
 20
792.4025128593165
 10
1499.700467677051
 20
792.3113396888164
 10
1499.895553103551
 20
792.2234137517165
 10
1500.091112014151
 20
792.1383559479164
 10
1500.287632395351
 20
792.0559256467165
 10
1500.485121391251
 20
791.9761021032164
 10
1500.683636320651
 20
791.8988458894165
 10
1500.883288586151
 20
791.8241009944165
 10
1501.084223181151
 20
791.7518052871165
 10
1501.286554567751
 20
791.6819138093164
 10
1501.490355971151
 20
791.6144003415165
 10
1501.695708617851
 20
791.5492397116166
 10
1501.903130007251
 20
791.4862774723165
 10
1502.113312227251
 20
791.4253261948165
 10
1502.326455453951
 20
791.3663598826165
 10
1502.542636916651
 20
791.3093918921165
 10
1502.762024027851
 20
791.2544146519165
 10
1502.984851584351
 20
791.2014101189165
 10
1503.211261764151
 20
791.1503901755164
 10
1503.441331253551
 20
791.1013850300165
 10
1503.675319001051
 20
791.0543895631165
 10
1503.913850317651
 20
791.0093376779165
 10
1504.157564144151
 20
790.9661739951165
 10
1504.406911083151
 20
790.9248900656165
 10
1504.662125312551
 20
790.8855241135166
 10
1504.923592640451
 20
790.8480951060165
 10
1505.192158580151
 20
790.8125777649165
 10
1505.466631773051
 20
790.7791862379164
 10
1505.742200268651
 20
790.7486757934165
  0
LWPOLYLINE
  5
323
330
1F
100
AcDbEntity
  8
0
  6
Continuous
 62
     7
100
AcDbPolyline
 90
       53
 70
     0
 43
0.0
 10
1495.490330166251
 20
807.0577858560165
 10
1495.492191787151
 20
806.9540974177165
 10
1495.497607014151
 20
806.8545248125165
 10
1495.506245133151
 20
806.7605420100164
 10
1495.517921496351
 20
806.6717616659165
 10
1495.532925635851
 20
806.5853692082166
 10
1495.551535575851
 20
806.5000960187164
 10
1495.573528362151
 20
806.4175985567164
 10
1495.598950917451
 20
806.3382648549165
 10
1495.628375657951
 20
806.2611165639165
 10
1495.662204340051
 20
806.1861772203165
 10
1495.700362504551
 20
806.1146980207166
 10
1495.73953653975
 20
806.0527658288165
 10
1495.775599052651
 20
806.0049358479165
 10
1495.809546271351
 20
805.9688640912165
 10
1495.845156349151
 20
805.9405828367165
 10
1495.885491165551
 20
805.9182225603164
 10
1495.931203560651
 20
805.9011726113165
 10
1495.981617232251
 20
805.8869503580165
 10
1496.036722448851
 20
805.8744112100166
 10
1496.096694945451
 20
805.8622746916164
 10
1496.161999371551
 20
805.8496654185164
 10
1496.233214441551
 20
805.8360288249165
 10
1496.311010765051
 20
805.8203810120165
 10
1496.396126593651
 20
805.8013477834165
 10
1496.489444259851
 20
805.7774383465165
 10
1496.592113702651
 20
805.7468922580165
 10
1496.70573128435
 20
805.7079454730164
 10
1496.831758639851
 20
805.6584466628164
 10
1496.970367051151
 20
805.5959540128165
 10
1497.111554894851
 20
805.5232513317164
 10
1497.244707681251
 20
805.4454715507166
 10
1497.368494477451
 20
805.3645206846166
 10
1497.487589465851
 20
805.2777843073165
 10
1497.610913040451
 20
805.1770659112165
 10
1497.743437300351
 20
805.0543342020166
 10
1497.871579800851
 20
804.9189776305166
 10
1497.984265262951
 20
804.7846806255165
 10
1498.078761742851
 20
804.6599423621165
 10
1498.159939283751
 20
804.5434947115165
 10
1498.231562166751
 20
804.4339202737164
 10
1498.295531870351
 20
804.3311085514165
 10
1498.353153781351
 20
804.2350622234165
 10
1498.405100227951
 20
804.1461878452166
 10
1498.451709422051
 20
804.0649400318164
 10
1498.493260583151
 20
803.9913873488165
 10
1498.530620112751
 20
803.9243752539166
 10
1498.565114747351
 20
803.8617809198164
 10
1498.59809614685
 20
803.8012668016165
 10
1498.630842504751
 20
803.7403432296166
 10
1498.663749591651
 20
803.6780196894165
 10
1498.696747739651
 20
803.6141588427165
 10
1498.729782092351
 20
803.5486254746166
  0
LWPOLYLINE
  5
324
330
1F
100
AcDbEntity
  8
0
  6
Continuous
 62
     7
100
AcDbPolyline
 90
       53
 70
     0
 43
0.0
 10
1495.490330166251
 20
807.0577858560165
 10
1495.492191787151
 20
807.1614742942164
 10
1495.497607014151
 20
807.2610468994165
 10
1495.506245133151
 20
807.3550297019163
 10
1495.517921496351
 20
807.4438100460165
 10
1495.532925635851
 20
807.5302025037165
 10
1495.551535575851
 20
807.6154756932165
 10
1495.573528362151
 20
807.6979731553164
 10
1495.598950917451
 20
807.7773068570165
 10
1495.628375657951
 20
807.8544551480165
 10
1495.662204340051
 20
807.9293944916164
 10
1495.700362504551
 20
808.0008736912164
 10
1495.73953653975
 20
808.0628058831164
 10
1495.775599052651
 20
808.1106358640166
 10
1495.809546271351
 20
808.1467076208165
 10
1495.845156349151
 20
808.1749888752165
 10
1495.885491165551
 20
808.1973491516166
 10
1495.931203560651
 20
808.2143991006164
 10
1495.981617232251
 20
808.2286213539164
 10
1496.036722448851
 20
808.2411605019165
 10
1496.096694945451
 20
808.2532970203164
 10
1496.161999371551
 20
808.2659062935166
 10
1496.233214441551
 20
808.2795428870165
 10
1496.311010765051
 20
808.2951906999165
 10
1496.396126593651
 20
808.3142239286164
 10
1496.489444259851
 20
808.3381333655164
 10
1496.592113702651
 20
808.3686794539165
 10
1496.70573128435
 20
808.4076262389164
 10
1496.831758639851
 20
808.4571250491164
 10
1496.970367051151
 20
808.5196176991164
 10
1497.111554894851
 20
808.5923203802165
 10
1497.244707681251
 20
808.6701001612166
 10
1497.368494477451
 20
808.7510510273165
 10
1497.487589465851
 20
808.8377874046164
 10
1497.610913040451
 20
808.9385058007165
 10
1497.743437300351
 20
809.0612375099166
 10
1497.871579800851
 20
809.1965940814164
 10
1497.984265262951
 20
809.3308910864164
 10
1498.078761742851
 20
809.4556293498165
 10
1498.159939283751
 20
809.5720770005165
 10
1498.231562166751
 20
809.6816514382165
 10
1498.295531870351
 20
809.7844631605164
 10
1498.353153781351
 20
809.8805094885165
 10
1498.405100227951
 20
809.9693838667164
 10
1498.451709422051
 20
810.0506316801165
 10
1498.493260583151
 20
810.1241843631164
 10
1498.530620112751
 20
810.1911964580164
 10
1498.565114747351
 20
810.2537907921165
 10
1498.59809614685
 20
810.3143049103165
 10
1498.630842504751
 20
810.3752284823166
 10
1498.663749591651
 20
810.4375520225165
 10
1498.696747739651
 20
810.5014128692165
 10
1498.729782092351
 20
810.5669462373166
  0
LWPOLYLINE
  5
325
330
1F
100
AcDbEntity
  8
0
  6
Continuous
 62
     7
100
AcDbPolyline
 90
       92
 70
     0
 43
0.0
 10
1498.729784271251
 20
803.5486210005165
 10
1498.765839576651
 20
803.3912712664164
 10
1498.803934674151
 20
803.2333493026165
 10
1498.844098216751
 20
803.0750555889165
 10
1498.886355145851
 20
802.9165892990166
 10
1498.930728371051
 20
802.7581418011164
 10
1498.977215062451
 20
802.5999765660165
 10
1499.025782937651
 20
802.4424237450165
 10
1499.076375857851
 20
802.2858467620164
 10
1499.128965704351
 20
802.1304838051165
 10
1499.183657151751
 20
801.9761678955164
 10
1499.240635667051
 20
801.8225289657165
 10
1499.299965010451
 20
801.6695646772165
 10
1499.361350205451
 20
801.5181481436165
 10
1499.424313954651
 20
801.3694339434165
 10
1499.488621155451
 20
801.2238513632164
 10
1499.554248061651
 20
801.0813068239166
 10
1499.621176403351
 20
800.9417045912165
 10
1499.689383468251
 20
800.8049675529164
 10
1499.75882616305
 20
800.6710643028165
 10
1499.829549437551
 20
800.5398039553165
 10
1499.901354924651
 20
800.4114470625165
 10
1499.973180504151
 20
800.2876726189166
 10
1500.043888962851
 20
800.1700447193165
 10
1500.113283210651
 20
800.0584293139164
 10
1500.181691282251
 20
799.9519003426164
 10
1500.249378259651
 20
799.8497334031164
 10
1500.316529985451
 20
799.7513991964165
 10
1500.383301423951
 20
799.6564680890164
 10
1500.449821678951
 20
799.5645899983164
 10
1500.516197320951
 20
799.4754796802165
 10
1500.582536492151
 20
799.3888780257165
 10
1500.648904117851
 20
799.3046049531165
 10
1500.715462602651
 20
799.2223794066164
 10
1500.782140296251
 20
799.1422248306165
 10
1500.848964288151
 20
799.0640489902165
 10
1500.918406856651
 20
798.9850176625164
 10
1500.995036360751
 20
798.9002929461165
 10
1501.080564957151
 20
798.8086072697165
 10
1501.172325060451
 20
798.7133817385165
 10
1501.267908794251
 20
798.6173885328164
 10
1501.367422957451
 20
798.5206501268164
 10
1501.471542528451
 20
798.4226511907165
 10
1501.580945400451
 20
798.3229245015165
 10
1501.696298331351
 20
798.2210524169166
 10
1501.819195283351
 20
798.1158701853164
 10
1501.949598840551
 20
798.0076671532165
 10
1502.078274295551
 20
797.9039692286164
 10
1502.194632955851
 20
797.8125369484165
 10
1502.299147169951
 20
797.7321021022164
 10
1502.395763640851
 20
797.6590198035165
 10
1502.486543067351
 20
797.5913532164165
 10
1502.576214027151
 20
797.5253689267165
 10
1502.670349308251
 20
797.4569635457164
 10
1502.770867152251
 20
797.3849121278164
 10
1502.878061565351
 20
797.3092186948165
 10
1502.992986937951
 20
797.2293996509165
 10
1503.116989047751
 20
797.1448494270165
 10
1503.251724996751
 20
797.0548625579165
 10
1503.400149015851
 20
796.9580412435164
 10
1503.564063945951
 20
796.8539732429165
 10
1503.736071258551
 20
796.7480478596164
 10
1503.906969186851
 20
796.6461684124165
 10
1504.077090061551
 20
796.5480588664165
 10
1504.247889760551
 20
796.4528083379165
 10
1504.418841040651
 20
796.3606834029165
 10
1504.589760997951
 20
796.2717391365165
 10
1504.760464605251
 20
796.1860257616165
 10
1504.930844736451
 20
796.1035487257166
 10
1505.101007580351
 20
796.0242123425165
 10
1505.271282208351
 20
795.9478245307165
 10
1505.441961147151
 20
795.8742198359165
 10
1505.613120152751
 20
795.8033431955165
 10
1505.784779480251
 20
795.7351680446166
 10
1505.957004713351
 20
795.6696534948165
 10
1506.12989130995
 20
795.6067528271164
 10
1506.303557477851
 20
795.5464174531165
 10
1506.478058084151
 20
795.4886261680164
 10
1506.653319776951
 20
795.4334036143165
 10
1506.829350384451
 20
795.3807514045165
 10
1507.006412993051
 20
795.3305968438164
 10
1507.184827965651
 20
795.2828639496165
 10
1507.364887250951
 20
795.2374984437165
 10
1507.546890129351
 20
795.1944570568165
 10
1507.731133191951
 20
795.1537099907165
 10
1507.917932089751
 20
795.1152367935165
 10
1508.108276251051
 20
795.0789018864164
 10
1508.303640639051
 20
795.0445198173165
 10
1508.504768904951
 20
795.0120760457165
 10
1508.711694937251
 20
794.9816994697165
 10
1508.924397513151
 20
794.9535248379164
 10
1509.142850140251
 20
794.9276855236165
  0
LWPOLYLINE
  5
326
330
1F
100
AcDbEntity
  8
0
  6
Continuous
 62
     7
100
AcDbPolyline
 90
       26
 70
     0
 43
0.0
 10
1540.909895923151
 20
786.0814483218165
 10
1541.765374604951
 20
786.1411204868164
 10
1542.615566217551
 20
786.2388571859164
 10
1543.459747317351
 20
786.3744808905164
 10
1544.297514259151
 20
786.5479964196165
 10
1545.129633234251
 20
786.7596791774165
 10
1545.955367084951
 20
787.0095546437164
 10
1546.772240509051
 20
787.2971859578165
 10
1547.577909379651
 20
787.6219999010165
 10
1548.370589658951
 20
787.9834510641164
 10
1549.148955480251
 20
788.3811890997165
 10
1549.911725823351
 20
788.8148267078165
 10
1550.657401606651
 20
789.2837629092165
 10
1551.384377801051
 20
789.7873196135165
 10
1552.091434061751
 20
790.3250037973165
 10
1552.777207686851
 20
790.8961104292164
 10
1553.440215358151
 20
791.4998253176166
 10
1554.079189215251
 20
792.1354662525165
 10
1554.692644320951
 20
792.8019709106165
 10
1555.279003244651
 20
793.4981206812165
 10
1555.836918448751
 20
794.2228640319165
 10
1556.365024118351
 20
794.9748789749165
 10
1556.861949995651
 20
795.7527577456164
 10
1557.326421180151
 20
796.5551297641164
 10
1557.757215168051
 20
797.3803666522164
 10
1558.153125288151
 20
798.2267172615165
  0
LWPOLYLINE
  5
327
330
1F
100
AcDbEntity
  8
0
  6
Continuous
 62
     7
100
AcDbPolyline
 90
       87
 70
     0
 43
0.0
 10
1541.163432633251
 20
786.8010242061164
 10
1541.448742341851
 20
786.8193665268165
 10
1541.714726706051
 20
786.8397720983165
 10
1541.964060486651
 20
786.8621024311164
 10
1542.199373307951
 20
786.8862792717164
 10
1542.423107504751
 20
786.9122862837165
 10
1542.636175869151
 20
786.9399967864165
 10
1542.839588104951
 20
786.9693254978165
 10
1543.034750623851
 20
787.0002828302165
 10
1543.222251650651
 20
787.0327887253165
 10
1543.402215840751
 20
787.0666866689165
 10
1543.576230777251
 20
787.1021191343165
 10
1543.746762179051
 20
787.1395054139164
 10
1543.915664612151
 20
787.1791943289165
 10
1544.084886909951
 20
787.2216223843166
 10
1544.256497087451
 20
787.2673870272165
 10
1544.431787851251
 20
787.3169831305165
 10
1544.611537822051
 20
787.3707487561165
 10
1544.796583829751
 20
787.4290496733165
 10
1544.990042627651
 20
787.4930590830165
 10
1545.197139275451
 20
787.5648275819164
 10
1545.420324948151
 20
787.6455971383165
 10
1545.656871399051
 20
787.7346767664165
 10
1545.902375520151
 20
787.8307180738164
 10
1546.145045672051
 20
787.9292826787165
 10
1546.385311592951
 20
788.0304770825165
 10
1546.625693196551
 20
788.1353727497164
 10
1546.864219483651
 20
788.2431375151164
 10
1547.100863530351
 20
788.3537482947165
 10
1547.335638121351
 20
788.4672055484164
 10
1547.568141718351
 20
788.5833046534164
 10
1547.798144996751
 20
788.7019130451164
 10
1548.025617559651
 20
788.8229934295164
 10
1548.250537686851
 20
788.9465138850165
 10
1548.472745565751
 20
789.0723630833165
 10
1548.692147465251
 20
789.2004598202166
 10
1548.908647374051
 20
789.3307204100165
 10
1549.122125519551
 20
789.4630404051165
 10
1549.332569511451
 20
789.5973782395165
 10
1549.539964673851
 20
789.7336903803164
 10
1549.744283498251
 20
789.8719237163164
 10
1549.945490254951
 20
790.0120184858165
 10
1550.143597879351
 20
790.1539464034165
 10
1550.338656329051
 20
790.2977091276165
 10
1550.530566883251
 20
790.4431988673165
 10
1550.719231334451
 20
790.5902998156165
 10
1550.904558259451
 20
790.7388962445164
 10
1551.086501962751
 20
790.8889070981165
 10
1551.264858935451
 20
791.0401099900164
 10
1551.439668311951
 20
791.1924782036164
 10
1551.611341450151
 20
791.3463252269165
 10
1551.780457606451
 20
791.5021560111165
 10
1551.947999680251
 20
791.6608642693165
 10
1552.114622727251
 20
791.8230948768165
 10
1552.280325396651
 20
791.9889005218164
 10
1552.445015575351
 20
792.1582438756165
 10
1552.608668018351
 20
792.3311540435165
 10
1552.771263501551
 20
792.5076664311164
 10
1552.932828907651
 20
792.6878653665164
 10
1553.093400370651
 20
792.8718547213165
 10
1553.252892848251
 20
793.0596040133165
 10
1553.411210368151
 20
793.2510641587165
 10
1553.568225412851
 20
793.4461413450165
 10
1553.723777430151
 20
793.6446990463165
 10
1553.877671563151
 20
793.8465432785164
 10
1554.029801272251
 20
794.0515783602164
 10
1554.180098654251
 20
794.2597526227165
 10
1554.328497454651
 20
794.4710130697164
 10
1554.474854538151
 20
794.6851969404165
 10
1554.618972434651
 20
794.9020449747165
 10
1554.760805977451
 20
795.1215083095164
 10
1554.900315151351
 20
795.3435427794166
 10
1555.037460353051
 20
795.5681022840165
 10
1555.172201462251
 20
795.7951371033165
 10
1555.304478530551
 20
796.0245595593164
 10
1555.434232676351
 20
796.2562764627165
 10
1555.561422248451
 20
796.4902189239165
 10
1555.685996661451
 20
796.7262982360165
 10
1555.807757181151
 20
796.9641385512164
 10
1555.926628077251
 20
797.2035790520164
 10
1556.042585598751
 20
797.4445523232165
 10
1556.155608457751
 20
797.6869922409165
 10
1556.265676932551
 20
797.9308324165165
 10
1556.372769286851
 20
798.1759978980164
 10
1556.476863092951
 20
798.4224069439164
 10
1556.577945553851
 20
798.6699956434165
 10
1556.676006916151
 20
798.9187042248166
  0
LWPOLYLINE
  5
328
330
1F
100
AcDbEntity
  8
0
  6
Continuous
 62
     7
100
AcDbPolyline
 90
        3
 70
     0
 43
0.0
 10
1541.014611082251
 20
786.7931003566164
 10
1541.089777013151
 20
786.7970036597165
 10
1541.163432633251
 20
786.8010242061164
  0
LWPOLYLINE
  5
329
330
1F
100
AcDbEntity
  8
0
  6
Continuous
 62
     7
100
AcDbPolyline
 90
        4
 70
     0
 43
0.0
 10
1540.010423231751
 20
786.0600837532165
 10
1540.310426440451
 20
786.0625148516164
 10
1540.610261778451
 20
786.0696370095165
 10
1540.909895923151
 20
786.0814483218165
  0
LWPOLYLINE
  5
32A
330
1F
100
AcDbEntity
  8
0
  6
Continuous
 62
     7
100
AcDbPolyline
 90
        4
 70
     0
 43
0.0
 10
1524.007708096551
 20
786.0600339254165
 10
1529.479874540351
 20
786.0599295005165
 10
1534.815573037351
 20
786.0597190438165
 10
1540.010423231751
 20
786.0600837532165
  0
LWPOLYLINE
  5
32B
330
1F
100
AcDbEntity
  8
0
  6
Continuous
 62
     7
100
AcDbPolyline
 90
        4
 70
     0
 43
0.0
 10
1508.004992961351
 20
786.0600837532165
 10
1513.202804407651
 20
786.0597191294165
 10
1518.538010959851
 20
786.0599295892165
 10
1524.007708096551
 20
786.0600339254165
  0
LWPOLYLINE
  5
32C
330
1F
100
AcDbEntity
  8
0
  6
Continuous
 62
     7
100
AcDbPolyline
 90
        4
 70
     0
 43
0.0
 10
1507.10552026995
 20
786.0814483218165
 10
1507.405154414651
 20
786.0696370095165
 10
1507.704989752651
 20
786.0625148516164
 10
1508.004992961351
 20
786.0600837532165
  0
LWPOLYLINE
  5
32D
330
1F
100
AcDbEntity
  8
0
  6
Continuous
 62
     7
100
AcDbPolyline
 90
        4
 70
     0
 43
0.0
 10
1507.000805110851
 20
786.7931003566164
 10
1507.283590402951
 20
786.7802290896165
 10
1507.580541776251
 20
786.7696899707165
 10
1507.893886436951
 20
786.7616560871165
  0
LWPOLYLINE
  5
32E
330
1F
100
AcDbEntity
  8
0
  6
Continuous
 62
     7
100
AcDbPolyline
 90
        3
 70
     0
 43
0.0
 10
1506.851983559851
 20
786.8010242061164
 10
1506.925639179951
 20
786.7970036597165
 10
1507.000805110851
 20
786.7931003566164
  0
LWPOLYLINE
  5
32F
330
1F
100
AcDbEntity
  8
0
  6
Continuous
 62
     7
100
AcDbPolyline
 90
       75
 70
     0
 43
0.0
 10
1542.273215924451
 20
790.7486757934165
 10
1542.548784420151
 20
790.7791862379164
 10
1542.823257612951
 20
790.8125777649165
 10
1543.091823552651
 20
790.8480951060165
 10
1543.353290880551
 20
790.8855241135166
 10
1543.608505109951
 20
790.9248900656165
 10
1543.857852048951
 20
790.9661739951165
 10
1544.101565875451
 20
791.0093376779165
 10
1544.340097192051
 20
791.0543895631165
 10
1544.574084939551
 20
791.1013850300165
 10
1544.804154428951
 20
791.1503901755164
 10
1545.030564608751
 20
791.2014101189165
 10
1545.253392165251
 20
791.2544146519165
 10
1545.472779276451
 20
791.3093918921165
 10
1545.688960739151
 20
791.3663598826165
 10
1545.902103965851
 20
791.4253261948165
 10
1546.112286185851
 20
791.4862774723165
 10
1546.319707575251
 20
791.5492397116166
 10
1546.525060221951
 20
791.6144003415165
 10
1546.728861625351
 20
791.6819138093164
 10
1546.931193011951
 20
791.7518052871165
 10
1547.132127606951
 20
791.8241009944165
 10
1547.331779872451
 20
791.8988458894165
 10
1547.530294801851
 20
791.9761021032164
 10
1547.727783797751
 20
792.0559256467165
 10
1547.924304178951
 20
792.1383559479164
 10
1548.119863089551
 20
792.2234137517165
 10
1548.314948516051
 20
792.3113396888164
 10
1548.510308955051
 20
792.4025128593165
 10
1548.706124739151
 20
792.4970697587164
 10
1548.90242926815
 20
792.5950895716165
 10
1549.099273000351
 20
792.6966629598165
 10
1549.296681410551
 20
792.8018713803164
 10
1549.494671648751
 20
792.9107944179165
 10
1549.693258246351
 20
793.0235132144165
 10
1549.892419606351
 20
793.1400899383164
 10
1550.092071099951
 20
793.2605522857165
 10
1550.291994631851
 20
793.3848465976165
 10
1550.491872893951
 20
793.5128417764165
 10
1550.691587075751
 20
793.6445168433165
 10
1550.891151451851
 20
793.7799347483164
 10
1551.090643232551
 20
793.9192054765165
 10
1551.289993899851
 20
794.0623439380165
 10
1551.488759453651
 20
794.2090794707164
 10
1551.686102609251
 20
794.3588196268165
 10
1551.880586464751
 20
794.5104785455165
 10
1552.072122368051
 20
794.6639587119165
 10
1552.260627212951
 20
794.8191623832165
 10
1552.446038913251
 20
794.9760024051165
 10
1552.628385450351
 20
795.1344651905165
 10
1552.807647676751
 20
795.2944975506165
 10
1552.983847917051
 20
795.4560818827165
 10
1553.157005942451
 20
795.6191994665165
 10
1553.327131008151
 20
795.7838225901165
 10
1553.494221966251
 20
795.9499134409164
 10
1553.658209127651
 20
796.1173637041165
 10
1553.818969733151
 20
796.2860053753165
 10
1553.976498204151
 20
796.4557861634165
 10
1554.130808962751
 20
796.6266742570164
 10
1554.281950432151
 20
796.7986766935165
 10
1554.429982471651
 20
796.9718172581165
 10
1554.574898178251
 20
797.1460447113165
 10
1554.716695428751
 20
797.3213114493164
 10
1554.855382978651
 20
797.4975825107165
 10
1554.991029498751
 20
797.6749017720164
 10
1555.123699553851
 20
797.8533136470165
 10
1555.253430540751
 20
798.0328314787165
 10
1555.380246309451
 20
798.2134530869164
 10
1555.504104038751
 20
798.3950791986164
 10
1555.624943206751
 20
798.5775801060165
 10
1555.742700338151
 20
798.7608162095165
 10
1555.857369451351
 20
798.9447269734165
 10
1555.969073308051
 20
799.1294634568165
 10
1556.077838154051
 20
799.3150303497165
 10
1556.183672714651
 20
799.5014011895165
  0
LWPOLYLINE
  5
330
330
1F
100
AcDbEntity
  8
0
  6
Continuous
 62
     7
100
AcDbPolyline
 90
       25
 70
     0
 43
0.0
 10
1542.273215924451
 20
790.7486757934165
 10
1542.003182879951
 20
790.7220577751164
 10
1541.725380849251
 20
790.6977427948164
 10
1541.439239750951
 20
790.6758179002165
 10
1541.144195482651
 20
790.6563855744165
 10
1540.839591217751
 20
790.6395576161164
 10
1540.524590331351
 20
790.6254554663164
 10
1540.198775059351
 20
790.6142309554164
 10
1539.856529783851
 20
790.6059385722165
 10
1539.480251841251
 20
790.6005925222165
 10
1539.056411824751
 20
790.5985658449164
 10
1538.578143054151
 20
790.5999905803165
 10
1538.043573792551
 20
790.6044113531164
 10
1537.448858032251
 20
790.6108151489165
 10
1536.785498757251
 20
790.6175958674165
 10
1536.042997909551
 20
790.6232942622165
 10
1535.211182435451
 20
790.6276590858165
 10
1534.278977262351
 20
790.6305442399164
 10
1533.233717827451
 20
790.6317556477165
 10
1532.061419319551
 20
790.6311000405164
 10
1530.747569717651
 20
790.6284751638164
 10
1529.276873846351
 20
790.6240632078166
 10
1527.623171046251
 20
790.6185744321164
 10
1525.767007861351
 20
790.6136031377164
 10
1524.007708096551
 20
790.6116727273166
  0
LWPOLYLINE
  5
331
330
1F
100
AcDbEntity
  8
0
  6
Continuous
 62
     7
100
AcDbPolyline
 90
        4
 70
     0
 43
0.0
 10
1540.121529756151
 20
786.7616560871165
 10
1540.434874416851
 20
786.7696899707165
 10
1540.731825790151
 20
786.7802290896165
 10
1541.014611082251
 20
786.7931003566164
  0
LWPOLYLINE
  5
332
330
1F
100
AcDbEntity
  8
0
  6
Continuous
 62
     7
100
AcDbPolyline
 90
       13
 70
     0
 43
0.0
 10
1540.121529756151
 20
786.7616560871165
 10
1539.487049589351
 20
786.7506860305164
 10
1538.771021797751
 20
786.7427559618165
 10
1537.951216353651
 20
786.7376368014165
 10
1537.018290980151
 20
786.7349186494164
 10
1535.957231597251
 20
786.7345548420165
 10
1534.759481764251
 20
786.7363313980165
 10
1533.423608291551
 20
786.7399869725164
 10
1531.942523885851
 20
786.7448262082165
 10
1530.295607296651
 20
786.7501376059164
 10
1528.452146718951
 20
786.7552686740165
 10
1526.372375072951
 20
786.7592298026164
 10
1524.007708096551
 20
786.7608613460165
  0
LWPOLYLINE
  5
333
330
1F
100
AcDbEntity
  8
0
  6
Continuous
 62
     7
100
AcDbPolyline
 90
       13
 70
     0
 43
0.0
 10
1507.893886436951
 20
786.7616560871165
 10
1508.528367271951
 20
786.7506860212166
 10
1509.244395914951
 20
786.7427559489165
 10
1510.064202440251
 20
786.7376367898165
 10
1510.997129157051
 20
786.7349186433165
 10
1512.058190179551
 20
786.7345548456165
 10
1513.255941947251
 20
786.7363314146165
 10
1514.591817657551
 20
786.7399870029164
 10
1516.072904689451
 20
786.7448262494165
 10
1517.719824442651
 20
786.7501376537164
 10
1519.563288894951
 20
786.7552687210165
 10
1521.643065331451
 20
786.7592298356164
 10
1524.007708096551
 20
786.7608613460165
  0
LWPOLYLINE
  5
334
330
1F
100
AcDbEntity
  8
0
  6
Continuous
 62
     7
100
AcDbPolyline
 90
       24
 70
     0
 43
0.0
 10
1505.742200268651
 20
790.7486757934165
 10
1506.024148368051
 20
790.7209519184164
 10
1506.314580773751
 20
790.6957398036166
 10
1506.614146595251
 20
790.6731393287165
 10
1506.923494514651
 20
790.6532682259165
 10
1507.243395664951
 20
790.6362552219165
 10
1507.574837165351
 20
790.6222407767164
 10
1507.918965412051
 20
790.6113861972165
 10
1508.284849837951
 20
790.6037303661165
 10
1508.694740656551
 20
790.5993877091165
 10
1509.159801290151
 20
790.5987714283164
 10
1509.686002985051
 20
790.6017880316165
 10
1510.274067389351
 20
790.6075868805165
 10
1510.932573236151
 20
790.6147348032164
 10
1511.671744636051
 20
790.6212167543165
 10
1512.504004486951
 20
790.6262988536164
 10
1513.441188383151
 20
790.6298332771165
 10
1514.497106048751
 20
790.6316119574165
 10
1515.687272981351
 20
790.6314098375164
 10
1517.028265093451
 20
790.6290711512165
 10
1518.536365753451
 20
790.6247245138165
 10
1520.238614425751
 20
790.6190661367165
 10
1522.169628110951
 20
790.6137655630165
 10
1524.007708096551
 20
790.6116727302165
  0
LWPOLYLINE
  5
335
330
1F
100
AcDbEntity
  8
0
  6
Continuous
 62
     7
100
AcDbPolyline
 90
       21
 70
     0
 43
0.0
 10
1534.487770639551
 20
791.4282606325165
 10
1534.535304867351
 20
791.4290997928165
 10
1534.580208449651
 20
791.4301802436165
 10
1534.622479565051
 20
791.4314827667165
 10
1534.662193865451
 20
791.4329922097165
 10
1534.699308683651
 20
791.4346905041164
 10
1534.733947912051
 20
791.4365684052165
 10
1534.766089974651
 20
791.4386116119165
 10
1534.795799782051
 20
791.4408123334164
 10
1534.823116617051
 20
791.4431639914165
 10
1534.848003901851
 20
791.4456550882165
 10
1534.870522397251
 20
791.4482855632164
 10
1534.890630329851
 20
791.4510473684165
 10
1534.908303722151
 20
791.4539359686165
 10
1534.923523251551
 20
791.4569513565164
 10
1534.936208161051
 20
791.4600850324164
 10
1534.946304435351
 20
791.4633372590165
 10
1534.953719773151
 20
791.4667031696165
 10
1534.958348312151
 20
791.4701749607164
 10
1534.960081787651
 20
791.4737501239165
 10
1534.959175812251
 20
791.4768807727165
  0
LWPOLYLINE
  5
336
330
1F
100
AcDbEntity
  8
0
  6
Continuous
 62
     7
100
AcDbPolyline
 90
       13
 70
     0
 43
0.0
 10
1524.007708096551
 20
791.3318269780164
 10
1523.904291073851
 20
791.3313764780165
 10
1523.801669302951
 20
791.3300299895166
 10
1523.700759902051
 20
791.3278056751164
 10
1523.602393356451
 20
791.3247339340165
 10
1523.507918174251
 20
791.3208818957165
 10
1523.419731146951
 20
791.3164122117165
 10
1523.339268932051
 20
791.3115105523164
 10
1523.266599406551
 20
791.3063148838165
 10
1523.200735451051
 20
791.3008754197164
 10
1523.140163196451
 20
791.2951496773165
 10
1523.083107518751
 20
791.2889912508164
 10
1523.072542162351
 20
791.2876837135166
  0
LWPOLYLINE
  5
337
330
1F
100
AcDbEntity
  8
0
  6
Continuous
 62
     7
100
AcDbPolyline
 90
       20
 70
     0
 43
0.0
 10
1524.007708096551
 20
791.4562292446164
 10
1523.905231405551
 20
791.4557871573165
 10
1523.803436939851
 20
791.4544641254165
 10
1523.703308357451
 20
791.4522778168165
 10
1523.605306952951
 20
791.4492451783164
 10
1523.510440339451
 20
791.4454072712165
 10
1523.420610509151
 20
791.4408767231165
 10
1523.338171308451
 20
791.4358605793165
 10
1523.263206120451
 20
791.4304855977165
 10
1523.195576543851
 20
791.4248637528165
 10
1523.134898724551
 20
791.4190805930164
 10
1523.078419480951
 20
791.4129349217165
 10
1523.024245175251
 20
791.4061692191165
 10
1522.973517271951
 20
791.3988008593165
 10
1522.927582491151
 20
791.3908708214164
 10
1522.888993036851
 20
791.3826866732165
 10
1522.858777979051
 20
791.3744035692165
 10
1522.837066353651
 20
791.3659954857165
 10
1522.82429196445
 20
791.3576245979164
 10
1522.820208096551
 20
791.3494773467165
  0
LWPOLYLINE
  5
338
330
1F
100
AcDbEntity
  8
0
  6
Continuous
 62
     7
100
AcDbPolyline
 90
       21
 70
     0
 43
0.0
 10
1524.007708096551
 20
791.2477513425165
 10
1524.107929080951
 20
791.2481268543165
 10
1524.207607706051
 20
791.2492525831164
 10
1524.306148746551
 20
791.2511255206164
 10
1524.402519238351
 20
791.2537267938165
 10
1524.494597452951
 20
791.2569772516165
 10
1524.581219119151
 20
791.2607856953164
 10
1524.661625958051
 20
791.2650525844164
 10
1524.735171593451
 20
791.2696629284165
 10
1524.802198592151
 20
791.2745539839164
 10
1524.863389029551
 20
791.2797056400164
 10
1524.919443899451
 20
791.2851295297165
 10
1524.970736772051
 20
791.2908372937165
 10
1525.017506189951
 20
791.2968531753165
 10
1525.059918091951
 20
791.3032264793165
 10
1525.097806630451
 20
791.3099995214166
 10
1525.130832740851
 20
791.3172335178164
 10
1525.158071791051
 20
791.3249076600164
 10
1525.178386143951
 20
791.3329111449164
 10
1525.190931841551
 20
791.3411213225165
 10
1525.195208096551
 20
791.3494773467165
  0
LWPOLYLINE
  5
339
330
1F
100
AcDbEntity
  8
0
  6
Continuous
 62
     7
100
AcDbPolyline
 90
       23
 70
     0
 43
0.0
 10
1516.190109058251
 20
791.3944740955164
 10
1516.232919814851
 20
791.3941560985165
 10
1516.275771943751
 20
791.3941244206165
 10
1516.318642829351
 20
791.3943767269166
 10
1516.361541293551
 20
791.3949143816164
 10
1516.404468249951
 20
791.3957426051165
 10
1516.447447444851
 20
791.3968713801165
 10
1516.490270301151
 20
791.3983073423164
 10
1516.532699954551
 20
791.4000548539165
 10
1516.574656058051
 20
791.4021249716165
 10
1516.616009752051
 20
791.4045298867165
 10
1516.656358436151
 20
791.4072656752165
 10
1516.695304749351
 20
791.4103223054164
 10
1516.732675786951
 20
791.4137042258164
 10
1516.768131479351
 20
791.4174015879165
 10
1516.801243904751
 20
791.4213892631164
 10
1516.831677559651
 20
791.4256444809165
 10
1516.859143860551
 20
791.4301460094165
 10
1516.883207284851
 20
791.4348380443165
 10
1516.903538740851
 20
791.4396598435165
 10
1516.919997605151
 20
791.4445742000165
 10
1516.932423440551
 20
791.4495208137164
 10
1516.940745407951
 20
791.4544288720165
  0
LWPOLYLINE
  5
33A
330
1F
100
AcDbEntity
  8
0
  6
Continuous
 62
     7
100
AcDbPolyline
 90
       13
 70
     0
 43
0.0
 10
1524.942643995751
 20
791.2877111881165
 10
1524.932157325651
 20
791.2890085682165
 10
1524.875018044951
 20
791.2951733621165
 10
1524.814375212351
 20
791.3009025343165
 10
1524.748484804651
 20
791.3063404007165
 10
1524.675867155751
 20
791.3115290510164
 10
1524.595517827651
 20
791.3164214815164
 10
1524.507456334751
 20
791.3208837860166
 10
1524.413042904751
 20
791.3247331707164
 10
1524.314663713151
 20
791.3278054568165
 10
1524.213706938551
 20
791.3300306611165
 10
1524.111062297351
 20
791.3313770224164
 10
1524.007708096551
 20
791.3318269721164
  0
LWPOLYLINE
  5
33B
330
1F
100
AcDbEntity
  8
0
  6
Continuous
 62
     7
100
AcDbPolyline
 90
       18
 70
     0
 43
0.0
 10
1518.737856089651
 20
793.0149836960165
 10
1519.351532947351
 20
793.1262000140165
 10
1519.969481405051
 20
793.2240189444164
 10
1520.588674850951
 20
793.3078833924165
 10
1521.208920383551
 20
793.3777839757165
 10
1521.830022136451
 20
793.4337126095165
 10
1522.451785503451
 20
793.4756631505165
 10
1523.074018513151
 20
793.5036313572164
 10
1523.696533125551
 20
793.5176146515165
 10
1524.319141584051
 20
793.5176117478165
 10
1524.941656149451
 20
793.5036226452165
 10
1525.563889084951
 20
793.4756486267165
 10
1526.185652367251
 20
793.4336922663164
 10
1526.806753994151
 20
793.3777578044165
 10
1527.426999298851
 20
793.3078513901165
 10
1528.046192342551
 20
793.2239811208164
 10
1528.664140184651
 20
793.1261563920164
 10
1529.277560103451
 20
793.0149836961164
  0
LWPOLYLINE
  5
33C
330
1F
100
AcDbEntity
  8
0
  6
Continuous
 62
     7
100
AcDbPolyline
 90
        8
 70
     0
 43
0.0
 10
1538.872566052851
 20
794.9276855236165
 10
1538.648384585551
 20
794.9043125999164
 10
1538.417972780151
 20
794.8834902439165
 10
1538.180253935851
 20
794.8652741055164
 10
1537.934485476951
 20
794.8497681661165
 10
1537.680653180551
 20
794.8371483278165
 10
1537.418966619551
 20
794.8275978449165
 10
1537.149509725551
 20
794.8212891470165
  0
LWPOLYLINE
  5
33D
330
1F
100
AcDbEntity
  8
0
  6
Continuous
 62
     7
100
AcDbPolyline
 90
       21
 70
     0
 43
0.0
 10
1538.681832441951
 20
794.8973390021165
 10
1538.638550327151
 20
794.8932045443165
 10
1538.609074152151
 20
794.8904671388164
 10
1538.572079638051
 20
794.8871152042165
 10
1538.528014571651
 20
794.8832402798164
 10
1538.476993272751
 20
794.8789091763164
 10
1538.419080398651
 20
794.8741901015165
 10
1538.354466493751
 20
794.8691658560164
 10
1538.283426038651
 20
794.8639276462166
 10
1538.205930638251
 20
794.8585461720165
 10
1538.121901614951
 20
794.8530933291165
 10
1538.031327462551
 20
794.8476498415165
 10
1537.934229510051
 20
794.8423014837165
 10
1537.830549364251
 20
794.8371325067165
 10
1537.720248165951
 20
794.8322315547165
 10
1537.603344404251
 20
794.8276922332166
 10
1537.479921742451
 20
794.8236114239165
 10
1537.350030926351
 20
794.8200846706165
 10
1537.213680024651
 20
794.8172066863165
 10
1537.070930955551
 20
794.8150728281165
 10
1536.921895596051
 20
794.8137752818166
  0
LWPOLYLINE
  5
33E
330
1F
100
AcDbEntity
  8
0
  6
Continuous
 62
     7
100
AcDbPolyline
 90
       22
 70
     0
 43
0.0
 10
1537.149509725551
 20
794.8212891470165
 10
1536.872359382951
 20
794.8183896531165
 10
1536.588094455551
 20
794.8190528219165
 10
1536.297368046451
 20
794.8234038669165
 10
1536.000192677151
 20
794.8315617104165
 10
1535.696963597351
 20
794.8436340969164
 10
1535.388616701551
 20
794.8596878845164
 10
1535.075854920151
 20
794.8797713966166
 10
1534.759432729251
 20
794.9039060826164
 10
1534.440319117651
 20
794.9320714255165
 10
1534.119881217751
 20
794.9641808105164
 10
1533.799461384151
 20
795.0001059833165
 10
1533.479741969451
 20
795.0397581547165
 10
1533.161353762551
 20
795.0830411755165
 10
1532.845395252551
 20
795.1297747660164
 10
1532.533128714351
 20
795.1797141214165
 10
1532.222203824851
 20
795.2332209698165
 10
1531.899430361651
 20
795.2927394071165
 10
1531.544425294751
 20
795.3619785330166
 10
1531.148833883351
 20
795.4419555335165
 10
1530.707084492851
 20
795.5322214784165
 10
1530.224153047151
 20
795.6289075845164
  0
LINE
  5
33F
330
1F
100
AcDbEntity
  8
0
  6
Continuous
 62
     7
100
AcDbLine
 10
1524.000659417851
 20
794.4071118666165
 30
0.0
 11
1524.007865631451
 21
794.4071124084165
 31
0.0
  0
LINE
  5
340
330
1F
100
AcDbEntity
  8
0
  6
Continuous
 62
     7
100
AcDbLine
 10
1509.397778598651
 20
794.8912562090165
 30
0.0
 11
1509.351115973551
 21
794.8956466354164
 31
0.0
  0
LINE
  5
341
330
1F
100
AcDbEntity
  8
0
  6
Continuous
 62
     7
100
AcDbLine
 10
1509.351115973551
 20
794.8956466354164
 30
0.0
 11
1509.334406983051
 21
794.8972590189165
 31
0.0
  0
LWPOLYLINE
  5
342
330
1F
100
AcDbEntity
  8
0
  6
Continuous
 62
     7
100
AcDbPolyline
 90
       29
 70
     0
 43
0.0
 10
1509.142850140251
 20
794.9276855236165
 10
1509.367031607551
 20
794.9043125999164
 10
1509.597443412951
 20
794.8834902439165
 10
1509.835162257251
 20
794.8652741055164
 10
1510.080930716151
 20
794.8497681661165
 10
1510.334763012551
 20
794.8371483278165
 10
1510.596449573551
 20
794.8275978449165
 10
1510.865906467551
 20
794.8212891470165
 10
1511.143056810151
 20
794.8183896531165
 10
1511.427321737551
 20
794.8190528219165
 10
1511.718048146651
 20
794.8234038669165
 10
1512.015223515951
 20
794.8315617104165
 10
1512.318452595751
 20
794.8436340969164
 10
1512.626799491551
 20
794.8596878845164
 10
1512.939561272951
 20
794.8797713966166
 10
1513.255983463851
 20
794.9039060826164
 10
1513.575097075451
 20
794.9320714255165
 10
1513.895534975351
 20
794.9641808105164
 10
1514.215954808951
 20
795.0001059833165
 10
1514.535674223651
 20
795.0397581547165
 10
1514.854062430551
 20
795.0830411755165
 10
1515.170020940551
 20
795.1297747660164
 10
1515.482287478751
 20
795.1797141214165
 10
1515.793212368251
 20
795.2332209698165
 10
1516.115985831451
 20
795.2927394071165
 10
1516.470990898351
 20
795.3619785330166
 10
1516.866582309751
 20
795.4419555335165
 10
1517.308331700251
 20
795.5322214784165
 10
1517.791263145951
 20
795.6289075845164
  0
LWPOLYLINE
  5
343
330
1F
100
AcDbEntity
  8
0
  6
Continuous
 62
     7
100
AcDbPolyline
 90
       22
 70
     0
 43
0.0
 10
1529.277560100851
 20
793.0149836817165
 10
1529.394267244551
 20
792.9895133502165
 10
1529.512238357651
 20
792.9575741902165
 10
1529.628394983351
 20
792.9197876258165
 10
1529.742393820451
 20
792.8762691497166
 10
1529.853898250151
 20
792.8271522770164
 10
1529.962579187951
 20
792.7725880949164
 10
1530.068115912351
 20
792.7127448099165
 10
1530.170197064151
 20
792.6478071717165
 10
1530.268521331051
 20
792.5779760515165
 10
1530.362798548751
 20
792.5034677307165
 10
1530.452750943251
 20
792.4245129195164
 10
1530.538116143851
 20
792.3413536911165
 10
1530.618647380951
 20
792.2542420497165
 10
1530.694111750451
 20
792.1634408162165
 10
1530.764291291551
 20
792.0692219929165
 10
1530.828984631551
 20
791.9718635677164
 10
1530.888005470751
 20
791.8716501986165
 10
1530.941182412851
 20
791.7688727079164
 10
1530.988358574651
 20
791.6638284359164
 10
1531.029391945451
 20
791.5568206792165
 10
1531.058344833651
 20
791.4678967386166
  0
LWPOLYLINE
  5
344
330
1F
100
AcDbEntity
  8
0
  6
Continuous
 62
     7
100
AcDbPolyline
 90
       21
 70
     0
 43
0.0
 10
1517.119698559751
 20
794.2588539575165
 10
1516.871675044451
 20
794.2007246727166
 10
1516.622866155351
 20
794.1319755090164
 10
1516.376869240951
 20
794.0533991126165
 10
1516.134127599351
 20
793.9651362010165
 10
1515.895085576751
 20
793.8673507280165
 10
1515.660177445851
 20
793.7602262011165
 10
1515.429828256951
 20
793.6439654662165
 10
1515.204454479251
 20
793.5187907821165
 10
1514.984463539451
 20
793.3849436109165
 10
1514.770251614451
 20
793.2426833042165
 10
1514.562203106151
 20
793.0922865622164
 10
1514.360690371051
 20
792.9340471529164
 10
1514.166072337651
 20
792.7682748195165
 10
1513.978693807151
 20
792.5952945736164
 10
1513.798885062951
 20
792.4154462981165
 10
1513.626960849451
 20
792.2290837906165
 10
1513.463219655151
 20
792.0365740249165
 10
1513.307942929151
 20
791.8382963167165
 10
1513.161393605951
 20
791.6346404327165
 10
1513.056242498151
 20
791.4768807612165
  0
LINE
  5
345
330
1F
100
AcDbEntity
  8
0
  6
Continuous
 62
     7
100
AcDbLine
 10
1518.750481637951
 20
795.8218192546164
 30
0.0
 11
1518.671197902051
 21
795.8053000543165
 31
0.0
  0
LINE
  5
346
330
1F
100
AcDbEntity
  8
0
  6
Continuous
 62
     7
100
AcDbLine
 10
1518.671197902051
 20
795.8053000543165
 30
0.0
 11
1518.590140363651
 21
795.7885797852164
 31
0.0
  0
LINE
  5
347
330
1F
100
AcDbEntity
  8
0
  6
Continuous
 62
     7
100
AcDbLine
 10
1518.590140363651
 20
795.7885797852164
 30
0.0
 11
1518.507410797051
 21
795.7716602276165
 31
0.0
  0
LINE
  5
348
330
1F
100
AcDbEntity
  8
0
  6
Continuous
 62
     7
100
AcDbLine
 10
1518.507410797051
 20
795.7716602276165
 30
0.0
 11
1518.423089356251
 21
795.7545411956165
 31
0.0
  0
LINE
  5
349
330
1F
100
AcDbEntity
  8
0
  6
Continuous
 62
     7
100
AcDbLine
 10
1518.423089356251
 20
795.7545411956165
 30
0.0
 11
1518.337235919151
 21
795.7372209287165
 31
0.0
  0
LINE
  5
34A
330
1F
100
AcDbEntity
  8
0
  6
Continuous
 62
     7
100
AcDbLine
 10
1518.337235919151
 20
795.7372209287165
 30
0.0
 11
1518.249891800351
 21
795.7196965360164
 31
0.0
  0
LINE
  5
34B
330
1F
100
AcDbEntity
  8
0
  6
Continuous
 62
     7
100
AcDbLine
 10
1518.249891800351
 20
795.7196965360164
 30
0.0
 11
1518.161081796451
 21
795.7019645055164
 31
0.0
  0
LINE
  5
34C
330
1F
100
AcDbEntity
  8
0
  6
Continuous
 62
     7
100
AcDbLine
 10
1518.161081796451
 20
795.7019645055164
 30
0.0
 11
1518.070816544751
 21
795.6840212884165
 31
0.0
  0
LINE
  5
34D
330
1F
100
AcDbEntity
  8
0
  6
Continuous
 62
     7
100
AcDbLine
 10
1518.070816544751
 20
795.6840212884165
 30
0.0
 11
1517.979095353151
 21
795.6658640043165
 31
0.0
  0
LINE
  5
34E
330
1F
100
AcDbEntity
  8
0
  6
Continuous
 62
     7
100
AcDbLine
 10
1517.979095353151
 20
795.6658640043165
 30
0.0
 11
1517.885909529851
 21
795.6474912822165
 31
0.0
  0
LINE
  5
34F
330
1F
100
AcDbEntity
  8
0
  6
Continuous
 62
     7
100
AcDbLine
 10
1517.885909529851
 20
795.6474912822165
 30
0.0
 11
1517.791261998951
 21
795.6289073332165
 31
0.0
  0
LWPOLYLINE
  5
350
330
1F
100
AcDbEntity
  8
0
  6
Continuous
 62
     7
100
AcDbPolyline
 90
        4
 70
     0
 43
0.0
 10
1517.583680959751
 20
794.3414424036165
 10
1517.429633158751
 20
794.3176790178165
 10
1517.272920766851
 20
794.2897880158165
 10
1517.119698559451
 20
794.2588539615164
  0
LINE
  5
351
330
1F
100
AcDbEntity
  8
0
  6
Continuous
 62
     7
100
AcDbLine
 10
1514.570807402851
 20
795.0026042610164
 30
0.0
 11
1514.519787417051
 21
794.9970681101165
 31
0.0
  0
LWPOLYLINE
  5
352
330
1F
100
AcDbEntity
  8
0
  6
Continuous
 62
     7
100
AcDbPolyline
 90
       13
 70
     0
 43
0.0
 10
1514.519787417051
 20
794.9970681101165
 10
1514.453452952351
 20
794.9900331853165
 10
1514.409828071251
 20
794.9854936346165
 10
1514.359508244751
 20
794.9803380516165
 10
1514.302913614251
 20
794.9746391782165
 10
1514.240356737151
 20
794.9684591604165
 10
1514.172150697051
 20
794.9618604507165
 10
1514.098747263251
 20
794.9549183343165
 10
1514.020544196751
 20
794.9477013997165
 10
1513.937729463951
 20
794.9402579296165
 10
1513.850523572951
 20
794.9326390909164
 10
1513.759206089051
 20
794.9249005925164
 10
1513.664121224151
 20
794.9171021886164
  0
LWPOLYLINE
  5
353
330
1F
100
AcDbEntity
  8
0
  6
Continuous
 62
     7
100
AcDbPolyline
 90
       58
 70
     0
 43
0.0
 10
1519.709482904251
 20
796.1075358709165
 10
1519.671758639451
 20
796.1035555311164
 10
1519.633942596051
 20
796.1005126671165
 10
1519.596060239651
 20
796.0984093767165
 10
1519.558125426651
 20
796.0972467153164
 10
1519.520200923051
 20
796.0970257446165
 10
1519.482552528151
 20
796.0977366600165
 10
1519.445451510951
 20
796.0993449288165
 10
1519.408947623351
 20
796.1018091463166
 10
1519.373013930751
 20
796.1050929487164
 10
1519.337635195951
 20
796.1091627606165
 10
1519.302801569451
 20
796.1139871494165
 10
1519.268494361151
 20
796.1195384960165
 10
1519.234690970151
 20
796.1257929089165
 10
1519.201375754551
 20
796.1327281569165
 10
1519.168532936351
 20
796.1403244814165
 10
1519.136146928251
 20
796.1485644412165
 10
1519.104202653651
 20
796.1574327301165
 10
1519.07268541685
 20
796.1669161080164
 10
1519.041581260251
 20
796.1770031991164
 10
1519.010876232651
 20
796.1876846462165
 10
1518.980558888151
 20
796.1989521426164
 10
1518.950612788351
 20
796.2108011915165
 10
1518.921038744751
 20
796.2232221130165
 10
1518.891788489351
 20
796.2362282656165
 10
1518.862779446951
 20
796.2498551145166
 10
1518.834027657351
 20
796.2640973217165
 10
1518.805556723451
 20
796.2789449026165
 10
1518.777358926651
 20
796.2944040319166
 10
1518.749437464651
 20
796.3104764029164
 10
1518.721794015851
 20
796.3271654950164
 10
1518.694432391751
 20
796.3444745028165
 10
1518.667357896551
 20
796.3624065453164
 10
1518.640575789951
 20
796.3809656166165
 10
1518.614097815251
 20
796.4001518495165
 10
1518.587936632151
 20
796.4199648563164
 10
1518.562096064951
 20
796.4404115018164
 10
1518.536584222851
 20
796.4614964528164
 10
1518.511413705151
 20
796.4832213773165
 10
1518.486596677751
 20
796.5055887483165
 10
1518.462146585551
 20
796.5286003766165
 10
1518.438077483551
 20
796.5522579268165
 10
1518.414404069151
 20
796.5765628586165
 10
1518.391141992451
 20
796.6015160537165
 10
1518.368306103151
 20
796.6271197162165
 10
1518.345918665051
 20
796.6533678580165
 10
1518.324001420051
 20
796.6802543660165
 10
1518.302563749251
 20
796.7077886747165
 10
1518.281619223251
 20
796.7359768466165
 10
1518.261187092851
 20
796.7648185008165
 10
1518.241284946351
 20
796.7943163223164
 10
1518.221933957151
 20
796.8244685474164
 10
1518.203150277251
 20
796.8552823108165
 10
1518.184966747851
 20
796.8867376295166
 10
1518.167378359251
 20
796.9188821403165
 10
1518.150459345451
 20
796.9516183792165
 10
1518.134224955351
 20
796.9849506251165
 10
1518.118514854751
 20
797.0192859909165
  0
LWPOLYLINE
  5
354
330
1F
100
AcDbEntity
  8
0
  6
Continuous
 62
     7
100
AcDbPolyline
 90
       32
 70
     0
 43
0.0
 10
1513.664121224151
 20
794.9171021886164
 10
1513.431544596051
 20
794.8991403468165
 10
1513.202973661251
 20
794.8830320207165
 10
1512.979626149651
 20
794.8687886432164
 10
1512.762378822451
 20
794.8563837652165
 10
1512.551580852551
 20
794.8457480622164
 10
1512.347277951051
 20
794.8367935278165
 10
1512.149438424251
 20
794.8294298447165
 10
1511.957941569851
 20
794.8235657082165
 10
1511.772641073251
 20
794.8191132081165
 10
1511.593652826751
 20
794.8159926945164
 10
1511.421159153551
 20
794.8141208687165
 10
1511.255282807851
 20
794.8134082301164
 10
1511.096093715051
 20
794.8137610498165
 10
1510.943625889551
 20
794.8150830372164
 10
1510.797966599851
 20
794.8172751072164
 10
1510.659183286051
 20
794.8202354772165
 10
1510.527289402051
 20
794.8238604275164
 10
1510.402230656051
 20
794.8280488238165
 10
1510.283931541451
 20
794.8327030858165
 10
1510.172320380451
 20
794.8377287331164
 10
1510.067274861251
 20
794.8430373311165
 10
1509.968634852351
 20
794.8485472482165
 10
1509.876337910251
 20
794.8541761045164
 10
1509.790743350751
 20
794.8598163162166
 10
1509.712192254751
 20
794.8653578038165
 10
1509.640888532351
 20
794.8706989622165
 10
1509.576978017251
 20
794.8757445048165
 10
1509.520749671151
 20
794.8803907870165
 10
1509.472320471951
 20
794.8845522804165
 10
1509.431463625551
 20
794.8881810048164
 10
1509.397778598651
 20
794.8912562090165
  0
LWPOLYLINE
  5
355
330
1F
100
AcDbEntity
  8
0
  6
Continuous
 62
     7
100
AcDbPolyline
 90
       17
 70
     0
 43
0.0
 10
1519.669562296351
 20
796.0721520381165
 10
1519.545878257951
 20
796.0627090540165
 10
1519.421750692751
 20
796.0632459989165
 10
1519.297973095351
 20
796.0737594361164
 10
1519.175336731051
 20
796.0941821572165
 10
1519.054625569451
 20
796.1243836074165
 10
1518.936611273251
 20
796.1641707200165
 10
1518.822048264951
 20
796.2132891504165
 10
1518.711668904251
 20
796.2714249024164
 10
1518.606178806351
 20
796.3382063352164
 10
1518.506252330551
 20
796.4132065398165
 10
1518.412528269851
 20
796.4959460677165
 10
1518.325605768151
 20
796.5858959951165
 10
1518.246040490151
 20
796.6824813041165
 10
1518.174341068051
 20
796.7850845589165
 10
1518.110965850251
 20
796.8930498528164
 10
1518.056319962351
 20
797.0056870220165
  0
LWPOLYLINE
  5
356
330
1F
100
AcDbEntity
  8
0
  6
Continuous
 62
     7
100
AcDbPolyline
 90
       21
 70
     0
 43
0.0
 10
1524.007708096551
 20
796.3713014374165
 10
1523.868884269151
 20
796.3707315108165
 10
1523.717477918451
 20
796.3689949392164
 10
1523.555562355651
 20
796.3660953837164
 10
1523.38540140775
 20
796.3620706353164
 10
1523.204711579551
 20
796.3568409534165
 10
1523.012511667451
 20
796.3503076571164
 10
1522.806273824351
 20
796.3422711575165
 10
1522.578177428151
 20
796.3322172066165
 10
1522.315943099951
 20
796.3192120174165
 10
1522.027254626551
 20
796.3031897384164
 10
1521.746575883051
 20
796.2859850696164
 10
1521.490644138251
 20
796.2689408727165
 10
1521.254682134951
 20
796.2520684597165
 10
1521.030683236151
 20
796.2349819602165
 10
1520.801486847451
 20
796.2163470128165
 10
1520.561285895451
 20
796.1954500121164
 10
1520.320937991851
 20
796.1729941287164
 10
1520.097886750451
 20
796.1506132535165
 10
1519.894773551351
 20
796.1287911442164
 10
1519.709482903051
 20
796.1075358691165
  0
LWPOLYLINE
  5
357
330
1F
100
AcDbEntity
  8
0
  6
Continuous
 62
     7
100
AcDbPolyline
 90
       30
 70
     0
 43
0.0
 10
1536.921895596051
 20
794.8137752818166
 10
1536.761018759151
 20
794.8134073523164
 10
1536.602546927051
 20
794.8140596402165
 10
1536.446691626951
 20
794.8156523835165
 10
1536.293623806651
 20
794.8181070117165
 10
1536.143477713051
 20
794.8213472443165
 10
1535.996350301751
 20
794.8253000451164
 10
1535.852279085151
 20
794.8298974366165
 10
1535.711281963251
 20
794.8350766459165
 10
1535.573358643751
 20
794.8407795446164
 10
1535.438490324851
 20
794.8469526056165
 10
1535.306642119651
 20
794.8535468662164
 10
1535.177764660151
 20
794.8605178630165
 10
1535.051801323151
 20
794.8678251881164
 10
1534.928837523451
 20
794.8754228425165
 10
1534.808989779151
 20
794.8832638928165
 10
1534.692355576251
 20
794.8913034393165
 10
1534.579016002251
 20
794.8994991826165
 10
1534.469037126051
 20
794.9078114921165
 10
1534.362470192551
 20
794.9162029974165
 10
1534.259390481251
 20
794.9246354805165
 10
1534.160292519651
 20
794.9330353891165
 10
1534.065822651951
 20
794.9413117951165
 10
1533.976529728451
 20
794.9493776442165
 10
1533.892863762551
 20
794.9571517565165
 10
1533.815281895251
 20
794.9645503648165
 10
1533.744472739151
 20
794.9714653833165
 10
1533.680949902351
 20
794.9778035987165
 10
1533.624989268451
 20
794.9834958086165
 10
1533.576705884951
 20
794.9884916462165
  0
LINE
  5
358
330
1F
100
AcDbEntity
  8
0
  6
Continuous
 62
     7
100
AcDbLine
 10
1533.576705884951
 20
794.9884916462165
 30
0.0
 11
1533.503103176851
 21
794.9962669720165
 31
0.0
  0
LINE
  5
359
330
1F
100
AcDbEntity
  8
0
  6
Continuous
 62
     7
100
AcDbLine
 10
1533.503103176851
 20
794.9962669720165
 30
0.0
 11
1533.445983809951
 21
795.0024530162164
 31
0.0
  0
LWPOLYLINE
  5
35A
330
1F
100
AcDbEntity
  8
0
  6
Continuous
 62
     7
100
AcDbPolyline
 90
       24
 70
     0
 43
0.0
 10
1528.306049930351
 20
796.1074245211165
 10
1528.214332234251
 20
796.1180978991165
 10
1528.112544262651
 20
796.1295534569164
 10
1527.999497356051
 20
796.1418264566165
 10
1527.874024852251
 20
796.1549302054164
 10
1527.734901863951
 20
796.1688639664165
 10
1527.579042485951
 20
796.1837795812165
 10
1527.400848938051
 20
796.1999982150165
 10
1527.199997331751
 20
796.2172924984165
 10
1526.985456921751
 20
796.2347003079164
 10
1526.763237063851
 20
796.2516617797165
 10
1526.530457450851
 20
796.2683340617164
 10
1526.275750486551
 20
796.2853419529165
 10
1525.998561733551
 20
796.3023997233165
 10
1525.71070174875
 20
796.3184646736165
 10
1525.449388888051
 20
796.3315153391165
 10
1525.220451178451
 20
796.3416903638164
 10
1525.012892376651
 20
796.3498523322165
 10
1524.818780445551
 20
796.3565151757165
 10
1524.636298167251
 20
796.3618515715165
 10
1524.464335505151
 20
796.3659645188165
 10
1524.300802504851
 20
796.3689297028166
 10
1524.147404444551
 20
796.3707143032165
 10
1524.007708096551
 20
796.3713014374165
  0
LWPOLYLINE
  5
35B
330
1F
100
AcDbEntity
  8
0
  6
Continuous
 62
     7
100
AcDbPolyline
 90
       17
 70
     0
 43
0.0
 10
1530.431735233051
 20
794.3414424037166
 10
1529.633000279051
 20
794.4481678036165
 10
1528.830527616251
 20
794.5410170291165
 10
1528.027525261851
 20
794.6195588257165
 10
1527.224087655351
 20
794.6838042241165
 10
1526.420310195651
 20
794.7337624932165
 10
1525.616286597851
 20
794.7694413556165
 10
1524.812102343451
 20
794.7908469840165
 10
1524.007837800751
 20
794.7979832925165
 10
1523.203573207951
 20
794.7908515854164
 10
1522.399388842251
 20
794.7694505566164
 10
1521.595365129551
 20
794.7337762941165
 10
1520.791587572151
 20
794.6838226287164
 10
1519.988149849451
 20
794.6195818377165
 10
1519.185147312951
 20
794.5410446482164
 10
1518.382674370751
 20
794.4482000246165
 10
1517.583680960051
 20
794.3414424036165
  0
LINE
  5
35C
330
1F
100
AcDbEntity
  8
0
  6
Continuous
 62
     7
100
AcDbLine
 10
1530.224154194151
 20
795.6289073332165
 30
0.0
 11
1530.129506663251
 21
795.6474912822165
 31
0.0
  0
LINE
  5
35D
330
1F
100
AcDbEntity
  8
0
  6
Continuous
 62
     7
100
AcDbLine
 10
1530.129506663251
 20
795.6474912822165
 30
0.0
 11
1530.036320839951
 21
795.6658640043165
 31
0.0
  0
LINE
  5
35E
330
1F
100
AcDbEntity
  8
0
  6
Continuous
 62
     7
100
AcDbLine
 10
1530.036320839951
 20
795.6658640043165
 30
0.0
 11
1529.944599648351
 21
795.6840212884165
 31
0.0
  0
LINE
  5
35F
330
1F
100
AcDbEntity
  8
0
  6
Continuous
 62
     7
100
AcDbLine
 10
1529.944599648351
 20
795.6840212884165
 30
0.0
 11
1529.854334396651
 21
795.7019645055164
 31
0.0
  0
LINE
  5
360
330
1F
100
AcDbEntity
  8
0
  6
Continuous
 62
     7
100
AcDbLine
 10
1529.854334396651
 20
795.7019645055164
 30
0.0
 11
1529.76552439275
 21
795.7196965360164
 31
0.0
  0
LINE
  5
361
330
1F
100
AcDbEntity
  8
0
  6
Continuous
 62
     7
100
AcDbLine
 10
1529.76552439275
 20
795.7196965360164
 30
0.0
 11
1529.678180273951
 21
795.7372209287165
 31
0.0
  0
LWPOLYLINE
  5
362
330
1F
100
AcDbEntity
  8
0
  6
Continuous
 62
     7
100
AcDbPolyline
 90
        4
 70
     0
 43
0.0
 10
1530.895717633651
 20
794.2588539616165
 10
1530.742756969751
 20
794.2897383117164
 10
1530.586045636051
 20
794.3176354272164
 10
1530.431735233351
 20
794.3414424035165
  0
LINE
  5
363
330
1F
100
AcDbEntity
  8
0
  6
Continuous
 62
     7
100
AcDbLine
 10
1529.678180273951
 20
795.7372209287165
 30
0.0
 11
1529.592326836851
 21
795.7545411956165
 31
0.0
  0
LINE
  5
364
330
1F
100
AcDbEntity
  8
0
  6
Continuous
 62
     7
100
AcDbLine
 10
1529.592326836851
 20
795.7545411956165
 30
0.0
 11
1529.508005396051
 21
795.7716602276165
 31
0.0
  0
LINE
  5
365
330
1F
100
AcDbEntity
  8
0
  6
Continuous
 62
     7
100
AcDbLine
 10
1529.508005396051
 20
795.7716602276165
 30
0.0
 11
1529.425275829451
 21
795.7885797852164
 31
0.0
  0
LINE
  5
366
330
1F
100
AcDbEntity
  8
0
  6
Continuous
 62
     7
100
AcDbLine
 10
1529.425275829451
 20
795.7885797852164
 30
0.0
 11
1529.344218291051
 21
795.8053000543165
 31
0.0
  0
LWPOLYLINE
  5
367
330
1F
100
AcDbEntity
  8
0
  6
Continuous
 62
     7
100
AcDbPolyline
 90
       40
 70
     0
 43
0.0
 10
1529.344218291051
 20
795.8053000543165
 10
1529.264934555151
 20
795.8218192546164
 10
1529.225995944351
 20
795.8300022470165
 10
1529.187550035851
 20
795.8381330606165
 10
1529.149647505051
 20
795.8462040266165
 10
1529.112360964251
 20
795.8542026707164
 10
1529.075727299151
 20
795.8621239931164
 10
1529.039763941151
 20
795.8699671657165
 10
1529.004495780951
 20
795.8777297493164
 10
1528.969942723551
 20
795.8854104043165
 10
1528.936120492051
 20
795.8930087046164
 10
1528.903047889051
 20
795.9005235285165
 10
1528.870744767251
 20
795.9079534816164
 10
1528.839229654351
 20
795.9152974212165
 10
1528.808520833451
 20
795.9225542013165
 10
1528.778636447351
 20
795.9297226334165
 10
1528.749594576951
 20
795.9368014534164
 10
1528.721412028451
 20
795.9437896041166
 10
1528.694104638051
 20
795.9506861569165
 10
1528.667688267251
 20
795.9574900559165
 10
1528.642178369651
 20
795.9642002120165
 10
1528.617589692951
 20
795.9708155697165
 10
1528.593936399451
 20
795.9773350675164
 10
1528.571231994951
 20
795.9837576499165
 10
1528.549489325751
 20
795.9900822604165
 10
1528.528720626951
 20
795.9963078225166
 10
1528.508937500051
 20
796.0024332382166
 10
1528.490150922251
 20
796.0084573802165
 10
1528.472371222151
 20
796.0143790930165
 10
1528.455608144151
 20
796.0201971670165
 10
1528.439870661151
 20
796.0259103986165
 10
1528.425167644551
 20
796.0315173373165
 10
1528.411505372051
 20
796.0370172572164
 10
1528.398898698651
 20
796.0424054707165
 10
1528.387378531151
 20
796.0476683780165
 10
1528.376950528751
 20
796.0528008752164
 10
1528.367596428651
 20
796.0578091408165
 10
1528.359300835951
 20
796.0626999401165
 10
1528.352053729251
 20
796.0674796987165
 10
1528.345853912251
 20
796.0721520269165
  0
LWPOLYLINE
  5
368
330
1F
100
AcDbEntity
  8
0
  6
Continuous
 62
     7
100
AcDbPolyline
 90
       23
 70
     0
 43
0.0
 10
1531.074670785151
 20
791.4544288720165
 10
1531.082992752551
 20
791.4495208137164
 10
1531.095418587851
 20
791.4445742000165
 10
1531.111877452151
 20
791.4396598435165
 10
1531.132208908251
 20
791.4348380444165
 10
1531.156272332551
 20
791.4301460094165
 10
1531.183738633451
 20
791.4256444809165
 10
1531.214172288351
 20
791.4213892631164
 10
1531.247284713751
 20
791.4174015879165
 10
1531.282740406151
 20
791.4137042258164
 10
1531.320111443751
 20
791.4103223054164
 10
1531.359057756851
 20
791.4072656752165
 10
1531.399406441051
 20
791.4045298867165
 10
1531.440760134951
 20
791.4021249716165
 10
1531.482716238451
 20
791.4000548539165
 10
1531.525145891851
 20
791.3983073423164
 10
1531.567968748251
 20
791.3968713801165
 10
1531.610947943151
 20
791.3957426051165
 10
1531.653874899551
 20
791.3949143816164
 10
1531.696773363751
 20
791.3943767269166
 10
1531.739644249251
 20
791.3941244206165
 10
1531.782496378251
 20
791.3941560985165
 10
1531.825307134751
 20
791.3944740955164
  0
LWPOLYLINE
  5
369
330
1F
100
AcDbEntity
  8
0
  6
Continuous
 62
     7
100
AcDbPolyline
 90
       35
 70
     0
 43
0.0
 10
1518.056320025251
 20
817.1098848353164
 10
1517.966251854851
 20
816.8980615000165
 10
1517.877161752751
 20
816.6807458159164
 10
1517.789062432251
 20
816.4576868010165
 10
1517.701957817651
 20
816.2285964486164
 10
1517.615880023851
 20
815.9932287190166
 10
1517.531008456251
 20
815.7517268071165
 10
1517.447515018451
 20
815.5042372031164
 10
1517.365564503851
 20
815.2509093462166
 10
1517.285342553151
 20
814.9919863774165
 10
1517.206917340151
 20
814.7273471527164
 10
1517.130438751651
 20
814.4571368258166
 10
1517.056083447651
 20
814.1816238686164
 10
1516.983953418551
 20
813.9008247253165
 10
1516.914216057851
 20
813.6150225755164
 10
1516.847025274451
 20
813.3244905117164
 10
1516.782443608151
 20
813.0291194538164
 10
1516.720488721851
 20
812.7285655663165
 10
1516.661243590451
 20
812.4227914873165
 10
1516.604825917751
 20
812.1119323848166
 10
1516.551375053551
 20
811.7962697200166
 10
1516.501032391751
 20
811.4761567396165
 10
1516.453929374051
 20
811.1519591084164
 10
1516.410164019151
 20
810.8238721507165
 10
1516.369858026451
 20
810.4923231945164
 10
1516.333111882251
 20
810.1576672889164
 10
1516.300027396951
 20
809.8203809260164
 10
1516.270694852551
 20
809.4809858787165
 10
1516.245169362651
 20
809.1397404691164
 10
1516.223480085751
 20
808.7965813880165
 10
1516.205644496451
 20
808.4512541363164
 10
1516.191723333751
 20
808.1043109599166
 10
1516.181757020751
 20
807.7561887172164
 10
1516.175772775351
 20
807.4072314518165
 10
1516.173790067451
 20
807.0577858560165
  0
LWPOLYLINE
  5
36A
330
1F
100
AcDbEntity
  8
0
  6
Continuous
 62
     7
100
AcDbPolyline
 90
       57
 70
     0
 43
0.0
 10
1518.074258743051
 20
817.1053282352165
 10
1518.090020086251
 20
817.1402974422164
 10
1518.106620161251
 20
817.1748570618165
 10
1518.123952504751
 20
817.2088046215165
 10
1518.141946101551
 20
817.2420435977164
 10
1518.160581968151
 20
817.2745848594166
 10
1518.179833095051
 20
817.3064230645165
 10
1518.199676231251
 20
817.3375587678165
 10
1518.220088883551
 20
817.3679927598165
 10
1518.241050097151
 20
817.3977271728166
 10
1518.262540211951
 20
817.4267649188164
 10
1518.284540965651
 20
817.4551096906165
 10
1518.307035539051
 20
817.4827658727165
 10
1518.330008456751
 20
817.5097382894165
 10
1518.353445581251
 20
817.5360320990163
 10
1518.377335109351
 20
817.5616537483165
 10
1518.401661988051
 20
817.5866050576164
 10
1518.426403392451
 20
817.6108798172165
 10
1518.451541761651
 20
817.6344774934165
 10
1518.477065588351
 20
817.6574028405164
 10
1518.502962602751
 20
817.6796590789164
 10
1518.529222245851
 20
817.7012501631164
 10
1518.555834823051
 20
817.7221799383165
 10
1518.582791835951
 20
817.7424523503164
 10
1518.610085911251
 20
817.7620713054164
 10
1518.637710843551
 20
817.7810406234165
 10
1518.665661600351
 20
817.7993639598165
 10
1518.693934337151
 20
817.8170447340164
 10
1518.722526393951
 20
817.8340860448166
 10
1518.751436315951
 20
817.8504905995165
 10
1518.780663766351
 20
817.8662605815164
 10
1518.810209776951
 20
817.8813977003164
 10
1518.840075972651
 20
817.8959027129165
 10
1518.870266674751
 20
817.9097763510165
 10
1518.900783878551
 20
817.9230169175164
 10
1518.931635243251
 20
817.9356237983165
 10
1518.962865340251
 20
817.9476084073165
 10
1518.994517391851
 20
817.9589764407165
 10
1519.026603109551
 20
817.9697184194164
 10
1519.059132478051
 20
817.9798224428164
 10
1519.092117489151
 20
817.9892754053165
 10
1519.125569220551
 20
817.9980619927166
 10
1519.159498919451
 20
818.0061649944164
 10
1519.193917353051
 20
818.0135650938165
 10
1519.228834856551
 20
818.0202408622164
 10
1519.264261004651
 20
818.0261686723165
 10
1519.300204740351
 20
818.0313227021166
 10
1519.336673151351
 20
818.0356747596166
 10
1519.373674605651
 20
818.0391946289164
 10
1519.411213193451
 20
818.0418494311165
 10
1519.449316210651
 20
818.0436048975165
 10
1519.487857226551
 20
818.0444207367164
 10
1519.526531936151
 20
818.0442701813165
 10
1519.565187394251
 20
818.0431488133164
 10
1519.603797155551
 20
818.0410573179164
 10
1519.642337234051
 20
818.0379969932165
 10
1519.680783874451
 20
818.0339697028164
  0
LWPOLYLINE
  5
36B
330
1F
100
AcDbEntity
  8
0
  6
Continuous
 62
     7
100
AcDbPolyline
 90
        4
 70
     0
 43
0.0
 10
1518.118514854751
 20
797.0192859909165
 10
1518.095686110651
 20
797.0150954750165
 10
1518.074967516351
 20
797.0105653506164
 10
1518.056319962351
 20
797.0056870220165
  0
LINE
  5
36C
330
1F
100
AcDbEntity
  8
DEFAULT_1
  6
CENTER
 62
     7
100
AcDbLine
 10
1524.007708096551
 20
799.5577858560165
 30
0.0
 11
1520.941041429851
 21
799.5577858560165
 31
0.0
  0
LINE
  5
36D
330
1F
100
AcDbEntity
  8
DEFAULT_1
  6
CENTER
 62
     7
100
AcDbLine
 10
1524.007708096551
 20
799.5577858560165
 30
0.0
 11
1527.074374763251
 21
799.5577858560165
 31
0.0
  0
LWPOLYLINE
  5
36E
330
1F
100
AcDbEntity
  8
0
  6
Continuous
 62
     7
100
AcDbPolyline
 90
        4
 70
     0
 43
0.0
 10
1529.896901495851
 20
797.0192863467165
 10
1529.919729775251
 20
797.0150955364165
 10
1529.940448537851
 20
797.0105653838165
 10
1529.959096230751
 20
797.0056870220165
  0
LWPOLYLINE
  5
36F
330
1F
100
AcDbEntity
  8
0
  6
Continuous
 62
     7
100
AcDbPolyline
 90
       20
 70
     0
 43
0.0
 10
1522.820208096551
 20
791.3494773467165
 10
1522.824949619151
 20
791.3406783985164
 10
1522.838823818651
 20
791.3320524108164
 10
1522.861222953051
 20
791.3236672996165
 10
1522.891117401051
 20
791.3156660989165
 10
1522.927173967751
 20
791.3081664485165
 10
1522.968492043351
 20
791.3011608331165
 10
1523.014764895551
 20
791.2945803826164
 10
1523.065882952051
 20
791.2883792012165
 10
1523.122138685051
 20
791.2825038546165
 10
1523.183787611451
 20
791.2769417307165
 10
1523.251511444651
 20
791.2716722910166
 10
1523.326084579051
 20
791.2667043184165
 10
1523.408247272651
 20
791.2620812327165
 10
1523.497549476151
 20
791.2579254886164
 10
1523.593080178051
 20
791.2543609714165
 10
1523.693793633451
 20
791.2514906373164
 10
1523.797332068551
 20
791.2494152546164
 10
1523.90220206585
 20
791.2481675746164
 10
1524.007708096551
 20
791.2477513425165
  0
LWPOLYLINE
  5
370
330
1F
100
AcDbEntity
  8
0
  6
Continuous
 62
     7
100
AcDbPolyline
 90
       37
 70
     0
 43
0.0
 10
1518.118514960551
 20
797.0192859960165
 10
1518.040301942751
 20
797.1977044524164
 10
1517.962371297851
 20
797.3810545169165
 10
1517.884496084251
 20
797.5701176172165
 10
1517.806608381951
 20
797.7654171260164
 10
1517.728892667851
 20
797.9668689607165
 10
1517.651251587151
 20
798.1751441857165
 10
1517.573557266451
 20
798.3910961096165
 10
1517.495401341151
 20
798.6165328655165
 10
1517.416387314051
 20
798.8535222272164
 10
1517.336542927951
 20
799.1031397534165
 10
1517.257444779251
 20
799.3614959296165
 10
1517.180531091851
 20
799.6244360481165
 10
1517.105561932951
 20
799.8930917841164
 10
1517.032667980651
 20
800.1673754947164
 10
1516.962056610051
 20
800.4468793152165
 10
1516.894385709151
 20
800.7291839938165
 10
1516.830038527251
 20
801.0125745856164
 10
1516.768896105351
 20
801.2973523731165
 10
1516.710611943651
 20
801.5850241063164
 10
1516.654807147451
 20
801.8776925623164
 10
1516.601626494351
 20
802.1750458921165
 10
1516.551173554251
 20
802.4769616105164
 10
1516.503556548551
 20
802.7832773125165
 10
1516.458900207451
 20
803.0936893657164
 10
1516.417299812351
 20
803.4080512672165
 10
1516.378864844651
 20
803.7260770543165
 10
1516.343697197851
 20
804.0474784278165
 10
1516.311881548251
 20
804.3720720916164
 10
1516.283551451751
 20
804.6990449324166
 10
1516.258771926051
 20
805.0281269230165
 10
1516.237565984351
 20
805.3595905037164
 10
1516.219967546451
 20
805.6936113870165
 10
1516.206043791651
 20
806.0297824969165
 10
1516.195849315651
 20
806.3677582829164
 10
1516.189431033351
 20
806.7071325621165
 10
1516.186824844651
 20
807.0474610902165
  0
LWPOLYLINE
  5
371
330
1F
100
AcDbEntity
  8
0
  6
Continuous
 62
     7
100
AcDbPolyline
 90
       35
 70
     0
 43
0.0
 10
1516.173790067451
 20
807.0577858560165
 10
1516.175772591851
 20
806.7083563408164
 10
1516.181756598851
 20
806.3594014263165
 10
1516.191722949951
 20
806.0112719155165
 10
1516.205644558451
 20
805.6643162247164
 10
1516.223482543051
 20
805.3189475346165
 10
1516.24516890515
 20
804.9758378727165
 10
1516.270690913851
 20
804.6346346935164
 10
1516.300019982251
 20
804.2952711579165
 10
1516.333104255151
 20
803.9579777989166
 10
1516.369854788551
 20
803.6232765069165
 10
1516.410154491251
 20
803.2917743019165
 10
1516.453911241451
 20
802.9637427349165
 10
1516.501024551051
 20
802.6394668028165
 10
1516.551375485751
 20
802.3192993447164
 10
1516.604829535651
 20
802.0036187016165
 10
1516.661244273651
 20
801.6927765836165
 10
1516.720459028851
 20
801.3871546560164
 10
1516.782378293551
 20
801.0867597937165
 10
1516.846944533351
 20
800.7914401305166
 10
1516.914135412151
 20
800.5008885180165
 10
1516.983875984351
 20
800.2150561923166
 10
1517.055993316851
 20
799.9342900695165
 10
1517.130358025551
 20
799.6587269016165
 10
1517.206854300051
 20
799.3884421783165
 10
1517.285289769151
 20
799.1237594935165
 10
1517.365541759051
 20
798.8647341945164
 10
1517.447496236251
 20
798.6113913523166
 10
1517.530977117251
 20
798.3639359039165
 10
1517.615843305551
 20
798.1224453962165
 10
1517.701910881051
 20
797.8871011124165
 10
1517.789019611151
 20
797.6579953953165
 10
1517.877138620151
 20
797.4348833757164
 10
1517.966251525151
 20
797.2175110014164
 10
1518.056319962351
 20
797.0056870220165
  0
LWPOLYLINE
  5
372
330
1F
100
AcDbEntity
  8
0
  6
Continuous
 62
     7
100
AcDbPolyline
 90
       36
 70
     0
 43
0.0
 10
1516.186824844651
 20
807.0474610902165
 10
1516.187337840951
 20
807.3007794130164
 10
1516.190312867351
 20
807.5752321854166
 10
1516.196778021251
 20
807.8881075669164
 10
1516.207498021551
 20
808.2276143305165
 10
1516.222260377951
 20
808.5706342737164
 10
1516.240857434551
 20
808.9112925773164
 10
1516.263278056151
 20
809.2501146619165
 10
1516.289517045851
 20
809.5874110648164
 10
1516.319534486651
 20
809.9230099134166
 10
1516.353265226951
 20
810.2565138382164
 10
1516.390624395251
 20
810.5874520809164
 10
1516.431514636151
 20
810.9153712209165
 10
1516.47584303685
 20
811.2399502181165
 10
1516.523493464851
 20
811.5607731987164
 10
1516.574350065851
 20
811.8775074621165
 10
1516.628268066551
 20
812.1897150903166
 10
1516.685128837551
 20
812.4971781494165
 10
1516.744783629551
 20
812.7995591051165
 10
1516.807114208851
 20
813.0967187346165
 10
1516.872084488951
 20
813.3889044087165
 10
1516.939705936251
 20
813.6765528298164
 10
1517.009834992151
 20
813.9594035212164
 10
1517.08235595755
 20
814.2373360733165
 10
1517.157112883051
 20
814.5100967444165
 10
1517.233957101151
 20
814.7774919855164
 10
1517.312741041851
 20
815.0393576029165
 10
1517.393316140951
 20
815.2955477919165
 10
1517.475562317451
 20
815.5460208982164
 10
1517.559313201251
 20
815.7906061041165
 10
1517.644434867851
 20
816.0292465465165
 10
1517.730780511151
 20
816.2618593691165
 10
1517.818169170151
 20
816.4882891577164
 10
1517.906765308151
 20
816.7092475618165
 10
1517.994836747951
 20
816.9208949435164
 10
1518.074258648151
 20
817.1053282725164
  0
LINE
  5
373
330
1F
100
AcDbEntity
  8
0
  6
Continuous
 62
     7
100
AcDbLine
 10
1516.660373461351
 20
807.0577858560165
 30
0.0
 11
1516.660454720851
 21
807.0679947321165
 31
0.0
  0
LWPOLYLINE
  5
374
330
1F
100
AcDbEntity
  8
0
  6
Continuous
 62
     7
100
AcDbPolyline
 90
       21
 70
     0
 43
0.0
 10
1513.056240382651
 20
791.4768807716165
 10
1513.055334407951
 20
791.4737501243165
 10
1513.057067883251
 20
791.4701749609165
 10
1513.061696422051
 20
791.4667031697165
 10
1513.069111759551
 20
791.4633372591165
 10
1513.079208033651
 20
791.4600850324164
 10
1513.091892942751
 20
791.4569513566164
 10
1513.107112471751
 20
791.4539359687164
 10
1513.124785863551
 20
791.4510473686164
 10
1513.144893795751
 20
791.4482855634164
 10
1513.167412290851
 20
791.4456550884165
 10
1513.192299575551
 20
791.4431639916165
 10
1513.219616410651
 20
791.4408123335165
 10
1513.249326218451
 20
791.4386116120165
 10
1513.281468281551
 20
791.4365684052165
 10
1513.316107510351
 20
791.4346905041164
 10
1513.353222328851
 20
791.4329922097165
 10
1513.392936629151
 20
791.4314827666165
 10
1513.435207744151
 20
791.4301802436165
 10
1513.480111325551
 20
791.4290997928165
 10
1513.527645551951
 20
791.4282606325165
  0
LWPOLYLINE
  5
375
330
1F
100
AcDbEntity
  8
0
  6
Continuous
 62
     7
100
AcDbPolyline
 90
       44
 70
     0
 43
0.0
 10
1524.007703754551
 20
801.5381827364164
 10
1523.853667536651
 20
801.5321623215164
 10
1523.69911408125
 20
801.5139368132166
 10
1523.545530809951
 20
801.4834357663165
 10
1523.394394977351
 20
801.4408256385165
 10
1523.246898175851
 20
801.3863972646165
 10
1523.103934576651
 20
801.3204417152165
 10
1522.966434955551
 20
801.2433456462165
 10
1522.835401856051
 20
801.1556400777164
 10
1522.711831016451
 20
801.0579982514165
 10
1522.596590192351
 20
800.9511512862165
 10
1522.490430089651
 20
800.8358618424164
 10
1522.394113676951
 20
800.7130609344164
 10
1522.308262283451
 20
800.5836979159164
 10
1522.233397460351
 20
800.4487666577166
 10
1522.169880188451
 20
800.3091854426164
 10
1522.118094393451
 20
800.1661611443164
 10
1522.078240811051
 20
800.0207758496165
 10
1522.050410803351
 20
799.8741107574164
 10
1522.034588999051
 20
799.7272334235165
 10
1522.030656847951
 20
799.5812312261165
 10
1522.038514915851
 20
799.4353124323165
 10
1522.058469730951
 20
799.2875587522164
 10
1522.090893327551
 20
799.1385733347165
 10
1522.135914019551
 20
798.9896997436164
 10
1522.191039075351
 20
798.8478315686164
 10
1522.25318464905
 20
798.7168100879165
 10
1522.320831274651
 20
798.5959501059165
 10
1522.392972609751
 20
798.4842846158165
 10
1522.468873461951
 20
798.3810758849165
 10
1522.548309722251
 20
798.2853357972165
 10
1522.631198593851
 20
798.1963224151164
 10
1522.717770388251
 20
798.1133071260164
 10
1522.808284487351
 20
798.0358483050165
 10
1522.903247138651
 20
797.9635587485165
 10
1523.003111416551
 20
797.8963551442165
 10
1523.108412901551
 20
797.8343230260165
 10
1523.219650072551
 20
797.7777879628165
 10
1523.337339971851
 20
797.7272733373165
 10
1523.461525089151
 20
797.6836684281165
 10
1523.591745560251
 20
797.6480392081165
 10
1523.727246850651
 20
797.6214778600165
 10
1523.866680168851
 20
797.6050448691164
 10
1524.007697373051
 20
797.5994982084166
  0
LWPOLYLINE
  5
376
330
1F
100
AcDbEntity
  8
0
  6
Continuous
 62
     7
100
AcDbPolyline
 90
       44
 70
     0
 43
0.0
 10
1524.007703754551
 20
801.5381839367163
 10
1524.161750655051
 20
801.5321621651164
 10
1524.316303920651
 20
801.5139365275166
 10
1524.469886987451
 20
801.4834353815166
 10
1524.621022607051
 20
801.4408251865164
 10
1524.768519194551
 20
801.3863967767164
 10
1524.911482583351
 20
801.3204412221165
 10
1525.048982000651
 20
801.2433451779164
 10
1525.180014906351
 20
801.1556396633164
 10
1525.303585565951
 20
801.0579979180166
 10
1525.418826227551
 20
800.9511510585165
 10
1525.524986188251
 20
800.8358617427164
 10
1525.621302482151
 20
800.7130609815165
 10
1525.707153782351
 20
800.5836981253164
 10
1525.782018539351
 20
800.4487670415164
 10
1525.845535773751
 20
800.3091860089165
 10
1525.897321560651
 20
800.1661618969164
 10
1525.937175164651
 20
800.0207767886164
 10
1525.965005223251
 20
799.8741118790165
 10
1525.980827106951
 20
799.7272347202165
 10
1525.984759364951
 20
799.5812326960165
 10
1525.976901433251
 20
799.4353140887165
 10
1525.956946788251
 20
799.2875606051165
 10
1525.924523395151
 20
799.1385753751164
 10
1525.879502922551
 20
798.9897019098165
 10
1525.824378067251
 20
798.8478337656165
 10
1525.762232672151
 20
798.7168122678165
 10
1525.694586217051
 20
798.5959522590165
 10
1525.622445047451
 20
798.4842867356165
 10
1525.546544360551
 20
798.3810779682165
 10
1525.467108271151
 20
798.2853378438164
 10
1525.384219580551
 20
798.1963244253165
 10
1525.297647982151
 20
798.1133090987165
 10
1525.207134097951
 20
798.0358502371164
 10
1525.112171684851
 20
797.9635606335165
 10
1525.012307670551
 20
797.8963569697165
 10
1524.907006476851
 20
797.8343247736165
 10
1524.795769626751
 20
797.7777896068166
 10
1524.678080072551
 20
797.7272748410165
 10
1524.553895309751
 20
797.6836697426165
 10
1524.423675187251
 20
797.6480402792165
 10
1524.288174222251
 20
797.6214786272164
 10
1524.148741173251
 20
797.6050452743164
 10
1524.007697373051
 20
797.5994994644166
  0
LWPOLYLINE
  5
377
330
1F
100
AcDbEntity
  8
0
  6
Continuous
 62
     7
100
AcDbPolyline
 90
        4
 70
     0
 43
0.0
 10
1528.306049929251
 20
796.1074245227165
 10
1528.319684557151
 20
796.0947117692165
 10
1528.332950055251
 20
796.0829616621165
 10
1528.345853896751
 20
796.0721520381165
  0
LWPOLYLINE
  5
378
330
1F
100
AcDbEntity
  8
0
  6
Continuous
 62
     7
100
AcDbPolyline
 90
       20
 70
     0
 43
0.0
 10
1525.195208096551
 20
791.3494773467165
 10
1525.190959978251
 20
791.3577865141165
 10
1525.177881887751
 20
791.3662221376165
 10
1525.155864029451
 20
791.3746507233165
 10
1525.125292191551
 20
791.3829560286164
 10
1525.086215566051
 20
791.3911776005164
 10
1525.039855379451
 20
791.3991218843165
 10
1524.988768184851
 20
791.4064908107165
 10
1524.934323554451
 20
791.4132448801165
 10
1524.877668671351
 20
791.4193697751165
 10
1524.817053545251
 20
791.4251114925165
 10
1524.750071144651
 20
791.4306507912165
 10
1524.676197968751
 20
791.4359298887164
 10
1524.595098161351
 20
791.4408604411164
 10
1524.506538088251
 20
791.4453361965166
 10
1524.412095676351
 20
791.4491741681165
 10
1524.313636737551
 20
791.4522374252165
 10
1524.212844556651
 20
791.4544490409165
 10
1524.110599480051
 20
791.4557835662165
 10
1524.007708096551
 20
791.4562292446164
  0
LWPOLYLINE
  5
379
330
1F
100
AcDbEntity
  8
0
  6
Continuous
 62
     7
100
AcDbPolyline
 90
        3
 70
     0
 43
0.0
 10
1531.061692917151
 20
822.6515615030164
 10
1531.058672344251
 20
822.6484642400166
 10
1531.058345573551
 20
822.6476749723165
  0
LWPOLYLINE
  5
37A
330
1F
100
AcDbEntity
  8
0
  6
Continuous
 62
     7
100
AcDbPolyline
 90
        3
 70
     0
 43
0.0
 10
1528.334498923351
 20
818.0338538189165
 10
1528.340214322351
 20
818.0387435354164
 10
1528.345854029551
 20
818.0434196900165
  0
LWPOLYLINE
  5
37B
330
1F
100
AcDbEntity
  8
0
  6
Continuous
 62
     7
100
AcDbPolyline
 90
       39
 70
     0
 43
0.0
 10
1528.345854045351
 20
818.0434197015165
 10
1528.352048557251
 20
818.0480981728164
 10
1528.359295613851
 20
818.0528849339165
 10
1528.367596473251
 20
818.0577835512165
 10
1528.376960467151
 20
818.0628000435165
 10
1528.387404020951
 20
818.0679417131164
 10
1528.398937286751
 20
818.0732110808165
 10
1528.411540745951
 20
818.0785979006165
 10
1528.425194011151
 20
818.0840940705165
 10
1528.43988906535
 20
818.0896978155164
 10
1528.455618183251
 20
818.0954078170165
 10
1528.472372902551
 20
818.1012227679165
 10
1528.490144158551
 20
818.1071414216164
 10
1528.508922254851
 20
818.1131625754165
 10
1528.528696859151
 20
818.1192850648164
 10
1528.549457015751
 20
818.1255077617166
 10
1528.571191134651
 20
818.1318295650164
 10
1528.593886986851
 20
818.1382493938166
 10
1528.617531708551
 20
818.1447661814164
 10
1528.642111891251
 20
818.1513788936165
 10
1528.667613422551
 20
818.1580864772165
 10
1528.694021222151
 20
818.1648877858165
 10
1528.721319934151
 20
818.1717817522164
 10
1528.749494383351
 20
818.1787674888166
 10
1528.778528370051
 20
818.1858439727164
 10
1528.808404526451
 20
818.1930100064164
 10
1528.839105236451
 20
818.2002644353165
 10
1528.870612644351
 20
818.2076061357165
 10
1528.902908256251
 20
818.2150339092164
 10
1528.935973505251
 20
818.2225466017165
 10
1528.969788639251
 20
818.2301428392165
 10
1529.004334924951
 20
818.2378215134164
 10
1529.039596669751
 20
818.2455822030165
 10
1529.075553975351
 20
818.2534235677165
 10
1529.112181999851
 20
818.2613431777165
 10
1529.149463408251
 20
818.2693402240165
 10
1529.187361537551
 20
818.2774097532165
 10
1529.225803364651
 20
818.2855392030164
 10
1529.264738185051
 20
818.2937208993164
  0
LINE
  5
37C
330
1F
100
AcDbEntity
  8
DEFAULT_1
  6
CENTER
 62
     7
100
AcDbLine
 10
1524.007708096551
 20
799.5577858560165
 30
0.0
 11
1524.007708096551
 21
796.4911191893165
 31
0.0
  0
LINE
  5
37D
330
1F
100
AcDbEntity
  8
DEFAULT_1
  6
CENTER
 62
     7
100
AcDbLine
 10
1524.007708096551
 20
799.5577858560165
 30
0.0
 11
1524.007708096551
 21
802.6244525226164
 31
0.0
  0
LWPOLYLINE
  5
37E
330
1F
100
AcDbEntity
  8
0
  6
Continuous
 62
     7
100
AcDbPolyline
 90
       22
 70
     0
 43
0.0
 10
1516.957071359251
 20
791.4678967379164
 10
1516.986100537751
 20
791.5570377040165
 10
1517.027146463451
 20
791.6640419766165
 10
1517.074334941151
 20
791.7690821703165
 10
1517.127523924051
 20
791.8718549784165
 10
1517.186556488751
 20
791.9720630536164
 10
1517.251261196251
 20
792.0694155697165
 10
1517.321451701151
 20
792.1636278698165
 10
1517.396926591651
 20
792.2544219813164
 10
1517.477467896751
 20
792.3415259500164
 10
1517.562842716651
 20
792.4246770075165
 10
1517.652804293351
 20
792.5036231965165
 10
1517.747090236951
 20
792.5781224569164
 10
1517.845422719351
 20
792.6479440701165
 10
1517.947511516651
 20
792.7128717532164
 10
1518.053055260751
 20
792.7727046469165
 10
1518.161742566351
 20
792.8272580358164
 10
1518.273252694551
 20
792.8763637524165
 10
1518.387256546351
 20
792.9198707489165
 10
1518.503417491551
 20
792.9576455498165
 10
1518.621392219551
 20
792.9895727020165
 10
1518.737856092151
 20
793.0149836817165
  0
LWPOLYLINE
  5
37F
330
1F
100
AcDbEntity
  8
0
  6
Continuous
 62
     7
100
AcDbPolyline
 90
       21
 70
     0
 43
0.0
 10
1513.056242496351
 20
822.6386909496165
 10
1513.161245155651
 20
822.4811467142165
 10
1513.307785161751
 20
822.2774855092165
 10
1513.463052768751
 20
822.0792021363164
 10
1513.626785105251
 20
821.8866863042164
 10
1513.798700776351
 20
821.7003173016165
 10
1513.978501359051
 20
821.5204620756164
 10
1514.165872179751
 20
821.3474744052165
 10
1514.360482966451
 20
821.1816942168164
 10
1514.561988812451
 20
821.0234466487165
 10
1514.770030654751
 20
820.8730415600165
 10
1514.984236029351
 20
820.7307727842165
 10
1515.204220606851
 20
820.5969169587165
 10
1515.429588344351
 20
820.4717333572165
 10
1515.659931960751
 20
820.3554633849163
 10
1515.894835133751
 20
820.2483292696165
 10
1516.133872967451
 20
820.1505338485164
 10
1516.376611351751
 20
820.0622606403165
 10
1516.622606205451
 20
819.9836736084165
 10
1516.871414112251
 20
819.9149136090165
 10
1517.119698560151
 20
819.8567177564164
  0
LWPOLYLINE
  5
380
330
1F
100
AcDbEntity
  8
0
  6
Continuous
 62
     7
100
AcDbPolyline
 90
       21
 70
     0
 43
0.0
 10
1534.959173696751
 20
791.4768807623166
 10
1534.854171037451
 20
791.6344249977164
 10
1534.707631031351
 20
791.8380862027166
 10
1534.552363424351
 20
792.0363695756165
 10
1534.388631087851
 20
792.2288854077164
 10
1534.216715416751
 20
792.4152544103165
 10
1534.036914834051
 20
792.5951096364165
 10
1533.849544013351
 20
792.7680973067165
 10
1533.654933226651
 20
792.9338774951165
 10
1533.453427380651
 20
793.0921250632165
 10
1533.245385538351
 20
793.2425301519165
 10
1533.031180163851
 20
793.3847989277165
 10
1532.811195586251
 20
793.5186547532165
 10
1532.585827848751
 20
793.6438383547165
 10
1532.355484232351
 20
793.7601083270164
 10
1532.12058105935
 20
793.8672424423165
 10
1531.881543225651
 20
793.9650378634164
 10
1531.638804841351
 20
794.0533110716164
 10
1531.392809987651
 20
794.1318981035164
 10
1531.144002080851
 20
794.2006581029164
 10
1530.895717632951
 20
794.2588539555165
  0
LWPOLYLINE
  5
381
330
1F
100
AcDbEntity
  8
0
  6
Continuous
 62
     7
100
AcDbPolyline
 90
        3
 70
     0
 43
0.0
 10
1516.957070630651
 20
822.6476749717164
 10
1516.956743920151
 20
822.6484641055165
 10
1516.953723275951
 20
822.6515615030164
  0
LWPOLYLINE
  5
382
330
1F
100
AcDbEntity
  8
0
  6
Continuous
 62
     7
100
AcDbPolyline
 90
        3
 70
     0
 43
0.0
 10
1531.058345562451
 20
791.4678967403165
 10
1531.058672272951
 20
791.4671076064164
 10
1531.061692917151
 20
791.4640102090165
  0
LWPOLYLINE
  5
383
330
1F
100
AcDbEntity
  8
0
  6
Continuous
 62
     7
100
AcDbPolyline
 90
       22
 70
     0
 43
0.0
 10
1531.058344833851
 20
822.6476749740164
 10
1531.029315655351
 20
822.5585340079165
 10
1530.988269729651
 20
822.4515297353164
 10
1530.941081251951
 20
822.3464895416165
 10
1530.887892269051
 20
822.2437167336165
 10
1530.828859704351
 20
822.1435086584165
 10
1530.764154996851
 20
822.0461561423164
 10
1530.693964491951
 20
821.9519438421166
 10
1530.618489601451
 20
821.8611497306165
 10
1530.537948296351
 20
821.7740457620164
 10
1530.452573476451
 20
821.6908947044164
 10
1530.362611899751
 20
821.6119485154164
 10
1530.268325956151
 20
821.5374492550164
 10
1530.169993473751
 20
821.4676276418165
 10
1530.067904676451
 20
821.4026999587165
 10
1529.962360932351
 20
821.3428670650165
 10
1529.853673626751
 20
821.2883136761165
 10
1529.742163498551
 20
821.2392079595165
 10
1529.628159646751
 20
821.1957009631165
 10
1529.511998701551
 20
821.1579261621164
 10
1529.394023973551
 20
821.1259990099165
 10
1529.277560100951
 20
821.1005880302165
  0
LWPOLYLINE
  5
384
330
1F
100
AcDbEntity
  8
0
  6
Continuous
 62
     7
100
AcDbPolyline
 90
        3
 70
     0
 43
0.0
 10
1519.680783874451
 20
818.0339697028164
 10
1519.675135988951
 20
818.0387990147163
 10
1519.669562163551
 20
818.0434196900165
  0
LWPOLYLINE
  5
385
330
1F
100
AcDbEntity
  8
0
  6
Continuous
 62
     7
100
AcDbPolyline
 90
       35
 70
     0
 43
0.0
 10
1531.841626125651
 20
807.0577858560165
 10
1531.839643417751
 20
807.4072314518165
 10
1531.833659172351
 20
807.7561887172164
 10
1531.823692859351
 20
808.1043109599166
 10
1531.809771696651
 20
808.4512541363164
 10
1531.791936107351
 20
808.7965813880165
 10
1531.770246830451
 20
809.1397404691164
 10
1531.744721340551
 20
809.4809858787165
 10
1531.715388796151
 20
809.8203809260164
 10
1531.682304310851
 20
810.1576672889164
 10
1531.645558166651
 20
810.4923231945164
 10
1531.605252173951
 20
810.8238721507165
 10
1531.561486819051
 20
811.1519591084164
 10
1531.514383801351
 20
811.4761567396165
 10
1531.464041139551
 20
811.7962697200166
 10
1531.410590275351
 20
812.1119323848166
 10
1531.354172602651
 20
812.4227914873165
 10
1531.294927471251
 20
812.7285655663165
 10
1531.232972584951
 20
813.0291194538164
 10
1531.168390918651
 20
813.3244905117164
 10
1531.101200135251
 20
813.6150225755164
 10
1531.031462774551
 20
813.9008247253165
 10
1530.959332745451
 20
814.1816238686164
 10
1530.884977441451
 20
814.4571368258166
 10
1530.808498852951
 20
814.7273471527164
 10
1530.730073639951
 20
814.9919863774165
 10
1530.649851689251
 20
815.2509093462166
 10
1530.567901174651
 20
815.5042372031164
 10
1530.484407736851
 20
815.7517268071165
 10
1530.399536169251
 20
815.9932287190166
 10
1530.313458375451
 20
816.2285964486164
 10
1530.226353760851
 20
816.4576868010165
 10
1530.138254440351
 20
816.6807458159164
 10
1530.049164338251
 20
816.8980615000165
 10
1529.959096167851
 20
817.1098848353164
  0
LINE
  5
386
330
1F
100
AcDbEntity
  8
0
  6
Continuous
 62
     7
100
AcDbLine
 10
1531.828610575251
 20
807.0577858560165
 30
0.0
 11
1531.828591348451
 21
807.0474610902165
 31
0.0
  0
LWPOLYLINE
  5
387
330
1F
100
AcDbEntity
  8
0
  6
Continuous
 62
     7
100
AcDbPolyline
 90
       37
 70
     0
 43
0.0
 10
1531.828591348451
 20
807.0474610902165
 10
1531.825985778751
 20
806.7071791412166
 10
1531.819569425651
 20
806.3678621208165
 10
1531.809378103651
 20
806.0299418112165
 10
1531.795458970951
 20
805.6938308087165
 10
1531.777866053051
 20
805.3598621347164
 10
1531.756666591251
 20
805.0284475173166
 10
1531.731895340751
 20
804.6994228582164
 10
1531.703573870751
 20
804.3724969632163
 10
1531.671768648051
 20
804.0479571706166
 10
1531.636611946551
 20
803.7266033920165
 10
1531.598189009751
 20
803.4086250163165
 10
1531.556601502151
 20
803.0943086517165
 10
1531.511958024551
 20
802.7839347323165
 10
1531.464355843851
 20
802.4776635758165
 10
1531.413918149351
 20
802.1757885347165
 10
1531.360752830751
 20
801.8784708523165
 10
1531.304960556051
 20
801.5858190555164
 10
1531.246694149451
 20
801.2981867652165
 10
1531.185574229251
 20
801.0134647397164
 10
1531.121249149751
 20
800.7301211919164
 10
1531.053600583751
 20
800.4478585300164
 10
1530.983008418351
 20
800.1683795079165
 10
1530.910134626251
 20
799.8941211109166
 10
1530.835185905851
 20
799.6254887290165
 10
1530.758293171551
 20
799.3625709674165
 10
1530.679216158151
 20
799.1042351461165
 10
1530.599379002151
 20
798.8545938816165
 10
1530.520375528851
 20
798.6175933297166
 10
1530.442229315151
 20
798.3921445673165
 10
1530.364547491551
 20
798.1761894923165
 10
1530.286920590651
 20
797.9679158443165
 10
1530.209218958251
 20
797.7664652445165
 10
1530.131362945251
 20
797.5712099812165
 10
1530.053361039451
 20
797.3818104627165
 10
1529.975321665551
 20
797.1981832930165
 10
1529.896901388351
 20
797.0192863459165
  0
LWPOLYLINE
  5
388
330
1F
100
AcDbEntity
  8
0
  6
Continuous
 62
     7
100
AcDbPolyline
 90
       21
 70
     0
 43
0.0
 10
1534.959175810451
 20
822.6386909403165
 10
1534.960081785151
 20
822.6418215877165
 10
1534.958348309851
 20
822.6453967510165
 10
1534.953719771051
 20
822.6488685422165
 10
1534.946304433551
 20
822.6522344528165
 10
1534.936208159451
 20
822.6554866795165
 10
1534.923523250351
 20
822.6586203553164
 10
1534.908303721351
 20
822.6616357432165
 10
1534.890630329551
 20
822.6645243433164
 10
1534.870522397351
 20
822.6672861485164
 10
1534.848003902251
 20
822.6699166235166
 10
1534.823116617551
 20
822.6724077203165
 10
1534.795799782451
 20
822.6747593784164
 10
1534.766089974651
 20
822.6769600999165
 10
1534.733947911551
 20
822.6790033067164
 10
1534.699308682751
 20
822.6808812078164
 10
1534.662193864251
 20
822.6825795022165
 10
1534.622479563951
 20
822.6840889453164
 10
1534.580208448951
 20
822.6853914683164
 10
1534.535304867551
 20
822.6864719191164
 10
1534.487770641151
 20
822.6873110794166
  0
LWPOLYLINE
  5
389
330
1F
100
AcDbEntity
  8
0
  6
Continuous
 62
     7
100
AcDbPolyline
 90
        3
 70
     0
 43
0.0
 10
1516.953723275951
 20
791.4640102090165
 10
1516.956743848851
 20
791.4671074719165
 10
1516.957070619551
 20
791.4678967396165
  0
LWPOLYLINE
  5
38A
330
1F
100
AcDbEntity
  8
0
  6
Continuous
 62
     7
100
AcDbPolyline
 90
        4
 70
     0
 43
0.0
 10
1519.709482904251
 20
796.1075358709165
 10
1519.695807197551
 20
796.0947805056165
 10
1519.682502940951
 20
796.0829933736165
 10
1519.669562296351
 20
796.0721520381165
  0
LWPOLYLINE
  5
38B
330
1F
100
AcDbEntity
  8
0
  6
Continuous
 62
     7
100
AcDbPolyline
 90
       39
 70
     0
 43
0.0
 10
1519.669562280851
 20
796.0721520269165
 10
1519.663362463851
 20
796.0674796987165
 10
1519.656115357151
 20
796.0626999401165
 10
1519.647819764451
 20
796.0578091408165
 10
1519.638465664351
 20
796.0528008752164
 10
1519.628037661951
 20
796.0476683780165
 10
1519.616517494451
 20
796.0424054707165
 10
1519.603910821051
 20
796.0370172572164
 10
1519.590248548551
 20
796.0315173373165
 10
1519.575545531951
 20
796.0259103986165
 10
1519.559808048951
 20
796.0201971670165
 10
1519.543044970951
 20
796.0143790930165
 10
1519.525265270851
 20
796.0084573802165
 10
1519.506478693051
 20
796.0024332382166
 10
1519.486695566151
 20
795.9963078225166
 10
1519.465926867351
 20
795.9900822604165
 10
1519.444184198151
 20
795.9837576499165
 10
1519.421479793651
 20
795.9773350675164
 10
1519.397826500151
 20
795.9708155697165
 10
1519.373237823451
 20
795.9642002120165
 10
1519.347727925851
 20
795.9574900559165
 10
1519.321311555051
 20
795.9506861569165
 10
1519.294004164651
 20
795.9437896041166
 10
1519.265821616151
 20
795.9368014534164
 10
1519.236779745751
 20
795.9297226334165
 10
1519.206895359651
 20
795.9225542013165
 10
1519.176186538751
 20
795.9152974212165
 10
1519.144671425851
 20
795.9079534816164
 10
1519.112368304051
 20
795.9005235285165
 10
1519.079295701051
 20
795.8930087046164
 10
1519.045473469551
 20
795.8854104043165
 10
1519.010920412151
 20
795.8777297493164
 10
1518.975652251951
 20
795.8699671657165
 10
1518.939688893951
 20
795.8621239931164
 10
1518.903055228851
 20
795.8542026707164
 10
1518.865768688051
 20
795.8462040266165
 10
1518.827866157251
 20
795.8381330606165
 10
1518.789420248751
 20
795.8300022470165
 10
1518.750481637951
 20
795.8218192546164
  0
LWPOLYLINE
  5
38C
330
1F
100
AcDbEntity
  8
0
  6
Continuous
 62
     7
100
AcDbPolyline
 90
        3
 70
     0
 43
0.0
 10
1529.941157286151
 20
817.1053286112165
 10
1529.950406015651
 20
817.1075526823164
 10
1529.959096168051
 20
817.1098848354166
  0
LINE
  5
38D
330
1F
100
AcDbEntity
  8
0
  6
Continuous
 62
     7
100
AcDbLine
 10
1529.264738185051
 20
818.2937208993164
 30
0.0
 11
1529.344016579351
 21
818.3102379962164
 31
0.0
  0
LINE
  5
38E
330
1F
100
AcDbEntity
  8
0
  6
Continuous
 62
     7
100
AcDbLine
 10
1529.344016579351
 20
818.3102379962164
 30
0.0
 11
1529.425071867451
 21
818.3269568317165
 31
0.0
  0
LINE
  5
38F
330
1F
100
AcDbEntity
  8
0
  6
Continuous
 62
     7
100
AcDbLine
 10
1529.425071867451
 20
818.3269568317165
 30
0.0
 11
1529.507802693851
 21
818.3438757114165
 31
0.0
  0
LINE
  5
390
330
1F
100
AcDbEntity
  8
0
  6
Continuous
 62
     7
100
AcDbLine
 10
1529.507802693851
 20
818.3438757114165
 30
0.0
 11
1529.592129337351
 21
818.3609949117165
 31
0.0
  0
LINE
  5
391
330
1F
100
AcDbEntity
  8
0
  6
Continuous
 62
     7
100
AcDbLine
 10
1529.592129337351
 20
818.3609949117165
 30
0.0
 11
1529.677992391351
 21
818.3783162937164
 31
0.0
  0
LINE
  5
392
330
1F
100
AcDbEntity
  8
0
  6
Continuous
 62
     7
100
AcDbLine
 10
1529.677992391351
 20
818.3783162937164
 30
0.0
 11
1529.765351054051
 21
818.3958428585166
 31
0.0
  0
LWPOLYLINE
  5
393
330
1F
100
AcDbEntity
  8
0
  6
Continuous
 62
     7
100
AcDbPolyline
 90
       14
 70
     0
 43
0.0
 10
1530.224152893751
 20
818.4866640890165
 10
1530.707056885251
 20
818.5833446959165
 10
1531.149631601851
 20
818.6737792791165
 10
1531.544992889351
 20
818.7537065850165
 10
1531.899269631851
 20
818.8228020982164
 10
1532.221522665051
 20
818.8822297409165
 10
1532.532386544451
 20
818.9357348116164
 10
1532.844811522851
 20
818.9857075352165
 10
1533.160840394151
 20
819.0324581296165
 10
1533.479265398451
 20
819.0757520795164
 10
1533.798985453351
 20
819.1154100123165
 10
1534.119412998351
 20
819.1513416768165
 10
1534.439855251051
 20
819.1834570624164
 10
1534.759012252251
 20
819.2116315267165
  0
LINE
  5
394
330
1F
100
AcDbEntity
  8
0
  6
Continuous
 62
     7
100
AcDbLine
 10
1529.765351054051
 20
818.3958428585166
 30
0.0
 11
1529.854181121151
 21
818.4135782451164
 31
0.0
  0
LINE
  5
395
330
1F
100
AcDbEntity
  8
0
  6
Continuous
 62
     7
100
AcDbLine
 10
1529.854181121151
 20
818.4135782451164
 30
0.0
 11
1529.944472545951
 21
818.4315261287165
 31
0.0
  0
LINE
  5
396
330
1F
100
AcDbEntity
  8
0
  6
Continuous
 62
     7
100
AcDbLine
 10
1529.944472545951
 20
818.4315261287165
 30
0.0
 11
1530.036227031951
 21
818.4496895991165
 31
0.0
  0
LINE
  5
397
330
1F
100
AcDbEntity
  8
0
  6
Continuous
 62
     7
100
AcDbLine
 10
1530.036227031951
 20
818.4496895991165
 30
0.0
 11
1530.129453115951
 21
818.4680700017166
 31
0.0
  0
LINE
  5
398
330
1F
100
AcDbEntity
  8
0
  6
Continuous
 62
     7
100
AcDbLine
 10
1530.129453115951
 20
818.4680700017166
 30
0.0
 11
1530.224154179051
 21
818.4866643709165
 31
0.0
  0
LINE
  5
399
330
1F
100
AcDbEntity
  8
0
  6
Continuous
 62
     7
100
AcDbLine
 10
1517.791262014051
 20
818.4866643709165
 30
0.0
 11
1517.885963077151
 21
818.4680700017166
 31
0.0
  0
LINE
  5
39A
330
1F
100
AcDbEntity
  8
0
  6
Continuous
 62
     7
100
AcDbLine
 10
1517.885963077151
 20
818.4680700017166
 30
0.0
 11
1517.979189161151
 21
818.4496895991165
 31
0.0
  0
LINE
  5
39B
330
1F
100
AcDbEntity
  8
0
  6
Continuous
 62
     7
100
AcDbLine
 10
1517.979189161151
 20
818.4496895991165
 30
0.0
 11
1518.070943647151
 21
818.4315261287165
 31
0.0
  0
LINE
  5
39C
330
1F
100
AcDbEntity
  8
0
  6
Continuous
 62
     7
100
AcDbLine
 10
1518.070943647151
 20
818.4315261287165
 30
0.0
 11
1518.161235071951
 21
818.4135782451164
 31
0.0
  0
LINE
  5
39D
330
1F
100
AcDbEntity
  8
0
  6
Continuous
 62
     7
100
AcDbLine
 10
1518.161235071951
 20
818.4135782451164
 30
0.0
 11
1518.250065139051
 21
818.3958428585166
 31
0.0
  0
LWPOLYLINE
  5
39E
330
1F
100
AcDbEntity
  8
0
  6
Continuous
 62
     7
100
AcDbPolyline
 90
       18
 70
     0
 43
0.0
 10
1517.791263299351
 20
818.4866640890165
 10
1517.308359307851
 20
818.5833446959165
 10
1516.865784591251
 20
818.6737792791165
 10
1516.470423303751
 20
818.7537065850165
 10
1516.116146561251
 20
818.8228020982164
 10
1515.793893528051
 20
818.8822297409165
 10
1515.483029648651
 20
818.9357348116164
 10
1515.170604670251
 20
818.9857075352165
 10
1514.854575798951
 20
819.0324581296165
 10
1514.536150794651
 20
819.0757520795164
 10
1514.216430739751
 20
819.1154100123165
 10
1513.896003194751
 20
819.1513416768165
 10
1513.575560942051
 20
819.1834570624164
 10
1513.256403940851
 20
819.2116315267165
 10
1512.939941061351
 20
819.2357741265166
 10
1512.627165035251
 20
819.2558630618165
 10
1512.318804336651
 20
819.2719219394165
 10
1512.015554166851
 20
819.2839993580165
  0
LINE
  5
39F
330
1F
100
AcDbEntity
  8
0
  6
Continuous
 62
     7
100
AcDbLine
 10
1518.250065139051
 20
818.3958428585166
 30
0.0
 11
1518.337423801751
 21
818.3783162937164
 31
0.0
  0
LINE
  5
3A0
330
1F
100
AcDbEntity
  8
0
  6
Continuous
 62
     7
100
AcDbLine
 10
1518.337423801751
 20
818.3783162937164
 30
0.0
 11
1518.423286855751
 21
818.3609949117165
 31
0.0
  0
LINE
  5
3A1
330
1F
100
AcDbEntity
  8
0
  6
Continuous
 62
     7
100
AcDbLine
 10
1518.423286855751
 20
818.3609949117165
 30
0.0
 11
1518.507613499251
 21
818.3438757114165
 31
0.0
  0
LINE
  5
3A2
330
1F
100
AcDbEntity
  8
0
  6
Continuous
 62
     7
100
AcDbLine
 10
1518.507613499251
 20
818.3438757114165
 30
0.0
 11
1518.590344325651
 21
818.3269568317165
 31
0.0
  0
LINE
  5
3A3
330
1F
100
AcDbEntity
  8
0
  6
Continuous
 62
     7
100
AcDbLine
 10
1518.590344325651
 20
818.3269568317165
 30
0.0
 11
1518.671399613751
 21
818.3102379962164
 31
0.0
  0
LWPOLYLINE
  5
3A4
330
1F
100
AcDbEntity
  8
0
  6
Continuous
 62
     7
100
AcDbPolyline
 90
       40
 70
     0
 43
0.0
 10
1518.671399613751
 20
818.3102379962164
 10
1518.750678008051
 20
818.2937208993164
 10
1518.789612828451
 20
818.2855392030164
 10
1518.828054655551
 20
818.2774097532165
 10
1518.865952784851
 20
818.2693402240165
 10
1518.903234193251
 20
818.2613431777165
 10
1518.939862217751
 20
818.2534235677165
 10
1518.975819523351
 20
818.2455822030165
 10
1519.011081268151
 20
818.2378215134164
 10
1519.045627553851
 20
818.2301428392165
 10
1519.079442687851
 20
818.2225466017165
 10
1519.112507936851
 20
818.2150339092164
 10
1519.144803548751
 20
818.2076061357165
 10
1519.176310956651
 20
818.2002644353165
 10
1519.207011666651
 20
818.1930100064164
 10
1519.236887823051
 20
818.1858439727164
 10
1519.265921809751
 20
818.1787674888166
 10
1519.294096258951
 20
818.1717817522164
 10
1519.321394970951
 20
818.1648877858165
 10
1519.347802770551
 20
818.1580864772165
 10
1519.373304301851
 20
818.1513788936165
 10
1519.397884484551
 20
818.1447661814164
 10
1519.421529206251
 20
818.1382493938166
 10
1519.444225058451
 20
818.1318295650164
 10
1519.465959177351
 20
818.1255077617166
 10
1519.486719333951
 20
818.1192850648164
 10
1519.506493938251
 20
818.1131625754165
 10
1519.525272034551
 20
818.1071414216164
 10
1519.543043290551
 20
818.1012227679165
 10
1519.559798009851
 20
818.0954078170165
 10
1519.575527127751
 20
818.0896978155164
 10
1519.590222181951
 20
818.0840940705165
 10
1519.603875447151
 20
818.0785979006165
 10
1519.616478906351
 20
818.0732110808165
 10
1519.628012172151
 20
818.0679417131164
 10
1519.638455725951
 20
818.0628000435165
 10
1519.647819719851
 20
818.0577835512165
 10
1519.656120579251
 20
818.0528849339165
 10
1519.663367635851
 20
818.0480981728164
 10
1519.669562147751
 20
818.0434197015165
  0
LWPOLYLINE
  5
3A5
330
1F
100
AcDbEntity
  8
0
  6
Continuous
 62
     7
100
AcDbPolyline
 90
        3
 70
     0
 43
0.0
 10
1518.074258743051
 20
817.1053282352165
 10
1518.065010350051
 20
817.1075526384166
 10
1518.056320025051
 20
817.1098848354166
  0
LWPOLYLINE
  5
3A6
330
1F
100
AcDbEntity
  8
0
  6
Continuous
 62
     7
100
AcDbPolyline
 90
       23
 70
     0
 43
0.0
 10
1516.940745407951
 20
822.6611428400165
 10
1516.932423440551
 20
822.6660508982165
 10
1516.919997605251
 20
822.6709975119165
 10
1516.903538740951
 20
822.6759118684165
 10
1516.883207284851
 20
822.6807336676165
 10
1516.859143860551
 20
822.6854257025165
 10
1516.831677559651
 20
822.6899272310165
 10
1516.801243904751
 20
822.6941824488164
 10
1516.768131479351
 20
822.6981701240164
 10
1516.732675786951
 20
822.7018674861165
 10
1516.695304749351
 20
822.7052494065164
 10
1516.656358436251
 20
822.7083060367165
 10
1516.616009752051
 20
822.7110418252165
 10
1516.574656058151
 20
822.7134467403164
 10
1516.532699954651
 20
822.7155168580164
 10
1516.490270301251
 20
822.7172643696164
 10
1516.447447444851
 20
822.7187003318165
 10
1516.404468249951
 20
822.7198291068164
 10
1516.361541293551
 20
822.7206573304165
 10
1516.318642829351
 20
822.7211949850165
 10
1516.275771943851
 20
822.7214472913164
 10
1516.232919814851
 20
822.7214156134165
 10
1516.190109058351
 20
822.7210976164165
  0
LWPOLYLINE
  5
3A7
330
1F
100
AcDbEntity
  8
0
  6
Continuous
 62
     7
100
AcDbPolyline
 90
       35
 70
     0
 43
0.0
 10
1529.941157382551
 20
817.1053286437166
 10
1530.020907581551
 20
816.9201186848166
 10
1530.110688992751
 20
816.7042579864164
 10
1530.199977584651
 20
816.4813445044165
 10
1530.288406423651
 20
816.2518903208164
 10
1530.375753873851
 20
816.0161183434166
 10
1530.461826668651
 20
815.7742089461164
 10
1530.546488775851
 20
815.5262047198165
 10
1530.629583986851
 20
815.2722183412166
 10
1530.710972544651
 20
815.0123273475164
 10
1530.790512900951
 20
814.7466261599165
 10
1530.868037870951
 20
814.4753139144166
 10
1530.943408545651
 20
814.1985161353165
 10
1531.016459988351
 20
813.9164781160165
 10
1531.087055904651
 20
813.6293667084164
 10
1531.155041652451
 20
813.3374525032165
 10
1531.220301954251
 20
813.0408686400164
 10
1531.282860291151
 20
812.7391037455165
 10
1531.342669154351
 20
812.4319382990165
 10
1531.399581291551
 20
812.1196429338166
 10
1531.453446327551
 20
811.8025612050164
 10
1531.504141592051
 20
811.4809312816165
 10
1531.551522664951
 20
811.1551897236164
 10
1531.595469933351
 20
810.8256955275164
 10
1531.635863013051
 20
810.4929064223165
 10
1531.672610769651
 20
810.1571410448165
 10
1531.705614447651
 20
809.8188858678165
 10
1531.734789592751
 20
809.4786395850164
 10
1531.760072416251
 20
809.1368261774166
 10
1531.781444861851
 20
808.7933222165165
 10
1531.798893956251
 20
808.4478853390164
 10
1531.812368024451
 20
808.1009872442164
 10
1531.821830935951
 20
807.7530226483164
 10
1531.827236305651
 20
807.4059636686165
 10
1531.828610642551
 20
807.0577858560165
  0
LWPOLYLINE
  5
3A8
330
1F
100
AcDbEntity
  8
0
  6
Continuous
 62
     7
100
AcDbPolyline
 90
       35
 70
     0
 43
0.0
 10
1529.959096230751
 20
797.0056870220165
 10
1530.049164667951
 20
797.2175110014164
 10
1530.138277572951
 20
797.4348833757164
 10
1530.226396581951
 20
797.6579953953165
 10
1530.313505312051
 20
797.8871011124165
 10
1530.399572887551
 20
798.1224453962165
 10
1530.484439075851
 20
798.3639359039165
 10
1530.567919956851
 20
798.6113913523166
 10
1530.649874434051
 20
798.8647341945164
 10
1530.730126423951
 20
799.1237594935165
 10
1530.808561893051
 20
799.3884421783165
 10
1530.885058167551
 20
799.6587269016165
 10
1530.959422876251
 20
799.9342900695165
 10
1531.031540208751
 20
800.2150561923166
 10
1531.101280780951
 20
800.5008885180165
 10
1531.168471659751
 20
800.7914401305166
 10
1531.233037899551
 20
801.0867597937165
 10
1531.294957164251
 20
801.3871546560164
 10
1531.354171919451
 20
801.6927765836165
 10
1531.410586657451
 20
802.0036187016165
 10
1531.464040707351
 20
802.3192993447164
 10
1531.514391642051
 20
802.6394668028165
 10
1531.561504951651
 20
802.9637427349165
 10
1531.605261701851
 20
803.2917743019165
 10
1531.645561404551
 20
803.6232765069165
 10
1531.682311937951
 20
803.9579777989166
 10
1531.715396210851
 20
804.2952711579165
 10
1531.744725279251
 20
804.6346346935164
 10
1531.770247287951
 20
804.9758378727165
 10
1531.791933650051
 20
805.3189475346165
 10
1531.809771634651
 20
805.6643162247164
 10
1531.823693243151
 20
806.0112719155165
 10
1531.833659594251
 20
806.3594014263165
 10
1531.839643601251
 20
806.7083563408164
 10
1531.841626125651
 20
807.0577858560165
  0
LWPOLYLINE
  5
3A9
330
1F
100
AcDbEntity
  8
0
  6
Continuous
 62
     7
100
AcDbPolyline
 90
       58
 70
     0
 43
0.0
 10
1529.896901495851
 20
797.0192863467165
 10
1529.881287684351
 20
796.9851436879165
 10
1529.864983917251
 20
796.9516492522164
 10
1529.848016382351
 20
796.9188088151165
 10
1529.830409505751
 20
796.8866253534165
 10
1529.812186953851
 20
796.8551011494165
 10
1529.793371268451
 20
796.8242372666164
 10
1529.773984224651
 20
796.7940342891165
 10
1529.754046503451
 20
796.7644918766165
 10
1529.733578104551
 20
796.7356094742165
 10
1529.712597284151
 20
796.7073849053165
 10
1529.691123636151
 20
796.6798185495165
 10
1529.669170305651
 20
796.6529034118165
 10
1529.646747412551
 20
796.6266306106165
 10
1529.623877708451
 20
796.6010069934164
 10
1529.600582972751
 20
796.5760375696164
 10
1529.576878454451
 20
796.5517201893164
 10
1529.552779946951
 20
796.5280537483165
 10
1529.528302385151
 20
796.5050366669165
 10
1529.503459985051
 20
796.4826670900166
 10
1529.478266402451
 20
796.4609430659164
 10
1529.452733846951
 20
796.4398618452165
 10
1529.426875284951
 20
796.4194217533165
 10
1529.400698556351
 20
796.3996176236165
 10
1529.374207829251
 20
796.3804425856165
 10
1529.347415988351
 20
796.3618969092165
 10
1529.320334461251
 20
796.3439799849164
 10
1529.292968831751
 20
796.3266877958164
 10
1529.265324265051
 20
796.3100169024165
 10
1529.237404711251
 20
796.2939639739166
 10
1529.209211596851
 20
796.2785251829164
 10
1529.180748656051
 20
796.2636989225164
 10
1529.152006734951
 20
796.2494781121165
 10
1529.123013729451
 20
796.2358745805166
 10
1529.093780330851
 20
796.2228909285165
 10
1529.064221425351
 20
796.2104906823165
 10
1529.034294721951
 20
796.1986629560165
 10
1529.003999142751
 20
796.1874164734165
 10
1528.97331902245
 20
796.1767558582165
 10
1528.942242731151
 20
796.1666891695165
 10
1528.910756458551
 20
796.1572256272164
 10
1528.878846267651
 20
796.1483764227165
 10
1528.846497530251
 20
796.1401546187164
 10
1528.813695227551
 20
796.1325753312165
 10
1528.780423873351
 20
796.1256558099164
 10
1528.746667752151
 20
796.1194155994165
 10
1528.712411327351
 20
796.1138767106165
 10
1528.677631885351
 20
796.1090627687164
 10
1528.642311075551
 20
796.1050011728165
 10
1528.606439613751
 20
796.1017231089165
 10
1528.570000653851
 20
796.0992617176165
 10
1528.532973643051
 20
796.0976533156165
 10
1528.495372363851
 20
796.0969383425165
 10
1528.457446029751
 20
796.0971537131166
 10
1528.419500669151
 20
796.0983111806165
 10
1528.381609643851
 20
796.1004096226165
 10
1528.343784004551
 20
796.1034481054165
 10
1528.306049929251
 20
796.1074245227165
  0
LWPOLYLINE
  5
3AA
330
1F
100
AcDbEntity
  8
0
  6
Continuous
 62
     7
100
AcDbPolyline
 90
       17
 70
     0
 43
0.0
 10
1529.959096230751
 20
797.0056870220165
 10
1529.904450342851
 20
796.8930498528164
 10
1529.841075125051
 20
796.7850845589165
 10
1529.769375702951
 20
796.6824813041165
 10
1529.689810424951
 20
796.5858959951165
 10
1529.602887923251
 20
796.4959460677165
 10
1529.509163862551
 20
796.4132065398165
 10
1529.409237386751
 20
796.3382063352164
 10
1529.303747288851
 20
796.2714249024164
 10
1529.193367928151
 20
796.2132891504165
 10
1529.078804919851
 20
796.1641707200165
 10
1528.960790623651
 20
796.1243836074165
 10
1528.840079462051
 20
796.0941821572165
 10
1528.717443097751
 20
796.0737594361164
 10
1528.593665500351
 20
796.0632459989165
 10
1528.469537935151
 20
796.0627090540165
 10
1528.345853896751
 20
796.0721520381165
  0
LWPOLYLINE
  5
3AB
330
1F
100
AcDbEntity
  8
0
  6
Continuous
 62
     7
100
AcDbPolyline
 90
       21
 70
     0
 43
0.0
 10
1530.895717633351
 20
819.8567177544164
 10
1531.143741148651
 20
819.9148470392165
 10
1531.392550037751
 20
819.9835962029165
 10
1531.638546952151
 20
820.0621725993164
 10
1531.881288593751
 20
820.1504355109165
 10
1532.120330616351
 20
820.2482209839166
 10
1532.355238747251
 20
820.3553455108165
 10
1532.585587936151
 20
820.4716062457166
 10
1532.810961713851
 20
820.5967809298165
 10
1533.030952653651
 20
820.7306281010165
 10
1533.245164578651
 20
820.8728884077165
 10
1533.453213086951
 20
821.0232851497163
 10
1533.654725822051
 20
821.1815245591164
 10
1533.849343855451
 20
821.3472968924165
 10
1534.036722385951
 20
821.5202771383165
 10
1534.216531130151
 20
821.7001254138164
 10
1534.388455343651
 20
821.8864879213166
 10
1534.552196537951
 20
822.0789976871165
 10
1534.707473263951
 20
822.2772753953165
 10
1534.854022587151
 20
822.4809312792165
 10
1534.959173694951
 20
822.6386909507166
  0
LWPOLYLINE
  5
3AC
330
1F
100
AcDbEntity
  8
0
  6
Continuous
 62
     7
100
AcDbPolyline
 90
       18
 70
     0
 43
0.0
 10
1529.277560103451
 20
821.1005880159165
 10
1528.663883245751
 20
820.9893716980165
 10
1528.045934788051
 20
820.8915527675165
 10
1527.426741342151
 20
820.8076883195165
 10
1526.806495809551
 20
820.7377877363164
 10
1526.185394056651
 20
820.6818591024164
 10
1525.563630689651
 20
820.6399085614165
 10
1524.941397679951
 20
820.6119403547166
 10
1524.318883067551
 20
820.5979570604165
 10
1523.696274609051
 20
820.5979599642164
 10
1523.073760043651
 20
820.6119490668164
 10
1522.451527108151
 20
820.6399230852165
 10
1521.829763825851
 20
820.6818794456165
 10
1521.208662198951
 20
820.7378139075165
 10
1520.588416894251
 20
820.8077203219165
 10
1519.969223850651
 20
820.8915905911165
 10
1519.351276008451
 20
820.9894153199165
 10
1518.737856089651
 20
821.1005880158165
  0
LWPOLYLINE
  5
3AD
330
1F
100
AcDbEntity
  8
0
  6
Continuous
 62
     7
100
AcDbPolyline
 90
        4
 70
     0
 43
0.0
 10
1530.431735233351
 20
819.7741293083165
 10
1530.585783034351
 20
819.7978926942164
 10
1530.742495426251
 20
819.8257836961165
 10
1530.895717633651
 20
819.8567177504164
  0
LINE
  5
3AE
330
1F
100
AcDbEntity
  8
0
  6
Continuous
 62
     7
100
AcDbLine
 10
1533.444745962451
 20
819.1129825700164
 30
0.0
 11
1533.489870395551
 21
819.1178848329165
 31
0.0
  0
LWPOLYLINE
  5
3AF
330
1F
100
AcDbEntity
  8
0
  6
Continuous
 62
     7
100
AcDbPolyline
 90
       18
 70
     0
 43
0.0
 10
1533.489870395551
 20
819.1178848329165
 10
1533.553868021951
 20
819.1246887713164
 10
1533.596563604651
 20
819.1291444151165
 10
1533.646394226151
 20
819.1342653957164
 10
1533.703524841351
 20
819.1400354181164
 10
1533.767943410751
 20
819.1464157707166
 10
1533.83917868275
 20
819.1533199194164
 10
1533.916405007451
 20
819.1606287102166
 10
1533.998906756451
 20
819.1682376883164
 10
1534.086481512651
 20
819.1760923203164
 10
1534.178925259951
 20
819.1841376904164
 10
1534.275967829851
 20
819.1923133061164
 10
1534.377265090251
 20
819.2005535456164
 10
1534.482520755051
 20
819.2087983400165
 10
1534.591678151151
 20
819.2170068342164
 10
1534.704617917251
 20
819.2251323692165
 10
1534.821195712751
 20
819.2331259338164
 10
1534.941244559151
 20
819.2409361079164
  0
LWPOLYLINE
  5
3B0
330
1F
100
AcDbEntity
  8
0
  6
Continuous
 62
     7
100
AcDbPolyline
 90
       58
 70
     0
 43
0.0
 10
1528.334498923351
 20
818.0338538189165
 10
1528.372285892851
 20
818.0378207203165
 10
1528.410163881151
 20
818.0408536266165
 10
1528.448109726951
 20
818.0429507152165
 10
1528.486102720151
 20
818.0441108001165
 10
1528.524111430651
 20
818.0443331118166
 10
1528.561981962751
 20
818.0436220914165
 10
1528.599437085751
 20
818.0420024506164
 10
1528.636352832051
 20
818.0395119579165
 10
1528.672748993551
 20
818.0361836609165
 10
1528.708631359851
 20
818.0320488154164
 10
1528.744007636751
 20
818.0271363274165
 10
1528.778884370451
 20
818.0214732088165
 10
1528.813269838551
 20
818.0150842709165
 10
1528.847172999351
 20
818.0079922656165
 10
1528.880603526251
 20
818.0002178943166
 10
1528.913571528251
 20
817.9917798820165
 10
1528.946087507251
 20
817.9826950075165
 10
1528.978162071951
 20
817.9729782032165
 10
1529.009806175151
 20
817.9626425048164
 10
1529.041030502451
 20
817.9516992629164
 10
1529.071843463751
 20
817.9401589700164
 10
1529.102273631851
 20
817.9280223208165
 10
1529.132371125151
 20
817.9152771140165
 10
1529.162155330851
 20
817.9019195605164
 10
1529.191625369351
 20
817.8879529160164
 10
1529.220786743251
 20
817.8733763440165
 10
1529.249641187651
 20
817.8581895092165
 10
1529.278190249851
 20
817.8423909835164
 10
1529.306434098451
 20
817.8259789123165
 10
1529.334371902151
 20
817.8089508936164
 10
1529.362001692751
 20
817.7913041302165
 10
1529.389320403951
 20
817.7730354830165
 10
1529.416323856451
 20
817.7541415560165
 10
1529.443006775351
 20
817.7346187601164
 10
1529.469362789851
 20
817.7144633870165
 10
1529.495384453451
 20
817.6936716699165
 10
1529.521063260551
 20
817.6722398426164
 10
1529.546389658051
 20
817.6501642033166
 10
1529.571353161051
 20
817.6274410818164
 10
1529.595941977151
 20
817.6040672591165
 10
1529.620144660051
 20
817.5800384258165
 10
1529.643941783851
 20
817.5553577857165
 10
1529.66731261815
 20
817.5300303848166
 10
1529.690245315251
 20
817.5040516315165
 10
1529.712727964451
 20
817.4774157940165
 10
1529.734746791051
 20
817.4501180483165
 10
1529.756286839151
 20
817.4221538217164
 10
1529.777331857751
 20
817.3935190216164
 10
1529.797864182651
 20
817.3642103227164
 10
1529.817865211351
 20
817.3342246084166
 10
1529.837313904351
 20
817.3035614071164
 10
1529.856191516651
 20
817.2722154817165
 10
1529.874467547251
 20
817.2402006952165
 10
1529.892138843151
 20
817.2074810059164
 10
1529.909134178951
 20
817.1741478626165
 10
1529.925467193351
 20
817.1401322693165
 10
1529.941157286151
 20
817.1053286112165
  0
LWPOLYLINE
  5
3B1
330
1F
100
AcDbEntity
  8
0
  6
Continuous
 62
     7
100
AcDbPolyline
 90
       15
 70
     0
 43
0.0
 10
1534.759012252251
 20
819.2116315267165
 10
1535.075475131751
 20
819.2357741265166
 10
1535.388251157851
 20
819.2558630618165
 10
1535.696611856451
 20
819.2719219394165
 10
1535.999862026251
 20
819.2839993580165
 10
1536.297050171851
 20
819.2921615727165
 10
1536.587776261051
 20
819.2965166012164
 10
1536.872054677851
 20
819.2971837579165
 10
1537.149220564651
 20
819.2942879166164
 10
1537.418688915751
 20
819.2879826300165
 10
1537.680389984151
 20
819.2784351637165
 10
1537.934235395051
 20
819.2658180731164
 10
1538.180017020451
 20
819.2503145674164
 10
1538.417745708451
 20
819.2321008287164
 10
1538.64817154955
 20
819.2112802345164
  0
LWPOLYLINE
  5
3B2
330
1F
100
AcDbEntity
  8
0
  6
Continuous
 62
     7
100
AcDbPolyline
 90
       34
 70
     0
 43
0.0
 10
1534.941244559151
 20
819.2409361079164
 10
1535.143245205651
 20
819.2530995848164
 10
1535.337894850751
 20
819.2636374076165
 10
1535.525171959951
 20
819.2726537294165
 10
1535.705190135151
 20
819.2802563697165
 10
1535.878193864451
 20
819.2865534874165
 10
1536.044488695851
 20
819.2916484338164
 10
1536.204436029351
 20
819.2956378894164
 10
1536.358397989151
 20
819.2986094317165
 10
1536.506577197951
 20
819.3006410393165
 10
1536.649156817551
 20
819.3018065322164
 10
1536.786348063651
 20
819.3021761398165
 10
1536.918385420851
 20
819.3018157768165
 10
1537.045461227751
 20
819.3007871397165
 10
1537.167666781051
 20
819.2991497792164
 10
1537.285107062551
 20
819.2969612779164
 10
1537.397906808451
 20
819.2942774187166
 10
1537.506204893451
 20
819.2911515366166
 10
1537.610098947751
 20
819.2876352307164
 10
1537.709511159551
 20
819.2837849077164
 10
1537.804362932951
 20
819.2796579410165
 10
1537.894609710151
 20
819.2753107521165
 10
1537.980237249151
 20
819.2707980433166
 10
1538.061258077951
 20
819.2661721598165
 10
1538.137672900451
 20
819.2614848100165
 10
1538.209425460651
 20
819.2567902040165
 10
1538.276487043151
 20
819.2521399508164
 10
1538.338862973751
 20
819.2475817822165
 10
1538.396595396151
 20
819.2431584954166
 10
1538.44964481205
 20
819.2389168265165
 10
1538.497728692651
 20
819.2349222149164
 10
1538.540626097951
 20
819.2312352832164
 10
1538.578198734651
 20
819.2279083788164
 10
1538.610373158351
 20
819.2249852002165
  0
LWPOLYLINE
  5
3B3
330
1F
100
AcDbEntity
  8
0
  6
Continuous
 62
     7
100
AcDbPolyline
 90
       21
 70
     0
 43
0.0
 10
1524.007708096551
 20
817.7781386141164
 10
1524.168040668051
 20
817.7788660906164
 10
1524.347063238451
 20
817.7811224640166
 10
1524.541631444351
 20
817.7849357546165
 10
1524.749594215751
 20
817.7902995615164
 10
1524.967837221751
 20
817.7971500264165
 10
1525.192723612051
 20
817.8053673049165
 10
1525.426469162751
 20
817.8150510625165
 10
1525.666148219151
 20
817.8261224519165
 10
1525.892541164351
 20
817.8376025854165
 10
1526.096137074851
 20
817.8487615323165
 10
1526.289849175951
 20
817.8601163540164
 10
1526.482517250751
 20
817.8721378635165
 10
1526.674756312751
 20
817.8848798093165
 10
1526.874534141451
 20
817.8989473566165
 10
1527.095755907051
 20
817.9155653441165
 10
1527.342843676151
 20
817.9355183728166
 10
1527.603185219551
 20
817.9582834173164
 10
1527.858685397951
 20
817.9825644306164
 10
1528.101820218051
 20
818.0076906389166
 10
1528.334498922351
 20
818.0338538188165
  0
LINE
  5
3B4
330
1F
100
AcDbEntity
  8
0
  6
Continuous
 62
     7
100
AcDbLine
 10
1524.014756775251
 20
819.7084598454164
 30
0.0
 11
1524.007550561651
 21
819.7084593035166
 31
0.0
  0
LWPOLYLINE
  5
3B5
330
1F
100
AcDbEntity
  8
0
  6
Continuous
 62
     7
100
AcDbPolyline
 90
       25
 70
     0
 43
0.0
 10
1511.816571842151
 20
819.2955137796165
 10
1511.993401230651
 20
819.2910157092164
 10
1512.165006750951
 20
819.2856099642165
 10
1512.331169982451
 20
819.2794263714166
 10
1512.491722852851
 20
819.2725869262165
 10
1512.646550918651
 20
819.2652051623165
 10
1512.795556661151
 20
819.2573873533165
 10
1512.938676827951
 20
819.2492316407165
 10
1513.075885500151
 20
819.2408276361165
 10
1513.207122736451
 20
819.2322610142165
 10
1513.332143346251
 20
819.2236253850165
 10
1513.450703621651
 20
819.2150114730164
 10
1513.562761988051
 20
819.2064917341165
 10
1513.668719872951
 20
819.1980984434165
 10
1513.769073361651
 20
819.1898467130165
 10
1513.864289585551
 20
819.1817448260165
 10
1513.954353155651
 20
819.1738359572164
 10
1514.039004944351
 20
819.1661832075165
 10
1514.118069586151
 20
819.1588418518165
 10
1514.191416650151
 20
819.1518619140165
 10
1514.258786269551
 20
819.1453047215164
 10
1514.319967069751
 20
819.1392262264164
 10
1514.374846270851
 20
819.1336711453164
 10
1514.423162386551
 20
819.1286975431165
 10
1514.464685912051
 20
819.1243587678165
  0
LWPOLYLINE
  5
3B6
330
1F
100
AcDbEntity
  8
0
  6
Continuous
 62
     7
100
AcDbPolyline
 90
       11
 70
     0
 43
0.0
 10
1512.015554166851
 20
819.2839993580165
 10
1511.718366021251
 20
819.2921615727165
 10
1511.427639932051
 20
819.2965166012164
 10
1511.143361515251
 20
819.2971837579165
 10
1510.866195628451
 20
819.2942879166164
 10
1510.596727277451
 20
819.2879826300165
 10
1510.335026208951
 20
819.2784351637165
 10
1510.08118079805
 20
819.2658180731164
 10
1509.835399172651
 20
819.2503145674164
 10
1509.597670484651
 20
819.2321008287164
 10
1509.367244643551
 20
819.2112802345164
  0
LWPOLYLINE
  5
3B7
330
1F
100
AcDbEntity
  8
0
  6
Continuous
 62
     7
100
AcDbPolyline
 90
       17
 70
     0
 43
0.0
 10
1519.669562147751
 20
818.0434197015165
 10
1519.54587177275
 20
818.0528673524165
 10
1519.421738479351
 20
818.0523344845164
 10
1519.297955844851
 20
818.0418244994164
 10
1519.175315196651
 20
818.0214045858164
 10
1519.054600561551
 20
817.9912052857165
 10
1518.936583653851
 20
817.9514196594166
 10
1518.822018940951
 20
817.9023020516165
 10
1518.711638821251
 20
817.8441664652165
 10
1518.606148941251
 20
817.7773845537165
 10
1518.506223685051
 20
817.7023832458164
 10
1518.412501862651
 20
817.6196420161165
 10
1518.325582626551
 20
817.5296898193163
 10
1518.246021640951
 20
817.4331017099165
 10
1518.174327529551
 20
817.3304951646166
 10
1518.110958623951
 20
817.2225261356164
 10
1518.056320042351
 20
817.1098848779164
  0
LINE
  5
3B8
330
1F
100
AcDbEntity
  8
0
  6
Continuous
 62
     7
100
AcDbLine
 10
1514.464685912051
 20
819.1243587678165
 30
0.0
 11
1514.527029802451
 21
819.1177251443164
 31
0.0
  0
LINE
  5
3B9
330
1F
100
AcDbEntity
  8
0
  6
Continuous
 62
     7
100
AcDbLine
 10
1514.527029802451
 20
819.1177251443164
 30
0.0
 11
1514.570791415951
 21
819.1129692120165
 31
0.0
  0
LWPOLYLINE
  5
3BA
330
1F
100
AcDbEntity
  8
0
  6
Continuous
 62
     7
100
AcDbPolyline
 90
       21
 70
     0
 43
0.0
 10
1519.680783875451
 20
818.0339697028164
 10
1519.91185009455
 20
818.0079842670163
 10
1520.153854234351
 20
817.9829592933165
 10
1520.407945021751
 20
817.9587869932165
 10
1520.668580976451
 20
817.9359680055165
 10
1520.916286039951
 20
817.9159425673164
 10
1521.137203381351
 20
817.8993286493165
 10
1521.336724785651
 20
817.8852610577164
 10
1521.529251235951
 20
817.8724825627165
 10
1521.722378429951
 20
817.8604159993165
 10
1521.916314449951
 20
817.8490323512164
 10
1522.120444600951
 20
817.8378283003164
 10
1522.348040109351
 20
817.8262721650165
 10
1522.588278491651
 20
817.8151617016165
 10
1522.821922624951
 20
817.8054688414166
 10
1523.046846540451
 20
817.7972357327165
 10
1523.265133981751
 20
817.7903684548166
 10
1523.473219197251
 20
817.7849855896166
 10
1523.667977862851
 20
817.7811529929165
 10
1523.847165540651
 20
817.7788799073166
 10
1524.007708096551
 20
817.7781386141164
  0
LWPOLYLINE
  5
3BB
330
1F
100
AcDbEntity
  8
0
  6
Continuous
 62
     7
100
AcDbPolyline
 90
       17
 70
     0
 43
0.0
 10
1517.583680960051
 20
819.7741293082165
 10
1518.382415914051
 20
819.6674039083164
 10
1519.184888576851
 20
819.5745546828165
 10
1519.987890931251
 20
819.4960128862165
 10
1520.79132853775
 20
819.4317674878165
 10
1521.595105997451
 20
819.3818092187164
 10
1522.399129595251
 20
819.3461303563164
 10
1523.20331384965
 20
819.3247247279165
 10
1524.007578392351
 20
819.3175884194165
 10
1524.811842985151
 20
819.3247201265164
 10
1525.61602735085
 20
819.3461211553165
 10
1526.420051063551
 20
819.3817954178165
 10
1527.223828620951
 20
819.4317490832164
 10
1528.027266343651
 20
819.4959898742165
 10
1528.830268880151
 20
819.5745270637164
 10
1529.632741822351
 20
819.6673716873165
 10
1530.431735233051
 20
819.7741293083165
  0
LWPOLYLINE
  5
3BC
330
1F
100
AcDbEntity
  8
0
  6
Continuous
 62
     7
100
AcDbPolyline
 90
        4
 70
     0
 43
0.0
 10
1517.119698559451
 20
819.8567177503164
 10
1517.272659223351
 20
819.8258334002165
 10
1517.429370557051
 20
819.7979362847165
 10
1517.583680959751
 20
819.7741293084165
  0
LWPOLYLINE
  5
3BD
330
1F
100
AcDbEntity
  8
0
  6
Continuous
 62
     7
100
AcDbPolyline
 90
       22
 70
     0
 43
0.0
 10
1518.737856092251
 20
821.1005880302165
 10
1518.621148948551
 20
821.1260583618164
 10
1518.503177835451
 20
821.1579975217166
 10
1518.387021209751
 20
821.1957840861165
 10
1518.273022372651
 20
821.2393025622164
 10
1518.161517942951
 20
821.2884194349165
 10
1518.052837005151
 20
821.3429836170165
 10
1517.947300280751
 20
821.4028269020165
 10
1517.845219128951
 20
821.4677645402165
 10
1517.746894862051
 20
821.5375956604164
 10
1517.65261764435
 20
821.6121039812165
 10
1517.562665249851
 20
821.6910587924164
 10
1517.477300049251
 20
821.7742180208166
 10
1517.396768812151
 20
821.8613296622166
 10
1517.321304442651
 20
821.9521308957165
 10
1517.251124901551
 20
822.0463497190165
 10
1517.186431561551
 20
822.1437081442164
 10
1517.127410722351
 20
822.2439215133166
 10
1517.074233780251
 20
822.3466990040165
 10
1517.027057618451
 20
822.4517432760164
 10
1516.986024247651
 20
822.5587510327164
 10
1516.957071359451
 20
822.6476749733164
  0
LWPOLYLINE
  5
3BE
330
1F
100
AcDbEntity
  8
0
  6
Continuous
 62
     7
100
AcDbPolyline
 90
       17
 70
     0
 43
0.0
 10
1529.959096150751
 20
817.1098848779164
 10
1529.904457569151
 20
817.2225261356164
 10
1529.841088663551
 20
817.3304951646166
 10
1529.769394552151
 20
817.4331017099165
 10
1529.689833566551
 20
817.5296898193163
 10
1529.602914330451
 20
817.6196420161165
 10
1529.509192508051
 20
817.7023832458164
 10
1529.409267251851
 20
817.7773845537165
 10
1529.303777371851
 20
817.8441664652165
 10
1529.193397252151
 20
817.9023020516165
 10
1529.078832539251
 20
817.9514196594166
 10
1528.960815631551
 20
817.9912052857165
 10
1528.840100996451
 20
818.0214045858164
 10
1528.717460348251
 20
818.0418244994164
 10
1528.59367771375
 20
818.0523344845164
 10
1528.469544420351
 20
818.0528673524165
 10
1528.345854045351
 20
818.0434197015165
  0
LWPOLYLINE
  5
3BF
330
1F
100
AcDbEntity
  8
0
  6
Continuous
 62
     7
100
AcDbPolyline
 90
       93
 70
     0
 43
0.0
 10
1509.367244643551
 20
819.2112802345164
 10
1509.143049143451
 20
819.1879087139165
 10
1508.924587295751
 20
819.1620710437165
 10
1508.711875424251
 20
819.1338978152165
 10
1508.504940437351
 20
819.1035224599165
 10
1508.303805622251
 20
819.0710800851164
 10
1508.108431310051
 20
819.0366986299164
 10
1507.918068928151
 20
819.0003624320166
 10
1507.731257814151
 20
818.9618887041165
 10
1507.547009102451
 20
818.9211422606165
 10
1507.365001107251
 20
818.8781014736164
 10
1507.184937055251
 20
818.8327365194165
 10
1507.006517594951
 20
818.7850041238165
 10
1506.829450524251
 20
818.7348499466164
 10
1506.653416342251
 20
818.6821982695166
 10
1506.478149308351
 20
818.6269755799164
 10
1506.303643131351
 20
818.5691839267164
 10
1506.129973319151
 20
818.5088487076164
 10
1505.957082745551
 20
818.4459479706164
 10
1505.784853583751
 20
818.3804332579164
 10
1505.613190282451
 20
818.3122578134165
 10
1505.442027489551
 20
818.2413808435164
 10
1505.271344530851
 20
818.1677756060164
 10
1505.101068422351
 20
818.0913882917165
 10
1504.930904282951
 20
818.0120524557164
 10
1504.760520017551
 20
817.9295745375165
 10
1504.589812340651
 20
817.8438601830166
 10
1504.418888796351
 20
817.7549150615165
 10
1504.247934021551
 20
817.6627892036165
 10
1504.077130974851
 20
817.5675377183164
 10
1503.907007449651
 20
817.4694275073164
 10
1503.736103606751
 20
817.3675453199164
 10
1503.564033120651
 20
817.2615811342165
 10
1503.400009574351
 20
817.1574426946165
 10
1503.251570758151
 20
817.0606094140165
 10
1503.116856037551
 20
816.9706347055164
 10
1502.992863139651
 20
816.8860891271165
 10
1502.877943735951
 20
816.8062728261164
 10
1502.770749345951
 20
816.7305781645165
 10
1502.670236097951
 20
816.6585289242165
 10
1502.576111149051
 20
816.5901301061165
 10
1502.486423039851
 20
816.5241322481165
 10
1502.395639577651
 20
816.4564614751165
 10
1502.299037037451
 20
816.3833883439165
 10
1502.194471848751
 20
816.3029123158164
 10
1502.078119960351
 20
816.2114825561165
 10
1501.949673159751
 20
816.1079681372164
 10
1501.819437391151
 20
815.9999084541166
 10
1501.696525438751
 20
815.8947196597164
 10
1501.581142888051
 20
815.7928273232164
 10
1501.471727788551
 20
815.6930951126165
 10
1501.367597031051
 20
815.5950911857164
 10
1501.268075945251
 20
815.4983514985165
 10
1501.172485169551
 20
815.4023566117166
 10
1501.080674052951
 20
815.3070827229166
 10
1500.995094479451
 20
815.2153452858165
 10
1500.918468856351
 20
815.1306269268165
 10
1500.849029633051
 20
815.0516015353165
 10
1500.782206457351
 20
814.9734288804165
 10
1500.715531107751
 20
814.8932794888164
 10
1500.648965106351
 20
814.8110470009164
 10
1500.582592104651
 20
814.7267692654164
 10
1500.516245323051
 20
814.6401596356165
 10
1500.449865298551
 20
814.5510452065165
 10
1500.383343077851
 20
814.4591661100164
 10
1500.316571128251
 20
814.3642360200164
 10
1500.249418097251
 20
814.2659017043165
 10
1500.181728167351
 20
814.1637321069165
 10
1500.113317050751
 20
814.0572001374165
 10
1500.043920993951
 20
813.9455835463165
 10
1499.973209660651
 20
813.8279526016164
 10
1499.901382303551
 20
813.7041768599164
 10
1499.829579702751
 20
813.5758270766165
 10
1499.758856964951
 20
813.4445699098163
 10
1499.689411124151
 20
813.3106628064165
 10
1499.621202238951
 20
813.1739242972166
 10
1499.554271792051
 20
813.0343198595165
 10
1499.488643200051
 20
812.8917738246165
 10
1499.424334598951
 20
812.7461901974164
 10
1499.361368225851
 20
812.5974718195164
 10
1499.299978434251
 20
812.4460456972165
 10
1499.240645701651
 20
812.2930740584164
 10
1499.183665289851
 20
812.1394311407165
 10
1499.128973205151
 20
811.9851144598165
 10
1499.076383821551
 20
811.8297539768164
 10
1499.025789107851
 20
811.6731725260164
 10
1498.977218201351
 20
811.5156106200165
 10
1498.930730157051
 20
811.3574411969164
 10
1498.886356678851
 20
811.1989931078165
 10
1498.844098688751
 20
811.0405230552164
 10
1498.803933620651
 20
810.8822232874166
 10
1498.765837839151
 20
810.7242982002164
 10
1498.729782144351
 20
810.5669463442165
  0
LWPOLYLINE
  5
3C0
330
1F
100
AcDbEntity
  8
0
  6
Continuous
 62
     7
100
AcDbPolyline
 90
       25
 70
     0
 43
0.0
 10
1509.332826236951
 20
819.2181587514165
 10
1509.374815184051
 20
819.2221744575165
 10
1509.403568287651
 20
819.2248495378164
 10
1509.440092176051
 20
819.2281661948165
 10
1509.484106120951
 20
819.2320459867165
 10
1509.535372336051
 20
819.2364081935163
 10
1509.593886186651
 20
819.2411861751164
 10
1509.659527373751
 20
819.2462979482165
 10
1509.732061548751
 20
819.2516491820166
 10
1509.811478106951
 20
819.2571594071164
 10
1509.897820831151
 20
819.2627472948165
 10
1509.991049301151
 20
819.2683218942166
 10
1510.091073590051
 20
819.2737870527166
 10
1510.197866870051
 20
819.2790485682165
 10
1510.311366002351
 20
819.2840089357165
 10
1510.431437773351
 20
819.2885676346165
 10
1510.557872820551
 20
819.2926234566165
 10
1510.69059567135
 20
819.2960820939164
 10
1510.829859083351
 20
819.2988557100164
 10
1510.975923142351
 20
819.3008506866165
 10
1511.129013200951
 20
819.3019685877164
 10
1511.289341177051
 20
819.3021059194164
 10
1511.457208630151
 20
819.3011536670164
 10
1511.632882223051
 20
819.2989963688164
 10
1511.816571842151
 20
819.2955137796165
  0
LWPOLYLINE
  5
3C1
330
1F
100
AcDbEntity
  8
0
  6
Continuous
 62
     7
100
AcDbPolyline
 90
       21
 70
     0
 43
0.0
 10
1513.527645553551
 20
822.6873110794166
 10
1513.480111325751
 20
822.6864719191164
 10
1513.435207743451
 20
822.6853914683164
 10
1513.392936628051
 20
822.6840889453164
 10
1513.353222327651
 20
822.6825795023165
 10
1513.31610750945
 20
822.6808812078164
 10
1513.281468281051
 20
822.6790033067164
 10
1513.249326218451
 20
822.6769601000164
 10
1513.219616411051
 20
822.6747593785164
 10
1513.192299576051
 20
822.6724077205165
 10
1513.167412291251
 20
822.6699166237164
 10
1513.144893795851
 20
822.6672861487164
 10
1513.124785863251
 20
822.6645243435164
 10
1513.107112470951
 20
822.6616357433165
 10
1513.091892941551
 20
822.6586203554164
 10
1513.079208032051
 20
822.6554866795165
 10
1513.069111757751
 20
822.6522344529165
 10
1513.061696419951
 20
822.6488685423165
 10
1513.057067880951
 20
822.6453967512165
 10
1513.055334405451
 20
822.6418215880164
 10
1513.056240380851
 20
822.6386909392164
  0
LWPOLYLINE
  5
3C2
330
1F
100
AcDbEntity
  8
0
  6
Continuous
 62
     7
100
AcDbPolyline
 90
       23
 70
     0
 43
0.0
 10
1531.825307134851
 20
822.7210976164165
 10
1531.782496378251
 20
822.7214156134165
 10
1531.739644249351
 20
822.7214472913164
 10
1531.696773363751
 20
822.7211949850165
 10
1531.653874899651
 20
822.7206573304165
 10
1531.610947943151
 20
822.7198291068164
 10
1531.567968748251
 20
822.7187003318165
 10
1531.525145891951
 20
822.7172643696164
 10
1531.482716238551
 20
822.7155168580164
 10
1531.44076013505
 20
822.7134467403164
 10
1531.399406441051
 20
822.7110418252165
 10
1531.359057756951
 20
822.7083060367165
 10
1531.320111443751
 20
822.7052494065164
 10
1531.282740406151
 20
822.7018674861165
 10
1531.247284713751
 20
822.6981701240164
 10
1531.214172288351
 20
822.6941824488164
 10
1531.183738633451
 20
822.6899272310165
 10
1531.156272332551
 20
822.6854257025165
 10
1531.132208908251
 20
822.6807336676165
 10
1531.111877452251
 20
822.6759118685166
 10
1531.095418587951
 20
822.6709975119165
 10
1531.082992752551
 20
822.6660508982165
 10
1531.074670785151
 20
822.6611428399165
  0
LINE
  5
3C3
330
1F
100
AcDbEntity
  8
0
  6
Continuous
 62
     7
100
AcDbLine
 10
1538.610373158351
 20
819.2249852002165
 30
0.0
 11
1538.657699009851
 21
819.2205558278164
 31
0.0
  0
LINE
  5
3C4
330
1F
100
AcDbEntity
  8
0
  6
Continuous
 62
     7
100
AcDbLine
 10
1538.657699009851
 20
819.2205558278164
 30
0.0
 11
1538.682454150651
 21
819.2181719944164
 31
0.0
  0
LWPOLYLINE
  5
3C5
330
1F
100
AcDbEntity
  8
0
  6
Continuous
 62
     7
100
AcDbPolyline
 90
       93
 70
     0
 43
0.0
 10
1538.64817154955
 20
819.2112802345164
 10
1538.872367049651
 20
819.1879087139165
 10
1539.090828897351
 20
819.1620710437165
 10
1539.303540768851
 20
819.1338978152165
 10
1539.510475755751
 20
819.1035224599165
 10
1539.711610570851
 20
819.0710800851164
 10
1539.906984883051
 20
819.0366986299164
 10
1540.097347264951
 20
819.0003624320166
 10
1540.284158378951
 20
818.9618887041165
 10
1540.468407090651
 20
818.9211422606165
 10
1540.650415085851
 20
818.8781014736164
 10
1540.830479137851
 20
818.8327365194165
 10
1541.008898598151
 20
818.7850041238165
 10
1541.185965668851
 20
818.7348499466164
 10
1541.361999850851
 20
818.6821982695166
 10
1541.537266884751
 20
818.6269755799164
 10
1541.711773061851
 20
818.5691839267164
 10
1541.885442873951
 20
818.5088487076164
 10
1542.058333447551
 20
818.4459479706164
 10
1542.230562609351
 20
818.3804332579164
 10
1542.402225910651
 20
818.3122578134165
 10
1542.573388703551
 20
818.2413808435164
 10
1542.744071662251
 20
818.1677756060164
 10
1542.914347770751
 20
818.0913882917165
 10
1543.084511910151
 20
818.0120524557164
 10
1543.25489617555
 20
817.9295745375165
 10
1543.425603852451
 20
817.8438601830166
 10
1543.596527396751
 20
817.7549150615165
 10
1543.767482171551
 20
817.6627892036165
 10
1543.938285218251
 20
817.5675377183164
 10
1544.108408743451
 20
817.4694275073164
 10
1544.279312586351
 20
817.3675453199164
 10
1544.451383072451
 20
817.2615811342165
 10
1544.615406618751
 20
817.1574426946165
 10
1544.763845434951
 20
817.0606094140165
 10
1544.898560155551
 20
816.9706347055164
 10
1545.022553053451
 20
816.8860891271165
 10
1545.137472457151
 20
816.8062728261164
 10
1545.244666847151
 20
816.7305781645165
 10
1545.345180095151
 20
816.6585289242165
 10
1545.439305044051
 20
816.5901301061165
 10
1545.528993153251
 20
816.5241322481165
 10
1545.619776615451
 20
816.4564614751165
 10
1545.716379155651
 20
816.3833883439165
 10
1545.820944344351
 20
816.3029123158164
 10
1545.937296232751
 20
816.2114825561165
 10
1546.065743033351
 20
816.1079681372164
 10
1546.195978801951
 20
815.9999084541166
 10
1546.318890754351
 20
815.8947196597164
 10
1546.434273305051
 20
815.7928273232164
 10
1546.543688404551
 20
815.6930951126165
 10
1546.647819162051
 20
815.5950911857164
 10
1546.747340247851
 20
815.4983514985165
 10
1546.842931023551
 20
815.4023566117166
 10
1546.934742140151
 20
815.3070827229166
 10
1547.020321713651
 20
815.2153452858165
 10
1547.096947336751
 20
815.1306269268165
 10
1547.166386560051
 20
815.0516015353165
 10
1547.233209735751
 20
814.9734288804165
 10
1547.299885085351
 20
814.8932794888164
 10
1547.366451086751
 20
814.8110470009164
 10
1547.432824088451
 20
814.7267692654164
 10
1547.499170870051
 20
814.6401596356165
 10
1547.565550894551
 20
814.5510452065165
 10
1547.632073115251
 20
814.4591661100164
 10
1547.698845064951
 20
814.3642360200164
 10
1547.765998095851
 20
814.2659017043165
 10
1547.833688025751
 20
814.1637321069165
 10
1547.902099142351
 20
814.0572001374165
 10
1547.971495199151
 20
813.9455835463165
 10
1548.042206532451
 20
813.8279526016164
 10
1548.114033889551
 20
813.7041768599164
 10
1548.185836490351
 20
813.5758270766165
 10
1548.256559228151
 20
813.4445699098163
 10
1548.326005068951
 20
813.3106628064165
 10
1548.394213954151
 20
813.1739242972166
 10
1548.461144401051
 20
813.0343198595165
 10
1548.526772993051
 20
812.8917738246165
 10
1548.591081594151
 20
812.7461901974164
 10
1548.654047967251
 20
812.5974718195164
 10
1548.715437758851
 20
812.4460456972165
 10
1548.774770491451
 20
812.2930740584164
 10
1548.831750903251
 20
812.1394311407165
 10
1548.886442987951
 20
811.9851144598165
 10
1548.939032371551
 20
811.8297539768164
 10
1548.989627085251
 20
811.6731725260164
 10
1549.038197991751
 20
811.5156106200165
 10
1549.084686036051
 20
811.3574411969164
 10
1549.129059514251
 20
811.1989931078165
 10
1549.171317504351
 20
811.0405230552164
 10
1549.211482572451
 20
810.8822232874166
 10
1549.249578353951
 20
810.7242982002164
 10
1549.285634048751
 20
810.5669463442165
  0
LWPOLYLINE
  5
3C6
330
1F
100
AcDbEntity
  8
0
  6
Continuous
 62
     7
100
AcDbPolyline
 90
       75
 70
     0
 43
0.0
 10
1505.742200268651
 20
823.3668959185164
 10
1505.468171877051
 20
823.3365626710165
 10
1505.193901801151
 20
823.3032157010164
 10
1504.924763067951
 20
823.2676375978165
 10
1504.663049421951
 20
823.2301850120164
 10
1504.407821375551
 20
823.1908271692164
 10
1504.158422211251
 20
823.1495447081165
 10
1503.914669265051
 20
823.1063838574165
 10
1503.676118482451
 20
823.0613379199164
 10
1503.442107754751
 20
823.0143473338165
 10
1503.212036664351
 20
822.9653513505164
 10
1502.985642492751
 20
822.9143447471164
 10
1502.762815352051
 20
822.8613502942165
 10
1502.543405978151
 20
822.8063774792165
 10
1502.327214211751
 20
822.7494167263165
 10
1502.114081361151
 20
822.6904634002163
 10
1501.903920700351
 20
822.6295288619164
 10
1501.696448549051
 20
822.5665616655165
 10
1501.491078078951
 20
822.5014055102164
 10
1501.287305878951
 20
822.4339120706165
 10
1501.084945093151
 20
822.3640209440164
 10
1500.883950584351
 20
822.2917136968165
 10
1500.684269310451
 20
822.2169674514164
 10
1500.485733423251
 20
822.1397123606164
 10
1500.288173631751
 20
822.0598689313165
 10
1500.091556429251
 20
821.9774055902163
 10
1499.895928125751
 20
821.8923240272165
 10
1499.700803051051
 20
821.8043858162165
 10
1499.505417730751
 20
821.7132062658166
 10
1499.309569890851
 20
821.6186386829164
 10
1499.113249042251
 20
821.5206152004165
 10
1498.916400992751
 20
821.4190439530165
 10
1498.718979919051
 20
821.3138330740164
 10
1498.520971962251
 20
821.2049043825164
 10
1498.322360977151
 20
821.0921755268165
 10
1498.123164318451
 20
820.9755814650165
 10
1497.923484262351
 20
820.8551046654164
 10
1497.723563743151
 20
820.7308148348165
 10
1497.523698124651
 20
820.6028305459165
 10
1497.323995897551
 20
820.4711664328165
 10
1497.124451681251
 20
820.3357656371165
 10
1496.925009403751
 20
820.1965336471165
 10
1496.725658924351
 20
820.0534000415165
 10
1496.526832179051
 20
819.9066235936165
 10
1496.329483662351
 20
819.7568829073164
 10
1496.134891445151
 20
819.6051419655164
 10
1495.943363410351
 20
819.4516695326164
 10
1495.754848162151
 20
819.2964587307164
 10
1495.569424255951
 20
819.1396095931164
 10
1495.387069471951
 20
818.9811406414165
 10
1495.20779586745
 20
818.8210989167165
 10
1495.031581389551
 20
818.6595020258165
 10
1494.858413701151
 20
818.4963755488166
 10
1494.688283348451
 20
818.3317473276165
 10
1494.521177354351
 20
818.1656412812165
 10
1494.357190008151
 20
817.9981903562165
 10
1494.196420798051
 20
817.8295390559165
 10
1494.038892090351
 20
817.6597572615165
 10
1493.884578472951
 20
817.4888651904165
 10
1493.733435197751
 20
817.3168597817165
 10
1493.585412204951
 20
817.1437289610164
 10
1493.440502046651
 20
816.9695075481165
 10
1493.298698919751
 20
816.7942328835165
 10
1493.159993603351
 20
816.6179381420166
 10
1493.024344784951
 20
816.4406143744166
 10
1492.891665612251
 20
816.2621884594164
 10
1492.761926123551
 20
816.0826566636165
 10
1492.635103438651
 20
815.9020226015165
 10
1492.511231833551
 20
815.7203729817165
 10
1492.390392070151
 20
815.5378675637164
 10
1492.272628997751
 20
815.3546182950165
 10
1492.157935832351
 20
815.1706641204166
 10
1492.046273531951
 20
814.9859917680165
 10
1491.937566058351
 20
814.8005205896165
 10
1491.831743478651
 20
814.6141705223165
  0
LWPOLYLINE
  5
3C7
330
1F
100
AcDbEntity
  8
0
  6
Continuous
 62
     7
100
AcDbPolyline
 90
       24
 70
     0
 43
0.0
 10
1524.007708096551
 20
823.5038989178164
 10
1522.171504357551
 20
823.5018100686165
 10
1520.259646006651
 20
823.4965736339164
 10
1518.560886098751
 20
823.4909266543164
 10
1517.052961899951
 20
823.4865600089165
 10
1515.712332812851
 20
823.4841872080163
 10
1514.521769885951
 20
823.4839421048164
 10
1513.464411182551
 20
823.4856761057164
 10
1512.525888342451
 20
823.4891658614165
 10
1511.691617278651
 20
823.4942084513164
 10
1510.949673030251
 20
823.5006636809165
 10
1510.287289564451
 20
823.5078402358166
 10
1509.690957175151
 20
823.5137427800164
 10
1509.160299110551
 20
823.5167989987164
 10
1508.691899658151
 20
823.5161674803165
 10
1508.283253548651
 20
823.5118160961164
 10
1507.919630726451
 20
823.5042029863164
 10
1507.575039268251
 20
823.4933383957164
 10
1507.243661665251
 20
823.4793291876165
 10
1506.923639822651
 20
823.4623120172164
 10
1506.614274319851
 20
823.4424413037164
 10
1506.314678076751
 20
823.4198398023163
 10
1506.024109762051
 20
823.3946162197165
 10
1505.742200268651
 20
823.3668959185164
  0
LWPOLYLINE
  5
3C8
330
1F
100
AcDbEntity
  8
0
  6
Continuous
 62
     7
100
AcDbPolyline
 90
       25
 70
     0
 43
0.0
 10
1524.007708096551
 20
823.5038989203165
 10
1525.765569102151
 20
823.5019714629165
 10
1527.603263701351
 20
823.4970607387165
 10
1529.252533871151
 20
823.4915886354166
 10
1530.722886250251
 20
823.4871605374165
 10
1532.036395505351
 20
823.4845050891165
 10
1533.208868284751
 20
823.4838096026164
 10
1534.255318488351
 20
823.4849781911165
 10
1535.188807657951
 20
823.4878201060165
 10
1536.022286798051
 20
823.4921454992164
 10
1536.767120349151
 20
823.4978084256166
 10
1537.433495194851
 20
823.5045887583165
 10
1538.034483324151
 20
823.5110690786164
 10
1538.575541593051
 20
823.5155657320165
 10
1539.057619961251
 20
823.5170050021165
 10
1539.483000237851
 20
823.5149532705165
 10
1539.857345749951
 20
823.5096174940165
 10
1540.198064968551
 20
823.5013615910164
 10
1540.524405236551
 20
823.4901235805164
 10
1540.839340830351
 20
823.4760266166166
 10
1541.144059321251
 20
823.4591943830166
 10
1541.439114822751
 20
823.4397627120165
 10
1541.725291989551
 20
823.4178362103165
 10
1542.003223438651
 20
823.3935101627166
 10
1542.273215924451
 20
823.3668959185164
  0
LWPOLYLINE
  5
3C9
330
1F
100
AcDbEntity
  8
0
  6
Continuous
 62
     7
100
AcDbPolyline
 90
       87
 70
     0
 43
0.0
 10
1506.851983559951
 20
827.3145475060164
 10
1506.565952523251
 20
827.2961543216165
 10
1506.300106271851
 20
827.2757511131164
 10
1506.051002320051
 20
827.2534352950165
 10
1505.815405750651
 20
827.2292226640166
 10
1505.591553718951
 20
827.2031924362165
 10
1505.378372878151
 20
827.1754559527163
 10
1505.174752784551
 20
827.1460833698165
 10
1504.979718391651
 20
827.1151316193165
 10
1504.792411776151
 20
827.0826468058164
 10
1504.612064682051
 20
827.0486624166164
 10
1504.437847775851
 20
827.0131697376164
 10
1504.267759980051
 20
826.9758631933164
 10
1504.098731605251
 20
826.9361296496166
 10
1503.929127746251
 20
826.8935867563165
 10
1503.757924591751
 20
826.8479114023165
 10
1503.583818725951
 20
826.7986439848165
 10
1503.404980263651
 20
826.7451612771164
 10
1503.220303970351
 20
826.6869971570166
 10
1503.027404611251
 20
826.6232002899164
 10
1502.820715866051
 20
826.5516077836165
 10
1502.598025107151
 20
826.4710577818165
 10
1502.362678857951
 20
826.3824808408164
 10
1502.121505182151
 20
826.2882262006165
 10
1501.879884264951
 20
826.1902217770165
 10
1501.638011183451
 20
826.0884824224165
 10
1501.397575310851
 20
825.9836839009164
 10
1501.159072924151
 20
825.8760518947164
 10
1500.922151409451
 20
825.7654332260164
 10
1500.687216028451
 20
825.6520183381164
 10
1500.454570375651
 20
825.5359677355166
 10
1500.224325834151
 20
825.4173531566165
 10
1499.996637969951
 20
825.2962745480164
 10
1499.771559082251
 20
825.1727820989165
 10
1499.549151539851
 20
825.0469339280165
 10
1499.329532894951
 20
824.9188231756164
 10
1499.112859659451
 20
824.7885694729164
 10
1498.899199308251
 20
824.6562466213164
 10
1498.688547770351
 20
824.5218849664164
 10
1498.480953482951
 20
824.3855489758164
 10
1498.276445902651
 20
824.2472934434164
 10
1498.075038899851
 20
824.1071631821165
 10
1497.876731944851
 20
823.9651946231164
 10
1497.681508498751
 20
823.8214110315166
 10
1497.489434348351
 20
823.6758968652164
 10
1497.300630090851
 20
823.5287855332165
 10
1497.115177915651
 20
823.3801868438165
 10
1496.933025042551
 20
823.2301004206165
 10
1496.754561689051
 20
823.0789029513164
 10
1496.579660126251
 20
822.9265501133165
 10
1496.407661434251
 20
822.7725047961165
 10
1496.238051005751
 20
822.6163042133165
 10
1496.070282699851
 20
822.4574593863165
 10
1495.903580232151
 20
822.2952268416165
 10
1495.737807389951
 20
822.1294261261165
 10
1495.573084220651
 20
821.9601243625165
 10
1495.409412074651
 20
821.7872700259166
 10
1495.246778401351
 20
821.6107938691164
 10
1495.085118510751
 20
821.4305672223165
 10
1494.924451217051
 20
821.2465448531164
 10
1494.764892071351
 20
821.0587933518164
 10
1494.606547680151
 20
820.8673775186165
 10
1494.449505354351
 20
820.6723445453164
 10
1494.293870760251
 20
820.4737600670165
 10
1494.139862868851
 20
820.2718441807164
 10
1493.987581915051
 20
820.0666803450165
 10
1493.837106317251
 20
819.8583304579164
 10
1493.688523465551
 20
819.6468744727164
 10
1493.542054264151
 20
819.4325892953166
 10
1493.397836869051
 20
819.2156520655165
 10
1493.255907909651
 20
818.9960995235164
 10
1493.116306404351
 20
818.7739744448165
 10
1492.979070549951
 20
818.5493206858165
 10
1492.844240483151
 20
818.3221878843164
 10
1492.711865735451
 20
818.0926452620164
 10
1492.581995792951
 20
817.8607672053164
 10
1492.454678600651
 20
817.6266308872165
 10
1492.329999628651
 20
817.3903894661165
 10
1492.208160478851
 20
817.1524277755166
 10
1492.089215229951
 20
816.9128664518165
 10
1491.97318742615
 20
816.6717727285165
 10
1491.860097831851
 20
816.4292118269166
 10
1491.749965321351
 20
816.1852483704164
 10
1491.642812018851
 20
815.9399581739164
 10
1491.538660873751
 20
815.6934242787166
 10
1491.437523502551
 20
815.4457078309164
 10
1491.339409274851
 20
815.1968674877165
  0
LWPOLYLINE
  5
3CA
330
1F
100
AcDbEntity
  8
0
  6
Continuous
 62
     7
100
AcDbPolyline
 90
        3
 70
     0
 43
0.0
 10
1507.000805110851
 20
827.3224713554165
 10
1506.925626035251
 20
827.3185673526164
 10
1506.851983559951
 20
827.3145475060164
  0
LWPOLYLINE
  5
3CB
330
1F
100
AcDbEntity
  8
0
  6
Continuous
 62
     7
100
AcDbPolyline
 90
        4
 70
     0
 43
0.0
 10
1507.893886436951
 20
827.3539156248165
 10
1507.580548456151
 20
827.3458819455166
 10
1507.283610247051
 20
827.3353434263166
 10
1507.000805110851
 20
827.3224713554165
  0
LWPOLYLINE
  5
3CC
330
1F
100
AcDbEntity
  8
0
  6
Continuous
 62
     7
100
AcDbPolyline
 90
        4
 70
     0
 43
0.0
 10
1508.004992961351
 20
828.0554879587166
 10
1507.704989752651
 20
828.0530568603165
 10
1507.405154414651
 20
828.0459347024164
 10
1507.10552026995
 20
828.0341233901165
  0
LWPOLYLINE
  5
3CD
330
1F
100
AcDbEntity
  8
0
  6
Continuous
 62
     7
100
AcDbPolyline
 90
       13
 70
     0
 43
0.0
 10
1524.007708096551
 20
827.3547103715165
 10
1526.354892102051
 20
827.3563182686165
 10
1528.420049743751
 20
827.3602253502165
 10
1530.252570022051
 20
827.3653020148165
 10
1531.898210513451
 20
827.3705982776165
 10
1533.387315948851
 20
827.3754720574164
 10
1534.731747511351
 20
827.3791780060165
 10
1535.937174262751
 20
827.3810037298165
 10
1537.005298076251
 20
827.3806726879165
 10
1537.944530778251
 20
827.3779646344165
 10
1538.769483760951
 20
827.3728287347164
 10
1539.488196037551
 20
827.3648695437165
 10
1540.121529756151
 20
827.3539156248165
  0
LWPOLYLINE
  5
3CE
330
1F
100
AcDbEntity
  8
0
  6
Continuous
 62
     7
100
AcDbPolyline
 90
        4
 70
     0
 43
0.0
 10
1524.007708096551
 20
828.0555377865166
 10
1518.535541652751
 20
828.0556422115164
 10
1513.199843155751
 20
828.0558526681165
 10
1508.004992961351
 20
828.0554879587166
  0
LWPOLYLINE
  5
3CF
330
1F
100
AcDbEntity
  8
0
  6
Continuous
 62
     7
100
AcDbPolyline
 90
        4
 70
     0
 43
0.0
 10
1540.010423231751
 20
828.0554879587166
 10
1534.812611785451
 20
828.0558525825165
 10
1529.477405233251
 20
828.0556421227165
 10
1524.007708096551
 20
828.0555377865166
  0
LWPOLYLINE
  5
3D0
330
1F
100
AcDbEntity
  8
0
  6
Continuous
 62
     7
100
AcDbPolyline
 90
       13
 70
     0
 43
0.0
 10
1524.007708096551
 20
827.3547103715165
 10
1521.660548103051
 20
827.3563182362165
 10
1519.595385724151
 20
827.3602253038164
 10
1517.762861647451
 20
827.3653019674165
 10
1516.117218076351
 20
827.3705982364164
 10
1514.628110047851
 20
827.3754720268165
 10
1513.283676240851
 20
827.3791779890165
 10
1512.078247544751
 20
827.3810037259163
 10
1511.010122083251
 20
827.3806726938165
 10
1510.070888030051
 20
827.3779646459166
 10
1509.245933957951
 20
827.3728287475163
 10
1508.527220823751
 20
827.3648695531164
 10
1507.893886436951
 20
827.3539156248165
  0
LWPOLYLINE
  5
3D1
330
1F
100
AcDbEntity
  8
0
  6
Continuous
 62
     7
100
AcDbPolyline
 90
        4
 70
     0
 43
0.0
 10
1540.909895923151
 20
828.0341233901165
 10
1540.610261778451
 20
828.0459347024164
 10
1540.310426440451
 20
828.0530568603165
 10
1540.010423231751
 20
828.0554879587166
  0
LWPOLYLINE
  5
3D2
330
1F
100
AcDbEntity
  8
0
  6
Continuous
 62
     7
100
AcDbPolyline
 90
        4
 70
     0
 43
0.0
 10
1541.014611082251
 20
827.3224713554165
 10
1540.731805946051
 20
827.3353434263166
 10
1540.434867736951
 20
827.3458819455166
 10
1540.121529756151
 20
827.3539156248165
  0
LWPOLYLINE
  5
3D3
330
1F
100
AcDbEntity
  8
0
  6
Continuous
 62
     7
100
AcDbPolyline
 90
        3
 70
     0
 43
0.0
 10
1541.163432633151
 20
827.3145475060164
 10
1541.089790157851
 20
827.3185673526164
 10
1541.014611082251
 20
827.3224713554165
  0
LWPOLYLINE
  5
3D4
330
1F
100
AcDbEntity
  8
0
  6
Continuous
 62
     7
100
AcDbPolyline
 90
       26
 70
     0
 43
0.0
 10
1507.10552026995
 20
828.0341233901165
 10
1506.250041588151
 20
827.9744512251165
 10
1505.399849975551
 20
827.8767145260164
 10
1504.555668875751
 20
827.7410908214164
 10
1503.717901933951
 20
827.5675752923165
 10
1502.885782958851
 20
827.3558925345165
 10
1502.060049108151
 20
827.1060170682165
 10
1501.243175684051
 20
826.8183857541165
 10
1500.437506813451
 20
826.4935718109164
 10
1499.644826534151
 20
826.1321206478164
 10
1498.866460712851
 20
825.7343826122164
 10
1498.103690369751
 20
825.3007450041165
 10
1497.358014586451
 20
824.8318088027165
 10
1496.631038392051
 20
824.3282520984164
 10
1495.92398213135
 20
823.7905679146164
 10
1495.238208506251
 20
823.2194612828164
 10
1494.575200834951
 20
822.6157463943165
 10
1493.936226977851
 20
821.9801054594165
 10
1493.322771872151
 20
821.3136008013165
 10
1492.736412948451
 20
820.6174510307164
 10
1492.178497744351
 20
819.8927076800165
 10
1491.650392074751
 20
819.1406927370165
 10
1491.153466197451
 20
818.3628139663165
 10
1490.688995013051
 20
817.5604419478165
 10
1490.258201025051
 20
816.7352050597164
 10
1489.862290904951
 20
815.8888544504165
  0
LWPOLYLINE
  5
3D5
330
1F
100
AcDbEntity
  8
0
  6
Continuous
 62
     7
100
AcDbPolyline
 90
       92
 70
     0
 43
0.0
 10
1549.285631921851
 20
803.5486210005165
 10
1549.249576616451
 20
803.3912712664164
 10
1549.211481518951
 20
803.2333493026165
 10
1549.171317976351
 20
803.0750555889165
 10
1549.129061047251
 20
802.9165892990166
 10
1549.084687822051
 20
802.7581418011164
 10
1549.038201130651
 20
802.5999765660165
 10
1548.989633255451
 20
802.4424237450165
 10
1548.939040335251
 20
802.2858467620164
 10
1548.886450488751
 20
802.1304838051165
 10
1548.831759041351
 20
801.9761678955164
 10
1548.774780526051
 20
801.8225289657165
 10
1548.715451182651
 20
801.6695646772165
 10
1548.654065987651
 20
801.5181481436165
 10
1548.591102238451
 20
801.3694339434165
 10
1548.526795037651
 20
801.2238513632164
 10
1548.461168131451
 20
801.0813068239166
 10
1548.394239789751
 20
800.9417045912165
 10
1548.326032724851
 20
800.8049675529164
 10
1548.256590030051
 20
800.6710643028165
 10
1548.185866755551
 20
800.5398039553165
 10
1548.114061268451
 20
800.4114470625165
 10
1548.042235688951
 20
800.2876726189166
 10
1547.971527230251
 20
800.1700447193165
 10
1547.902132982451
 20
800.0584293139164
 10
1547.833724910851
 20
799.9519003426164
 10
1547.766037933451
 20
799.8497334031164
 10
1547.698886207651
 20
799.7513991964165
 10
1547.632114769151
 20
799.6564680890164
 10
1547.565594514151
 20
799.5645899983164
 10
1547.499218872151
 20
799.4754796802165
 10
1547.432879700951
 20
799.3888780257165
 10
1547.366512075251
 20
799.3046049531165
 10
1547.299953590451
 20
799.2223794066164
 10
1547.233275896851
 20
799.1422248306165
 10
1547.166451904951
 20
799.0640489902165
 10
1547.097009336451
 20
798.9850176625164
 10
1547.020379832351
 20
798.9002929461165
 10
1546.934851235951
 20
798.8086072697165
 10
1546.843091132651
 20
798.7133817385165
 10
1546.747507398851
 20
798.6173885328164
 10
1546.647993235651
 20
798.5206501268164
 10
1546.543873664651
 20
798.4226511907165
 10
1546.434470792651
 20
798.3229245015165
 10
1546.319117861751
 20
798.2210524169166
 10
1546.196220909751
 20
798.1158701853164
 10
1546.065817352551
 20
798.0076671532165
 10
1545.937141897551
 20
797.9039692286164
 10
1545.820783237251
 20
797.8125369484165
 10
1545.716269023151
 20
797.7321021022164
 10
1545.619652552251
 20
797.6590198035165
 10
1545.528873125751
 20
797.5913532164165
 10
1545.439202165951
 20
797.5253689267165
 10
1545.345066884851
 20
797.4569635457164
 10
1545.244549040851
 20
797.3849121278164
 10
1545.137354627751
 20
797.3092186948165
 10
1545.022429255151
 20
797.2293996509165
 10
1544.898427145351
 20
797.1448494270165
 10
1544.763691196351
 20
797.0548625579165
 10
1544.615267177251
 20
796.9580412435164
 10
1544.451352247151
 20
796.8539732429165
 10
1544.279344934551
 20
796.7480478596164
 10
1544.108447006251
 20
796.6461684124165
 10
1543.938326131551
 20
796.5480588664165
 10
1543.767526432551
 20
796.4528083379165
 10
1543.596575152451
 20
796.3606834029165
 10
1543.425655195151
 20
796.2717391365165
 10
1543.254951587851
 20
796.1860257616165
 10
1543.084571456651
 20
796.1035487257166
 10
1542.914408612751
 20
796.0242123425165
 10
1542.744133984751
 20
795.9478245307165
 10
1542.573455045951
 20
795.8742198359165
 10
1542.402296040351
 20
795.8033431955165
 10
1542.230636712851
 20
795.7351680446166
 10
1542.058411479751
 20
795.6696534948165
 10
1541.885524883151
 20
795.6067528271164
 10
1541.711858715251
 20
795.5464174531165
 10
1541.537358108951
 20
795.4886261680164
 10
1541.362096416151
 20
795.4334036143165
 10
1541.186065808651
 20
795.3807514045165
 10
1541.009003200051
 20
795.3305968438164
 10
1540.83058822755
 20
795.2828639496165
 10
1540.650528942151
 20
795.2374984437165
 10
1540.468526063751
 20
795.1944570568165
 10
1540.284283001151
 20
795.1537099907165
 10
1540.097484103351
 20
795.1152367935165
 10
1539.907139942051
 20
795.0789018864164
 10
1539.711775554051
 20
795.0445198173165
 10
1539.510647288151
 20
795.0120760457165
 10
1539.303721255851
 20
794.9816994697165
 10
1539.091018679951
 20
794.9535248379164
 10
1538.872566052851
 20
794.9276855236165
  0
LWPOLYLINE
  5
3D6
330
1F
100
AcDbEntity
  8
0
  6
Continuous
 62
     7
100
AcDbPolyline
 90
       53
 70
     0
 43
0.0
 10
1552.525086026851
 20
807.0577858560165
 10
1552.523224405951
 20
807.1614742942164
 10
1552.517809178951
 20
807.2610468994165
 10
1552.509171059951
 20
807.3550297019163
 10
1552.497494696751
 20
807.4438100460165
 10
1552.482490557251
 20
807.5302025037165
 10
1552.463880617251
 20
807.6154756932165
 10
1552.441887830951
 20
807.6979731553164
 10
1552.416465275651
 20
807.7773068570165
 10
1552.387040535151
 20
807.8544551480165
 10
1552.353211853051
 20
807.9293944916164
 10
1552.315053688551
 20
808.0008736912164
 10
1552.275879653351
 20
808.0628058831164
 10
1552.239817140451
 20
808.1106358640166
 10
1552.205869921751
 20
808.1467076208165
 10
1552.170259843951
 20
808.1749888752165
 10
1552.129925027551
 20
808.1973491516166
 10
1552.084212632451
 20
808.2143991006164
 10
1552.033798960851
 20
808.2286213539164
 10
1551.978693744251
 20
808.2411605019165
 10
1551.918721247651
 20
808.2532970203164
 10
1551.853416821551
 20
808.2659062935166
 10
1551.782201751551
 20
808.2795428870165
 10
1551.704405428051
 20
808.2951906999165
 10
1551.619289599451
 20
808.3142239286164
 10
1551.525971933251
 20
808.3381333655164
 10
1551.423302490451
 20
808.3686794539165
 10
1551.309684908751
 20
808.4076262389164
 10
1551.183657553251
 20
808.4571250491164
 10
1551.045049141951
 20
808.5196176991164
 10
1550.903861298251
 20
808.5923203802165
 10
1550.770708511851
 20
808.6701001612166
 10
1550.646921715651
 20
808.7510510273165
 10
1550.527826727251
 20
808.8377874046164
 10
1550.404503152651
 20
808.9385058007165
 10
1550.271978892751
 20
809.0612375099166
 10
1550.143836392251
 20
809.1965940814164
 10
1550.031150930151
 20
809.3308910864164
 10
1549.936654450251
 20
809.4556293498165
 10
1549.855476909351
 20
809.5720770005165
 10
1549.783854026351
 20
809.6816514382165
 10
1549.719884322751
 20
809.7844631605164
 10
1549.662262411751
 20
809.8805094885165
 10
1549.610315965151
 20
809.9693838667164
 10
1549.563706771051
 20
810.0506316801165
 10
1549.522155609951
 20
810.1241843631164
 10
1549.484796080351
 20
810.1911964580164
 10
1549.450301445751
 20
810.2537907921165
 10
1549.417320046251
 20
810.3143049103165
 10
1549.384573688351
 20
810.3752284823166
 10
1549.351666601451
 20
810.4375520225165
 10
1549.318668453451
 20
810.5014128692165
 10
1549.285634100751
 20
810.5669462373166
  0
LWPOLYLINE
  5
3D7
330
1F
100
AcDbEntity
  8
0
  6
Continuous
 62
     7
100
AcDbPolyline
 90
       53
 70
     0
 43
0.0
 10
1552.525086026851
 20
807.0577858560165
 10
1552.523224405951
 20
806.9540974177165
 10
1552.517809178951
 20
806.8545248125165
 10
1552.509171059951
 20
806.7605420100164
 10
1552.497494696751
 20
806.6717616659165
 10
1552.482490557251
 20
806.5853692082166
 10
1552.463880617251
 20
806.5000960187164
 10
1552.441887830951
 20
806.4175985567164
 10
1552.416465275651
 20
806.3382648549165
 10
1552.387040535151
 20
806.2611165639165
 10
1552.353211853051
 20
806.1861772203165
 10
1552.315053688551
 20
806.1146980207166
 10
1552.275879653351
 20
806.0527658288165
 10
1552.239817140451
 20
806.0049358479165
 10
1552.205869921751
 20
805.9688640912165
 10
1552.170259843951
 20
805.9405828367165
 10
1552.129925027551
 20
805.9182225603164
 10
1552.084212632451
 20
805.9011726113165
 10
1552.033798960851
 20
805.8869503580165
 10
1551.978693744251
 20
805.8744112100166
 10
1551.918721247651
 20
805.8622746916164
 10
1551.853416821551
 20
805.8496654185164
 10
1551.782201751551
 20
805.8360288249165
 10
1551.704405428051
 20
805.8203810120165
 10
1551.619289599451
 20
805.8013477834165
 10
1551.525971933251
 20
805.7774383465165
 10
1551.423302490451
 20
805.7468922580165
 10
1551.309684908751
 20
805.7079454730164
 10
1551.183657553251
 20
805.6584466628164
 10
1551.045049141951
 20
805.5959540128165
 10
1550.903861298251
 20
805.5232513317164
 10
1550.770708511851
 20
805.4454715507166
 10
1550.646921715651
 20
805.3645206846166
 10
1550.527826727251
 20
805.2777843073165
 10
1550.404503152651
 20
805.1770659112165
 10
1550.271978892751
 20
805.0543342020166
 10
1550.143836392251
 20
804.9189776305166
 10
1550.031150930151
 20
804.7846806255165
 10
1549.936654450251
 20
804.6599423621165
 10
1549.855476909351
 20
804.5434947115165
 10
1549.783854026351
 20
804.4339202737164
 10
1549.719884322751
 20
804.3311085514165
 10
1549.662262411751
 20
804.2350622234165
 10
1549.610315965151
 20
804.1461878452166
 10
1549.563706771051
 20
804.0649400318164
 10
1549.522155609951
 20
803.9913873488165
 10
1549.484796080351
 20
803.9243752539166
 10
1549.450301445751
 20
803.8617809198164
 10
1549.417320046251
 20
803.8012668016165
 10
1549.384573688351
 20
803.7403432296166
 10
1549.351666601451
 20
803.6780196894165
 10
1549.318668453451
 20
803.6141588427165
 10
1549.285634100751
 20
803.5486254746166
  0
LWPOLYLINE
  5
3D8
330
1F
100
AcDbEntity
  8
0
  6
Continuous
 62
     7
100
AcDbPolyline
 90
       75
 70
     0
 43
0.0
 10
1556.183672714451
 20
814.6141705223165
 10
1556.077850134751
 20
814.8005205896165
 10
1555.969142661151
 20
814.9859917680165
 10
1555.857480360851
 20
815.1706641204166
 10
1555.742787195351
 20
815.3546182950165
 10
1555.625024122951
 20
815.5378675637164
 10
1555.504184359551
 20
815.7203729817165
 10
1555.380312754451
 20
815.9020226015165
 10
1555.253490069551
 20
816.0826566636165
 10
1555.123750580851
 20
816.2621884594164
 10
1554.991071408151
 20
816.4406143744166
 10
1554.855422589751
 20
816.6179381420166
 10
1554.716717273351
 20
816.7942328835165
 10
1554.574914146451
 20
816.9695075481165
 10
1554.430003988151
 20
817.1437289610164
 10
1554.281980995351
 20
817.3168597817165
 10
1554.13083772015
 20
817.4888651904165
 10
1553.976524102751
 20
817.6597572615165
 10
1553.818995395051
 20
817.8295390559165
 10
1553.658226184951
 20
817.9981903562165
 10
1553.494238838751
 20
818.1656412812165
 10
1553.327132844651
 20
818.3317473276165
 10
1553.157002491951
 20
818.4963755488166
 10
1552.983834803551
 20
818.6595020258165
 10
1552.807620325651
 20
818.8210989167165
 10
1552.62834672115
 20
818.9811406414165
 10
1552.445991937151
 20
819.1396095931164
 10
1552.260568030951
 20
819.2964587307164
 10
1552.072052782751
 20
819.4516695326164
 10
1551.880524747951
 20
819.6051419655164
 10
1551.685932530751
 20
819.7568829073164
 10
1551.488584014051
 20
819.9066235936165
 10
1551.289757268751
 20
820.0534000415165
 10
1551.090406789351
 20
820.1965336471165
 10
1550.890964511851
 20
820.3357656371165
 10
1550.691420295551
 20
820.4711664328165
 10
1550.491718068451
 20
820.6028305459165
 10
1550.291852449951
 20
820.7308148348165
 10
1550.091931930751
 20
820.8551046654164
 10
1549.892251874751
 20
820.9755814650165
 10
1549.693055215951
 20
821.0921755268165
 10
1549.494444230851
 20
821.2049043825164
 10
1549.296436274051
 20
821.3138330740164
 10
1549.099015200351
 20
821.4190439530165
 10
1548.902167150851
 20
821.5206152004165
 10
1548.705846302251
 20
821.6186386829164
 10
1548.509998462351
 20
821.7132062658166
 10
1548.314613142051
 20
821.8043858162165
 10
1548.119488067351
 20
821.8923240272165
 10
1547.923859763851
 20
821.9774055902163
 10
1547.727242561351
 20
822.0598689313165
 10
1547.529682769851
 20
822.1397123606164
 10
1547.331146882651
 20
822.2169674514164
 10
1547.131465608751
 20
822.2917136968165
 10
1546.930471099951
 20
822.3640209440164
 10
1546.728110314151
 20
822.4339120706165
 10
1546.524338114151
 20
822.5014055102164
 10
1546.318967644051
 20
822.5665616655165
 10
1546.111495492751
 20
822.6295288619164
 10
1545.901334831951
 20
822.6904634002163
 10
1545.688201981351
 20
822.7494167263165
 10
1545.472010214951
 20
822.8063774792165
 10
1545.252600841051
 20
822.8613502942165
 10
1545.029773700351
 20
822.9143447471164
 10
1544.803379528751
 20
822.9653513505164
 10
1544.573308438351
 20
823.0143473338165
 10
1544.339297710651
 20
823.0613379199164
 10
1544.100746928051
 20
823.1063838574165
 10
1543.856993981851
 20
823.1495447081165
 10
1543.607594817551
 20
823.1908271692164
 10
1543.352366771151
 20
823.2301850120164
 10
1543.090653125151
 20
823.2676375978165
 10
1542.821514391951
 20
823.3032157010164
 10
1542.547244316051
 20
823.3365626710165
 10
1542.273215924451
 20
823.3668959185164
  0
LWPOLYLINE
  5
3D9
330
1F
100
AcDbEntity
  8
0
  6
Continuous
 62
     7
100
AcDbPolyline
 90
       24
 70
     0
 43
0.0
 10
1558.285987986851
 20
807.0577858560165
 10
1558.284639344051
 20
807.2539793272165
 10
1558.280619545551
 20
807.4490449062164
 10
1558.273951476751
 20
807.6432121582165
 10
1558.264622033951
 20
807.8371500203164
 10
1558.252639629651
 20
808.0306837182165
 10
1558.238022119851
 20
808.2236412304165
 10
1558.220767133051
 20
808.4161604198165
 10
1558.200871863751
 20
808.6083139841164
 10
1558.178336411951
 20
808.8001189637164
 10
1558.153159650051
 20
808.9915935744164
 10
1558.125338465451
 20
809.1827602059165
 10
1558.094866914251
 20
809.3736486322164
 10
1558.061733648551
 20
809.5643080186166
 10
1558.025932964751
 20
809.7547420095166
 10
1557.987459752351
 20
809.9449479117165
 10
1557.946294503551
 20
810.1349854288166
 10
1557.902409031451
 20
810.3249335406164
 10
1557.855825505951
 20
810.5146508451165
 10
1557.806488651151
 20
810.7043135301164
 10
1557.754142993551
 20
810.8947660002165
 10
1557.699282842151
 20
811.0841573676164
 10
1557.642383986751
 20
811.2710527810165
 10
1557.583879502051
 20
811.4543341055165
  0
LWPOLYLINE
  5
3DA
330
1F
100
AcDbEntity
  8
0
  6
Continuous
 62
     7
100
AcDbPolyline
 90
       19
 70
     0
 43
0.0
 10
1557.843755765951
 20
802.5945520740165
 10
1557.898775428451
 20
802.8311833772164
 10
1557.951159324351
 20
803.0703301409165
 10
1558.000793786151
 20
803.3118249282164
 10
1558.047569586651
 20
803.5554922418166
 10
1558.091330238151
 20
803.8008417290164
 10
1558.131754676051
 20
804.0461858161163
 10
1558.168833122251
 20
804.2913695998166
 10
1558.202571570251
 20
804.5363043293164
 10
1558.233011943051
 20
804.7811745756165
 10
1558.260266909551
 20
805.0268724253164
 10
1558.284373431551
 20
805.2738075438165
 10
1558.305336728051
 20
805.5222187442165
 10
1558.323151286051
 20
805.7723424508164
 10
1558.337795070751
 20
806.0242832007164
 10
1558.349255000151
 20
806.2784271043165
 10
1558.357505679651
 20
806.5352939520165
 10
1558.362495431651
 20
806.7950411368165
 10
1558.364170634151
 20
807.0577858560165
  0
LWPOLYLINE
  5
3DB
330
1F
100
AcDbEntity
  8
0
  6
Continuous
 62
     7
100
AcDbPolyline
 90
        4
 70
     0
 43
0.0
 10
1557.820509401451
 20
802.4984272150165
 10
1557.828298748651
 20
802.5304291175165
 10
1557.836047648451
 20
802.5624707063165
 10
1557.843755765951
 20
802.5945520740165
  0
LWPOLYLINE
  5
3DC
330
1F
100
AcDbEntity
  8
0
  6
Continuous
 62
     7
100
AcDbPolyline
 90
       24
 70
     0
 43
0.0
 10
1557.583879544451
 20
802.6612375955163
 10
1557.643381468651
 20
802.8477191940165
 10
1557.700559112451
 20
803.0357127440165
 10
1557.755214706551
 20
803.2246045377164
 10
1557.807258354851
 20
803.4141370984166
 10
1557.856528847851
 20
803.6037038976164
 10
1557.903030237851
 20
803.7932462314165
 10
1557.946843162251
 20
803.9830386734164
 10
1557.987957290051
 20
804.1730004894164
 10
1558.026381884951
 20
804.3631314871165
 10
1558.062125687251
 20
804.5534321631166
 10
1558.095200846151
 20
804.7439272983165
 10
1558.125621924351
 20
804.9346702775164
 10
1558.153398129051
 20
805.1257008175165
 10
1558.178532783851
 20
805.3170310252165
 10
1558.201028563851
 20
805.5086764067166
 10
1558.220888640551
 20
805.7006700256165
 10
1558.238114363551
 20
805.8930465329165
 10
1558.252699330951
 20
806.0857555655164
 10
1558.264678871951
 20
806.2794554605165
 10
1558.274008792751
 20
806.4737516654165
 10
1558.280623360351
 20
806.6666656887164
 10
1558.284607914751
 20
806.8593196891166
 10
1558.285987986851
 20
807.0577858560165
  0
LWPOLYLINE
  5
3DD
330
1F
100
AcDbEntity
  8
0
  6
Continuous
 62
     7
100
AcDbPolyline
 90
       16
 70
     0
 43
0.0
 10
1556.769726397551
 20
799.1653531237164
 10
1556.851979720551
 20
799.3860253674165
 10
1556.933019237851
 20
799.6076895760165
 10
1557.012748188351
 20
799.8302447555166
 10
1557.091065995751
 20
800.0535916695165
 10
1557.167775346551
 20
800.2773576728165
 10
1557.242556072551
 20
800.5007852267166
 10
1557.315335635151
 20
800.7238326161164
 10
1557.386072626451
 20
800.9465548760164
 10
1557.454751711751
 20
801.1690469265165
 10
1557.521357904451
 20
801.3914064012165
 10
1557.585817691751
 20
801.6135645857165
 10
1557.648031534751
 20
801.8353718367164
 10
1557.707929027051
 20
802.0567881266165
 10
1557.765445181051
 20
802.2778092364164
 10
1557.820509401451
 20
802.4984272150165
  0
LWPOLYLINE
  5
3DE
330
1F
100
AcDbEntity
  8
0
  6
Continuous
 62
     7
100
AcDbPolyline
 90
        4
 70
     0
 43
0.0
 10
1556.676006916151
 20
798.9187042248166
 10
1556.707638947351
 20
799.0009114221164
 10
1556.738878040951
 20
799.0831277010165
 10
1556.769726397551
 20
799.1653531237164
  0
LWPOLYLINE
  5
3DF
330
1F
100
AcDbEntity
  8
0
  6
Continuous
 62
     7
100
AcDbPolyline
 90
       19
 70
     0
 43
0.0
 10
1556.183672714651
 20
799.5014011895165
 10
1556.283375979151
 20
799.6818881021165
 10
1556.380644253251
 20
799.8622731472164
 10
1556.475514923051
 20
800.0426193567165
 10
1556.568019318151
 20
800.2229860879165
 10
1556.658192545551
 20
800.4034496895165
 10
1556.746099011551
 20
800.5841580435165
 10
1556.831807130051
 20
800.7652865508164
 10
1556.915345606951
 20
800.9469460500165
 10
1556.996712950651
 20
801.1291938246165
 10
1557.075897138951
 20
801.3120624031165
 10
1557.152866450851
 20
801.4955327741166
 10
1557.227766748651
 20
801.6800315717166
 10
1557.299992324351
 20
801.8640989776166
 10
1557.366832358551
 20
802.0404127479165
 10
1557.428233533251
 20
802.2079935619165
 10
1557.484620204751
 20
802.3671393740164
 10
1557.536405386551
 20
802.5182065649165
 10
1557.583879544451
 20
802.6612375955163
  0
LWPOLYLINE
  5
3E0
330
1F
100
AcDbEntity
  8
0
  6
Continuous
 62
     7
100
AcDbPolyline
 90
       26
 70
     0
 43
0.0
 10
1558.153125288151
 20
815.8888544504165
 10
1557.757215168051
 20
816.7352050597164
 10
1557.326421180151
 20
817.5604419478165
 10
1556.861949995651
 20
818.3628139663165
 10
1556.365024118351
 20
819.1406927370165
 10
1555.836918448751
 20
819.8927076800165
 10
1555.279003244651
 20
820.6174510307164
 10
1554.692644320951
 20
821.3136008013165
 10
1554.079189215251
 20
821.9801054594165
 10
1553.440215358151
 20
822.6157463943165
 10
1552.777207686851
 20
823.2194612828164
 10
1552.091434061751
 20
823.7905679146164
 10
1551.384377801051
 20
824.3282520984164
 10
1550.657401606651
 20
824.8318088027165
 10
1549.911725823351
 20
825.3007450041165
 10
1549.148955480251
 20
825.7343826122164
 10
1548.370589658951
 20
826.1321206478164
 10
1547.577909379651
 20
826.4935718109164
 10
1546.772240509051
 20
826.8183857541165
 10
1545.955367084951
 20
827.1060170682165
 10
1545.129633234251
 20
827.3558925345165
 10
1544.297514259151
 20
827.5675752923165
 10
1543.459747317351
 20
827.7410908214164
 10
1542.615566217551
 20
827.8767145260164
 10
1541.765374604951
 20
827.9744512251165
 10
1540.909895923151
 20
828.0341233901165
  0
LWPOLYLINE
  5
3E1
330
1F
100
AcDbEntity
  8
0
  6
Continuous
 62
     7
100
AcDbPolyline
 90
       87
 70
     0
 43
0.0
 10
1556.676006918251
 20
815.1968674877165
 10
1556.577892690551
 20
815.4457078309164
 10
1556.476755319351
 20
815.6934242787166
 10
1556.372604174251
 20
815.9399581739164
 10
1556.265450871751
 20
816.1852483704164
 10
1556.155318361251
 20
816.4292118269166
 10
1556.042228766951
 20
816.6717727285165
 10
1555.926200963151
 20
816.9128664518165
 10
1555.807255714251
 20
817.1524277755166
 10
1555.685416564451
 20
817.3903894661165
 10
1555.560737592451
 20
817.6266308872165
 10
1555.433420400151
 20
817.8607672053164
 10
1555.303550457651
 20
818.0926452620164
 10
1555.171175709951
 20
818.3221878843164
 10
1555.036345643251
 20
818.5493206858165
 10
1554.899109788751
 20
818.7739744448165
 10
1554.759508283451
 20
818.9960995235164
 10
1554.617579324051
 20
819.2156520655165
 10
1554.473361928951
 20
819.4325892953166
 10
1554.326892727551
 20
819.6468744727164
 10
1554.178309875851
 20
819.8583304579164
 10
1554.027834278051
 20
820.0666803450165
 10
1553.875553324251
 20
820.2718441807164
 10
1553.721545432851
 20
820.4737600670165
 10
1553.565910838751
 20
820.6723445453164
 10
1553.408868512951
 20
820.8673775186165
 10
1553.250524121751
 20
821.0587933518164
 10
1553.090964976051
 20
821.2465448531164
 10
1552.930297682351
 20
821.4305672223165
 10
1552.768637791751
 20
821.6107938691164
 10
1552.606004118451
 20
821.7872700259166
 10
1552.442331972451
 20
821.9601243625165
 10
1552.277608803151
 20
822.1294261261165
 10
1552.111835960951
 20
822.2952268416165
 10
1551.945133493251
 20
822.4574593863165
 10
1551.777365187351
 20
822.6163042133165
 10
1551.607754758851
 20
822.7725047961165
 10
1551.435756066851
 20
822.9265501133165
 10
1551.260854504051
 20
823.0789029513164
 10
1551.082391150551
 20
823.2301004206165
 10
1550.900238277451
 20
823.3801868438165
 10
1550.714786102251
 20
823.5287855332165
 10
1550.525981844751
 20
823.6758968652164
 10
1550.333907694351
 20
823.8214110315166
 10
1550.138684248251
 20
823.9651946231164
 10
1549.940377293251
 20
824.1071631821165
 10
1549.738970290451
 20
824.2472934434164
 10
1549.534462710151
 20
824.3855489758164
 10
1549.326868422751
 20
824.5218849664164
 10
1549.116216884951
 20
824.6562466213164
 10
1548.902556533651
 20
824.7885694729164
 10
1548.685883298151
 20
824.9188231756164
 10
1548.466264653251
 20
825.0469339280165
 10
1548.243857110851
 20
825.1727820989165
 10
1548.018778223151
 20
825.2962745480164
 10
1547.791090358951
 20
825.4173531566165
 10
1547.560845817451
 20
825.5359677355166
 10
1547.328200164651
 20
825.6520183381164
 10
1547.093264783651
 20
825.7654332260164
 10
1546.856343268951
 20
825.8760518947164
 10
1546.617840882251
 20
825.9836839009164
 10
1546.377405009651
 20
826.0884824224165
 10
1546.135531928151
 20
826.1902217770165
 10
1545.893911010951
 20
826.2882262006165
 10
1545.652737335151
 20
826.3824808408164
 10
1545.417391085951
 20
826.4710577818165
 10
1545.194700327051
 20
826.5516077836165
 10
1544.988011581851
 20
826.6232002899164
 10
1544.795112222751
 20
826.6869971570166
 10
1544.610435929451
 20
826.7451612771164
 10
1544.431597467151
 20
826.7986439848165
 10
1544.257491601351
 20
826.8479114023165
 10
1544.086288446851
 20
826.8935867563165
 10
1543.916684587851
 20
826.9361296496166
 10
1543.747656213051
 20
826.9758631933164
 10
1543.577568417251
 20
827.0131697376164
 10
1543.403351511051
 20
827.0486624166164
 10
1543.223004416951
 20
827.0826468058164
 10
1543.035697801451
 20
827.1151316193165
 10
1542.840663408551
 20
827.1460833698165
 10
1542.637043314951
 20
827.1754559527163
 10
1542.423862474151
 20
827.2031924362165
 10
1542.200010442451
 20
827.2292226640166
 10
1541.964413873051
 20
827.2534352950165
 10
1541.715309921251
 20
827.2757511131164
 10
1541.449463669851
 20
827.2961543216165
 10
1541.163432633151
 20
827.3145475060164
  0
LWPOLYLINE
  5
3E2
330
1F
100
AcDbEntity
  8
0
  6
Continuous
 62
     7
100
AcDbPolyline
 90
        4
 70
     0
 43
0.0
 10
1556.769726397451
 20
814.9502185881164
 10
1556.738884189551
 20
815.0324277259164
 10
1556.707645164551
 20
815.1146440320164
 10
1556.676006918251
 20
815.1968674877165
  0
LWPOLYLINE
  5
3E3
330
1F
100
AcDbEntity
  8
0
  6
Continuous
 62
     7
100
AcDbPolyline
 90
       18
 70
     0
 43
0.0
 10
1557.583879502051
 20
811.4543341055165
 10
1557.520001095851
 20
811.6457590295166
 10
1557.453661745051
 20
811.8364641372165
 10
1557.384964884351
 20
812.0262556018165
 10
1557.313903940351
 20
812.2152697135165
 10
1557.240506787551
 20
812.4035292071166
 10
1557.165025385851
 20
812.5905036094165
 10
1557.087291500351
 20
812.7767172771164
 10
1557.007247832251
 20
812.9623729921165
 10
1556.924958607351
 20
813.1473766560164
 10
1556.840446156851
 20
813.3317408947165
 10
1556.753699931851
 20
813.5155537133165
 10
1556.664693212651
 20
813.6989250967165
 10
1556.573360002151
 20
813.8820286099164
 10
1556.479629376151
 20
814.0650272895165
 10
1556.383464332451
 20
814.2480020550165
 10
1556.284831245951
 20
814.4310169143164
 10
1556.183672714451
 20
814.6141705223165
  0
LWPOLYLINE
  5
3E4
330
1F
100
AcDbEntity
  8
0
  6
Continuous
 62
     7
100
AcDbPolyline
 90
       16
 70
     0
 43
0.0
 10
1557.820509401451
 20
811.6171444969165
 10
1557.765435036051
 20
811.8378022644165
 10
1557.707908926251
 20
812.0588593141164
 10
1557.648003084951
 20
812.2803031203165
 10
1557.585783817851
 20
812.5021258283165
 10
1557.521314760951
 20
812.7243116121164
 10
1557.454702994551
 20
812.9466849577166
 10
1557.386035911651
 20
813.1691340694164
 10
1557.315326630351
 20
813.3917670616165
 10
1557.242574835951
 20
813.6147297202164
 10
1557.167805254551
 20
813.8381257618165
 10
1557.091079530251
 20
814.0619410131163
 10
1557.012683119951
 20
814.2855105074165
 10
1556.932925953551
 20
814.5081398527166
 10
1556.851910695451
 20
814.7297332995165
 10
1556.769726397451
 20
814.9502185881164
  0
LWPOLYLINE
  5
3E5
330
1F
100
AcDbEntity
  8
0
  6
Continuous
 62
     7
100
AcDbPolyline
 90
        4
 70
     0
 43
0.0
 10
1557.843755765851
 20
811.5210196379164
 10
1557.836047653751
 20
811.5531009832164
 10
1557.828298754151
 20
811.5851425718165
 10
1557.820509401451
 20
811.6171444969165
  0
LWPOLYLINE
  5
3E6
330
1F
100
AcDbEntity
  8
0
  6
Continuous
 62
     7
100
AcDbPolyline
 90
        7
 70
     0
 43
0.0
 10
1559.979909141951
 20
808.1645323702165
 10
1559.969305972051
 20
808.3585162608164
 10
1559.910778727451
 20
809.1232354947164
 10
1559.827172912051
 20
809.8738161371164
 10
1559.719698837751
 20
810.6096765706165
 10
1559.589635902851
 20
811.3299284620165
 10
1559.441004217851
 20
812.0219720241165
  0
LWPOLYLINE
  5
3E7
330
1F
100
AcDbEntity
  8
0
  6
Continuous
 62
     7
100
AcDbPolyline
 90
        3
 70
     0
 43
0.0
 10
1560.007701909051
 20
807.0577858560165
 10
1559.991859173551
 20
807.8934534214166
 10
1559.979909141951
 20
808.1645323702165
  0
LWPOLYLINE
  5
3E8
330
1F
100
AcDbEntity
  8
0
  6
Continuous
 62
     7
100
AcDbPolyline
 90
       19
 70
     0
 43
0.0
 10
1558.364170634151
 20
807.0577858560165
 10
1558.362501032851
 20
807.3200923052164
 10
1558.357525194851
 20
807.5795168418164
 10
1558.349289947751
 20
807.8362388933165
 10
1558.337838847951
 20
808.0904398679164
 10
1558.323210375051
 20
808.3423152184165
 10
1558.305424398651
 20
808.5922257079165
 10
1558.284480857451
 20
808.8405832685165
 10
1558.260404160351
 20
809.0873825219166
 10
1558.233199697051
 20
809.3328001650164
 10
1558.202784423151
 20
809.5776422548166
 10
1558.169093297351
 20
809.8224006661165
 10
1558.132072433951
 20
810.0673738915164
 10
1558.091704887451
 20
810.3125453588166
 10
1558.047959775351
 20
810.5579716812165
 10
1558.001028946851
 20
810.8025634854165
 10
1557.951245440151
 20
811.0448359289165
 10
1557.898769273251
 20
811.2844155939164
 10
1557.843755765851
 20
811.5210196379164
  0
LWPOLYLINE
  5
3E9
330
1F
100
AcDbEntity
  8
0
  6
Continuous
 62
     7
100
AcDbPolyline
 90
        3
 70
     0
 43
0.0
 10
1559.979909141951
 20
805.9510393417165
 10
1559.991859173551
 20
806.2221182905165
 10
1560.007701909051
 20
807.0577858560165
  0
LWPOLYLINE
  5
3EA
330
1F
100
AcDbEntity
  8
0
  6
Continuous
 62
     7
100
AcDbPolyline
 90
        7
 70
     0
 43
0.0
 10
1559.441004217851
 20
802.0935996878165
 10
1559.589635902851
 20
802.7856432499165
 10
1559.719698837751
 20
803.5058951413164
 10
1559.827172912051
 20
804.2417555748164
 10
1559.910778727451
 20
804.9923362172163
 10
1559.969305972051
 20
805.7570554512164
 10
1559.979909141951
 20
805.9510393417165
  0
LINE
  5
3EB
330
1F
100
AcDbEntity
  8
0
  6
Continuous
 62
     7
100
AcDbLine
 10
1559.331965233951
 20
801.6448193054165
 30
0.0
 11
1559.441004402151
 21
802.0936004831165
 31
0.0
  0
LWPOLYLINE
  5
3EC
330
1F
100
AcDbEntity
  8
0
  6
Continuous
 62
     7
100
AcDbPolyline
 90
        3
 70
     0
 43
0.0
 10
1559.118459921551
 20
800.8655247533166
 10
1559.206488988651
 20
801.1733113246165
 10
1559.331965233951
 20
801.6448193054165
  0
LWPOLYLINE
  5
3ED
330
1F
100
AcDbEntity
  8
0
  6
Continuous
 62
     7
100
AcDbPolyline
 90
        5
 70
     0
 43
0.0
 10
1558.153125288151
 20
798.2267172615165
 10
1558.466654209251
 20
798.9746525436165
 10
1558.752942210751
 20
799.7368138584165
 10
1559.011112058651
 20
800.5114708752165
 10
1559.118459921551
 20
800.8655247533166
  0
LWPOLYLINE
  5
3EE
330
1F
100
AcDbEntity
  8
0
  6
Continuous
 62
     7
100
AcDbPolyline
 90
        5
 70
     0
 43
0.0
 10
1559.118459921551
 20
813.2500469586165
 10
1559.011112058651
 20
813.6041008368165
 10
1558.752942210751
 20
814.3787578535164
 10
1558.466654209251
 20
815.1409191683164
 10
1558.153125288151
 20
815.8888544504165
  0
LWPOLYLINE
  5
3EF
330
1F
100
AcDbEntity
  8
0
  6
Continuous
 62
     7
100
AcDbPolyline
 90
        4
 70
     0
 43
0.0
 10
1559.441004402151
 20
812.0219712289165
 10
1559.331965233951
 20
812.4707524065165
 10
1559.206488988651
 20
812.9422603873164
 10
1559.118459921551
 20
813.2500469586165
  0
CIRCLE
  5
3F0
330
1F
100
AcDbEntity
  8
0
  6
Continuous
 62
     7
100
AcDbCircle
 10
1524.007708096551
 20
799.5577858560165
 30
0.0
 40
1.448223304699999
  0
ELLIPSE
  5
3F1
330
1F
100
AcDbEntity
  8
0
  6
Continuous
 62
     7
100
AcDbEllipse
 10
1524.007708096551
 20
815.8060037978165
 30
0.0
 11
71.12499999999998
 21
0.0
 31
0.0
210
0.0
220
0.0
230
1.0
 40
0.0978171768
 41
1.680932368199999
 42
1.7186818847
  0
ELLIPSE
  5
3F2
330
1F
100
AcDbEntity
  8
0
  6
Continuous
 62
     7
100
AcDbEllipse
 10
1524.007708096551
 20
815.8060037978165
 30
0.0
 11
71.12499999999998
 21
0.0
 31
0.0
210
0.0
220
0.0
230
1.0
 40
0.0978171768
 41
1.422910768899999
 42
1.460660285399999
  0
ELLIPSE
  5
3F3
330
1F
100
AcDbEntity
  8
0
  6
Continuous
 62
     7
100
AcDbEllipse
 10
1519.124675136551
 20
822.7650502927165
 30
0.0
 11
2.25
 21
0.0
 31
0.0
210
0.0
220
0.0
230
1.0
 40
0.1919770189
 41
-2.8986547397
 42
-2.8757349037
  0
ELLIPSE
  5
3F4
330
1F
100
AcDbEntity
  8
0
  6
Continuous
 62
     7
100
AcDbEllipse
 10
1528.890741056551
 20
822.7650502927165
 30
0.0
 11
2.25
 21
0.0
 31
0.0
210
0.0
220
0.0
230
1.0
 40
0.1919770189
 41
-0.2658577499
 42
-0.2429379139
  0
ELLIPSE
  5
3F5
330
1F
100
AcDbEntity
  8
0
  6
Continuous
 62
     7
100
AcDbEllipse
 10
1524.007708096551
 20
798.3095679141166
 30
0.0
 11
71.12499999999998
 21
0.0
 31
0.0
210
0.0
220
0.0
230
1.0
 40
0.0978171768
 41
-1.460660285399999
 42
-1.422910768899999
  0
ELLIPSE
  5
3F6
330
1F
100
AcDbEntity
  8
0
  6
Continuous
 62
     7
100
AcDbEllipse
 10
1524.007708096551
 20
798.3095679141166
 30
0.0
 11
71.12499999999998
 21
0.0
 31
0.0
210
0.0
220
0.0
230
1.0
 40
0.0978171768
 41
-1.7186818847
 42
-1.680932368199999
  0
ELLIPSE
  5
3F7
330
1F
100
AcDbEntity
  8
0
  6
Continuous
 62
     7
100
AcDbEllipse
 10
1528.890741056551
 20
791.3505214192165
 30
0.0
 11
2.25
 21
0.0
 31
0.0
210
0.0
220
0.0
230
1.0
 40
0.1919770189
 41
0.2429379139
 42
0.2658577499
  0
ELLIPSE
  5
3F8
330
1F
100
AcDbEntity
  8
0
  6
Continuous
 62
     7
100
AcDbEllipse
 10
1519.124675136551
 20
791.3505214192165
 30
0.0
 11
2.25
 21
0.0
 31
0.0
210
0.0
220
0.0
230
1.0
 40
0.1919770189
 41
2.8757349037
 42
2.898654739599999
  0
ENDSEC
  0
SECTION
  2
OBJECTS
  0
DICTIONARY
  5
C
330
0
100
AcDbDictionary
281
     1
  3
ACAD_COLOR
350
6B
  3
ACAD_GROUP
350
D
  3
ACAD_LAYOUT
350
1A
  3
ACAD_MATERIAL
350
6A
  3
ACAD_MLEADERSTYLE
350
12D
  3
ACAD_MLINESTYLE
350
17
  3
ACAD_PLOTSETTINGS
350
19
  3
ACAD_PLOTSTYLENAME
350
E
  3
ACAD_SCALELIST
350
10C
  3
ACAD_TABLESTYLE
350
7E
  3
ACAD_VISUALSTYLE
350
EF
  3
ACDB_RECOMPOSE_DATA
350
15D
  3
AcDbVariableDictionary
350
5E
  3
DWGPROPS
350
470
  0
DICTIONARY
  5
456
330
8
100
AcDbDictionary
280
     1
281
     1
  0
DICTIONARY
  5
13C
330
10
100
AcDbDictionary
280
     1
281
     1
  0
DICTIONARY
  5
1CE
330
1F
100
AcDbDictionary
280
     1
281
     1
  0
DICTIONARY
  5
6B
102
{ACAD_REACTORS
330
C
102
}
330
C
100
AcDbDictionary
281
     1
  0
DICTIONARY
  5
D
102
{ACAD_REACTORS
330
C
102
}
330
C
100
AcDbDictionary
281
     1
  0
DICTIONARY
  5
1A
102
{ACAD_REACTORS
330
C
102
}
330
C
100
AcDbDictionary
281
     1
  3
Model
350
22
  3
Présentation1
350
D3
  3
Présentation2
350
D7
  0
DICTIONARY
  5
6A
102
{ACAD_REACTORS
330
C
102
}
330
C
100
AcDbDictionary
281
     1
  3
ByBlock
350
ED
  3
ByLayer
350
EC
  3
Global
350
EE
  0
DICTIONARY
  5
12D
102
{ACAD_REACTORS
330
C
102
}
330
C
100
AcDbDictionary
281
     1
  3
Annotatif
350
13B
  3
Standard
350
12E
  0
DICTIONARY
  5
17
102
{ACAD_REACTORS
330
C
102
}
330
C
100
AcDbDictionary
281
     1
  3
Standard
350
18
  0
DICTIONARY
  5
19
102
{ACAD_REACTORS
330
C
102
}
330
C
100
AcDbDictionary
281
     1
  0
ACDBDICTIONARYWDFLT
  5
E
102
{ACAD_REACTORS
330
C
102
}
330
C
100
AcDbDictionary
281
     1
  3
Normal
350
F
100
AcDbDictionaryWithDefault
340
F
  0
DICTIONARY
  5
10C
102
{ACAD_REACTORS
330
C
102
}
330
C
100
AcDbDictionary
281
     1
  3
A0
350
10D
  3
A1
350
1BE
  3
A2
350
1BF
  3
A3
350
1C0
  3
A4
350
1C1
  3
A5
350
1C2
  3
A6
350
1C3
  3
A7
350
1C4
  3
A8
350
1C5
  3
A9
350
1C6
  3
B0
350
1C7
  3
B1
350
1C8
  3
B2
350
1C9
  3
B3
350
1CA
  3
B4
350
1CB
  3
B5
350
1CC
  3
B6
350
1CD
  0
DICTIONARY
  5
7E
102
{ACAD_REACTORS
330
C
102
}
330
C
100
AcDbDictionary
281
     1
  3
Standard
350
7F
  0
DICTIONARY
  5
EF
102
{ACAD_REACTORS
330
C
102
}
330
C
100
AcDbDictionary
281
     1
  3
2dWireframe
350
F5
  3
3D Hidden
350
F7
  3
3dWireframe
350
F6
  3
Basic
350
F4
  3
Brighten
350
FB
  3
ColorChange
350
FF
  3
Conceptual
350
F8
  3
Dim
350
FA
  3
Facepattern
350
FE
  3
Flat
350
F0
  3
FlatWithEdges
350
F1
  3
Gouraud
350
F2
  3
GouraudWithEdges
350
F3
  3
Linepattern
350
FD
  3
Realistic
350
F9
  3
Thicken
350
FC
  0
XRECORD
  5
15D
102
{ACAD_REACTORS
330
C
102
}
330
C
100
AcDbXrecord
280
     1
 90
        1
330
7F
  0
DICTIONARY
  5
5E
102
{ACAD_REACTORS
330
C
102
}
330
C
100
AcDbDictionary
281
     1
  3
CANNOSCALE
350
146
  3
CMLEADERSTYLE
350
145
  3
CTABLESTYLE
350
84
  3
DIMASSOC
350
5F
  3
HIDETEXT
350
63
  3
INDEXCTL
350
467
  3
LAYEREVAL
350
1AE
  3
LAYERNOTIFY
350
1AF
  3
LIGHTINGUNITS
350
465
  3
MSLTSCALE
350
464
  3
PSOLHEIGHT
350
46E
  3
PSOLWIDTH
350
46D
  3
SORTENTS
350
466
  0
XRECORD
  5
470
102
{ACAD_REACTORS
330
C
102
}
330
C
100
AcDbXrecord
280
     1
  1
DWGPROPS COOKIE
  2

  3

  4

  6

  7

  8
crystelled
  9

300
=
301
=
302
=
303
=
304
=
305
=
306
=
307
=
308
=
309
=
 40
0.0037017361111111
 41
2456624.493187176
 42
2456624.497548796
  1

 90
        0
  0
LAYOUT
  5
22
102
{ACAD_XDICTIONARY
360
471
102
}
102
{ACAD_REACTORS
330
1A
102
}
330
1A
100
AcDbPlotSettings
  1

  2
none_device
  4
ISO_A4_(210.00_x_297.00_MM)
  6

 40
7.5
 41
20.0
 42
7.5
 43
20.0
 44
210.0
 45
297.0
 46
11.54999923706054
 47
-13.65000009536743
 48
0.0
 49
0.0
140
0.0
141
0.0
142
1.0
143
8.704084754739808
 70
 11952
 72
     1
 73
     0
 74
     0
  7

 75
     0
147
0.1148885871608098
148
0.0
149
0.0
100
AcDbLayout
  1
Model
 70
     1
 71
     0
 10
0.0
 20
0.0
 11
12.0
 21
9.0
 12
0.0
 22
0.0
 32
0.0
 14
0.0
 24
0.0
 34
0.0
 15
0.0
 25
0.0
 35
0.0
146
0.0
 13
0.0
 23
0.0
 33
0.0
 16
1.0
 26
0.0
 36
0.0
 17
0.0
 27
1.0
 37
0.0
 76
     0
330
1F
331
EA
1001
ACAD_PSEXT
1000
None
1000
None
1000
Not applicable
1000
The layout will not be plotted unless a new plotter configuration name is selected.
1070
     0
  0
LAYOUT
  5
D3
102
{ACAD_XDICTIONARY
360
474
102
}
102
{ACAD_REACTORS
330
1A
102
}
330
1A
100
AcDbPlotSettings
  1

  2
C:\Documents and Settings\basas\Application Data\Autodesk\AutoCAD 2005\R16.1\enu\plotters\Default Windows System Printer.pc3
  4

  6

 40
0.0
 41
0.0
 42
0.0
 43
0.0
 44
0.0
 45
0.0
 46
0.0
 47
0.0
 48
0.0
 49
0.0
140
0.0
141
0.0
142
1.0
143
1.0
 70
   688
 72
     0
 73
     0
 74
     5
  7

 75
    16
147
1.0
148
0.0
149
0.0
100
AcDbLayout
  1
Présentation1
 70
     1
 71
     1
 10
0.0
 20
0.0
 11
12.0
 21
9.0
 12
0.0
 22
0.0
 32
0.0
 14
0.0
 24
0.0
 34
0.0
 15
0.0
 25
0.0
 35
0.0
146
0.0
 13
0.0
 23
0.0
 33
0.0
 16
1.0
 26
0.0
 36
0.0
 17
0.0
 27
1.0
 37
0.0
 76
     0
330
D2
  0
LAYOUT
  5
D7
102
{ACAD_XDICTIONARY
360
476
102
}
102
{ACAD_REACTORS
330
1A
102
}
330
1A
100
AcDbPlotSettings
  1

  2
C:\Documents and Settings\basas\Application Data\Autodesk\AutoCAD 2005\R16.1\enu\plotters\Default Windows System Printer.pc3
  4

  6

 40
0.0
 41
0.0
 42
0.0
 43
0.0
 44
0.0
 45
0.0
 46
0.0
 47
0.0
 48
0.0
 49
0.0
140
0.0
141
0.0
142
1.0
143
1.0
 70
   688
 72
     0
 73
     0
 74
     5
  7

 75
    16
147
1.0
148
0.0
149
0.0
100
AcDbLayout
  1
Présentation2
 70
     1
 71
     2
 10
0.0
 20
0.0
 11
12.0
 21
9.0
 12
0.0
 22
0.0
 32
0.0
 14
0.0
 24
0.0
 34
0.0
 15
0.0
 25
0.0
 35
0.0
146
0.0
 13
0.0
 23
0.0
 33
0.0
 16
1.0
 26
0.0
 36
0.0
 17
0.0
 27
1.0
 37
0.0
 76
     0
330
D6
  0
MATERIAL
  5
ED
102
{ACAD_XDICTIONARY
360
47A
102
}
102
{ACAD_REACTORS
330
6A
102
}
330
6A
100
AcDbMaterial
  1
ByBlock
  0
MATERIAL
  5
EC
102
{ACAD_XDICTIONARY
360
478
102
}
102
{ACAD_REACTORS
330
6A
102
}
330
6A
100
AcDbMaterial
  1
ByLayer
  0
MATERIAL
  5
EE
102
{ACAD_XDICTIONARY
360
173
102
}
102
{ACAD_REACTORS
330
6A
102
}
330
6A
100
AcDbMaterial
  1
Global
 43
0.0007999999797903
 43
0.0
 43
0.0
 43
0.0
 43
0.0
 43
0.0007999999797903
 43
0.0
 43
0.0
 43
0.0
 43
0.0
 43
1.0
 43
0.0
 43
0.0
 43
0.0
 43
0.0
 43
1.0
 49
0.0007999999797903
 49
0.0
 49
0.0
 49
0.0
 49
0.0
 49
0.0007999999797903
 49
0.0
 49
0.0
 49
0.0
 49
0.0
 49
1.0
 49
0.0
 49
0.0
 49
0.0
 49
0.0
 49
1.0
142
0.0007999999797903
142
0.0
142
0.0
142
0.0
142
0.0
142
0.0007999999797903
142
0.0
142
0.0
142
0.0
142
0.0
142
1.0
142
0.0
142
0.0
142
0.0
142
0.0
142
1.0
144
0.0007999999797903
144
0.0
144
0.0
144
0.0
144
0.0
144
0.0007999999797903
144
0.0
144
0.0
144
0.0
144
0.0
144
1.0
144
0.0
144
0.0
144
0.0
144
0.0
144
1.0
1001
ACAD
1070
    -1
1070
     3
1070
     0
1000

1071
        0
1070
     0
  0
MLEADERSTYLE
  5
13B
102
{ACAD_REACTORS
330
12D
102
}
330
12D
100
AcDbMLeaderStyle
170
     2
171
     1
172
     0
 90
        2
 40
0.0
 41
0.0
173
     1
 91
-1056964608
340
14
 92
       -2
290
     1
 42
2.0
291
     1
 43
8.0
  3
Standard
 44
4.0
300

342
11
174
     1
178
     1
175
     1
176
     0
 93
-1056964608
 45
4.0
292
     0
297
     0
 46
4.0
 94
-1056964608
 47
1.0
 49
1.0
140
1.0
293
     1
141
0.0
294
     1
177
     0
142
1.0
295
     0
296
     1
143
3.75
1001
ACAD_MLEADERVER
1070
     2
  0
MLEADERSTYLE
  5
12E
102
{ACAD_REACTORS
330
12D
102
}
330
12D
100
AcDbMLeaderStyle
170
     2
171
     1
172
     0
 90
        2
 40
0.0
 41
0.0
173
     1
 91
-1056964608
340
14
 92
       -2
290
     1
 42
2.0
291
     1
 43
8.0
  3
Standard
 44
4.0
300

342
11
174
     1
178
     1
175
     1
176
     0
 93
-1056964608
 45
4.0
292
     0
297
     0
 46
4.0
 94
-1056964608
 47
1.0
 49
1.0
140
1.0
293
     1
141
0.0
294
     1
177
     0
142
1.0
295
     0
296
     0
143
3.75
1001
ACAD_MLEADERVER
1070
     2
  0
MLINESTYLE
  5
18
102
{ACAD_REACTORS
330
17
102
}
330
17
100
AcDbMlineStyle
  2
STANDARD
 70
     0
  3

 62
   256
 51
90.0
 52
90.0
 71
     2
 49
0.5
 62
   256
  6
BYLAYER
 49
-0.5
 62
   256
  6
BYLAYER
  0
ACDBPLACEHOLDER
  5
F
102
{ACAD_REACTORS
330
E
102
}
330
E
  0
SCALE
  5
10D
102
{ACAD_REACTORS
330
10C
102
}
330
10C
100
AcDbScale
 70
     0
300
1:1
140
1.0
141
1.0
290
     1
  0
SCALE
  5
1BE
102
{ACAD_REACTORS
330
10C
102
}
330
10C
100
AcDbScale
 70
     0
300
1:2
140
1.0
141
2.0
290
     0
  0
SCALE
  5
1BF
102
{ACAD_REACTORS
330
10C
102
}
330
10C
100
AcDbScale
 70
     0
300
1:4
140
1.0
141
4.0
290
     0
  0
SCALE
  5
1C0
102
{ACAD_REACTORS
330
10C
102
}
330
10C
100
AcDbScale
 70
     0
300
1:5
140
1.0
141
5.0
290
     0
  0
SCALE
  5
1C1
102
{ACAD_REACTORS
330
10C
102
}
330
10C
100
AcDbScale
 70
     0
300
1:8
140
1.0
141
8.0
290
     0
  0
SCALE
  5
1C2
102
{ACAD_REACTORS
330
10C
102
}
330
10C
100
AcDbScale
 70
     0
300
1:10
140
1.0
141
10.0
290
     0
  0
SCALE
  5
1C3
102
{ACAD_REACTORS
330
10C
102
}
330
10C
100
AcDbScale
 70
     0
300
1:16
140
1.0
141
16.0
290
     0
  0
SCALE
  5
1C4
102
{ACAD_REACTORS
330
10C
102
}
330
10C
100
AcDbScale
 70
     0
300
1:20
140
1.0
141
20.0
290
     0
  0
SCALE
  5
1C5
102
{ACAD_REACTORS
330
10C
102
}
330
10C
100
AcDbScale
 70
     0
300
1:30
140
1.0
141
30.0
290
     0
  0
SCALE
  5
1C6
102
{ACAD_REACTORS
330
10C
102
}
330
10C
100
AcDbScale
 70
     0
300
1:40
140
1.0
141
40.0
290
     0
  0
SCALE
  5
1C7
102
{ACAD_REACTORS
330
10C
102
}
330
10C
100
AcDbScale
 70
     0
300
1:50
140
1.0
141
50.0
290
     0
  0
SCALE
  5
1C8
102
{ACAD_REACTORS
330
10C
102
}
330
10C
100
AcDbScale
 70
     0
300
1:100
140
1.0
141
100.0
290
     0
  0
SCALE
  5
1C9
102
{ACAD_REACTORS
330
10C
102
}
330
10C
100
AcDbScale
 70
     0
300
2:1
140
2.0
141
1.0
290
     0
  0
SCALE
  5
1CA
102
{ACAD_REACTORS
330
10C
102
}
330
10C
100
AcDbScale
 70
     0
300
4:1
140
4.0
141
1.0
290
     0
  0
SCALE
  5
1CB
102
{ACAD_REACTORS
330
10C
102
}
330
10C
100
AcDbScale
 70
     0
300
8:1
140
8.0
141
1.0
290
     0
  0
SCALE
  5
1CC
102
{ACAD_REACTORS
330
10C
102
}
330
10C
100
AcDbScale
 70
     0
300
10:1
140
10.0
141
1.0
290
     0
  0
SCALE
  5
1CD
102
{ACAD_REACTORS
330
10C
102
}
330
10C
100
AcDbScale
 70
     0
300
100:1
140
100.0
141
1.0
290
     0
  0
TABLESTYLE
  5
7F
102
{ACAD_XDICTIONARY
360
162
102
}
102
{ACAD_REACTORS
330
7E
102
}
330
7E
100
AcDbTableStyle
  3
Standard
 70
     0
 71
     0
 40
1.5
 41
1.5
280
     0
281
     0
  7
Standard
140
4.5
170
     2
 62
     0
 63
     7
283
     0
274
    -2
284
     1
 64
     0
275
    -2
285
     1
 65
     0
276
    -2
286
     1
 66
     0
277
    -2
287
     1
 67
     0
278
    -2
288
     1
 68
     0
279
    -2
289
     1
 69
     0
  7
Standard
140
6.0
170
     5
 62
     0
 63
     7
283
     0
274
    -2
284
     1
 64
     0
275
    -2
285
     1
 65
     0
276
    -2
286
     1
 66
     0
277
    -2
287
     1
 67
     0
278
    -2
288
     1
 68
     0
279
    -2
289
     1
 69
     0
  7
Standard
140
4.5
170
     5
 62
     0
 63
     7
283
     0
274
    -2
284
     1
 64
     0
275
    -2
285
     1
 65
     0
276
    -2
286
     1
 66
     0
277
    -2
287
     1
 67
     0
278
    -2
288
     1
 68
     0
279
    -2
289
     1
 69
     0
  0
VISUALSTYLE
  5
F5
102
{ACAD_REACTORS
330
EF
102
}
330
EF
100
AcDbVisualStyle
  2
2dWireframe
 70
     4
 71
     0
 72
     2
 73
     1
 90
        0
 40
-0.6
 41
-30.0
 62
     5
 63
     7
 74
     1
 91
        4
 64
     7
 65
   257
 75
     1
175
     1
 42
1.0
 92
        0
 66
   257
 43
1.0
 76
     1
 77
     6
 78
     2
 67
     7
 79
     5
170
     0
171
     0
290
     0
174
     0
 93
        1
 44
0.0
173
     0
291
     0
 45
0.0
1001
ACAD
1000
AcDbSavedByObjectVersion
1070
     0
  0
VISUALSTYLE
  5
F7
102
{ACAD_REACTORS
330
EF
102
}
330
EF
100
AcDbVisualStyle
  2
3D Hidden
 70
     6
 71
     1
 72
     2
 73
     2
 90
        0
 40
-0.6
 41
-30.0
 62
     5
 63
     7
 74
     2
 91
        2
 64
     7
 65
   257
 75
     2
175
     1
 42
40.0
 92
        0
 66
   257
 43
1.0
 76
     1
 77
     6
 78
     2
 67
     7
 79
     3
170
     0
171
     0
290
     0
174
     0
 93
        1
 44
0.0
173
     0
291
     0
 45
0.0
1001
ACAD
1000
AcDbSavedByObjectVersion
1070
     0
  0
VISUALSTYLE
  5
F6
102
{ACAD_REACTORS
330
EF
102
}
330
EF
100
AcDbVisualStyle
  2
3dWireframe
 70
     5
 71
     0
 72
     2
 73
     1
 90
        0
 40
-0.6
 41
-30.0
 62
     5
 63
     7
 74
     1
 91
        4
 64
     7
 65
   257
 75
     1
175
     1
 42
1.0
 92
        0
 66
   257
 43
1.0
 76
     1
 77
     6
 78
     2
 67
     7
 79
     5
170
     0
171
     0
290
     0
174
     0
 93
        1
 44
0.0
173
     0
291
     0
 45
0.0
1001
ACAD
1000
AcDbSavedByObjectVersion
1070
     0
  0
VISUALSTYLE
  5
F4
102
{ACAD_REACTORS
330
EF
102
}
330
EF
100
AcDbVisualStyle
  2
Basic
 70
     7
 71
     1
 72
     0
 73
     1
 90
        0
 40
-0.6
 41
-30.0
 62
     5
 63
     7
 74
     0
 91
        4
 64
     7
 65
   257
 75
     1
175
     1
 42
1.0
 92
        8
 66
     7
 43
1.0
 76
     1
 77
     6
 78
     2
 67
     7
 79
     5
170
     0
171
     0
290
     0
174
     0
 93
        1
 44
0.0
173
     0
291
     1
 45
0.0
1001
ACAD
1000
AcDbSavedByObjectVersion
1070
     0
  0
VISUALSTYLE
  5
FB
102
{ACAD_REACTORS
330
EF
102
}
330
EF
100
AcDbVisualStyle
  2
Brighten
 70
    12
 71
     2
 72
     2
 73
     1
 90
        0
 40
-0.6
 41
-30.0
 62
     5
 63
     7
 74
     1
 91
        4
 64
     7
 65
   257
 75
     1
175
     1
 42
1.0
 92
        8
 66
     7
 43
1.0
 76
     1
 77
     6
 78
     2
 67
     7
 79
     5
170
     0
171
     0
290
     0
174
     0
 93
        1
 44
50.0
173
     0
291
     1
 45
0.0
1001
ACAD
1000
AcDbSavedByObjectVersion
1070
     0
  0
VISUALSTYLE
  5
FF
102
{ACAD_REACTORS
330
EF
102
}
330
EF
100
AcDbVisualStyle
  2
ColorChange
 70
    16
 71
     2
 72
     2
 73
     3
 90
        0
 40
-0.6
 41
-30.0
 62
     5
 63
     8
 74
     1
 91
        4
 64
     7
 65
   257
 75
     1
175
     1
 42
1.0
 92
        8
 66
     8
 43
1.0
 76
     1
 77
     6
 78
     2
 67
     7
 79
     5
170
     0
171
     0
290
     0
174
     0
 93
        1
 44
0.0
173
     0
291
     1
 45
0.0
1001
ACAD
1000
AcDbSavedByObjectVersion
1070
     0
  0
VISUALSTYLE
  5
F8
102
{ACAD_REACTORS
330
EF
102
}
330
EF
100
AcDbVisualStyle
  2
Conceptual
 70
     9
 71
     3
 72
     2
 73
     1
 90
        0
 40
-0.6
 41
-30.0
 62
     5
 63
     7
 74
     2
 91
        2
 64
     7
 65
   257
 75
     1
175
     1
 42
40.0
 92
        8
 66
     7
 43
1.0
 76
     1
 77
     6
 78
     2
 67
     7
 79
     3
170
     0
171
     0
290
     0
174
     0
 93
        1
 44
0.0
173
     0
291
     0
 45
0.0
1001
ACAD
1000
AcDbSavedByObjectVersion
1070
     0
  0
VISUALSTYLE
  5
FA
102
{ACAD_REACTORS
330
EF
102
}
330
EF
100
AcDbVisualStyle
  2
Dim
 70
    11
 71
     2
 72
     2
 73
     1
 90
        0
 40
-0.6
 41
-30.0
 62
     5
 63
     7
 74
     1
 91
        4
 64
     7
 65
   257
 75
     1
175
     1
 42
1.0
 92
        8
 66
     7
 43
1.0
 76
     1
 77
     6
 78
     2
 67
     7
 79
     5
170
     0
171
     0
290
     0
174
     0
 93
        1
 44
-50.0
173
     0
291
     1
 45
0.0
1001
ACAD
1000
AcDbSavedByObjectVersion
1070
     0
  0
VISUALSTYLE
  5
FE
102
{ACAD_REACTORS
330
EF
102
}
330
EF
100
AcDbVisualStyle
  2
Facepattern
 70
    15
 71
     2
 72
     2
 73
     1
 90
        0
 40
-0.6
 41
-30.0
 62
     5
 63
     7
 74
     1
 91
        4
 64
     7
 65
   257
 75
     1
175
     1
 42
1.0
 92
        8
 66
     7
 43
1.0
 76
     1
 77
     6
 78
     2
 67
     7
 79
     5
170
     0
171
     0
290
     0
174
     0
 93
        1
 44
0.0
173
     0
291
     1
 45
0.0
1001
ACAD
1000
AcDbSavedByObjectVersion
1070
     0
  0
VISUALSTYLE
  5
F0
102
{ACAD_REACTORS
330
EF
102
}
330
EF
100
AcDbVisualStyle
  2
Flat
 70
     0
 71
     2
 72
     1
 73
     1
 90
        2
 40
-0.6
 41
30.0
 62
     5
 63
     7
 74
     0
 91
        4
 64
     7
 65
   257
 75
     1
175
     1
 42
1.0
 92
        8
 66
     7
 43
1.0
 76
     1
 77
     6
 78
     2
 67
     7
 79
     5
170
     0
171
     0
290
     0
174
     0
 93
        1
 44
0.0
173
     0
291
     1
 45
0.0
1001
ACAD
1000
AcDbSavedByObjectVersion
1070
     0
  0
VISUALSTYLE
  5
F1
102
{ACAD_REACTORS
330
EF
102
}
330
EF
100
AcDbVisualStyle
  2
FlatWithEdges
 70
     1
 71
     2
 72
     1
 73
     1
 90
        2
 40
-0.6
 41
30.0
 62
     5
 63
     7
 74
     1
 91
        4
 64
     7
 65
   257
 75
     1
175
     1
 42
1.0
 92
        0
 66
   257
 43
1.0
 76
     1
 77
     6
 78
     2
 67
     7
 79
     5
170
     0
171
     0
290
     0
174
     0
 93
        1
 44
0.0
173
     0
291
     1
 45
0.0
1001
ACAD
1000
AcDbSavedByObjectVersion
1070
     0
  0
VISUALSTYLE
  5
F2
102
{ACAD_REACTORS
330
EF
102
}
330
EF
100
AcDbVisualStyle
  2
Gouraud
 70
     2
 71
     2
 72
     2
 73
     1
 90
        2
 40
-0.6
 41
30.0
 62
     5
 63
     7
 74
     0
 91
        4
 64
     7
 65
   257
 75
     1
175
     1
 42
1.0
 92
        0
 66
     7
 43
1.0
 76
     1
 77
     6
 78
     2
 67
     7
 79
     5
170
     0
171
     0
290
     0
174
     0
 93
        1
 44
0.0
173
     0
291
     1
 45
0.0
1001
ACAD
1000
AcDbSavedByObjectVersion
1070
     0
  0
VISUALSTYLE
  5
F3
102
{ACAD_REACTORS
330
EF
102
}
330
EF
100
AcDbVisualStyle
  2
GouraudWithEdges
 70
     3
 71
     2
 72
     2
 73
     1
 90
        2
 40
-0.6
 41
30.0
 62
     5
 63
     7
 74
     1
 91
        4
 64
     7
 65
   257
 75
     1
175
     1
 42
1.0
 92
        0
 66
   257
 43
1.0
 76
     1
 77
     6
 78
     2
 67
     7
 79
     5
170
     0
171
     0
290
     0
174
     0
 93
        1
 44
0.0
173
     0
291
     1
 45
0.0
1001
ACAD
1000
AcDbSavedByObjectVersion
1070
     0
  0
VISUALSTYLE
  5
FD
102
{ACAD_REACTORS
330
EF
102
}
330
EF
100
AcDbVisualStyle
  2
Linepattern
 70
    14
 71
     2
 72
     2
 73
     1
 90
        0
 40
-0.6
 41
-30.0
 62
     5
 63
     7
 74
     1
 91
        4
 64
     7
 65
   257
 75
     7
175
     7
 42
1.0
 92
        8
 66
     7
 43
1.0
 76
     1
 77
     6
 78
     2
 67
     7
 79
     5
170
     0
171
     0
290
     0
174
     0
 93
        1
 44
0.0
173
     0
291
     1
 45
0.0
1001
ACAD
1000
AcDbSavedByObjectVersion
1070
     0
  0
VISUALSTYLE
  5
F9
102
{ACAD_REACTORS
330
EF
102
}
330
EF
100
AcDbVisualStyle
  2
Realistic
 70
     8
 71
     2
 72
     2
 73
     1
 90
        0
 40
-0.6
 41
-30.0
 62
     5
 63
     7
 74
     1
 91
        0
 64
     7
 65
   257
 75
     1
175
     1
 42
1.0
 92
        8
 66
     8
 43
1.0
 76
     1
 77
     6
 78
     2
 67
     7
 79
     5
170
     0
171
     0
290
     0
174
     0
 93
       13
 44
0.0
173
     0
291
     0
 45
0.0
1001
ACAD
1000
AcDbSavedByObjectVersion
1070
     0
  0
VISUALSTYLE
  5
FC
102
{ACAD_REACTORS
330
EF
102
}
330
EF
100
AcDbVisualStyle
  2
Thicken
 70
    13
 71
     2
 72
     2
 73
     1
 90
        0
 40
-0.6
 41
-30.0
 62
     5
 63
     7
 74
     1
 91
        4
 64
     7
 65
   257
 75
     1
175
     1
 42
1.0
 92
       12
 66
     7
 43
1.0
 76
     1
 77
     6
 78
     2
 67
     7
 79
     5
170
     0
171
     0
290
     0
174
     0
 93
        1
 44
0.0
173
     0
291
     1
 45
0.0
1001
ACAD
1000
AcDbSavedByObjectVersion
1070
     0
  0
DICTIONARYVAR
  5
146
102
{ACAD_REACTORS
330
5E
102
}
330
5E
100
DictionaryVariables
280
     0
  1
1:1
  0
DICTIONARYVAR
  5
145
102
{ACAD_REACTORS
330
5E
102
}
330
5E
100
DictionaryVariables
280
     0
  1
STANDARD
  0
DICTIONARYVAR
  5
84
102
{ACAD_REACTORS
330
5E
102
}
330
5E
100
DictionaryVariables
280
     0
  1
STANDARD
  0
DICTIONARYVAR
  5
5F
102
{ACAD_REACTORS
330
5E
102
}
330
5E
100
DictionaryVariables
280
     0
  1
2
  0
DICTIONARYVAR
  5
63
102
{ACAD_REACTORS
330
5E
102
}
330
5E
100
DictionaryVariables
280
     0
  1
1
  0
DICTIONARYVAR
  5
467
102
{ACAD_REACTORS
330
5E
102
}
330
5E
100
DictionaryVariables
280
     0
  1
0
  0
DICTIONARYVAR
  5
1AE
102
{ACAD_REACTORS
330
5E
102
}
330
5E
100
DictionaryVariables
280
     0
  1
0
  0
DICTIONARYVAR
  5
1AF
102
{ACAD_REACTORS
330
5E
102
}
330
5E
100
DictionaryVariables
280
     0
  1
0
  0
DICTIONARYVAR
  5
465
102
{ACAD_REACTORS
330
5E
102
}
330
5E
100
DictionaryVariables
280
     0
  1
2
  0
DICTIONARYVAR
  5
464
102
{ACAD_REACTORS
330
5E
102
}
330
5E
100
DictionaryVariables
280
     0
  1
1
  0
DICTIONARYVAR
  5
46E
102
{ACAD_REACTORS
330
5E
102
}
330
5E
100
DictionaryVariables
280
     0
  1
80.000000
  0
DICTIONARYVAR
  5
46D
102
{ACAD_REACTORS
330
5E
102
}
330
5E
100
DictionaryVariables
280
     0
  1
5.000000
  0
DICTIONARYVAR
  5
466
102
{ACAD_REACTORS
330
5E
102
}
330
5E
100
DictionaryVariables
280
     0
  1
127
  0
DICTIONARY
  5
471
330
22
100
AcDbDictionary
280
     1
281
     1
  3
ACAD_XREC_ROUNDTRIP
360
472
  0
DICTIONARY
  5
474
330
D3
100
AcDbDictionary
280
     1
281
     1
  3
ACAD_XREC_ROUNDTRIP
360
475
  0
DICTIONARY
  5
476
330
D7
100
AcDbDictionary
280
     1
281
     1
  3
ACAD_XREC_ROUNDTRIP
360
477
  0
DICTIONARY
  5
47A
330
ED
100
AcDbDictionary
280
     1
281
     1
  3
ACAD_XREC_ROUNDTRIP
360
47B
  0
DICTIONARY
  5
478
330
EC
100
AcDbDictionary
280
     1
281
     1
  3
ACAD_XREC_ROUNDTRIP
360
479
  0
DICTIONARY
  5
173
330
EE
100
AcDbDictionary
280
     1
281
     1
  3
ACAD_XREC_ROUNDTRIP
360
47C
  3
BUMPTILE
360
175
  3
DIFFUSETILE
360
174
  3
OPACITYTILE
360
176
  3
REFLECTIONTILE
360
177
  0
DICTIONARY
  5
162
330
7F
100
AcDbDictionary
280
     1
281
     1
  3
ACAD_ROUNDTRIP_2008_TABLESTYLE_CELLSTYLEMAP
360
46F
  3
ACAD_XREC_ROUNDTRIP
360
473
  0
XRECORD
  5
472
102
{ACAD_REACTORS
330
471
102
}
330
471
100
AcDbXrecord
280
     1
102
SHADEPLOT
 70
     0
102
SHADEPLOTRESLEVEL
 70
     2
102
SHADEPLOTCUSTOMDPI
 70
   300
  0
XRECORD
  5
475
102
{ACAD_REACTORS
330
474
102
}
330
474
100
AcDbXrecord
280
     1
102
SHADEPLOT
 70
     0
102
SHADEPLOTRESLEVEL
 70
     2
102
SHADEPLOTCUSTOMDPI
 70
   300
  0
XRECORD
  5
477
102
{ACAD_REACTORS
330
476
102
}
330
476
100
AcDbXrecord
280
     1
102
SHADEPLOT
 70
     0
102
SHADEPLOTRESLEVEL
 70
     2
102
SHADEPLOTCUSTOMDPI
 70
   300
  0
XRECORD
  5
47B
102
{ACAD_REACTORS
330
47A
102
}
330
47A
100
AcDbXrecord
280
     1
102
MATERIAL
148
0.0
149
0.0
149
0.0
 93
        0
 94
       63
282
     0
 72
     1
 77
     1
171
     1
175
     1
179
     1
273
     0
  0
XRECORD
  5
479
102
{ACAD_REACTORS
330
478
102
}
330
478
100
AcDbXrecord
280
     1
102
MATERIAL
148
0.0
149
0.0
149
0.0
 93
        0
 94
       63
282
     0
 72
     1
 77
     1
171
     1
175
     1
179
     1
273
     0
  0
XRECORD
  5
47C
102
{ACAD_REACTORS
330
173
102
}
330
173
100
AcDbXrecord
280
     1
102
MATERIAL
148
0.0
149
0.0
149
0.0
 93
        0
 94
       63
282
     0
 72
     1
 77
     1
171
     1
175
     1
179
     1
273
     0
  0
XRECORD
  5
175
102
{ACAD_REACTORS
330
173
102
}
330
173
100
AcDbXrecord
280
     1
270
     1
271
     1
  0
XRECORD
  5
174
102
{ACAD_REACTORS
330
173
102
}
330
173
100
AcDbXrecord
280
     1
270
     1
271
     1
  0
XRECORD
  5
176
102
{ACAD_REACTORS
330
173
102
}
330
173
100
AcDbXrecord
280
     1
270
     1
271
     1
  0
XRECORD
  5
177
102
{ACAD_REACTORS
330
173
102
}
330
173
100
AcDbXrecord
280
     1
270
     1
271
     1
  0
CELLSTYLEMAP
  5
46F
102
{ACAD_REACTORS
330
162
102
}
330
162
100
AcDbCellStyleMap
 90
        3
300
CELLSTYLE
  1
TABLEFORMAT_BEGIN
 90
        5
170
     1
 91
        0
 92
    32768
 62
   257
 93
        1
300
CONTENTFORMAT
  1
CONTENTFORMAT_BEGIN
 90
        0
 91
        0
 92
      512
 93
        0
300

 40
0.0
140
1.0
 94
        5
 62
     0
340
11
144
6.0
309
CONTENTFORMAT_END
171
     1
301
MARGIN
  1
CELLMARGIN_BEGIN
 40
1.5
 40
1.5
 40
1.5
 40
1.5
 40
4.5
 40
4.5
309
CELLMARGIN_END
 94
        6
 95
        1
302
GRIDFORMAT
  1
GRIDFORMAT_BEGIN
 90
        0
 91
        1
 62
     0
 92
       -2
340
14
 93
        0
 40
1.125
309
GRIDFORMAT_END
 95
        2
302
GRIDFORMAT
  1
GRIDFORMAT_BEGIN
 90
        0
 91
        1
 62
     0
 92
       -2
340
14
 93
        0
 40
1.125
309
GRIDFORMAT_END
 95
        4
302
GRIDFORMAT
  1
GRIDFORMAT_BEGIN
 90
        0
 91
        1
 62
     0
 92
       -2
340
14
 93
        0
 40
1.125
309
GRIDFORMAT_END
 95
        8
302
GRIDFORMAT
  1
GRIDFORMAT_BEGIN
 90
        0
 91
        1
 62
     0
 92
       -2
340
14
 93
        0
 40
1.125
309
GRIDFORMAT_END
 95
       16
302
GRIDFORMAT
  1
GRIDFORMAT_BEGIN
 90
        0
 91
        1
 62
     0
 92
       -2
340
14
 93
        0
 40
1.125
309
GRIDFORMAT_END
 95
       32
302
GRIDFORMAT
  1
GRIDFORMAT_BEGIN
 90
        0
 91
        1
 62
     0
 92
       -2
340
14
 93
        0
 40
1.125
309
GRIDFORMAT_END
309
TABLEFORMAT_END
  1
CELLSTYLE_BEGIN
 90
        1
 91
        1
300
_TITLE
309
CELLSTYLE_END
300
CELLSTYLE
  1
TABLEFORMAT_BEGIN
 90
        5
170
     1
 91
        0
 92
        0
 62
   257
 93
        1
300
CONTENTFORMAT
  1
CONTENTFORMAT_BEGIN
 90
        0
 91
        0
 92
      512
 93
        0
300

 40
0.0
140
1.0
 94
        5
 62
     0
340
11
144
4.5
309
CONTENTFORMAT_END
171
     1
301
MARGIN
  1
CELLMARGIN_BEGIN
 40
1.5
 40
1.5
 40
1.5
 40
1.5
 40
4.5
 40
4.5
309
CELLMARGIN_END
 94
        6
 95
        1
302
GRIDFORMAT
  1
GRIDFORMAT_BEGIN
 90
        0
 91
        1
 62
     0
 92
       -2
340
14
 93
        0
 40
1.125
309
GRIDFORMAT_END
 95
        2
302
GRIDFORMAT
  1
GRIDFORMAT_BEGIN
 90
        0
 91
        1
 62
     0
 92
       -2
340
14
 93
        0
 40
1.125
309
GRIDFORMAT_END
 95
        4
302
GRIDFORMAT
  1
GRIDFORMAT_BEGIN
 90
        0
 91
        1
 62
     0
 92
       -2
340
14
 93
        0
 40
1.125
309
GRIDFORMAT_END
 95
        8
302
GRIDFORMAT
  1
GRIDFORMAT_BEGIN
 90
        0
 91
        1
 62
     0
 92
       -2
340
14
 93
        0
 40
1.125
309
GRIDFORMAT_END
 95
       16
302
GRIDFORMAT
  1
GRIDFORMAT_BEGIN
 90
        0
 91
        1
 62
     0
 92
       -2
340
14
 93
        0
 40
1.125
309
GRIDFORMAT_END
 95
       32
302
GRIDFORMAT
  1
GRIDFORMAT_BEGIN
 90
        0
 91
        1
 62
     0
 92
       -2
340
14
 93
        0
 40
1.125
309
GRIDFORMAT_END
309
TABLEFORMAT_END
  1
CELLSTYLE_BEGIN
 90
        2
 91
        1
300
_HEADER
309
CELLSTYLE_END
300
CELLSTYLE
  1
TABLEFORMAT_BEGIN
 90
        5
170
     1
 91
        0
 92
        0
 62
   257
 93
        1
300
CONTENTFORMAT
  1
CONTENTFORMAT_BEGIN
 90
        0
 91
        0
 92
      512
 93
        0
300

 40
0.0
140
1.0
 94
        2
 62
     0
340
11
144
4.5
309
CONTENTFORMAT_END
171
     1
301
MARGIN
  1
CELLMARGIN_BEGIN
 40
1.5
 40
1.5
 40
1.5
 40
1.5
 40
4.5
 40
4.5
309
CELLMARGIN_END
 94
        6
 95
        1
302
GRIDFORMAT
  1
GRIDFORMAT_BEGIN
 90
        0
 91
        1
 62
     0
 92
       -2
340
14
 93
        0
 40
1.125
309
GRIDFORMAT_END
 95
        2
302
GRIDFORMAT
  1
GRIDFORMAT_BEGIN
 90
        0
 91
        1
 62
     0
 92
       -2
340
14
 93
        0
 40
1.125
309
GRIDFORMAT_END
 95
        4
302
GRIDFORMAT
  1
GRIDFORMAT_BEGIN
 90
        0
 91
        1
 62
     0
 92
       -2
340
14
 93
        0
 40
1.125
309
GRIDFORMAT_END
 95
        8
302
GRIDFORMAT
  1
GRIDFORMAT_BEGIN
 90
        0
 91
        1
 62
     0
 92
       -2
340
14
 93
        0
 40
1.125
309
GRIDFORMAT_END
 95
       16
302
GRIDFORMAT
  1
GRIDFORMAT_BEGIN
 90
        0
 91
        1
 62
     0
 92
       -2
340
14
 93
        0
 40
1.125
309
GRIDFORMAT_END
 95
       32
302
GRIDFORMAT
  1
GRIDFORMAT_BEGIN
 90
        0
 91
        1
 62
     0
 92
       -2
340
14
 93
        0
 40
1.125
309
GRIDFORMAT_END
309
TABLEFORMAT_END
  1
CELLSTYLE_BEGIN
 90
        3
 91
        2
300
_DATA
309
CELLSTYLE_END
  0
XRECORD
  5
473
102
{ACAD_REACTORS
330
162
102
}
330
162
100
AcDbXrecord
280
     1
102
ACAD_ROUNDTRIP_PRE2007_TABLESTYLE
 90
      512
 91
        0
  1

 92
      512
 93
        0
  2

 94
      512
 95
        0
  3

  0
ENDSEC
  0
EOF
