  0
SECTION
  2
HEADER
  9
$ACADVER
  1
AC1014
  9
$ACADMAINTVER
 70
     9
  9
$DWGCODEPAGE
  3
ANSI_1252
  9
$INSBASE
 10
4.181336081299999
 20
1.965174703499999
 30
0.0
  9
$EXTMIN
 10
12.39048104016603
 20
-0.1260273407501984
 30
0.0
  9
$EXTMAX
 10
177.710093528166
 20
122.0343968574179
 30
0.0
  9
$LIMMIN
 10
0.0
 20
0.0
  9
$LIMMAX
 10
17.0
 20
11.0
  9
$ORTHOMODE
 70
     1
  9
$REGENMODE
 70
     1
  9
$FILLMODE
 70
     1
  9
$QTEXTMODE
 70
     0
  9
$MIRRTEXT
 70
     1
  9
$DRAGMODE
 70
     2
  9
$LTSCALE
 40
0.9350000000000001
  9
$OSMODE
 70
  3071
  9
$ATTMODE
 70
     1
  9
$TEXTSIZE
 40
0.2
  9
$TRACEWID
 40
0.05
  9
$TEXTSTYLE
  7
STANDARD
  9
$CLAYER
  8
0
  9
$CELTYPE
  6
BYLAYER
  9
$CECOLOR
 62
   256
  9
$CELTSCALE
 40
1.0
  9
$DELOBJ
 70
     1
  9
$DISPSILH
 70
     0
  9
$DIMSCALE
 40
1.0
  9
$DIMASZ
 40
0.1875
  9
$DIMEXO
 40
0.10625
  9
$DIMDLI
 40
0.646
  9
$DIMRND
 40
0.0
  9
$DIMDLE
 40
0.0
  9
$DIMEXE
 40
0.306
  9
$DIMTP
 40
0.0
  9
$DIMTM
 40
0.0
  9
$DIMTXT
 40
0.125
  9
$DIMCEN
 40
0.153
  9
$DIMTSZ
 40
0.0
  9
$DIMTOL
 70
     0
  9
$DIMLIM
 70
     0
  9
$DIMTIH
 70
     1
  9
$DIMTOH
 70
     1
  9
$DIMSE1
 70
     0
  9
$DIMSE2
 70
     0
  9
$DIMTAD
 70
     0
  9
$DIMZIN
 70
     0
  9
$DIMBLK
  1
_FILLED
  9
$DIMASO
 70
     1
  9
$DIMSHO
 70
     1
  9
$DIMPOST
  1

  9
$DIMAPOST
  1

  9
$DIMALT
 70
     0
  9
$DIMALTD
 70
     2
  9
$DIMALTF
 40
25.4
  9
$DIMLFAC
 40
1.0
  9
$DIMTOFL
 70
     0
  9
$DIMTVP
 40
0.0
  9
$DIMTIX
 70
     0
  9
$DIMSOXD
 70
     0
  9
$DIMSAH
 70
     0
  9
$DIMBLK1
  1

  9
$DIMBLK2
  1

  9
$DIMSTYLE
  2
STANDARD
  9
$DIMCLRD
 70
     0
  9
$DIMCLRE
 70
     0
  9
$DIMCLRT
 70
     0
  9
$DIMTFAC
 40
1.0
  9
$DIMGAP
 40
0.09
  9
$DIMJUST
 70
     0
  9
$DIMSD1
 70
     0
  9
$DIMSD2
 70
     0
  9
$DIMTOLJ
 70
     1
  9
$DIMTZIN
 70
     0
  9
$DIMALTZ
 70
     0
  9
$DIMALTTZ
 70
     0
  9
$DIMFIT
 70
     3
  9
$DIMUPT
 70
     0
  9
$DIMUNIT
 70
     2
  9
$DIMDEC
 70
     4
  9
$DIMTDEC
 70
     4
  9
$DIMALTU
 70
     2
  9
$DIMALTTD
 70
     2
  9
$DIMTXSTY
  7
STANDARD
  9
$DIMAUNIT
 70
     0
  9
$LUNITS
 70
     2
  9
$LUPREC
 70
     4
  9
$SKETCHINC
 40
0.1
  9
$FILLETRAD
 40
0.0
  9
$AUNITS
 70
     0
  9
$AUPREC
 70
     0
  9
$MENU
  1
acad
  9
$ELEVATION
 40
0.0
  9
$PELEVATION
 40
0.0
  9
$THICKNESS
 40
0.0
  9
$LIMCHECK
 70
     0
  9
$BLIPMODE
 70
     0
  9
$CHAMFERA
 40
0.0
  9
$CHAMFERB
 40
0.0
  9
$CHAMFERC
 40
0.0
  9
$CHAMFERD
 40
0.0
  9
$SKPOLY
 70
     0
  9
$TDCREATE
 40
2453896.482896076
  9
$TDUPDATE
 40
2453896.573215601
  9
$TDINDWG
 40
0.0903233218
  9
$TDUSRTIMER
 40
0.0903233218
  9
$USRTIMER
 70
     1
  9
$ANGBASE
 50
0.0
  9
$ANGDIR
 70
     0
  9
$PDMODE
 70
     3
  9
$PDSIZE
 40
0.3125
  9
$PLINEWID
 40
0.0
  9
$COORDS
 70
     1
  9
$SPLFRAME
 70
     0
  9
$SPLINETYPE
 70
     6
  9
$SPLINESEGS
 70
     8
  9
$ATTDIA
 70
     0
  9
$ATTREQ
 70
     1
  9
$HANDLING
 70
-16383
  9
$HANDSEED
  5
804
  9
$SURFTAB1
 70
     6
  9
$SURFTAB2
 70
     6
  9
$SURFTYPE
 70
     6
  9
$SURFU
 70
     6
  9
$SURFV
 70
     6
  9
$UCSNAME
  2

  9
$UCSORG
 10
0.0
 20
0.0
 30
0.0
  9
$UCSXDIR
 10
1.0
 20
0.0
 30
0.0
  9
$UCSYDIR
 10
0.0
 20
1.0
 30
0.0
  9
$PUCSNAME
  2

  9
$PUCSORG
 10
0.0
 20
0.0
 30
0.0
  9
$PUCSXDIR
 10
1.0
 20
0.0
 30
0.0
  9
$PUCSYDIR
 10
0.0
 20
1.0
 30
0.0
  9
$USERI1
 70
     0
  9
$USERI2
 70
     0
  9
$USERI3
 70
     0
  9
$USERI4
 70
     0
  9
$USERI5
 70
     0
  9
$USERR1
 40
0.0
  9
$USERR2
 40
0.0
  9
$USERR3
 40
0.0
  9
$USERR4
 40
0.0
  9
$USERR5
 40
0.0
  9
$WORLDVIEW
 70
     1
  9
$SHADEDGE
 70
     3
  9
$SHADEDIF
 70
    70
  9
$TILEMODE
 70
     1
  9
$MAXACTVP
 70
    16
  9
$PINSBASE
 10
0.0
 20
0.0
 30
0.0
  9
$PLIMCHECK
 70
     0
  9
$PEXTMIN
 10
1.000000000000000E+20
 20
1.000000000000000E+20
 30
1.000000000000000E+20
  9
$PEXTMAX
 10
-1.000000000000000E+20
 20
-1.000000000000000E+20
 30
-1.000000000000000E+20
  9
$PLIMMIN
 10
0.0
 20
0.0
  9
$PLIMMAX
 10
12.0
 20
9.0
  9
$UNITMODE
 70
     0
  9
$VISRETAIN
 70
     0
  9
$PLINEGEN
 70
     1
  9
$PSLTSCALE
 70
     0
  9
$TREEDEPTH
 70
  3020
  9
$PICKSTYLE
 70
     1
  9
$CMLSTYLE
  2
STANDARD
  9
$CMLJUST
 70
     0
  9
$CMLSCALE
 40
1.0
  9
$PROXYGRAPHICS
 70
     0
  9
$MEASUREMENT
 70
     0
  0
ENDSEC
  0
SECTION
  2
CLASSES
  0
CLASS
  1
ACDBDICTIONARYWDFLT
  2
AcDbDictionaryWithDefault
  3
AutoCAD 2000
 90
        0
280
     0
281
     0
  0
CLASS
  1
ACDBPLACEHOLDER
  2
AcDbPlaceHolder
  3
AutoCAD 2000
 90
        0
280
     0
281
     0
  0
CLASS
  1
LAYOUT
  2
AcDbLayout
  3
AutoCAD 2000
 90
        0
280
     0
281
     0
  0
CLASS
  1
LWPOLYLINE
  2
AcDbPolyline
  3
AutoCAD 2000
 90
        0
280
     0
281
     1
  0
CLASS
  1
IMAGE
  2
AcDbRasterImage
  3
ISM
 90
      127
280
     0
281
     1
  0
CLASS
  1
OLE2FRAME
  2
AcDbOle2Frame
  3
AutoCAD 2000
 90
        0
280
     0
281
     1
  0
CLASS
  1
HATCH
  2
AcDbHatch
  3
AutoCAD 2000
 90
        0
280
     0
281
     1
  0
CLASS
  1
DICTIONARYVAR
  2
AcDbDictionaryVar
  3
AutoCAD 2000
 90
        0
280
     0
281
     0
  0
CLASS
  1
RASTERVARIABLES
  2
AcDbRasterVariables
  3
ISM
 90
        0
280
     0
281
     0
  0
CLASS
  1
IMAGEDEF
  2
AcDbRasterImageDef
  3
ISM
 90
        0
280
     0
281
     0
  0
CLASS
  1
IMAGEDEF_REACTOR
  2
AcDbRasterImageDefReactor
  3
ISM
 90
        1
280
     0
281
     0
  0
CLASS
  1
IDBUFFER
  2
AcDbIdBuffer
  3
AutoCAD 2000
 90
        0
280
     0
281
     0
  0
CLASS
  1
SPATIAL_FILTER
  2
AcDbSpatialFilter
  3
AutoCAD 2000
 90
        0
280
     0
281
     0
  0
CLASS
  1
XRECORD
  2
AcDbXrecord
  3
AutoCAD 2000
 90
        0
280
     0
281
     0
  0
CLASS
  1
SORTENTSTABLE
  2
AcDbSortentsTable
  3
AutoCAD 2000
 90
        0
280
     0
281
     0
  0
CLASS
  1
LAYER_INDEX
  2
AcDbLayerIndex
  3
AutoCAD 2000
 90
        0
280
     0
281
     0
  0
CLASS
  1
SPATIAL_INDEX
  2
AcDbSpatialIndex
  3
AutoCAD 2000
 90
        0
280
     0
281
     0
  0
CLASS
  1
OBJECT_PTR
  2
CAseDLPNTableRecord
  3
ASE-LPNTableRecord
 90
        1
280
     0
281
     0
  0
CLASS
  1
PLOTSETTINGS
  2
AcDbPlotSettings
  3
AutoCAD 2000
 90
        0
280
     0
281
     0
  0
CLASS
  1
VBA_PROJECT
  2
AcDbVbaProject
  3
acadvba
 90
        0
280
     0
281
     0
  0
CLASS
  1
WIPEOUT
  2
AcDbWipeout
  3
WipeOut|AutoCAD Express Tool|expresstools@autodesk.com
 90
      127
280
     0
281
     1
  0
CLASS
  1
WIPEOUTVARIABLES
  2
AcDbWipeoutVariables
  3
WipeOut|AutoCAD Express Tool|expresstools@autodesk.com
 90
        0
280
     0
281
     0
  0
CLASS
  1
RTEXT
  2
RText
  3
RText|AutoCAD Express Tool|expresstools@autodesk.com
 90
        0
280
     0
281
     1
  0
CLASS
  1
ARCALIGNEDTEXT
  2
AcDbArcAlignedText
  3
ATEXT|AutoCAD Express Tool|expresstools@autodesk.com
 90
        0
280
     0
281
     1
  0
CLASS
  1
LONG_TRANSACTION
  2
AcDbLongTransaction
  3
AutoCAD 2000
 90
        0
280
     0
281
     0
  0
CLASS
  1
LWPOLYLINE
  2
AcDbPolyline
  3
AutoCAD 2000
 90
        0
280
     0
281
     1
  0
CLASS
  1
HATCH
  2
AcDbHatch
  3
AutoCAD 2000
 90
        0
280
     0
281
     1
  0
CLASS
  1
XRECORD
  2
AcDbXrecord
  3
AutoCAD 2000
 90
        0
280
     0
281
     0
  0
ENDSEC
  0
SECTION
  2
TABLES
  0
TABLE
  2
VPORT
  5
8
330
0
100
AcDbSymbolTable
 70
     8
  0
VPORT
  5
7DE
330
8
100
AcDbSymbolTableRecord
100
AcDbViewportTableRecord
  2
*ACTIVE
 70
     0
 10
0.0
 20
0.0
 11
1.0
 21
1.0
 12
79.68526511245318
 22
92.09566996189911
 13
0.0
 23
0.0
 14
1.0
 24
1.0
 15
0.0
 25
0.0
 16
0.0
 26
0.0
 36
1.0
 17
0.0
 27
0.0
 37
0.0
 40
124.7477541528204
 41
1.877227722772277
 42
50.0
 43
0.0
 44
0.0
 50
0.0
 51
0.0
 71
     0
 72
   100
 73
     1
 74
     1
 75
     0
 76
     0
 77
     0
 78
     0
  0
ENDTAB
  0
TABLE
  2
LTYPE
  5
5
330
0
100
AcDbSymbolTable
 70
     6
  0
LTYPE
  5
14
330
5
100
AcDbSymbolTableRecord
100
AcDbLinetypeTableRecord
  2
BYBLOCK
 70
     0
  3

 72
    65
 73
     0
 40
0.0
  0
LTYPE
  5
15
330
5
100
AcDbSymbolTableRecord
100
AcDbLinetypeTableRecord
  2
BYLAYER
 70
     0
  3

 72
    65
 73
     0
 40
0.0
  0
LTYPE
  5
16
330
5
100
AcDbSymbolTableRecord
100
AcDbLinetypeTableRecord
  2
CONTINUOUS
 70
     0
  3
Solid line
 72
    65
 73
     0
 40
0.0
  0
LTYPE
  5
1F5
330
5
100
AcDbSymbolTableRecord
100
AcDbLinetypeTableRecord
  2
CENTER
 70
     0
  3
____ _ ____ _ ____ _ ____ _ ____ _ ____ _ ____
 72
    65
 73
     4
 40
0.6
 49
0.375
 74
     0
 49
-0.075
 74
     0
 49
0.075
 74
     0
 49
-0.075
 74
     0
  0
LTYPE
  5
1F6
330
5
100
AcDbSymbolTableRecord
100
AcDbLinetypeTableRecord
  2
HIDDEN
 70
     0
  3
- - - - - - - - - - - - - - - - - - - -
 72
    65
 73
     2
 40
0.2
 49
0.1
 74
     0
 49
-0.1
 74
     0
  0
LTYPE
  5
1F7
330
5
100
AcDbSymbolTableRecord
100
AcDbLinetypeTableRecord
  2
PHANTOM
 70
     0
  3
_____ _ _ _____ _ _ _____ _ _ _____
 72
    65
 73
     6
 40
0.8
 49
0.45
 74
     0
 49
-0.05
 74
     0
 49
0.1
 74
     0
 49
-0.05
 74
     0
 49
0.1
 74
     0
 49
-0.05
 74
     0
  0
ENDTAB
  0
TABLE
  2
LAYER
  5
2
330
0
100
AcDbSymbolTable
 70
    23
  0
LAYER
  5
10
330
2
100
AcDbSymbolTableRecord
100
AcDbLayerTableRecord
  2
0
 70
     0
 62
     7
  6
CONTINUOUS
  0
LAYER
  5
745
330
2
100
AcDbSymbolTableRecord
100
AcDbLayerTableRecord
  2
CENTER
 70
     0
 62
     1
  6
CENTER
  0
ENDTAB
  0
TABLE
  2
STYLE
  5
3
330
0
100
AcDbSymbolTable
 70
     5
  0
STYLE
  5
11
330
3
100
AcDbSymbolTableRecord
100
AcDbTextStyleTableRecord
  2
STANDARD
 70
     0
 40
0.0
 41
0.8
 50
0.0
 71
     0
 42
0.2
  3
txt
  4

  0
STYLE
  5
20F
330
3
100
AcDbSymbolTableRecord
100
AcDbTextStyleTableRecord
  2
TEXTSTYLE_1
 70
     0
 40
0.0
 41
0.8
 50
0.0
 71
     0
 42
0.2
  3
txt
  4

  0
ENDTAB
  0
TABLE
  2
VIEW
  5
6
330
0
100
AcDbSymbolTable
 70
     0
  0
ENDTAB
  0
TABLE
  2
UCS
  5
7
330
0
100
AcDbSymbolTable
 70
     0
  0
ENDTAB
  0
TABLE
  2
APPID
  5
9
330
0
100
AcDbSymbolTable
 70
     2
  0
APPID
  5
213
330
9
100
AcDbSymbolTableRecord
100
AcDbRegAppTableRecord
  2
ACAD
 70
     0
  0
APPID
  5
738
330
9
100
AcDbSymbolTableRecord
100
AcDbRegAppTableRecord
  2
DCO15
 70
     0
  0
ENDTAB
  0
TABLE
  2
DIMSTYLE
  5
A
330
0
100
AcDbSymbolTable
 70
     4
  0
DIMSTYLE
105
232
330
A
100
AcDbSymbolTableRecord
100
AcDbDimStyleTableRecord
  2
STANDARD
 70
     0
  3

  4

  5
_FILLED
  6
_FILLED
  7
_FILLED
 40
1.0
 41
0.1875
 42
0.0625
 43
0.38
 44
0.18
 45
0.0
 46
0.0
 47
0.00001
 48
0.00001
140
0.125
141
0.09
142
0.0
143
25.4
144
1.0
145
0.0
146
1.0
147
0.09
 71
     0
 72
     0
 73
     1
 74
     1
 75
     0
 76
     0
 77
     0
 78
     4
170
     0
171
     2
172
     0
173
     0
174
     0
175
     0
176
     0
177
     0
178
     0
270
     2
271
     5
272
     5
273
     2
274
     2
340
11
275
     0
280
     0
281
     0
282
     0
283
     1
284
     4
285
     0
286
     0
287
     3
288
     0
  0
ENDTAB
  0
TABLE
  2
BLOCK_RECORD
  5
1
330
0
100
AcDbSymbolTable
 70
    30
  0
BLOCK_RECORD
  5
1F
102
{ACAD_XDICTIONARY
360
802
102
}
330
1
100
AcDbSymbolTableRecord
100
AcDbBlockTableRecord
  2
*MODEL_SPACE
  0
BLOCK_RECORD
  5
1B
102
{ACAD_XDICTIONARY
360
800
102
}
330
1
100
AcDbSymbolTableRecord
100
AcDbBlockTableRecord
  2
*PAPER_SPACE
  0
BLOCK_RECORD
  5
214
330
1
100
AcDbSymbolTableRecord
100
AcDbBlockTableRecord
  2
_FILLED
  0
ENDTAB
  0
ENDSEC
  0
SECTION
  2
BLOCKS
  0
BLOCK
  5
20
330
1F
100
AcDbEntity
  8
0
100
AcDbBlockBegin
  2
*MODEL_SPACE
 70
     0
 10
0.0
 20
0.0
 30
0.0
  3
*MODEL_SPACE
  1

  0
ENDBLK
  5
21
330
1F
100
AcDbEntity
  8
0
100
AcDbBlockEnd
  0
BLOCK
  5
1C
330
1B
100
AcDbEntity
 67
     1
  8
0
100
AcDbBlockBegin
  2
*PAPER_SPACE
 70
     0
 10
0.0
 20
0.0
 30
0.0
  3
*PAPER_SPACE
  1

  0
ENDBLK
  5
1D
330
1B
100
AcDbEntity
 67
     1
  8
0
100
AcDbBlockEnd
  0
BLOCK
  5
3FF
330
214
100
AcDbEntity
  8
0
100
AcDbBlockBegin
  2
_FILLED
 70
     0
 10
0.0
 20
0.0
 30
0.0
  3
_FILLED
  1

  0
SOLID
  5
400
330
214
100
AcDbEntity
  8
0
  6
BYBLOCK
 62
     0
100
AcDbTrace
 10
0.0
 20
0.0
 30
0.0
 11
-1.0
 21
0.1666666667
 31
0.0
 12
-1.0
 22
-0.1666666667
 32
0.0
 13
-1.0
 23
-0.1666666667
 33
0.0
  0
ENDBLK
  5
401
330
214
100
AcDbEntity
  8
0
  6
BYBLOCK
 62
     0
100
AcDbBlockEnd
  0
ENDSEC
  0
SECTION
  2
ENTITIES
  0
MTEXT
  5
476
330
1F
100
AcDbEntity
  8
0
  6
CONTINUOUS
 62
     2
100
AcDbMText
 10
15.84375
 20
2.3125
 30
0.0
 40
0.09375
 41
0.075
 71
     2
 72
     1
  1
 \P \P 
  7
TEXTSTYLE_1
1001
ACAD
1000
MTEXTBEGIN
1070
    73
1070
     1
1070
    44
1040
1.0
1070
    74
1070
     0
1000
MTEXTEND
  0
LWPOLYLINE
  5
4B8
330
1F
100
AcDbEntity
  8
0
  6
CONTINUOUS
 62
     7
100
AcDbPolyline
 90
       44
 70
     0
 43
0.0
 10
17.48842910736603
 20
88.36270703821801
 10
17.57001668656603
 20
88.260995588618
 10
17.84480324976603
 20
87.92795393261799
 10
18.12658809456603
 20
87.60081217261801
 10
18.41520293296603
 20
87.279770660618
 10
18.71057008656603
 20
86.964930495818
 10
19.01252761296603
 20
86.656480662218
 10
19.32097661936603
 20
86.35452229101799
 10
19.63581595056603
 20
86.059154420618
 10
19.95685666576603
 20
85.77053886381801
 10
20.28399809296603
 20
85.488752827018
 10
20.61703943856604
 20
85.21396506221799
 10
20.95580339216604
 20
84.94632009101799
 10
21.30016745776603
 20
84.68591992621801
 10
21.64991411696604
 20
84.43293705741799
 10
22.00495755856603
 20
84.18744344301799
 10
22.36514029136603
 20
83.949559379018
 10
22.73029899376603
 20
83.719386363018
 10
23.10031580336603
 20
83.496991756618
 10
23.47496804496604
 20
83.282498065418
 10
23.85406892176603
 20
83.076001721418
 10
24.23746117456603
 20
82.877586590218
 10
24.62488073616603
 20
82.687390124618
 10
25.01624873936603
 20
82.505456902218
 10
25.41134515056603
 20
82.331899665418
 10
25.81004228336603
 20
82.166782251018
 10
26.21222396816603
 20
82.010160899018
 10
26.61764250416603
 20
81.86211919821799
 10
27.02618898736603
 20
81.72268374861799
 10
27.43759920656603
 20
81.591939593418
 10
27.85169520016603
 20
81.46994066541799
 10
28.26828368656603
 20
81.35674477101799
 10
28.68710970416603
 20
81.252424014218
 10
29.10805558256603
 20
81.15701677421801
 10
29.53079329616604
 20
81.07060487181801
 10
29.95527156336604
 20
80.993194867018
 10
30.38116543376603
 20
80.924839814218
 10
30.80841413616603
 20
80.865535715018
 10
31.23681513616603
 20
80.81530334061801
 10
31.66618334576603
 20
80.774165804618
 10
32.09644765616603
 20
80.742138851018
 10
32.52730028976603
 20
80.71925024461799
 10
32.95880365616604
 20
80.70550526221799
 10
33.39048104016603
 20
80.70092296941799
  0
LWPOLYLINE
  5
6D2
330
1F
100
AcDbEntity
  8
0
  6
CONTINUOUS
 62
     7
100
AcDbPolyline
 90
       38
 70
     0
 43
0.0
 10
12.39048104016603
 20
101.0343968574179
 10
12.40938552176603
 20
100.143477123018
 10
12.46608276976603
 20
99.254069123018
 10
12.56048121456603
 20
98.36775650701801
 10
12.69241328656603
 20
97.48612028781799
 10
12.86170794096603
 20
96.610742415818
 10
13.06808870096603
 20
95.743185756618
 10
13.31113179376603
 20
94.88498239021799
 10
13.59040469776604
 20
94.03766507021799
 10
13.90545296976603
 20
93.20282983021801
 10
14.25577328656603
 20
92.38210619341799
 10
14.64066329456604
 20
91.577042407818
 10
15.05930796016603
 20
90.789148763018
 10
15.51087139056603
 20
90.01993503661799
 10
15.99449673776603
 20
89.270907646218
 10
16.50924899216603
 20
88.543517302218
 10
17.05405966736604
 20
87.83902335501799
 10
17.62794792816603
 20
87.15852280941801
 10
18.22996866256603
 20
86.503108185418
 10
18.85919383536603
 20
85.873883073418
 10
19.51460876816603
 20
85.271862183818
 10
20.19511015696604
 20
84.697973369418
 10
20.89960581456603
 20
84.15316160781801
 10
21.62699900816603
 20
83.638407700618
 10
22.37603003216603
 20
83.15478054861801
 10
23.14524745616604
 20
82.70321566701801
 10
23.93314407216603
 20
82.284570294218
 10
24.73820944976603
 20
81.899680479818
 10
25.55893323696603
 20
81.549361062218
 10
26.39376725936603
 20
81.234314153418
 10
27.24108209616604
 20
80.95504285741801
 10
28.09928199056603
 20
80.71200138061801
 10
28.96683468336604
 20
80.50562201581801
 10
29.84220862896603
 20
80.336328390218
 10
30.72384151696604
 20
80.20439692621799
 10
31.61015195856603
 20
80.109998702218
 10
32.49955949936603
 20
80.05330141741799
 10
33.39048104016603
 20
80.03439685741801
  0
LWPOLYLINE
  5
6D3
330
1F
100
AcDbEntity
  8
0
  6
CONTINUOUS
 62
     7
100
AcDbPolyline
 90
       38
 70
     0
 43
0.0
 10
13.05700749456603
 20
101.0343968574179
 10
13.07533371536603
 20
100.171233815818
 10
13.13025779216603
 20
99.310005806218
 10
13.22165535216603
 20
98.452052668618
 10
13.34936127376603
 20
97.59871081261799
 10
13.51323619376603
 20
96.751339243018
 10
13.71304150896603
 20
95.911384510218
 10
13.94837518736603
 20
95.08036705581799
 10
14.21872035856603
 20
94.26009470381799
 10
14.52349214896603
 20
93.45240105261799
 10
14.86227155696603
 20
92.65854851021799
 10
15.23459691856603
 20
91.879540423818
 10
15.63968736816603
 20
91.11690480941801
 10
16.07659015696603
 20
90.37239865261801
 10
16.54458387376603
 20
89.647304903818
 10
17.04309107376603
 20
88.942615523018
 10
17.57111948176603
 20
88.25962943501799
 10
18.12740376016604
 20
87.599885455818
 10
18.71087622736603
 20
86.96461099021801
 10
19.32069524496603
 20
86.35479198061799
 10
19.95596971376603
 20
85.77131951181801
 10
20.61571348976603
 20
85.215035401418
 10
21.29869921296603
 20
84.687007257418
 10
22.00338828816603
 20
84.188500230218
 10
22.72848178896603
 20
83.720506619018
 10
23.47298766096603
 20
83.28360392941801
 10
24.23562307376603
 20
82.87851351021799
 10
25.01463111856603
 20
82.50618808461799
 10
25.80848364816604
 20
82.16740860941801
 10
26.61617724976604
 20
81.862636753418
 10
27.43644965776604
 20
81.592291489418
 10
28.26746732496603
 20
81.35695768301799
 10
29.10742231696604
 20
81.157152249418
 10
29.95479415376603
 20
80.99327723821799
 10
30.80813624816603
 20
80.86557124781799
 10
31.66608945136603
 20
80.77417365421799
 10
32.52731721776604
 20
80.71924956781799
 10
33.39048104016603
 20
80.70092296941799
  0
LWPOLYLINE
  5
6D4
330
1F
100
AcDbEntity
  8
0
  6
CONTINUOUS
 62
     7
100
AcDbPolyline
 90
       38
 70
     0
 43
0.0
 10
12.39048104016603
 20
101.0343968574179
 10
12.40938552176603
 20
101.9253165934179
 10
12.46608276976603
 20
102.8147245934179
 10
12.56048121456603
 20
103.7010372094179
 10
12.69241328656603
 20
104.582673428618
 10
12.86170794096603
 20
105.458051300618
 10
13.06808870096603
 20
106.325607959818
 10
13.31113179376603
 20
107.183811326218
 10
13.59040469776604
 20
108.031128646218
 10
13.90545296976603
 20
108.865963886218
 10
14.25577328656603
 20
109.686687521418
 10
14.64066329456604
 20
110.491751307018
 10
15.05930796016603
 20
111.2796449534179
 10
15.51087139056603
 20
112.048858678218
 10
15.99449673776603
 20
112.797886070218
 10
16.50924899216603
 20
113.525276414218
 10
17.05405966736604
 20
114.2297703614179
 10
17.62794792816603
 20
114.9102709070179
 10
18.22996866256603
 20
115.565685531018
 10
18.85919383536603
 20
116.194910641418
 10
19.51460876816603
 20
116.796931532618
 10
20.19511015696604
 20
117.370820347018
 10
20.89960581456603
 20
117.915632108618
 10
21.62699900816603
 20
118.4303860158179
 10
22.37603003216603
 20
118.914013167818
 10
23.14524745616604
 20
119.3655780478179
 10
23.93314407216603
 20
119.7842234206179
 10
24.73820944976603
 20
120.1691132366179
 10
25.55893323696603
 20
120.519432654218
 10
26.39376725936603
 20
120.8344795614179
 10
27.24108209616604
 20
121.113750857418
 10
28.09928199056603
 20
121.3567923358179
 10
28.96683468336604
 20
121.563171700618
 10
29.84220862896603
 20
121.732465324618
 10
30.72384151696604
 20
121.8643967902179
 10
31.61015195856603
 20
121.9587950126179
 10
32.49955949936603
 20
122.015492299018
 10
33.39048104016603
 20
122.0343968574179
  0
LWPOLYLINE
  5
6D5
330
1F
100
AcDbEntity
  8
0
  6
CONTINUOUS
 62
     7
100
AcDbPolyline
 90
       38
 70
     0
 43
0.0
 10
13.05700749456603
 20
101.0343968574179
 10
13.07533371536603
 20
101.897559899018
 10
13.13025779216603
 20
102.7587879102179
 10
13.22165535216603
 20
103.616741046218
 10
13.34936127376603
 20
104.470082903818
 10
13.51323619376603
 20
105.317454473418
 10
13.71304150896603
 20
106.157409206218
 10
13.94837518736603
 20
106.9884266606179
 10
14.21872035856603
 20
107.808699011018
 10
14.52349214896603
 20
108.616392662218
 10
14.86227155696603
 20
109.410245206218
 10
15.23459691856603
 20
110.1892532926179
 10
15.63968736816603
 20
110.951888907018
 10
16.07659015696603
 20
111.6963950638179
 10
16.54458387376603
 20
112.421488812618
 10
17.04309107376603
 20
113.126178193418
 10
17.57111948176603
 20
113.8091642814179
 10
18.12740376016604
 20
114.468908259018
 10
18.71087622736603
 20
115.1041827246179
 10
19.32069524496603
 20
115.7140017342179
 10
19.95596971376603
 20
116.297474204618
 10
20.61571348976603
 20
116.853758315018
 10
21.29869921296603
 20
117.381786459018
 10
22.00338828816603
 20
117.880293486218
 10
22.72848178896603
 20
118.348287097418
 10
23.47298766096603
 20
118.7851897870179
 10
24.23562307376603
 20
119.190280206218
 10
25.01463111856603
 20
119.5626056318179
 10
25.80848364816604
 20
119.9013851070179
 10
26.61617724976604
 20
120.2061569630179
 10
27.43644965776604
 20
120.476502227018
 10
28.26746732496603
 20
120.7118360318179
 10
29.10742231696604
 20
120.911641467018
 10
29.95479415376603
 20
121.0755164782179
 10
30.80813624816603
 20
121.203222468618
 10
31.66608945136603
 20
121.294620062218
 10
32.52731721776604
 20
121.349544148618
 10
33.39048104016603
 20
121.367870747018
  0
LWPOLYLINE
  5
6D6
330
1F
100
AcDbEntity
  8
0
  6
CONTINUOUS
 62
     7
100
AcDbPolyline
 90
      118
 70
     0
 43
0.0
 10
17.95999328976604
 20
101.034397438218
 10
17.96139151696603
 20
100.8267104478179
 10
17.96558824176603
 20
100.618894291018
 10
17.97258559856603
 20
100.411008782218
 10
17.98238450096603
 20
100.2031138606179
 10
17.99498461616603
 20
99.99527013741801
 10
18.01038419376603
 20
99.78754037901801
 10
18.02858008816603
 20
99.579987847818
 10
18.04956715696603
 20
99.372681439818
 10
18.07333605456603
 20
99.165710683018
 10
18.09987794096604
 20
98.959140425418
 10
18.12918314256603
 20
98.75303098701801
 10
18.16124086256603
 20
98.54744172941799
 10
18.19604052496603
 20
98.34242374541801
 10
18.23357173296603
 20
98.13802293581801
 10
18.27382551376603
 20
97.93427527021799
 10
18.31683311216603
 20
97.73101812941801
 10
18.36260713136604
 20
97.528199927818
 10
18.41113783216603
 20
97.325878686218
 10
18.46241392976603
 20
97.124113852618
 10
18.51642255696603
 20
96.92296595661801
 10
18.57314866736603
 20
96.722498406218
 10
18.63257566896603
 20
96.522774614218
 10
18.69468223856603
 20
96.32386789581801
 10
18.75944263216603
 20
96.12585825741801
 10
18.82683519376603
 20
95.928806465418
 10
18.89683756976603
 20
95.73277099981799
 10
18.96942684816603
 20
95.53780802381799
 10
19.04458623056603
 20
95.343954891018
 10
19.12230245776603
 20
95.15123977581799
 10
19.20257477936603
 20
94.959660862218
 10
19.28546299696604
 20
94.76907290221801
 10
19.37097220496603
 20
94.579470238218
 10
19.45908045136603
 20
94.390909587018
 10
19.54976344336603
 20
94.203449606218
 10
19.64299521616603
 20
94.017149177418
 10
19.73874740976603
 20
93.83206865581801
 10
19.83698992016604
 20
93.648268353418
 10
19.93768535856603
 20
93.46581831661799
 10
20.04079517136603
 20
93.28478613421799
 10
20.14628539056603
 20
93.105227510218
 10
20.25412154576604
 20
92.927196126218
 10
20.36426964816603
 20
92.750742281418
 10
20.47671294576603
 20
92.57588754061799
 10
20.59144435536603
 20
92.402640172618
 10
20.70848829296604
 20
92.23096130541801
 10
20.82790611376603
 20
92.06076024461799
 10
20.94969121296603
 20
91.892051257418
 10
21.07380939376603
 20
91.72488731501799
 10
21.20022406096603
 20
91.559322225418
 10
21.32889678416603
 20
91.395409734218
 10
21.45978628656603
 20
91.233204663818
 10
21.59284869136603
 20
91.07276235341799
 10
21.72803358416603
 20
90.91414300301799
 10
21.86529212656604
 20
90.75740173901801
 10
22.00457949776603
 20
90.602586411018
 10
22.14585033616603
 20
90.44974324781801
 10
22.28906150736603
 20
90.298914073418
 10
22.43420399856603
 20
90.150104367818
 10
22.58129224016603
 20
90.003298443018
 10
22.73037014256603
 20
89.85845071661799
 10
22.88148193616604
 20
89.715518969418
 10
23.03460827856603
 20
89.57452555981801
 10
23.18970418256604
 20
89.435516175818
 10
23.34672254256603
 20
89.298536423818
 10
23.50561389136604
 20
89.16363193901799
 10
23.66632463216603
 20
89.03084967181801
 10
23.82879809776603
 20
88.90023670701799
 10
23.99297500816603
 20
88.771839708618
 10
24.15879864816603
 20
88.645700876618
 10
24.32621558736603
 20
88.521857825418
 10
24.49517155696603
 20
88.400346929418
 10
24.66561719696604
 20
88.28119935181801
 10
24.83756157296603
 20
88.16440583821799
 10
25.01105364336604
 20
88.04993285421799
 10
25.18613438256604
 20
87.93775239501799
 10
25.36282284656603
 20
87.827853713418
 10
25.54108849936604
 20
87.72025933741799
 10
25.72087808176604
 20
87.615004825418
 10
25.90213619056604
 20
87.51212531821799
 10
26.08480380656603
 20
87.41165620621799
 10
26.26881569776603
 20
87.313634246218
 10
26.45410622256604
 20
87.218094171018
 10
26.64061061936603
 20
87.125068091018
 10
26.82826690896603
 20
87.034584743818
 10
27.01701593136604
 20
86.94666976141801
 10
27.20679715536604
 20
86.86134781261801
 10
27.39755878416604
 20
86.77863813741799
 10
27.58934496176603
 20
86.698519803018
 10
27.78223070416604
 20
86.62096112621801
 10
27.97623849296604
 20
86.545953260618
 10
28.17136025776603
 20
86.473501270218
 10
28.36755503056604
 20
86.403623422218
 10
28.56476372176603
 20
86.33634357741801
 10
28.76292661776603
 20
86.27168432941799
 10
28.96197752336604
 20
86.209668779018
 10
29.16184127856603
 20
86.150320809418
 10
29.36244684336603
 20
86.09366088301801
 10
29.56372722576603
 20
86.03970639981801
 10
29.76561798576603
 20
85.988472382218
 10
29.96805761616603
 20
85.939971593418
 10
30.17098265936604
 20
85.89421583661801
 10
30.37434536176604
 20
85.851212201418
 10
30.57823697456603
 20
85.810940255818
 10
30.78274003856604
 20
85.77338375981801
 10
30.98784585616604
 20
85.738545419018
 10
31.19352314896604
 20
85.706432833418
 10
31.39972317936603
 20
85.67705623181799
 10
31.60638472976603
 20
85.65042670541799
 10
31.81344670896604
 20
85.626554001418
 10
32.02083764016603
 20
85.60544754861799
 10
32.22847697136603
 20
85.587115660618
 10
32.43629092336604
 20
85.571563868618
 10
32.64421071536603
 20
85.55879547181801
 10
32.85217332656603
 20
85.548811857418
 10
33.06012384816603
 20
85.541612811018
 10
33.26801050736603
 20
85.537197129418
 10
33.47577587856604
 20
85.535562836618
  0
LWPOLYLINE
  5
6D7
330
1F
100
AcDbEntity
  8
0
  6
CONTINUOUS
 62
     7
100
AcDbPolyline
 90
      118
 70
     0
 43
0.0
 10
17.95999328976604
 20
101.034397438218
 10
17.96139151216603
 20
101.2420829790179
 10
17.96558823536603
 20
101.4498991390179
 10
17.97258558576603
 20
101.657784651018
 10
17.98238448496604
 20
101.865679575818
 10
17.99498459696603
 20
102.073523300618
 10
18.01038417136603
 20
102.281253062218
 10
18.02858006256603
 20
102.4888055950179
 10
18.04956712816603
 20
102.6961120062179
 10
18.07333602256603
 20
102.903082766218
 10
18.09987790576603
 20
103.109653027018
 10
18.12918310256604
 20
103.3157624686179
 10
18.16124081936603
 20
103.521351729418
 10
18.19604048016604
 20
103.7263697166179
 10
18.23357168496603
 20
103.9307705294179
 10
18.27382546256603
 20
104.1345181966179
 10
18.31683305936604
 20
104.337775342218
 10
18.36260707536603
 20
104.540593545418
 10
18.41113777296603
 20
104.742914790218
 10
18.46241386736603
 20
104.9446796270179
 10
18.51642249296603
 20
105.145827527818
 10
18.57314860176603
 20
105.3462950798179
 10
18.63257560016603
 20
105.5460188750179
 10
18.69468216816604
 20
105.7449255982179
 10
18.75944255856603
 20
105.942935238218
 10
18.82683511856603
 20
106.139987035018
 10
18.89683749136603
 20
106.336022503818
 10
18.96942676976603
 20
106.530985481418
 10
19.04458614896604
 20
106.7248386190179
 10
19.12230237456603
 20
106.917553737418
 10
19.20257469456603
 20
107.1091326542179
 10
19.28546291056603
 20
107.299720619018
 10
19.37097211696603
 20
107.4893232846179
 10
19.45908036176603
 20
107.6778839406179
 10
19.54976335216604
 20
107.8653439246179
 10
19.64299512496603
 20
108.051644356618
 10
19.73874731696603
 20
108.236724881418
 10
19.83698982576603
 20
108.420525187018
 10
19.93768526256603
 20
108.602975227018
 10
20.04079507536603
 20
108.7840074126179
 10
20.14628529296603
 20
108.963566041418
 10
20.25412144656603
 20
109.141597428618
 10
20.36426954896603
 20
109.318051276618
 10
20.47671284656603
 20
109.4929060206179
 10
20.59144425456603
 20
109.666153393418
 10
20.70848819056603
 20
109.837832263818
 10
20.82790601136604
 20
110.008033326218
 10
20.94969111056603
 20
110.176742316618
 10
21.07380929136604
 20
110.343906262218
 10
21.20022395696603
 20
110.509471356618
 10
21.32889668016603
 20
110.673383851018
 10
21.45978618256603
 20
110.835588924618
 10
21.59284858736603
 20
110.9960312382179
 10
21.72803348016604
 20
111.154650591818
 10
21.86529202256604
 20
111.3113918606179
 10
22.00457939376603
 20
111.466207190218
 10
22.14585023216604
 20
111.619050356618
 10
22.28906140336603
 20
111.769879535818
 10
22.43420389616603
 20
111.918689243018
 10
22.58129213776603
 20
112.065495172618
 10
22.73037004016603
 20
112.210342902218
 10
22.88148183376603
 20
112.353274651018
 10
23.03460817776604
 20
112.4942680638179
 10
23.18970408176603
 20
112.6332774510179
 10
23.34672244176604
 20
112.7702572062179
 10
23.50561379216603
 20
112.905161692618
 10
23.66632453296603
 20
113.037943963018
 10
23.82879800016604
 20
113.168556931018
 10
23.99297491056603
 20
113.296953934218
 10
24.15879855216604
 20
113.4230927678179
 10
24.32621549296603
 20
113.5469358222179
 10
24.49517146256603
 20
113.668446719818
 10
24.66561710576604
 20
113.787594300618
 10
24.83756148176603
 20
113.904387817418
 10
25.01105355376604
 20
114.018860803018
 10
25.18613429296603
 20
114.1310412654179
 10
25.36282276016604
 20
114.240939950218
 10
25.54108841456604
 20
114.3485343278179
 10
25.72087799696603
 20
114.453788841418
 10
25.90213610896604
 20
114.5566683518179
 10
26.08480372496603
 20
114.657137465418
 10
26.26881561776603
 20
114.755159427018
 10
26.45410614416604
 20
114.8506995054179
 10
26.64061054256603
 20
114.943725588618
 10
26.82826683536603
 20
115.034208935818
 10
27.01701585776604
 20
115.122123921418
 10
27.20679708496603
 20
115.207445873418
 10
27.39755871536603
 20
115.290155548618
 10
27.58934489456604
 20
115.370273886218
 10
27.78223063856603
 20
115.447832563018
 10
27.97623843056603
 20
115.522840430218
 10
28.17136019696603
 20
115.595292423818
 10
28.36755497136604
 20
115.665170273418
 10
28.56476366416604
 20
115.732450119818
 10
28.76292656336604
 20
115.797109369418
 10
28.96197747056604
 20
115.8591249214179
 10
29.16184122896604
 20
115.918472892618
 10
29.36244679536604
 20
115.975132819018
 10
29.56372717936604
 20
116.029087303818
 10
29.76561794256603
 20
116.080321323018
 10
29.96805757456604
 20
116.128822113418
 10
30.17098261936603
 20
116.1745778718179
 10
30.37434532496603
 20
116.2175815070179
 10
30.57823693936603
 20
116.257853454218
 10
30.78274000816604
 20
116.2954099502179
 10
30.98784582736604
 20
116.3302482910179
 10
31.19352312176603
 20
116.362360878218
 10
31.39972315536604
 20
116.391737481418
 10
31.60638470736603
 20
116.418367007818
 10
31.81344668976604
 20
116.4422397118179
 10
32.02083762256603
 20
116.463346166218
 10
32.22847695696603
 20
116.481678054218
 10
32.43629091056603
 20
116.4972298462179
 10
32.64421070576603
 20
116.5099982430179
 10
32.85217331856603
 20
116.519981857418
 10
33.06012384336603
 20
116.527180905418
 10
33.26801050576603
 20
116.531596585418
 10
33.47577587856604
 20
116.533230879818
  0
LWPOLYLINE
  5
6D9
330
1F
100
AcDbEntity
  8
0
  6
CONTINUOUS
 62
     7
100
AcDbPolyline
 90
       38
 70
     0
 43
0.0
 10
63.89048104016603
 20
80.70092296941799
 10
64.75364486256603
 20
80.71924956781799
 10
65.61487262736602
 20
80.77417365421799
 10
66.47282583056602
 20
80.86557124781799
 10
67.32616792656603
 20
80.99327723821799
 10
68.17353976336602
 20
81.157152249418
 10
69.01349475536602
 20
81.35695768301799
 10
69.84451242256603
 20
81.592291489418
 10
70.66478483056605
 20
81.862636753418
 10
71.47247843216604
 20
82.16740860941801
 10
72.26633096176604
 20
82.50618808461799
 10
73.04533900656602
 20
82.87851351021799
 10
73.80797441776604
 20
83.28360392941801
 10
74.55248028976604
 20
83.720506619018
 10
75.27757379216604
 20
84.188500230218
 10
75.98226286736604
 20
84.687007257418
 10
76.66524858896605
 20
85.215035401418
 10
77.32499236496605
 20
85.77131951181801
 10
77.96026683536604
 20
86.35479198061799
 10
78.57008585136603
 20
86.96461099021801
 10
79.15355831856604
 20
87.599885455818
 10
79.70984259856604
 20
88.25962943501799
 10
80.23787100496603
 20
88.942615523018
 10
80.73637820496603
 20
89.647304903818
 10
81.20437192336604
 20
90.37239865261801
 10
81.64127471056602
 20
91.11690480941801
 10
82.04636516176604
 20
91.879540423818
 10
82.41869052336602
 20
92.65854851021799
 10
82.75746992976605
 20
93.45240105261799
 10
83.06224172176603
 20
94.26009470381799
 10
83.33258689296604
 20
95.08036705581799
 10
83.56792057136605
 20
95.911384510218
 10
83.76772588496605
 20
96.751339243018
 10
83.93160080656603
 20
97.59871081261799
 10
84.05930672656603
 20
98.452052668618
 10
84.15070428816603
 20
99.310005806218
 10
84.20562836496603
 20
100.171233815818
 10
84.22395458416602
 20
101.0343968574179
  0
LINE
  5
6DA
330
1F
100
AcDbEntity
  8
0
  6
CONTINUOUS
 62
     7
100
AcDbLine
 10
63.64048104016603
 20
80.03439685741801
 30
0.0
 11
33.39048104016603
 21
80.03439685741801
 31
0.0
  0
LWPOLYLINE
  5
6DC
330
1F
100
AcDbEntity
  8
0
  6
CONTINUOUS
 62
     7
100
AcDbPolyline
 90
      118
 70
     0
 43
0.0
 10
63.80518620176604
 20
85.535562836618
 10
64.01294051856604
 20
85.53719696941801
 10
64.22082202096603
 20
85.54161235821799
 10
64.42877323536603
 20
85.548811217418
 10
64.63673615856603
 20
85.55879463981801
 10
64.84465067216603
 20
85.57156247341799
 10
65.05245407696603
 20
85.58711313101801
 10
65.26008418736603
 20
85.605443723018
 10
65.46746746736605
 20
85.62654880301799
 10
65.67451971216605
 20
85.650419670218
 10
65.88117369456603
 20
85.67704738541801
 10
66.08736999376603
 20
85.706422542218
 10
66.29305033456603
 20
85.738534681418
 10
66.49816404816604
 20
85.77337351021801
 10
66.70266144016602
 20
85.810928124618
 10
66.90653196016604
 20
85.85119486701799
 10
67.10988767856602
 20
85.894195795018
 10
67.31281891216602
 20
85.939951700618
 10
67.51525797936603
 20
85.988451140618
 10
67.71714517776604
 20
86.03968300301799
 10
67.91841995696604
 20
86.09363465901799
 10
68.11901916336603
 20
86.15029136781799
 10
68.31887868016602
 20
86.209636567818
 10
68.51792575536603
 20
86.271649343818
 10
68.71608116976602
 20
86.33630447021799
 10
68.91328287056603
 20
86.40358012781801
 10
69.10947241776603
 20
86.473454203018
 10
69.30459490896604
 20
86.54590449901801
 10
69.49861165136605
 20
86.620913916618
 10
69.69149562896603
 20
86.698470003018
 10
69.88326413296604
 20
86.77857890701799
 10
70.07402507056602
 20
86.86128605901799
 10
70.26381409296604
 20
86.94660932621799
 10
70.45256644816603
 20
87.034523737418
 10
70.64022329936602
 20
87.125005233418
 10
70.82672571536602
 20
87.21802816621801
 10
71.01201321936603
 20
87.313564454218
 10
71.19602409936604
 20
87.41158357581801
 10
71.37869080656603
 20
87.512049839818
 10
71.55994432656604
 20
87.614924308618
 10
71.73972850096603
 20
87.720173094218
 10
71.91798905936605
 20
87.82776169741799
 10
72.09467736816603
 20
87.93765748781799
 10
72.26976861136603
 20
88.049841937418
 10
72.44326267056604
 20
88.164313555018
 10
72.61519350416603
 20
88.28109503821799
 10
72.78564165616604
 20
88.40024137421799
 10
72.95460571376603
 20
88.521755140618
 10
73.12202827216603
 20
88.64559948781801
 10
73.28785539696602
 20
88.771738145418
 10
73.45203325936603
 20
88.90013305581801
 10
73.61450651856603
 20
89.03074296621801
 10
73.77521900176603
 20
89.163523739018
 10
73.93411174256605
 20
89.298426439818
 10
74.09112855536602
 20
89.435401804618
 10
74.24622152176604
 20
89.57440539341801
 10
74.39934402736603
 20
89.71539194221801
 10
74.55045525456603
 20
89.858319686218
 10
74.69954502576604
 20
90.00317553101799
 10
74.84663713296604
 20
90.149982022218
 10
74.99177100016604
 20
90.298779431818
 10
75.13498554256603
 20
90.449608535818
 10
75.27626369296604
 20
90.60245603981799
 10
75.41555744176602
 20
90.757274983818
 10
75.55282103376604
 20
90.91401861581799
 10
75.68800879856604
 20
91.07263795341799
 10
75.82107297616605
 20
91.23307898541801
 10
75.95196606256604
 20
91.395285057418
 10
76.08064177296603
 20
91.55919791181799
 10
76.20705723696605
 20
91.724760551818
 10
76.33117467376604
 20
91.891919870218
 10
76.45295760656603
 20
92.06062204301799
 10
76.57237503696603
 20
92.23081853261801
 10
76.68943182736604
 20
92.40251234061799
 10
76.80416695376604
 20
92.575761620618
 10
76.91660581296602
 20
92.75060557581801
 10
77.02675668976604
 20
92.927059782218
 10
77.13459846736603
 20
93.105096391818
 10
77.24009440656605
 20
93.28466080941799
 10
77.34320938736605
 20
93.465698230218
 10
77.44390834736603
 20
93.64815087661801
 10
77.54215363856605
 20
93.831952606218
 10
77.63790985936603
 20
94.01703715821801
 10
77.73114513296604
 20
94.203340876618
 10
77.82183021936603
 20
94.39080146701799
 10
77.90993926896604
 20
94.57936001101799
 10
77.99544782736603
 20
94.768957182218
 10
78.07833592496604
 20
94.95954052941801
 10
78.15861996656605
 20
95.151143319818
 10
78.23633884176604
 20
95.34386131661801
 10
78.31149631056604
 20
95.53770560301799
 10
78.38408704656604
 20
95.732668275018
 10
78.45409278576605
 20
95.92870890701801
 10
78.52148925776603
 20
96.125768006218
 10
78.58625353296602
 20
96.323785590218
 10
78.64836287376604
 20
96.522697414218
 10
78.70779239056602
 20
96.72242598061799
 10
78.76452154736603
 20
96.92290076301802
 10
78.81853284176603
 20
97.124055268618
 10
78.86981088176603
 20
97.325824571018
 10
78.91834272336604
 20
97.52814741101801
 10
78.96411682736604
 20
97.730962607818
 10
79.00712457616603
 20
97.93421665741801
 10
79.04738519696604
 20
98.13799591981799
 10
79.08491761936602
 20
98.34240146861802
 10
79.11971628816605
 20
98.54741145581801
 10
79.15177385296605
 20
98.75299687501801
 10
79.18107972496603
 20
98.959107819018
 10
79.20762263376605
 20
99.16568281421801
 10
79.23139260496603
 20
99.372659982218
 10
79.25238033936603
 20
99.57997034861801
 10
79.27057693296603
 20
99.78752859501801
 10
79.28597716496603
 20
99.99526570701801
 10
79.29857766576603
 20
100.2031154718179
 10
79.30837667856605
 20
100.411013646218
 10
79.31537398736603
 20
100.6188998670179
 10
79.31957061616603
 20
100.8267143502179
 10
79.32096878896604
 20
101.034397435018
  0
LWPOLYLINE
  5
6DD
330
1F
100
AcDbEntity
  8
0
  6
CONTINUOUS
 62
     7
100
AcDbPolyline
 90
        3
 70
     0
 43
0.0
 10
60.76426548656604
 20
85.53233120301801
 10
62.27574225136603
 20
85.53313221581801
 10
63.80518620176604
 20
85.535562836618
  0
LINE
  5
6DE
330
1F
100
AcDbEntity
  8
0
  6
CONTINUOUS
 62
     7
100
AcDbLine
 10
36.51669659376603
 20
85.53233084141799
 30
0.0
 11
60.51426548656603
 21
85.53233084141799
 31
0.0
  0
LWPOLYLINE
  5
6DF
330
1F
100
AcDbEntity
  8
0
  6
CONTINUOUS
 62
     7
100
AcDbPolyline
 90
        3
 70
     0
 43
0.0
 10
33.47577587856604
 20
85.535562836618
 10
35.00601485136604
 20
85.53313121101799
 10
36.51669659376603
 20
85.53233084141799
  0
LWPOLYLINE
  5
6E0
330
1F
100
AcDbEntity
  8
0
  6
CONTINUOUS
 62
     7
100
AcDbPolyline
 90
        5
 70
     0
 43
0.0
 10
59.76552934096603
 20
88.553537758218
 10
59.21629528976603
 20
88.470249919818
 10
58.66546921776603
 20
88.41078778221799
 10
58.11342295216604
 20
88.374962081418
 10
57.56050675696604
 20
88.36270704461801
  0
LINE
  5
6E1
330
1F
100
AcDbEntity
  8
0
  6
CONTINUOUS
 62
     7
100
AcDbLine
 10
57.31050675696604
 20
88.36270703821801
 30
0.0
 11
39.72045561211814
 21
88.36270703821801
 31
0.0
  0
LWPOLYLINE
  5
6E2
330
1F
100
AcDbEntity
  8
0
  6
CONTINUOUS
 62
     7
100
AcDbPolyline
 90
        5
 70
     0
 43
0.0
 10
39.72045532336604
 20
88.36270704461801
 10
39.16754079536604
 20
88.37496200941799
 10
38.61549491856603
 20
88.41078760461799
 10
38.06466844976604
 20
88.470249703818
 10
37.51543273936603
 20
88.553537759818
  0
LWPOLYLINE
  5
6E3
330
1F
100
AcDbEntity
  8
0
  6
CONTINUOUS
 62
     7
100
AcDbPolyline
 90
       30
 70
     0
 43
0.0
 10
37.51543273936603
 20
88.553537763018
 10
36.91961238096603
 20
88.672022407818
 10
36.33004833136603
 20
88.819166089418
 10
35.74807274736603
 20
88.994631060618
 10
35.17502999856604
 20
89.198079574218
 10
34.61231239536604
 20
89.42904917901799
 10
34.06120039536603
 20
89.686970881418
 10
33.52295141456604
 20
89.971282038218
 10
32.99884921296603
 20
90.281390639818
 10
32.49015262256603
 20
90.61653836141799
 10
31.99800999056604
 20
90.975942787018
 10
31.52357220176603
 20
91.35882636781799
 10
31.06801317136604
 20
91.76431745101799
 10
30.63238428176603
 20
92.191428479818
 10
30.21768328816603
 20
92.63918641421801
 10
29.82491863696603
 20
93.106605220618
 10
29.45505775536603
 20
93.592557137418
 10
29.10892479056603
 20
94.095896492618
 10
28.78733608016603
 20
94.615486027018
 10
28.49111143536603
 20
95.15013224781801
 10
28.22093913296603
 20
95.698531806218
 10
27.97741904496603
 20
96.259420374218
 10
27.76115717616603
 20
96.83152907981799
 10
27.57271334096603
 20
97.413482719818
 10
27.41248188976603
 20
98.003900798218
 10
27.28083145776603
 20
98.60143231821801
 10
27.17812974096603
 20
99.204700404618
 10
27.10461678896603
 20
99.81222790861799
 10
27.06041835856604
 20
100.422596574218
 10
27.04565782096603
 20
101.034400127818
  0
LWPOLYLINE
  5
6EA
330
1F
100
AcDbEntity
  8
0
  6
CONTINUOUS
 62
     7
100
AcDbPolyline
 90
       36
 70
     0
 43
0.0
 10
49.82798104016603
 20
86.034003515018
 10
49.82327584816604
 20
86.019305956618
 10
49.80910749936604
 20
86.004655326218
 10
49.78552555216604
 20
85.990207238218
 10
49.75265414736604
 20
85.97607886861799
 10
49.71084964816604
 20
85.96243182221799
 10
49.66037006576604
 20
85.94934980941799
 10
49.60173560176603
 20
85.936966231818
 10
49.53527011856603
 20
85.92534962541801
 10
49.46166261616603
 20
85.91462113421799
 10
49.38136600336603
 20
85.90484624781799
 10
49.29514477136603
 20
85.896118742218
 10
49.20361973456603
 20
85.888500646218
 10
49.10754065936603
 20
85.88205532141799
 10
49.00774748336604
 20
85.876838220618
 10
48.90490972656603
 20
85.872884953418
 10
48.80005124496603
 20
85.870234345418
 10
48.69377695536604
 20
85.868901988618
 10
48.58721239536603
 20
85.868901819018
 10
48.48093738896603
 20
85.87023384461799
 10
48.37607933136603
 20
85.872884095818
 10
48.27323967856603
 20
85.87683708461801
 10
48.17344687696603
 20
85.88205380621799
 10
48.07736541456604
 20
85.888498916618
 10
47.98584005296603
 20
85.896116651018
 10
47.89961731536603
 20
85.90484388941801
 10
47.81931866576604
 20
85.914618575818
 10
47.74571010736604
 20
85.925346729418
 10
47.67924145936603
 20
85.936963358218
 10
47.62060748656604
 20
85.94934619981799
 10
47.57012414416603
 20
85.962428428618
 10
47.52831704656603
 20
85.976075479818
 10
47.49544014256603
 20
85.99020540781799
 10
47.47185638256604
 20
86.00465393581799
 10
47.45768636816602
 20
86.019305745418
 10
47.45298104016603
 20
86.034003515018
  0
LWPOLYLINE
  5
6EB
330
1F
100
AcDbEntity
  8
0
  6
CONTINUOUS
 62
     7
100
AcDbPolyline
 90
       36
 70
     0
 43
0.0
 10
47.45298104016603
 20
86.034003515018
 10
47.45783640336603
 20
86.048933302218
 10
47.47235242576604
 20
86.06373311341799
 10
47.49634180016604
 20
86.078255670218
 10
47.52955847536603
 20
86.092391118218
 10
47.57155566576603
 20
86.105991774218
 10
47.62201723376604
 20
86.118988919818
 10
47.68040538896604
 20
86.131266595018
 10
47.74642258736603
 20
86.142773835018
 10
47.81944527376604
 20
86.153405318218
 10
47.89911454736603
 20
86.16310725101801
 10
47.98475839856603
 20
86.171790793418
 10
48.07584570736604
 20
86.179393996618
 10
48.17169770096604
 20
86.185848857418
 10
48.27150975536603
 20
86.191091446218
 10
48.37461725296604
 20
86.195076324618
 10
48.47995516496603
 20
86.197754593418
 10
48.58685233776604
 20
86.19910295181801
 10
48.69408792976603
 20
86.199103089418
 10
48.80098590096603
 20
86.197754991818
 10
48.90632340336604
 20
86.19507700941801
 10
49.00943297296603
 20
86.191092326218
 10
49.10924452176604
 20
86.18585004461801
 10
49.20509908816605
 20
86.179395295818
 10
49.29618635536604
 20
86.17179239021799
 10
49.38183175056604
 20
86.16310900621801
 10
49.46150250416604
 20
86.153407222218
 10
49.53452591536604
 20
86.142775996618
 10
49.60054583216604
 20
86.13126867021801
 10
49.65893304976604
 20
86.11899165741801
 10
49.70939742736604
 20
86.105994358218
 10
49.75139605776604
 20
86.092393899018
 10
49.78461713296604
 20
86.078257244618
 10
49.80860775696603
 20
86.06373455821801
 10
49.82312537776603
 20
86.048933759818
 10
49.82798104016603
 20
86.034003515018
  0
LWPOLYLINE
  5
6EC
330
1F
100
AcDbEntity
  8
0
  6
CONTINUOUS
 62
     7
100
AcDbPolyline
 90
       30
 70
     0
 43
0.0
 10
37.51543273936603
 20
113.515255953418
 10
36.91961232656604
 20
113.396771295818
 10
36.33004822256603
 20
113.249627596618
 10
35.74807258736603
 20
113.074162603018
 10
35.17502979056603
 20
112.870714060618
 10
34.61231213936604
 20
112.6397444254179
 10
34.06120009456603
 20
112.3818226846179
 10
33.52295107216603
 20
112.0975114846179
 10
32.99884883216604
 20
111.787402838218
 10
32.49015220656604
 20
111.452255065418
 10
31.99800954576604
 20
111.092850587018
 10
31.52357172976604
 20
110.7099669486179
 10
31.06801267856603
 20
110.3044758046179
 10
30.63238377136603
 20
109.8773647118179
 10
30.21768276656603
 20
109.4296067102179
 10
29.82491811056604
 20
108.9621878366179
 10
29.45505722736603
 20
108.476235849418
 10
29.10892426736603
 20
107.972896422218
 10
28.78733556816603
 20
107.453306814218
 10
28.49111093936604
 20
106.9186605198179
 10
28.22093865936603
 20
106.370260887818
 10
27.97741860016603
 20
105.809372244618
 10
27.76115676656603
 20
105.237263465418
 10
27.57271297136604
 20
104.655309753418
 10
27.41248156656603
 20
104.064891604618
 10
27.28083118736604
 20
103.467360014218
 10
27.17812952976604
 20
102.864091860618
 10
27.10461664176603
 20
102.256564291018
 10
27.06041828176604
 20
101.646195564618
 10
27.04565782096603
 20
101.034400127818
  0
LWPOLYLINE
  5
6EE
330
1F
100
AcDbEntity
  8
0
  6
CONTINUOUS
 62
     7
100
AcDbPolyline
 90
        5
 70
     0
 43
0.0
 10
39.72045532336604
 20
113.706086671818
 10
39.16754079536604
 20
113.693831707018
 10
38.61549491856603
 20
113.6580061118179
 10
38.06466844976604
 20
113.5985440126179
 10
37.51543273936603
 20
113.5152559566179
  0
LWPOLYLINE
  5
6F4
330
1F
100
AcDbEntity
  8
0
  6
CONTINUOUS
 62
     7
100
AcDbPolyline
 90
        5
 70
     0
 43
0.0
 10
59.76552934096603
 20
113.5152559566179
 10
59.21629528976603
 20
113.598543796618
 10
58.66546921776603
 20
113.658005934218
 10
58.11342295216604
 20
113.693831635018
 10
57.56050675696604
 20
113.706086671818
  0
LWPOLYLINE
  5
6F5
330
1F
100
AcDbEntity
  8
0
  6
CONTINUOUS
 62
     7
100
AcDbPolyline
 90
       28
 70
     0
 43
0.0
 10
47.54042880336603
 20
85.97212185101801
 10
47.57119781616604
 20
85.982105278218
 10
47.62152867056604
 20
85.995091876618
 10
47.67976844816604
 20
86.007361217418
 10
47.74562563696603
 20
86.018863292618
 10
47.81847620496604
 20
86.029492614218
 10
47.89800169296603
 20
86.03919979821801
 10
47.98350699696603
 20
86.047891780618
 10
48.07459271376603
 20
86.055516102218
 10
48.17042932816603
 20
86.06198937261799
 10
48.27046576656604
 20
86.06726037741799
 10
48.37371579856603
 20
86.07126393261799
 10
48.47947443216604
 20
86.073961948618
 10
48.58662054416603
 20
86.07531797901799
 10
48.69435400976604
 20
86.075317899018
 10
48.80150206096604
 20
86.073961675018
 10
48.90726380336604
 20
86.07126337101801
 10
49.01051819376604
 20
86.06725938061799
 10
49.11055827376603
 20
86.06198784141801
 10
49.20639804016604
 20
86.055513940618
 10
49.29748441296603
 20
86.047889070218
 10
49.38298826576604
 20
86.039196689418
 10
49.46251007056603
 20
86.029489385418
 10
49.53535513296603
 20
86.018860308618
 10
49.60120716496604
 20
86.00735862701801
 10
49.65944070736604
 20
85.995090177418
 10
49.70976765456605
 20
85.98210430381801
 10
49.74053307056603
 20
85.972121951818
  0
LWPOLYLINE
  5
6F7
330
1F
100
AcDbEntity
  8
0
  6
CONTINUOUS
 62
     7
100
AcDbPolyline
 90
        3
 70
     0
 43
0.0
 10
33.47577587856604
 20
116.533230879818
 10
35.00601485136604
 20
116.535662505418
 10
36.51669659376603
 20
116.536462873418
  0
LINE
  5
6F8
330
1F
100
AcDbEntity
  8
0
  6
CONTINUOUS
 62
     7
100
AcDbLine
 10
36.51669659376603
 20
116.536462873418
 30
0.0
 11
60.76426548656604
 21
116.536462513418
 31
0.0
  0
LWPOLYLINE
  5
6F9
330
1F
100
AcDbEntity
  8
0
  6
CONTINUOUS
 62
     7
100
AcDbPolyline
 90
        3
 70
     0
 43
0.0
 10
60.76426548656604
 20
116.536462513418
 10
62.27574225136603
 20
116.535661499018
 10
63.80518620176604
 20
116.533230879818
  0
LWPOLYLINE
  5
6FA
330
1F
100
AcDbEntity
  8
0
  6
CONTINUOUS
 62
     7
100
AcDbPolyline
 90
      118
 70
     0
 43
0.0
 10
63.80518620176604
 20
116.533230879818
 10
64.01294052016604
 20
116.531596747018
 10
64.22082202576604
 20
116.527181356618
 10
64.42877324336603
 20
116.519982499018
 10
64.63673616816604
 20
116.509999075018
 10
64.84465068496604
 20
116.497231241418
 10
65.05245409296603
 20
116.481680583818
 10
65.26008420336603
 20
116.463349990218
 10
65.46746748656605
 20
116.4422449102179
 10
65.67451973296605
 20
116.418374043018
 10
65.88117372016603
 20
116.391746326218
 10
66.08737002096603
 20
116.362371169418
 10
66.29305036336603
 20
116.330259030218
 10
66.49816407856604
 20
116.295420199818
 10
66.70266147376603
 20
116.2578655838179
 10
66.90653199536604
 20
116.217598841418
 10
67.10988771696603
 20
116.174597911818
 10
67.31281895376603
 20
116.128842006218
 10
67.51525802256603
 20
116.080342564618
 10
67.71714522256605
 20
116.0291107006179
 10
67.91842000496604
 20
115.975159043018
 10
68.11901921456604
 20
115.918502334218
 10
68.31887873296603
 20
115.859157131018
 10
68.51792580976604
 20
115.797144355018
 10
68.71608122576603
 20
115.7324892270179
 10
68.91328292816604
 20
115.665213567818
 10
69.10947247856603
 20
115.5953394910179
 10
69.30459497136604
 20
115.5228891934179
 10
69.49861171696603
 20
115.4478797742179
 10
69.69149569456604
 20
115.3703236846179
 10
69.88326420176602
 20
115.2902147806179
 10
70.07402514096603
 20
115.207507625418
 10
70.26381416496604
 20
115.1221843566179
 10
70.45256652176604
 20
115.034269943818
 10
70.64022337456603
 20
114.943788444618
 10
70.82672579216603
 20
114.850765510218
 10
71.01201329936603
 20
114.755229220618
 10
71.19602418096604
 20
114.6572100958179
 10
71.37869088816604
 20
114.556743830218
 10
71.55994440976605
 20
114.453869358218
 10
71.73972858736604
 20
114.348620571018
 10
71.91798914576603
 20
114.2410319662179
 10
72.09467745616604
 20
114.131136172618
 10
72.26976870096604
 20
114.018951719818
 10
72.44326276016605
 20
113.9044801006179
 10
72.61519359536603
 20
113.7876986142179
 10
72.78564174896605
 20
113.6685522766179
 10
72.95460580816603
 20
113.5470385070179
 10
73.12202836656604
 20
113.4231941566179
 10
73.28785549296603
 20
113.297055495818
 10
73.45203335696604
 20
113.168660583818
 10
73.61450661616604
 20
113.038050670218
 10
73.77521910096604
 20
112.905269894218
 10
73.93411184176603
 20
112.7703671918179
 10
74.09112865616603
 20
112.6333918222179
 10
74.24622162256603
 20
112.4943882318179
 10
74.39934412816604
 20
112.3534016798179
 10
74.55045535696604
 20
112.2104739326179
 10
74.69954512816605
 20
112.0656180846179
 10
74.84663723536605
 20
111.918811590218
 10
74.99177110416605
 20
111.770014177418
 10
75.13498564496604
 20
111.619185070218
 10
75.27626379536605
 20
111.4663375630179
 10
75.41555754416603
 20
111.3115186142179
 10
75.55282113776605
 20
111.154774980618
 10
75.68800890256603
 20
110.996155638218
 10
75.82107308016603
 20
110.8357146030179
 10
75.95196616496602
 20
110.6735085294179
 10
76.08064187536604
 20
110.509595670218
 10
76.20705733936603
 20
110.344033027018
 10
76.33117477616602
 20
110.1768737054179
 10
76.45295770896604
 20
110.008171529418
 10
76.57237513776604
 20
109.8379750366179
 10
76.68943192816604
 20
109.666281225418
 10
76.80416705456605
 20
109.493031942218
 10
76.91660591216603
 20
109.318187983818
 10
77.02675678896603
 20
109.141733774218
 10
77.13459856496604
 20
108.9636971598179
 10
77.24009450256602
 20
108.784132740618
 10
77.34320948336602
 20
108.603095315018
 10
77.44390844176604
 20
108.4206426654179
 10
77.54215373136602
 20
108.236840932618
 10
77.63790995216604
 20
108.051756375818
 10
77.73114522416602
 20
107.8654526542179
 10
77.82183030896604
 20
107.677992060618
 10
77.90993935696604
 20
107.4894335134179
 10
77.99544791376604
 20
107.299836339018
 10
78.07833600976604
 20
107.109252988618
 10
78.15862004976603
 20
106.917650195018
 10
78.23633892336605
 20
106.7249321950179
 10
78.31149638896604
 20
106.5310879054179
 10
78.38408712496605
 20
106.3361252302179
 10
78.45409286096603
 20
106.140084593418
 10
78.52148932976604
 20
105.943025491018
 10
78.58625360336603
 20
105.745007903818
 10
78.64836294256602
 20
105.546096076618
 10
78.70779245616603
 20
105.3463675070179
 10
78.76452160976604
 20
105.1458927214179
 10
78.81853290416604
 20
104.944738212618
 10
78.86981093936603
 20
104.7429689070179
 10
78.91834277936604
 20
104.540646063818
 10
78.96411688176605
 20
104.337830863818
 10
79.00712462576604
 20
104.134576811018
 10
79.04738524496602
 20
103.9307975470179
 10
79.08491766416602
 20
103.7263919950179
 10
79.11971632976605
 20
103.521382003018
 10
79.15177389136605
 20
103.315796582218
 10
79.18107976176603
 20
103.109685633418
 10
79.20762266576602
 20
102.903110636618
 10
79.23139263376604
 20
102.6961334654179
 10
79.25238036496603
 20
102.4888230958179
 10
79.27057695376603
 20
102.281264846218
 10
79.28597718416603
 20
102.0735277326179
 10
79.29857768016603
 20
101.8656779646179
 10
79.30837668976605
 20
101.657779788618
 10
79.31537399536603
 20
101.449893564618
 10
79.31957061936603
 20
101.242079079818
 10
79.32096879056604
 20
101.034397435018
  0
LINE
  5
6FC
330
1F
100
AcDbEntity
  8
0
  6
CONTINUOUS
 62
     7
100
AcDbLine
 10
33.39048104016603
 20
121.367870747018
 30
0.0
 11
63.89048104016603
 21
121.367870747018
 31
0.0
  0
LINE
  5
6FD
330
1F
100
AcDbEntity
  8
0
  6
CONTINUOUS
 62
     7
100
AcDbLine
 10
63.89048104016603
 20
122.0343968574179
 30
0.0
 11
33.39048104016603
 21
122.0343968574179
 31
0.0
  0
LWPOLYLINE
  5
6FE
330
1F
100
AcDbEntity
  8
0
  6
CONTINUOUS
 62
     7
100
AcDbPolyline
 90
       38
 70
     0
 43
0.0
 10
63.89048104016603
 20
121.367870747018
 10
64.75364486256603
 20
121.349544148618
 10
65.61487262736602
 20
121.294620062218
 10
66.47282583056602
 20
121.203222468618
 10
67.32616792656603
 20
121.0755164782179
 10
68.17353976336602
 20
120.911641467018
 10
69.01349475536602
 20
120.7118360318179
 10
69.84451242256603
 20
120.476502227018
 10
70.66478483056605
 20
120.2061569630179
 10
71.47247843216604
 20
119.9013851070179
 10
72.26633096176604
 20
119.5626056318179
 10
73.04533900656602
 20
119.190280206218
 10
73.80797441776604
 20
118.7851897870179
 10
74.55248028976604
 20
118.348287097418
 10
75.27757379216604
 20
117.880293486218
 10
75.98226286736604
 20
117.381786459018
 10
76.66524858896605
 20
116.853758315018
 10
77.32499236496605
 20
116.297474204618
 10
77.96026683536604
 20
115.7140017342179
 10
78.57008585136603
 20
115.1041827246179
 10
79.15355831856604
 20
114.468908259018
 10
79.70984259856604
 20
113.8091642814179
 10
80.23787100496603
 20
113.126178193418
 10
80.73637820496603
 20
112.421488812618
 10
81.20437192336604
 20
111.6963950638179
 10
81.64127471056602
 20
110.951888907018
 10
82.04636516176604
 20
110.1892532926179
 10
82.41869052336602
 20
109.410245206218
 10
82.75746992976605
 20
108.616392662218
 10
83.06224172176603
 20
107.808699011018
 10
83.33258689296604
 20
106.9884266606179
 10
83.56792057136605
 20
106.157409206218
 10
83.76772588496605
 20
105.317454473418
 10
83.93160080656603
 20
104.470082903818
 10
84.05930672656603
 20
103.616741046218
 10
84.15070428816603
 20
102.7587879102179
 10
84.20562836496603
 20
101.897559899018
 10
84.22395458416602
 20
101.0343968574179
  0
LWPOLYLINE
  5
6FF
330
1F
100
AcDbEntity
  8
0
  6
CONTINUOUS
 62
     7
100
AcDbPolyline
 90
       30
 70
     0
 43
0.0
 10
70.23530425936605
 20
101.034399859018
 10
70.22054368656603
 20
101.6461978574179
 10
70.17634521776603
 20
102.2565665534179
 10
70.10283240016605
 20
102.864092934218
 10
70.00013093616605
 20
103.467359745418
 10
69.86848084656603
 20
104.064890252618
 10
69.70824982096605
 20
104.655307348618
 10
69.51980654096605
 20
105.237259988618
 10
69.30354531536602
 20
105.8093677118179
 10
69.06002595056603
 20
106.370255423818
 10
68.78985445616604
 20
106.918654183818
 10
68.49363074576604
 20
107.4532995822179
 10
68.17204312816603
 20
107.972888281418
 10
67.82591095696602
 20
108.4762274094179
 10
67.45605044656603
 20
108.962179751818
 10
67.06328617776603
 20
109.429598919818
 10
66.64858558736603
 20
109.877357225418
 10
66.21295650096604
 20
110.304469169418
 10
65.75739674416604
 20
110.7099615310179
 10
65.28295824656604
 20
111.092846198218
 10
64.79081489296603
 20
111.452251580618
 10
64.28211748656605
 20
111.7874001966179
 10
63.75801434416604
 20
112.097509609418
 10
63.21976440656603
 20
112.3818214814179
 10
62.66865142416603
 20
112.6397437710179
 10
62.10593276176603
 20
112.870713889418
 10
61.53288873616603
 20
113.0741628446179
 10
60.95091204336604
 20
113.249628097418
 10
60.36134793456604
 20
113.3967717038179
 10
59.76552933936603
 20
113.515255951818
  0
LWPOLYLINE
  5
700
330
1F
100
AcDbEntity
  8
0
  6
CONTINUOUS
 62
     7
100
AcDbPolyline
 90
       30
 70
     0
 43
0.0
 10
70.23530425936605
 20
101.034399859018
 10
70.22054361616603
 20
100.422594412618
 10
70.17634508336604
 20
99.81222577101801
 10
70.10283220656603
 20
99.204699451018
 10
70.00013068816603
 20
98.60143270061801
 10
69.86848055056603
 20
98.003902257418
 10
69.70824948176605
 20
97.413485227018
 10
69.51980616496604
 20
96.831532654218
 10
69.30354490736604
 20
96.259424998218
 10
69.06002551696605
 20
95.698537353418
 10
68.78985400016603
 20
95.15013866061799
 10
68.49363027536603
 20
94.615493332618
 10
68.17204264816604
 20
94.095904699018
 10
67.82591047216604
 20
93.592565636618
 10
67.45604996336604
 20
93.106613358218
 10
67.06328569936605
 20
92.639194254218
 10
66.64858512016604
 20
92.191436009418
 10
66.21295604816603
 20
91.76432412301799
 10
65.75739631216603
 20
91.35883181741801
 10
65.28295783856603
 20
90.97594720461799
 10
64.79081451216604
 20
90.61654187021799
 10
64.28211713616605
 20
90.28139330221801
 10
63.75801402896604
 20
89.97128392941801
 10
63.21976412976604
 20
89.68697209581801
 10
62.66865118896603
 20
89.42904984141801
 10
62.10593256976603
 20
89.198079753418
 10
61.53288859056604
 20
88.99463082221799
 10
60.95091194416603
 20
88.81916559021801
 10
60.36134788496604
 20
88.672022001418
 10
59.76552933936603
 20
88.553537763018
  0
LWPOLYLINE
  5
702
330
1F
100
AcDbEntity
  8
0
  6
CONTINUOUS
 62
     7
100
AcDbPolyline
 90
       38
 70
     0
 43
0.0
 10
84.89048104016603
 20
101.0343968574179
 10
84.87157655856604
 20
101.9253165934179
 10
84.81487931056603
 20
102.8147245934179
 10
84.72048086576604
 20
103.7010372094179
 10
84.58854879376602
 20
104.582673428618
 10
84.41925413936605
 20
105.458051300618
 10
84.21287337936604
 20
106.325607959818
 10
83.96983028656604
 20
107.183811326218
 10
83.69055738256603
 20
108.031128646218
 10
83.37550910896604
 20
108.865963886218
 10
83.02518879216604
 20
109.686687521418
 10
82.64029878416605
 20
110.491751307018
 10
82.22165412016606
 20
111.2796449534179
 10
81.77009068976605
 20
112.048858678218
 10
81.28646534256603
 20
112.797886070218
 10
80.77171308656602
 20
113.525276414218
 10
80.22690241296604
 20
114.2297703614179
 10
79.65301415056604
 20
114.9102709070179
 10
79.05099341776602
 20
115.565685531018
 10
78.42176824496604
 20
116.194910641418
 10
77.76635331216604
 20
116.796931532618
 10
77.08585192336605
 20
117.370820347018
 10
76.38135626576604
 20
117.915632108618
 10
75.65396307056605
 20
118.4303860158179
 10
74.90493204656605
 20
118.914013167818
 10
74.13571462416604
 20
119.3655780478179
 10
73.34781800656603
 20
119.7842234206179
 10
72.54275263056604
 20
120.1691132366179
 10
71.72202884336605
 20
120.519432654218
 10
70.88719482096604
 20
120.8344795614179
 10
70.03987998416604
 20
121.113750857418
 10
69.18168008976604
 20
121.3567923358179
 10
68.31412739696602
 20
121.563171700618
 10
67.43875345136604
 20
121.732465324618
 10
66.55712056176603
 20
121.8643967902179
 10
65.67081012176604
 20
121.9587950126179
 10
64.78140258096605
 20
122.015492299018
 10
63.89048104016603
 20
122.0343968574179
  0
LWPOLYLINE
  5
703
330
1F
100
AcDbEntity
  8
0
  6
CONTINUOUS
 62
     7
100
AcDbPolyline
 90
       38
 70
     0
 43
0.0
 10
84.89048104016603
 20
101.0343968574179
 10
84.87157655856604
 20
100.143477123018
 10
84.81487931056603
 20
99.254069123018
 10
84.72048086576604
 20
98.36775650701801
 10
84.58854879376602
 20
97.48612028781799
 10
84.41925413936605
 20
96.610742415818
 10
84.21287337936604
 20
95.743185756618
 10
83.96983028656604
 20
94.88498239021799
 10
83.69055738256603
 20
94.03766507021799
 10
83.37550910896604
 20
93.20282983021801
 10
83.02518879216604
 20
92.38210619341799
 10
82.64029878416605
 20
91.577042407818
 10
82.22165412016606
 20
90.789148763018
 10
81.77009068976605
 20
90.01993503661799
 10
81.28646534256603
 20
89.270907646218
 10
80.77171308656602
 20
88.543517302218
 10
80.22690241296604
 20
87.83902335501799
 10
79.65301415056604
 20
87.15852280941801
 10
79.05099341776602
 20
86.503108185418
 10
78.42176824496604
 20
85.873883073418
 10
77.76635331216604
 20
85.271862183818
 10
77.08585192336605
 20
84.697973369418
 10
76.38135626576604
 20
84.15316160781801
 10
75.65396307056605
 20
83.638407700618
 10
74.90493204656605
 20
83.15478054861801
 10
74.13571462416604
 20
82.70321566701801
 10
73.34781800656603
 20
82.284570294218
 10
72.54275263056604
 20
81.899680479818
 10
71.72202884336605
 20
81.549361062218
 10
70.88719482096604
 20
81.234314153418
 10
70.03987998416604
 20
80.95504285741801
 10
69.18168008976604
 20
80.71200138061801
 10
68.31412739696602
 20
80.50562201581801
 10
67.43875345136604
 20
80.336328390218
 10
66.55712056176603
 20
80.20439692621799
 10
65.67081012176604
 20
80.109998702218
 10
64.78140258096605
 20
80.05330141741799
 10
63.89048104016603
 20
80.03439685741801
  0
CIRCLE
  5
72F
330
1F
100
AcDbEntity
  8
0
  6
CONTINUOUS
 62
     7
100
AcDbCircle
 10
48.64048104016603
 20
92.271186857418
 30
0.0
 40
1.3232233008
  0
CIRCLE
  5
730
330
1F
100
AcDbEntity
  8
0
  6
CONTINUOUS
 62
     7
100
AcDbCircle
 10
48.64048104016603
 20
92.271186857418
 30
0.0
 40
1.978553382399999
  0
LINE
  5
73B
330
1F
100
AcDbEntity
  8
0
100
AcDbLine
 10
33.39048104016603
 20
80.70092296941799
 30
0.0
 11
63.64048104016603
 21
80.70092296941799
 31
0.0
  0
LINE
  5
741
330
1F
100
AcDbEntity
  8
0
100
AcDbLine
 10
39.72045532336604
 20
113.706086671818
 30
0.0
 11
57.56050675696604
 21
113.706086671818
 31
0.0
  0
LINE
  5
746
330
1F
100
AcDbEntity
  8
CENTER
100
AcDbLine
 10
43.90911767879784
 20
92.271186857418
 30
0.0
 11
53.37184440153422
 21
92.271186857418
 31
0.0
  0
LINE
  5
747
330
1F
100
AcDbEntity
  8
CENTER
100
AcDbLine
 10
48.64048104016603
 20
97.00255021878618
 30
0.0
 11
48.64048104016603
 21
87.5398234960498
 31
0.0
  0
LINE
  5
748
330
1F
100
AcDbEntity
  8
CENTER
100
AcDbLine
 10
48.64048104016603
 20
90.70819979445269
 30
0.0
 11
48.64048104016603
 21
81.2454730717163
 31
0.0
  0
ENDSEC
  0
SECTION
  2
OBJECTS
  0
DICTIONARY
  5
C
330
0
100
AcDbDictionary
  3
ACAD_GROUP
350
D
  3
ACAD_LAYOUT
350
1A
  3
ACAD_MLINESTYLE
350
17
  3
ACAD_PLOTSETTINGS
350
19
  3
ACAD_PLOTSTYLENAME
350
E
  3
ACDBHEADERROUNDTRIPXREC
350
7DF
  0
DICTIONARY
  5
802
330
1F
100
AcDbDictionary
280
     1
  3
ACAD_LAYOUTSELFREF
360
803
  0
DICTIONARY
  5
800
330
1B
100
AcDbDictionary
280
     1
  3
ACAD_LAYOUTSELFREF
360
801
  0
DICTIONARY
  5
D
102
{ACAD_REACTORS
330
C
102
}
330
C
100
AcDbDictionary
  0
DICTIONARY
  5
1A
102
{ACAD_REACTORS
330
C
102
}
330
C
100
AcDbDictionary
  0
DICTIONARY
  5
17
102
{ACAD_REACTORS
330
C
102
}
330
C
100
AcDbDictionary
  3
STANDARD
350
18
  0
DICTIONARY
  5
19
102
{ACAD_REACTORS
330
C
102
}
330
C
100
AcDbDictionary
  0
ACDBDICTIONARYWDFLT
  5
E
102
{ACAD_REACTORS
330
C
102
}
330
C
100
AcDbDictionary
281
     1
  3
Normal
350
F
100
AcDbDictionaryWithDefault
340
F
  0
DICTIONARY
  5
7DF
102
{ACAD_REACTORS
330
C
102
}
330
C
100
AcDbDictionary
  3
CEPSNTYPE
350
7E9
  3
DIMSTYLEDATA
350
7ED
  3
FINGERPRINTGUID
350
7EA
  3
HYPERLINKBASE
350
7E2
  3
INSUNITS
350
7E8
  3
LAYOUTDICT
350
7E4
  3
LWETCUNION
350
7E7
  3
PLOTSETDICT
350
7E5
  3
PLOTSTYLNAMDICT
350
7E6
  3
PSVPSCALE
350
7EC
  3
PUCSBASE
350
7F0
  3
PUCSORGBACK
350
7F6
  3
PUCSORGBOTTOM
350
7F2
  3
PUCSORGFRONT
350
7F5
  3
PUCSORGLEFT
350
7F3
  3
PUCSORGRIGHT
350
7F4
  3
PUCSORGTOP
350
7F1
  3
PUCSORTHOREF
350
7EE
  3
PUCSORTHOVIEW
350
7EF
  3
STYLESHEET
350
7E3
  3
TSTACKALIGN
350
7E0
  3
TSTACKSIZE
350
7E1
  3
UCSBASE
350
7F9
  3
UCSORGBACK
350
7FF
  3
UCSORGBOTTOM
350
7FB
  3
UCSORGFRONT
350
7FE
  3
UCSORGLEFT
350
7FC
  3
UCSORGRIGHT
350
7FD
  3
UCSORGTOP
350
7FA
  3
UCSORTHOREF
350
7F7
  3
UCSORTHOVIEW
350
7F8
  3
VERSIONGUID
350
7EB
  0
XRECORD
  5
803
102
{ACAD_REACTORS
330
802
102
}
330
802
100
AcDbXrecord
340
1F
  0
XRECORD
  5
801
102
{ACAD_REACTORS
330
800
102
}
330
800
100
AcDbXrecord
340
1B
  0
MLINESTYLE
  5
18
102
{ACAD_REACTORS
330
17
102
}
330
17
100
AcDbMlineStyle
  2
STANDARD
 70
     0
  3

 62
   256
 51
90.0
 52
90.0
 71
     2
 49
0.5
 62
   256
  6
BYLAYER
 49
-0.5
 62
   256
  6
BYLAYER
  0
ACDBPLACEHOLDER
  5
F
102
{ACAD_REACTORS
330
E
102
}
330
0
100
AcDbPlaceHolder
280
     0
  0
XRECORD
  5
7E9
102
{ACAD_REACTORS
330
7DF
102
}
330
7DF
100
AcDbXrecord
 90
        0
  0
XRECORD
  5
7ED
102
{ACAD_REACTORS
330
7DF
102
}
330
7DF
100
AcDbXrecord
1000
DSTYLE
1002
{
1070
   278
 70
     0
1070
   342
340
214
1070
   371
 70
     0
1070
   372
 70
     0
1002
}
  0
XRECORD
  5
7EA
102
{ACAD_REACTORS
330
7DF
102
}
330
7DF
100
AcDbXrecord
  1

  0
XRECORD
  5
7E2
102
{ACAD_REACTORS
330
7DF
102
}
330
7DF
100
AcDbXrecord
  1

  0
XRECORD
  5
7E8
102
{ACAD_REACTORS
330
7DF
102
}
330
7DF
100
AcDbXrecord
 90
        1
  0
XRECORD
  5
7E4
102
{ACAD_REACTORS
330
7DF
102
}
330
7DF
100
AcDbXrecord
340
1A
  0
XRECORD
  5
7E7
102
{ACAD_REACTORS
330
7DF
102
}
330
7DF
100
AcDbXrecord
 90
    10752
  0
XRECORD
  5
7E5
102
{ACAD_REACTORS
330
7DF
102
}
330
7DF
100
AcDbXrecord
340
19
  0
XRECORD
  5
7E6
102
{ACAD_REACTORS
330
7DF
102
}
330
7DF
100
AcDbXrecord
340
E
  0
XRECORD
  5
7EC
102
{ACAD_REACTORS
330
7DF
102
}
330
7DF
100
AcDbXrecord
 40
0.0
  0
XRECORD
  5
7F0
102
{ACAD_REACTORS
330
7DF
102
}
330
7DF
100
AcDbXrecord
340
0
  0
XRECORD
  5
7F6
102
{ACAD_REACTORS
330
7DF
102
}
330
7DF
100
AcDbXrecord
 10
0.0
 20
0.0
 30
0.0
  0
XRECORD
  5
7F2
102
{ACAD_REACTORS
330
7DF
102
}
330
7DF
100
AcDbXrecord
 10
0.0
 20
0.0
 30
0.0
  0
XRECORD
  5
7F5
102
{ACAD_REACTORS
330
7DF
102
}
330
7DF
100
AcDbXrecord
 10
0.0
 20
0.0
 30
0.0
  0
XRECORD
  5
7F3
102
{ACAD_REACTORS
330
7DF
102
}
330
7DF
100
AcDbXrecord
 10
0.0
 20
0.0
 30
0.0
  0
XRECORD
  5
7F4
102
{ACAD_REACTORS
330
7DF
102
}
330
7DF
100
AcDbXrecord
 10
0.0
 20
0.0
 30
0.0
  0
XRECORD
  5
7F1
102
{ACAD_REACTORS
330
7DF
102
}
330
7DF
100
AcDbXrecord
 10
0.0
 20
0.0
 30
0.0
  0
XRECORD
  5
7EE
102
{ACAD_REACTORS
330
7DF
102
}
330
7DF
100
AcDbXrecord
340
0
  0
XRECORD
  5
7EF
102
{ACAD_REACTORS
330
7DF
102
}
330
7DF
100
AcDbXrecord
 70
     0
  0
XRECORD
  5
7E3
102
{ACAD_REACTORS
330
7DF
102
}
330
7DF
100
AcDbXrecord
  1

  0
XRECORD
  5
7E0
102
{ACAD_REACTORS
330
7DF
102
}
330
7DF
100
AcDbXrecord
 90
        1
  0
XRECORD
  5
7E1
102
{ACAD_REACTORS
330
7DF
102
}
330
7DF
100
AcDbXrecord
 90
       70
  0
XRECORD
  5
7F9
102
{ACAD_REACTORS
330
7DF
102
}
330
7DF
100
AcDbXrecord
340
0
  0
XRECORD
  5
7FF
102
{ACAD_REACTORS
330
7DF
102
}
330
7DF
100
AcDbXrecord
 10
0.0
 20
0.0
 30
0.0
  0
XRECORD
  5
7FB
102
{ACAD_REACTORS
330
7DF
102
}
330
7DF
100
AcDbXrecord
 10
0.0
 20
0.0
 30
0.0
  0
XRECORD
  5
7FE
102
{ACAD_REACTORS
330
7DF
102
}
330
7DF
100
AcDbXrecord
 10
0.0
 20
0.0
 30
0.0
  0
XRECORD
  5
7FC
102
{ACAD_REACTORS
330
7DF
102
}
330
7DF
100
AcDbXrecord
 10
0.0
 20
0.0
 30
0.0
  0
XRECORD
  5
7FD
102
{ACAD_REACTORS
330
7DF
102
}
330
7DF
100
AcDbXrecord
 10
0.0
 20
0.0
 30
0.0
  0
XRECORD
  5
7FA
102
{ACAD_REACTORS
330
7DF
102
}
330
7DF
100
AcDbXrecord
 10
0.0
 20
0.0
 30
0.0
  0
XRECORD
  5
7F7
102
{ACAD_REACTORS
330
7DF
102
}
330
7DF
100
AcDbXrecord
340
0
  0
XRECORD
  5
7F8
102
{ACAD_REACTORS
330
7DF
102
}
330
7DF
100
AcDbXrecord
 70
     0
  0
XRECORD
  5
7EB
102
{ACAD_REACTORS
330
7DF
102
}
330
7DF
100
AcDbXrecord
  1
{94EA50DA-DD3D-447F-8CC1-B7EF3A24CC75}
  0
ENDSEC
  0
EOF
