  0
SECTION
  2
HEADER
  9
$ACADVER
  1
AC1014
  9
$ACADMAINTVER
 70
     9
  9
$DWGCODEPAGE
  3
ANSI_1252
  9
$INSBASE
 10
97.68388815894429
 20
20.75163878276629
 30
0.0
  9
$EXTMIN
 10
79.69385601745006
 20
18.05345995264349
 30
-3.467583468902098
  9
$EXTMAX
 10
115.9209339291958
 20
41.11220422732379
 30
0.6466359199571059
  9
$LIMMIN
 10
0.0
 20
0.0
  9
$LIMMAX
 10
187.3118571637889
 20
134.3269220688476
  9
$ORTHOMODE
 70
     1
  9
$REGENMODE
 70
     1
  9
$FILLMODE
 70
     1
  9
$QTEXTMODE
 70
     0
  9
$MIRRTEXT
 70
     1
  9
$DRAGMODE
 70
     2
  9
$LTSCALE
 40
2.0
  9
$OSMODE
 70
    55
  9
$ATTMODE
 70
     1
  9
$TEXTSIZE
 40
0.08
  9
$TRACEWID
 40
1.0
  9
$TEXTSTYLE
  7
CARTOUCHE
  9
$CLAYER
  8
0
  9
$CELTYPE
  6
BYLAYER
  9
$CECOLOR
 62
   256
  9
$CELTSCALE
 40
0.1
  9
$DELOBJ
 70
     1
  9
$DISPSILH
 70
     0
  9
$DIMSCALE
 40
16.0
  9
$DIMASZ
 40
0.1
  9
$DIMEXO
 40
0.0625
  9
$DIMDLI
 40
0.25
  9
$DIMRND
 40
0.0
  9
$DIMDLE
 40
0.0
  9
$DIMEXE
 40
0.1
  9
$DIMTP
 40
0.0
  9
$DIMTM
 40
0.0
  9
$DIMTXT
 40
0.1
  9
$DIMCEN
 40
0.0625
  9
$DIMTSZ
 40
0.0
  9
$DIMTOL
 70
     0
  9
$DIMLIM
 70
     0
  9
$DIMTIH
 70
     1
  9
$DIMTOH
 70
     1
  9
$DIMSE1
 70
     0
  9
$DIMSE2
 70
     0
  9
$DIMTAD
 70
     0
  9
$DIMZIN
 70
    12
  9
$DIMBLK
  1

  9
$DIMASO
 70
     1
  9
$DIMSHO
 70
     1
  9
$DIMPOST
  1
\X
  9
$DIMAPOST
  1
cm
  9
$DIMALT
 70
     1
  9
$DIMALTD
 70
     1
  9
$DIMALTF
 40
2.54
  9
$DIMLFAC
 40
1.0
  9
$DIMTOFL
 70
     0
  9
$DIMTVP
 40
0.0
  9
$DIMTIX
 70
     0
  9
$DIMSOXD
 70
     0
  9
$DIMSAH
 70
     0
  9
$DIMBLK1
  1

  9
$DIMBLK2
  1

  9
$DIMSTYLE
  2
STANDARD
  9
$DIMCLRD
 70
     0
  9
$DIMCLRE
 70
     0
  9
$DIMCLRT
 70
     0
  9
$DIMTFAC
 40
1.0
  9
$DIMGAP
 40
0.08
  9
$DIMJUST
 70
     0
  9
$DIMSD1
 70
     0
  9
$DIMSD2
 70
     0
  9
$DIMTOLJ
 70
     1
  9
$DIMTZIN
 70
     4
  9
$DIMALTZ
 70
    12
  9
$DIMALTTZ
 70
     4
  9
$DIMFIT
 70
     3
  9
$DIMUPT
 70
     0
  9
$DIMUNIT
 70
     5
  9
$DIMDEC
 70
     3
  9
$DIMTDEC
 70
     3
  9
$DIMALTU
 70
     2
  9
$DIMALTTD
 70
     1
  9
$DIMTXSTY
  7
ROMANS
  9
$DIMAUNIT
 70
     0
  9
$LUNITS
 70
     2
  9
$LUPREC
 70
     2
  9
$SKETCHINC
 40
1.0
  9
$FILLETRAD
 40
0.125
  9
$AUNITS
 70
     0
  9
$AUPREC
 70
     0
  9
$MENU
  1
.
  9
$ELEVATION
 40
0.0
  9
$PELEVATION
 40
0.0
  9
$THICKNESS
 40
0.0
  9
$LIMCHECK
 70
     0
  9
$BLIPMODE
 70
     0
  9
$CHAMFERA
 40
10.0
  9
$CHAMFERB
 40
10.0
  9
$CHAMFERC
 40
20.0
  9
$CHAMFERD
 40
0.0
  9
$SKPOLY
 70
     0
  9
$TDCREATE
 40
2452053.367185764
  9
$TDUPDATE
 40
2453686.662213217
  9
$TDINDWG
 40
1.5380899653
  9
$TDUSRTIMER
 40
1.5380868403
  9
$USRTIMER
 70
     1
  9
$ANGBASE
 50
0.0
  9
$ANGDIR
 70
     0
  9
$PDMODE
 70
    33
  9
$PDSIZE
 40
0.25
  9
$PLINEWID
 40
0.0
  9
$COORDS
 70
     1
  9
$SPLFRAME
 70
     0
  9
$SPLINETYPE
 70
     6
  9
$SPLINESEGS
 70
     8
  9
$ATTDIA
 70
     0
  9
$ATTREQ
 70
     1
  9
$HANDLING
 70
 22529
  9
$HANDSEED
  5
239
  9
$SURFTAB1
 70
     6
  9
$SURFTAB2
 70
     6
  9
$SURFTYPE
 70
     6
  9
$SURFU
 70
     6
  9
$SURFV
 70
     6
  9
$UCSNAME
  2

  9
$UCSORG
 10
0.0
 20
0.0
 30
0.0
  9
$UCSXDIR
 10
1.0
 20
0.0
 30
0.0
  9
$UCSYDIR
 10
0.0
 20
1.0
 30
0.0
  9
$PUCSNAME
  2

  9
$PUCSORG
 10
0.0
 20
0.0
 30
0.0
  9
$PUCSXDIR
 10
1.0
 20
0.0
 30
0.0
  9
$PUCSYDIR
 10
0.0
 20
1.0
 30
0.0
  9
$USERI1
 70
     0
  9
$USERI2
 70
     0
  9
$USERI3
 70
     0
  9
$USERI4
 70
     0
  9
$USERI5
 70
     0
  9
$USERR1
 40
0.0
  9
$USERR2
 40
0.0
  9
$USERR3
 40
0.0
  9
$USERR4
 40
0.0
  9
$USERR5
 40
0.0
  9
$WORLDVIEW
 70
     1
  9
$SHADEDGE
 70
     3
  9
$SHADEDIF
 70
    70
  9
$TILEMODE
 70
     1
  9
$MAXACTVP
 70
    48
  9
$PINSBASE
 10
0.0
 20
0.0
 30
0.0
  9
$PLIMCHECK
 70
     0
  9
$PEXTMIN
 10
1.000000000000000E+20
 20
1.000000000000000E+20
 30
1.000000000000000E+20
  9
$PEXTMAX
 10
-1.000000000000000E+20
 20
-1.000000000000000E+20
 30
-1.000000000000000E+20
  9
$PLIMMIN
 10
-0.5312499849815068
 20
-0.1645829921632301
  9
$PLIMMAX
 10
11.15874981316994
 20
8.10208345022727
  9
$UNITMODE
 70
     0
  9
$VISRETAIN
 70
     1
  9
$PLINEGEN
 70
     0
  9
$PSLTSCALE
 70
     1
  9
$TREEDEPTH
 70
  3020
  9
$PICKSTYLE
 70
     1
  9
$CMLSTYLE
  2
STANDARD
  9
$CMLJUST
 70
     0
  9
$CMLSCALE
 40
20.0
  9
$PROXYGRAPHICS
 70
     1
  9
$MEASUREMENT
 70
     0
  0
ENDSEC
  0
SECTION
  2
CLASSES
  0
CLASS
  1
ACDBDICTIONARYWDFLT
  2
AcDbDictionaryWithDefault
  3
AutoCAD 2000
 90
        0
280
     0
281
     0
  0
CLASS
  1
ACDBPLACEHOLDER
  2
AcDbPlaceHolder
  3
AutoCAD 2000
 90
        0
280
     0
281
     0
  0
CLASS
  1
LAYOUT
  2
AcDbLayout
  3
AutoCAD 2000
 90
        0
280
     0
281
     0
  0
CLASS
  1
DICTIONARYVAR
  2
AcDbDictionaryVar
  3
AutoCAD 2000
 90
        0
280
     0
281
     0
  0
CLASS
  1
IMAGEDEF
  2
AcDbRasterImageDef
  3
ISM
 90
        0
280
     0
281
     0
  0
CLASS
  1
LONG_TRANSACTION
  2
AcDbLongTransaction
  3
AutoCAD 2000
 90
        0
280
     0
281
     0
  0
CLASS
  1
LWPOLYLINE
  2
AcDbPolyline
  3
AutoCAD 2000
 90
        0
280
     0
281
     1
  0
CLASS
  1
HATCH
  2
AcDbHatch
  3
AutoCAD 2000
 90
        0
280
     0
281
     1
  0
CLASS
  1
XRECORD
  2
AcDbXrecord
  3
AutoCAD 2000
 90
        0
280
     0
281
     0
  0
CLASS
  1
LONG_TRANSACTION
  2
AcDbLongTransaction
  3
AutoCAD 2000
 90
        0
280
     0
281
     0
  0
CLASS
  1
LWPOLYLINE
  2
AcDbPolyline
  3
AutoCAD 2000
 90
        0
280
     0
281
     1
  0
CLASS
  1
HATCH
  2
AcDbHatch
  3
AutoCAD 2000
 90
        0
280
     0
281
     1
  0
CLASS
  1
XRECORD
  2
AcDbXrecord
  3
AutoCAD 2000
 90
        0
280
     0
281
     0
  0
CLASS
  1
LONG_TRANSACTION
  2
AcDbLongTransaction
  3
AutoCAD 2000
 90
        0
280
     0
281
     0
  0
CLASS
  1
LWPOLYLINE
  2
AcDbPolyline
  3
AutoCAD 2000
 90
        0
280
     0
281
     1
  0
CLASS
  1
HATCH
  2
AcDbHatch
  3
AutoCAD 2000
 90
        0
280
     0
281
     1
  0
CLASS
  1
XRECORD
  2
AcDbXrecord
  3
AutoCAD 2000
 90
        0
280
     0
281
     0
  0
ENDSEC
  0
SECTION
  2
TABLES
  0
TABLE
  2
VPORT
  5
1D
330
0
100
AcDbSymbolTable
 70
     3
  0
VPORT
  5
215
330
1D
100
AcDbSymbolTableRecord
100
AcDbViewportTableRecord
  2
*ACTIVE
 70
     0
 10
0.0
 20
0.0
 11
1.0
 21
1.0
 12
97.80739515135145
 22
29.58283206089215
 13
0.0
 23
0.0
 14
10.0
 24
10.0
 15
10.0
 25
10.0
 16
0.0
 26
0.0
 36
1.0
 17
0.0
 27
0.0
 37
0.0
 40
30.0818907384009
 41
1.786792452830188
 42
50.0
 43
0.0
 44
0.0
 50
0.0
 51
0.0
 71
     0
 72
   100
 73
     1
 74
     3
 75
     0
 76
     0
 77
     0
 78
     0
  0
ENDTAB
  0
TABLE
  2
LTYPE
  5
18
330
0
100
AcDbSymbolTable
 70
     4
  0
LTYPE
  5
19
330
18
100
AcDbSymbolTableRecord
100
AcDbLinetypeTableRecord
  2
BYBLOCK
 70
     0
  3

 72
    65
 73
     0
 40
0.0
  0
LTYPE
  5
1A
330
18
100
AcDbSymbolTableRecord
100
AcDbLinetypeTableRecord
  2
BYLAYER
 70
     0
  3

 72
    65
 73
     0
 40
0.0
  0
LTYPE
  5
8
330
18
100
AcDbSymbolTableRecord
100
AcDbLinetypeTableRecord
  2
CONTINUOUS
 70
     0
  3
Solid line
 72
    65
 73
     0
 40
0.0
  0
LTYPE
  5
7A
330
18
100
AcDbSymbolTableRecord
100
AcDbLinetypeTableRecord
  2
CENTER
 70
     0
  3
Center ____ _ ____ _ ____ _ ____ _ ____ _ ____
 72
    65
 73
     4
 40
50.8
 49
31.75
 74
     0
 49
-6.349999999999999
 74
     0
 49
6.349999999999999
 74
     0
 49
-6.349999999999999
 74
     0
  0
LTYPE
  5
7C
330
18
100
AcDbSymbolTableRecord
100
AcDbLinetypeTableRecord
  2
CENTER2
 70
     0
  3
Center (.5x) ___ _ ___ _ ___ _ ___ _ ___ _ ___
 72
    65
 73
     4
 40
28.57499999999999
 49
19.05
 74
     0
 49
-3.174999999999999
 74
     0
 49
3.174999999999999
 74
     0
 49
-3.174999999999999
 74
     0
  0
LTYPE
  5
33
330
18
100
AcDbSymbolTableRecord
100
AcDbLinetypeTableRecord
  2
HIDDEN
 70
     0
  3
Hidden __ __ __ __ __ __ __ __ __ __ __ __ __ _
 72
    65
 73
     2
 40
0.375
 49
0.25
 74
     0
 49
-0.125
 74
     0
  0
ENDTAB
  0
TABLE
  2
LAYER
  5
10
102
{ACAD_XDICTIONARY
360
11
102
}
330
0
100
AcDbSymbolTable
 70
     3
  0
LAYER
  5
4
330
10
100
AcDbSymbolTableRecord
100
AcDbLayerTableRecord
  2
0
 70
     0
 62
     7
  6
CONTINUOUS
  0
LAYER
  5
79
330
10
100
AcDbSymbolTableRecord
100
AcDbLayerTableRecord
  2
CENTER
 70
     0
 62
     1
  6
CENTER
  0
LAYER
  5
9E
330
10
100
AcDbSymbolTableRecord
100
AcDbLayerTableRecord
  2
DEFPOINTS
 70
     0
 62
     7
  6
CONTINUOUS
  0
ENDTAB
  0
TABLE
  2
STYLE
  5
15
330
0
100
AcDbSymbolTable
 70
     3
  0
STYLE
  5
16
330
15
100
AcDbSymbolTableRecord
100
AcDbTextStyleTableRecord
  2
STANDARD
 70
     0
 40
0.0
 41
1.0
 50
0.0
 71
     0
 42
0.125
  3
txt
  4

  0
STYLE
  5
2A
330
15
100
AcDbSymbolTableRecord
100
AcDbTextStyleTableRecord
  2
CARTOUCHE
 70
     0
 40
0.0
 41
1.0
 50
0.0
 71
     0
 42
0.08
  3
romans.shx
  4

  0
STYLE
  5
23
330
15
100
AcDbSymbolTableRecord
100
AcDbTextStyleTableRecord
  2
ROMANS
 70
     0
 40
0.0
 41
1.0
 50
0.0
 71
     0
 42
1.0
  3
romans.shx
  4

  0
ENDTAB
  0
TABLE
  2
VIEW
  5
1B
330
0
100
AcDbSymbolTable
 70
     0
  0
ENDTAB
  0
TABLE
  2
UCS
  5
1C
330
0
100
AcDbSymbolTable
 70
     0
  0
ENDTAB
  0
TABLE
  2
APPID
  5
1F
330
0
100
AcDbSymbolTable
 70
     3
  0
APPID
  5
20
330
1F
100
AcDbSymbolTableRecord
100
AcDbRegAppTableRecord
  2
ACAD
 70
     0
  0
APPID
  5
BF
330
1F
100
AcDbSymbolTableRecord
100
AcDbRegAppTableRecord
  2
DCO15
 70
     0
  0
ENDTAB
  0
TABLE
  2
DIMSTYLE
  5
21
330
0
100
AcDbSymbolTable
 70
     1
  0
DIMSTYLE
105
22
330
21
100
AcDbSymbolTableRecord
100
AcDbDimStyleTableRecord
  2
STANDARD
 70
     0
  3
\X
  4
cm
  5

  6

  7

 40
16.0
 41
0.1
 42
0.0625
 43
0.25
 44
0.1
 45
0.0
 46
0.0
 47
0.0
 48
0.0
140
0.1
141
0.0625
142
0.0
143
2.54
144
1.0
145
0.0
146
1.0
147
0.08
 71
     0
 72
     0
 73
     1
 74
     1
 75
     0
 76
     0
 77
     0
 78
    12
170
     1
171
     1
172
     0
173
     0
174
     0
175
     0
176
     0
177
     0
178
     0
270
     5
271
     3
272
     3
273
     2
274
     1
340
23
275
     0
280
     0
281
     0
282
     0
283
     1
284
     4
285
    12
286
     4
287
     3
288
     0
  0
ENDTAB
  0
TABLE
  2
BLOCK_RECORD
  5
1
330
0
100
AcDbSymbolTable
 70
     2
  0
BLOCK_RECORD
  5
2
102
{ACAD_XDICTIONARY
360
CC
102
}
330
1
100
AcDbSymbolTableRecord
100
AcDbBlockTableRecord
  2
*MODEL_SPACE
  0
BLOCK_RECORD
  5
B2
102
{ACAD_XDICTIONARY
360
CE
102
}
330
1
100
AcDbSymbolTableRecord
100
AcDbBlockTableRecord
  2
*PAPER_SPACE
  0
ENDTAB
  0
ENDSEC
  0
SECTION
  2
BLOCKS
  0
BLOCK
  5
3
330
2
100
AcDbEntity
  8
0
100
AcDbBlockBegin
  2
*MODEL_SPACE
 70
     0
 10
0.0
 20
0.0
 30
0.0
  3
*MODEL_SPACE
  1

  0
ENDBLK
  5
9
330
2
100
AcDbEntity
  8
0
100
AcDbBlockEnd
  0
BLOCK
  5
B4
330
B2
100
AcDbEntity
 67
     1
  8
0
 48
0.1
100
AcDbBlockBegin
  2
*PAPER_SPACE
 70
     0
 10
0.0
 20
0.0
 30
0.0
  3
*PAPER_SPACE
  1

  0
ENDBLK
  5
B5
330
B2
100
AcDbEntity
 67
     1
  8
0
 48
0.1
100
AcDbBlockEnd
  0
ENDSEC
  0
SECTION
  2
ENTITIES
  0
LINE
  5
2C
330
2
100
AcDbEntity
  8
0
100
AcDbLine
 10
85.76295766148092
 20
32.48394389282282
 30
0.0
 11
86.50428733943849
 21
24.26050690017916
 31
0.0
  0
LINE
  5
2D
330
2
100
AcDbEntity
  8
0
 48
0.1
100
AcDbLine
 10
115.3079386435069
 20
41.00163878276627
 30
0.0
 11
80.30793864350689
 21
41.00163878276629
 31
0.0
  0
LINE
  5
2E
330
2
100
AcDbEntity
  8
0
 48
0.1
100
AcDbLine
 10
115.8079386435069
 20
39.50163878276628
 30
0.0
 11
79.8079386435069
 21
39.50163878276629
 31
0.0
  0
LINE
  5
2F
330
2
100
AcDbEntity
  8
0
 48
0.1
100
AcDbLine
 10
83.82279354725094
 20
33.50163878276632
 30
0.0
 11
111.5449827706376
 21
33.5016387827663
 31
0.0
  0
ARC
  5
30
330
2
100
AcDbEntity
  8
0
 48
0.5
100
AcDbCircle
 10
89.49287143371373
 20
24.52197412842214
 30
0.0
 40
3.0
100
AcDbArc
 50
185.0000000000003
 51
270.0
  0
ARC
  5
31
330
2
100
AcDbEntity
  8
0
 48
0.5
100
AcDbCircle
 10
88.56173072519693
 20
24.52197412842214
 30
0.0
 40
3.0
100
AcDbArc
 50
185.0000000000003
 51
270.0
  0
LINE
  5
32
330
2
100
AcDbEntity
  8
0
  6
HIDDEN
 62
     9
100
AcDbLine
 10
84.26612615582445
 20
36.62049943886353
 30
-2.171500768403134
 11
84.39176819029638
 21
33.50163878276632
 31
0.0
  0
LINE
  5
34
330
2
100
AcDbEntity
  8
0
  6
HIDDEN
 62
     9
100
AcDbLine
 10
85.24237644123164
 20
37.39727040287061
 30
-2.863395630154549
 11
85.39931037841993
 21
33.50163878276663
 31
-0.1510695632834498
  0
LINE
  5
35
330
2
100
AcDbEntity
  8
0
  6
HIDDEN
 62
     9
100
AcDbLine
 10
83.2474578521159
 20
37.27098097001254
 30
-2.929356239224325
 11
83.23562431999665
 21
37.37758246211905
 31
-2.775563068380356
210
0.0330425412699208
220
-0.8202277396845575
230
0.5710819954423246
  0
ARC
  5
36
330
2
100
AcDbEntity
  8
0
  6
HIDDEN
 62
     9
100
AcDbCircle
 10
86.79367174480551
 20
-23.52797860129467
 30
-13.53341724147652
 40
1.0
210
0.0631121713026925
220
-0.5685412912349133
230
-0.8202302445011383
100
AcDbArc
 50
273.3051921518249
 51
3.305192151825769
  0
LINE
  5
37
330
2
100
AcDbEntity
  8
0
  6
HIDDEN
 62
     9
 48
0.1
100
AcDbLine
 10
84.21187460540384
 20
38.15435342612613
 30
-3.467457930131771
 11
84.1852254444465
 21
38.35037853725751
 31
-2.940036553351507
  0
SPLINE
  5
38
330
2
100
AcDbEntity
  8
0
  6
HIDDEN
 62
     9
100
AcDbSpline
 70
     0
 71
     3
 72
     9
 73
     5
 74
     0
 42
0.0000000001
 43
0.0000000001
 40
0.6153765629407717
 40
0.6153765629407717
 40
0.6153765629407717
 40
0.6153765629407717
 40
1.273309223145197
 40
1.94829804941258
 40
1.94829804941258
 40
1.94829804941258
 40
1.94829804941258
 10
85.23610041072677
 20
37.45380755589355
 30
-3.063160820136092
 10
85.21969224366893
 20
37.70937988022251
 30
-3.117376799933726
 10
85.05559625554178
 20
38.32222155912367
 30
-3.11602270803587
 10
84.23405173498812
 20
38.36837605541876
 30
-3.177272125995826
 10
84.18354369476862
 20
38.35026183558875
 30
-3.011064866148098
  0
LINE
  5
39
330
2
100
AcDbEntity
  8
0
  6
HIDDEN
 62
     9
100
AcDbLine
 10
84.1852254444465
 20
38.35037853725751
 30
-2.940036553351507
 11
82.81105998925093
 21
38.25502106293302
 31
-2.985384472087008
210
-0.0330425412699448
220
0.8202277396845561
230
-0.5710819954423254
  0
LINE
  5
3A
330
2
100
AcDbEntity
  8
0
  6
HIDDEN
 62
     9
100
AcDbLine
 10
83.2474578521159
 20
37.27098097001254
 30
-2.929356239224325
 11
82.88538836376702
 21
37.24805995930651
 31
-2.941327817466842
  0
ARC
  5
3B
330
2
100
AcDbEntity
  8
0
  6
HIDDEN
 62
     9
100
AcDbCircle
 10
-86.79367174480548
 20
-23.52797860129467
 30
14.2209172414765
 40
1.5
210
-0.0631121713026925
220
0.5685412912349133
230
0.8202302445011383
100
AcDbArc
 50
176.6948078481722
 51
266.6948078481751
  0
ARC
  5
3C
330
2
100
AcDbEntity
  8
0
  6
HIDDEN
 62
     9
100
AcDbCircle
 10
-86.79367174480558
 20
-23.52797860129467
 30
13.72091724147652
 40
1.0
210
-0.0631121713026925
220
0.5685412912349133
230
0.8202302445011383
100
AcDbArc
 50
176.6948078481727
 51
266.6948078481766
  0
LINE
  5
3D
330
2
100
AcDbEntity
  8
0
  6
HIDDEN
 62
     9
100
AcDbLine
 10
84.70025717618213
 20
37.75657018238007
 30
-2.315977489327444
 11
84.73329971745204
 21
36.93634244269549
 31
-1.744895493885102
210
-0.0631121713026925
220
0.5685412912349133
230
0.8202302445011383
  0
LINE
  5
3E
330
2
100
AcDbEntity
  8
0
  6
HIDDEN
 62
     9
100
AcDbLine
 10
84.70025717618213
 20
37.75657018238007
 30
-2.315977489327444
 11
84.73329971745204
 21
36.93634244269549
 31
-1.744895493885102
  0
ARC
  5
3F
330
2
100
AcDbEntity
  8
0
  6
HIDDEN
 62
     9
100
AcDbCircle
 10
-86.17147634507947
 20
17.19683814788092
 30
29.49288752162107
 40
0.5000000000000001
210
-0.0330425412699397
220
0.8202277396845564
230
-0.571081995442325
100
AcDbArc
 50
87.69745761765184
 51
177.6974576176491
  0
ARC
  5
40
330
2
100
AcDbEntity
  8
0
  6
HIDDEN
 62
     9
100
AcDbCircle
 10
-86.17147634507947
 20
17.19683814788092
 30
29.49288752162107
 40
0.5000000000000001
210
-0.0330425412699397
220
0.8202277396845564
230
-0.571081995442325
100
AcDbArc
 50
87.69745761765184
 51
177.6974576176491
  0
LINE
  5
41
330
2
100
AcDbEntity
  8
0
  6
HIDDEN
 62
     9
 48
0.1
100
AcDbLine
 10
84.27795968794374
 20
36.51389794675703
 30
-2.325293939247103
 11
84.26612615582445
 21
36.62049943886353
 31
-2.171500768403134
  0
LINE
  5
42
330
2
100
AcDbEntity
  8
0
  6
HIDDEN
 62
     9
 48
0.1
100
AcDbLine
 10
84.27795968794374
 20
36.51389794675703
 30
-2.325293939247103
 11
84.26612615582445
 21
36.62049943886353
 31
-2.171500768403134
210
-0.9974592945578702
220
-0.0631447164290211
230
-0.0329803045348976
  0
ARC
  5
43
330
2
100
AcDbEntity
  8
0
  6
HIDDEN
 62
     9
100
AcDbCircle
 10
-32.45449745125597
 20
-5.877283983138473
 30
-85.2928050464296
 40
0.5000000000000001
210
-0.9974592945578699
220
-0.063144716429024
230
-0.0329803045348955
100
AcDbArc
 50
34.84740939113658
 51
124.8474093911363
  0
ARC
  5
44
330
2
100
AcDbEntity
  8
0
  6
HIDDEN
 62
     9
100
AcDbCircle
 10
-87.84966283746273
 20
-24.46866070074622
 30
14.2209172414765
 40
0.5000000000000004
210
-0.0631121713026925
220
0.5685412912349133
230
0.8202302445011383
100
AcDbArc
 50
176.6948078481702
 51
266.6948078481734
  0
ARC
  5
45
330
2
100
AcDbEntity
  8
0
  6
HIDDEN
 62
     9
100
AcDbCircle
 10
-87.84966283746273
 20
-24.46866070074622
 30
14.2209172414765
 40
0.5000000000000004
210
-0.0631121713026925
220
0.5685412912349133
230
0.8202302445011383
100
AcDbArc
 50
176.6948078481702
 51
266.6948078481734
  0
LINE
  5
46
330
2
100
AcDbEntity
  8
0
  6
HIDDEN
 62
     9
100
AcDbLine
 10
85.24237644123164
 20
37.39727040287061
 30
-2.863395630154549
 11
85.23054290911238
 21
37.50387189497715
 31
-2.709602459310573
  0
LINE
  5
47
330
2
100
AcDbEntity
  8
0
  6
HIDDEN
 62
     9
100
AcDbLine
 10
85.24237644123164
 20
37.39727040287061
 30
-2.863395630154549
 11
85.23054290911238
 21
37.50387189497715
 31
-2.709602459310573
210
0.9974592945578702
220
0.0631447164290211
230
0.0329803045348976
  0
LINE
  5
48
330
2
100
AcDbEntity
  8
0
  6
HIDDEN
 62
     9
100
AcDbLine
 10
82.87604813249965
 20
37.35481929121277
 30
-2.7874522073476
 11
83.23562431999665
 21
37.37758246211905
 31
-2.775563068380356
  0
LINE
  5
49
330
2
100
AcDbEntity
  8
0
  6
HIDDEN
 62
     9
100
AcDbLine
 10
83.18754696371033
 20
38.07196697757882
 30
-2.650988943850939
 11
84.18500625826817
 21
38.13511169400786
 31
-2.618008639316065
210
-0.0631121713026925
220
0.5685412912349133
230
0.8202302445011383
  0
LINE
  5
4A
330
2
100
AcDbEntity
  8
0
  6
HIDDEN
 62
     9
100
AcDbLine
 10
83.18754696371033
 20
38.07196697757882
 30
-2.650988943850939
 11
84.18500625826817
 21
38.13511169400786
 31
-2.618008639316065
  0
ARC
  5
4B
330
2
100
AcDbEntity
  8
0
  6
HIDDEN
 62
     9
100
AcDbCircle
 10
-86.17147634507944
 20
17.19683814788092
 30
28.49288752162104
 40
0.5000000000000001
210
-0.0330425412699397
220
0.8202277396845564
230
-0.571081995442325
100
AcDbArc
 50
357.6974576176484
 51
87.69745761764861
  0
ARC
  5
4C
330
2
100
AcDbEntity
  8
0
  6
HIDDEN
 62
     9
100
AcDbCircle
 10
-86.17147634507944
 20
17.19683814788092
 30
28.49288752162104
 40
0.5000000000000001
210
-0.0330425412699397
220
0.8202277396845564
230
-0.571081995442325
100
AcDbArc
 50
357.6974576176484
 51
87.69745761764861
  0
LINE
  5
4D
330
2
100
AcDbEntity
  8
0
100
AcDbLine
 10
85.14348585905379
 20
28.92155199507402
 30
0.0
 11
85.57314663092169
 21
24.26050690017916
 31
0.0
  0
LINE
  5
4E
330
2
100
AcDbEntity
  8
0
100
AcDbLine
 10
82.68483767438098
 20
39.50163878276629
 30
0.0
 11
83.16602532377357
 21
34.00163878276629
 31
0.0
  0
LINE
  5
4F
330
2
100
AcDbEntity
  8
0
100
AcDbLine
 10
84.18483767438102
 20
39.50163878276629
 30
0.0
 11
84.6660252338267
 21
34.00163981086419
 31
0.0
  0
SPLINE
  5
50
330
2
100
AcDbEntity
  8
0
 48
0.1
100
AcDbSpline
210
0.0
220
0.0
230
1.0
 70
     8
 71
     3
 72
    10
 73
     6
 74
     4
 42
0.0000000001
 43
0.0000000001
 44
0.0000000001
 12
0.0902957725541786
 22
-0.9959149930886894
 32
0.0
 13
0.0859596848406924
 23
-0.9962986161699156
 33
0.0
 40
0.0
 40
0.0
 40
0.0
 40
0.0
 40
1.750586719168465
 40
3.521534685101862
 40
5.502475389801677
 40
5.502475389801677
 40
5.502475389801677
 40
5.502475389801677
 10
83.16602532377357
 20
34.00163878276629
 30
0.0
 10
83.2187155171837
 20
33.42049359599235
 30
0.0
 10
83.55439304865161
 20
32.252739907227
 30
0.0
 10
84.70806571609125
 20
30.80972384339992
 30
0.0
 10
85.08768071150049
 20
29.56850351860743
 30
0.0
 10
85.14444105772184
 20
28.9106340243384
 30
0.0
 11
83.16602532377357
 21
34.00163878276629
 31
0.0
 11
83.65195711558886
 21
32.31984683516035
 31
0.0
 11
84.57335392958544
 21
30.80746969661302
 31
0.0
 11
85.14444105772184
 21
28.9106340243384
 31
0.0
  0
SPLINE
  5
51
330
2
100
AcDbEntity
  8
0
 48
0.1
100
AcDbSpline
210
0.0
220
0.0
230
1.0
 70
     8
 71
     3
 72
    10
 73
     6
 74
     0
 42
0.0000000001
 43
0.0000000001
 40
0.0
 40
0.0
 40
0.0
 40
0.0
 40
0.7261807570757185
 40
1.103047293837589
 40
1.363100321835224
 40
1.363100321835224
 40
1.363100321835224
 40
1.363100321835224
 10
83.13291215344788
 20
34.39160448774936
 30
0.0
 10
83.19355543833021
 20
34.07649065816627
 30
0.0
 10
83.2203712271797
 20
33.71691478050493
 30
0.0
 10
83.55962996747464
 20
33.52292648456182
 30
0.0
 10
83.71643064085896
 20
33.50427876339208
 30
0.0
 10
83.82279354725094
 20
33.50163878276632
 30
0.0
  0
SPLINE
  5
52
330
2
100
AcDbEntity
  8
0
 48
0.1
100
AcDbSpline
210
0.0
220
0.0
230
1.0
 70
     8
 71
     3
 72
    10
 73
     6
 74
     4
 42
0.0000000001
 43
0.0000000001
 44
0.0000000001
 12
0.084005978596606
 22
-0.9964652505531875
 32
0.0
 13
0.0934873802387392
 23
-0.9956204647033413
 33
0.0
 40
0.0
 40
0.0
 40
0.0
 40
0.0
 40
0.4726210363617822
 40
1.082673667254132
 40
2.132219433342331
 40
2.132219433342331
 40
2.132219433342331
 40
2.132219433342331
 10
84.6660252338267
 20
34.00163981086419
 30
0.0
 10
84.67925956471502
 20
33.8446563310592
 30
0.0
 10
84.77099056566872
 20
33.3857342763862
 30
0.0
 10
85.74643657256761
 20
33.68852304626988
 30
0.0
 10
85.7306637054283
 20
32.82754573091653
 30
0.0
 10
85.76337013346572
 20
32.47922931646314
 30
0.0
 11
84.6660252338267
 21
34.00163981086419
 31
0.0
 11
84.8362505811117
 21
33.56073848953096
 31
0.0
 11
85.44065683148359
 21
33.47792969186983
 31
0.0
 11
85.76337013346572
 21
32.47922931646314
 31
0.0
  0
ARC
  5
53
330
2
100
AcDbEntity
  8
0
100
AcDbCircle
 10
80.30793864350691
 20
40.50163878276627
 30
0.0
 40
0.5
100
AcDbArc
 50
89.99999999999998
 51
180.0
  0
LINE
  5
54
330
2
100
AcDbEntity
  8
0
100
AcDbLine
 10
79.8079386435069
 20
40.50163878276629
 30
0.0
 11
79.8079386435069
 21
39.50163878276629
 31
0.0
  0
SPLINE
  5
55
330
2
100
AcDbEntity
  8
0
 48
0.1
100
AcDbSpline
210
0.0
220
0.0
230
1.0
 70
    24
 71
     3
 72
     8
 73
     4
 74
     0
 42
0.0000000001
 43
0.0000000001
 40
1.639151913155329
 40
1.639151913155329
 40
1.639151913155329
 40
1.639151913155329
 40
1.639158202722391
 40
1.639158202722391
 40
1.639158202722391
 40
1.639158202722391
 10
83.15102222779268
 20
33.89160345964711
 30
0.6465103620296202
 10
83.15102813612782
 20
33.89160345965001
 30
0.6465103620296202
 10
83.1510340445142
 20
33.89160345965146
 30
0.6465103620296202
 10
83.15103995295183
 20
33.89160345965146
 30
0.6465103620296202
  0
LINE
  5
72
330
2
100
AcDbEntity
  8
0
  6
CONTINUOUS
 48
0.5
100
AcDbLine
 10
107.0541465618168
 20
21.52197412842214
 30
0.0
 11
88.56173072519693
 21
21.52197412842216
 31
0.0
  0
LINE
  5
73
330
2
100
AcDbEntity
  8
0
100
AcDbLine
 10
89.90603642067842
 20
20.75163878276629
 30
0.0
 11
90.90603642067842
 21
20.75163878276629
 31
0.0
  0
ARC
  5
74
330
2
100
AcDbEntity
  8
0
 48
0.1
100
AcDbCircle
 10
88.68126047005521
 20
21.00179108760989
 30
0.0
 40
0.75
100
AcDbArc
 50
11.52983402726431
 51
43.9139615307539
  0
ARC
  5
75
330
2
100
AcDbEntity
  8
0
100
AcDbCircle
 10
89.90603642067842
 20
21.25163878276627
 30
0.0
 40
0.5
100
AcDbArc
 50
191.5298340272642
 51
270.0
  0
ARC
  5
76
330
2
100
AcDbEntity
  8
0
 48
0.1
100
AcDbCircle
 10
92.13081237130163
 20
21.00179108760989
 30
0.0
 40
0.75
100
AcDbArc
 50
136.086038469246
 51
168.4701659727357
  0
ARC
  5
77
330
2
100
AcDbEntity
  8
0
 48
0.1
100
AcDbCircle
 10
90.90603642067842
 20
21.25163878276627
 30
0.0
 40
0.5
100
AcDbArc
 50
270.0
 51
348.4701659727357
  0
LINE
  5
7B
330
2
100
AcDbEntity
  8
0
  6
CENTER2
 48
0.1
100
AcDbLine
 10
98.9815061941158
 20
21.00179108760991
 30
0.0
 11
96.63437109289802
 21
21.00179108760991
 31
0.0
  0
LINE
  5
7D
330
2
100
AcDbEntity
  8
0
100
AcDbLine
 10
97.30793864350694
 20
20.75163878276629
 30
0.0
 11
98.3079386435069
 21
20.75163878276629
 31
0.0
  0
ARC
  5
7E
330
2
100
AcDbEntity
  8
0
100
AcDbCircle
 10
97.30793864350694
 20
21.25163878276627
 30
0.0
 40
0.5
100
AcDbArc
 50
209.979849230729
 51
270.0
  0
LINE
  5
7F
330
2
100
AcDbEntity
  8
0
  6
CENTER2
 48
0.1
100
AcDbLine
 10
96.39622383589809
 20
21.17572608919795
 30
0.0
 11
96.28563110060689
 21
21.52197412842216
 31
0.0
  0
ARC
  5
80
330
2
100
AcDbEntity
  8
0
  6
CENTER2
 48
0.1
100
AcDbCircle
 10
96.63437109289803
 20
21.2517910876099
 30
0.0
 40
0.25
100
AcDbArc
 50
197.7136489003373
 51
270.0
  0
ARC
  5
81
330
2
100
AcDbEntity
  8
0
  6
CENTER2
 48
0.1
100
AcDbCircle
 10
98.98150619411582
 20
21.2517910876099
 30
0.0
 40
0.25
100
AcDbArc
 50
270.0
 51
342.2863510996626
  0
LINE
  5
82
330
2
100
AcDbEntity
  8
0
  6
CENTER2
 48
0.1
100
AcDbLine
 10
99.21965345111573
 20
21.17572608919795
 30
0.0
 11
99.33024618640699
 21
21.52197412842216
 31
0.0
  0
ARC
  5
83
330
2
100
AcDbEntity
  8
0
 48
0.1
100
AcDbCircle
 10
98.30793864350692
 20
21.25163878276627
 30
0.0
 40
0.5
100
AcDbArc
 50
270.0
 51
330.0201507692709
  0
CIRCLE
  5
8C
330
2
100
AcDbEntity
  8
0
 48
0.1
100
AcDbCircle
 10
97.80793864350691
 20
36.75163878276627
 30
0.0
 40
1.25
  0
LINE
  5
8D
330
2
100
AcDbEntity
  8
CENTER
 48
0.05
100
AcDbLine
 10
94.43367676507319
 20
36.75163878276628
 30
0.0
 11
101.1822005219406
 21
36.75163878276626
 31
0.0
  0
ARC
  5
94
330
2
100
AcDbEntity
  8
0
100
AcDbCircle
 10
115.3079386435069
 20
40.50163878276626
 30
0.0
 40
0.5
100
AcDbArc
 50
0.0
 51
89.99999999999998
  0
LINE
  5
95
330
2
100
AcDbEntity
  8
0
100
AcDbLine
 10
115.8079386435069
 20
40.50163878276627
 30
0.0
 11
115.8079386435069
 21
39.50163878276628
 31
0.0
  0
LINE
  5
AC
330
2
100
AcDbEntity
  8
CENTER
 48
0.05
100
AcDbLine
 10
97.80793864350691
 20
18.05461993869207
 30
0.0
 11
97.80793864350691
 21
23.44865762684051
 31
0.0
  0
LINE
  5
AD
330
2
100
AcDbEntity
  8
CENTER
 48
0.05
100
AcDbLine
 10
97.80793864350691
 20
33.37737690433256
 30
0.0
 11
97.80793864350691
 21
40.12590066119998
 31
0.0
  0
LINE
  5
19B
330
2
100
AcDbEntity
  8
0
  6
HIDDEN
 62
     9
100
AcDbLine
 10
111.3497511311893
 20
36.62049943886353
 30
-2.171500768403134
 11
111.2241090967174
 21
33.50163878276632
 31
0.0
  0
LINE
  5
19C
330
2
100
AcDbEntity
  8
0
  6
HIDDEN
 62
     9
100
AcDbLine
 10
110.3735008457821
 20
37.39727040287061
 30
-2.863395630154549
 11
110.2165669085938
 21
33.50163878276663
 31
-0.1510695632834498
  0
ARC
  5
19D
330
2
100
AcDbEntity
  8
0
  6
HIDDEN
 62
     9
100
AcDbCircle
 10
107.627983472786
 20
-41.23035315956596
 30
-25.879159998341
 40
1.0
210
-0.0631121713026925
220
-0.5685412912349133
230
-0.8202302445011383
100
AcDbArc
 50
176.6948078481742
 51
266.6948078481751
  0
ARC
  5
19E
330
2
100
AcDbEntity
  8
0
  6
HIDDEN
 62
     9
100
AcDbCircle
 10
-107.627983472786
 20
-41.23035315956596
 30
26.56665999834099
 40
1.5
210
0.0631121713026925
220
0.5685412912349133
230
0.8202302445011383
100
AcDbArc
 50
273.3051921518248
 51
3.305192151827774
  0
ARC
  5
19F
330
2
100
AcDbEntity
  8
0
  6
HIDDEN
 62
     9
100
AcDbCircle
 10
-107.6279834727859
 20
-41.23035315956597
 30
26.06665999834101
 40
1.0
210
0.0631121713026925
220
0.5685412912349133
230
0.8202302445011383
100
AcDbArc
 50
273.3051921518232
 51
3.305192151827264
  0
ARC
  5
1A0
330
2
100
AcDbEntity
  8
0
  6
HIDDEN
 62
     9
100
AcDbCircle
 10
-109.2858664081723
 20
21.69349189178681
 30
35.95653321993267
 40
0.5000000000000001
210
0.0330425412699397
220
0.8202277396845564
230
-0.571081995442325
100
AcDbArc
 50
2.302542382350856
 51
92.30254238234815
  0
ARC
  5
1A1
330
2
100
AcDbEntity
  8
0
  6
HIDDEN
 62
     9
100
AcDbCircle
 10
-109.2858664081723
 20
21.69349189178681
 30
35.95653321993267
 40
0.5000000000000001
210
0.0330425412699397
220
0.8202277396845564
230
-0.571081995442325
100
AcDbArc
 50
2.302542382350856
 51
92.30254238234815
  0
ARC
  5
1A2
330
2
100
AcDbEntity
  8
0
  6
HIDDEN
 62
     9
100
AcDbCircle
 10
44.81332973420665
 20
0.5612985110040794
 30
109.826069916594
 40
0.5000000000000001
210
0.9974592945578699
220
-0.063144716429024
230
-0.0329803045348955
100
AcDbArc
 50
55.15259060886364
 51
145.1525906088634
  0
LINE
  5
1A3
330
2
100
AcDbEntity
  8
0
  6
HIDDEN
 62
     9
 48
0.1
100
AcDbLine
 10
111.4040026816099
 20
38.15435342612613
 30
-3.467457930131771
 11
111.4306518425673
 21
38.35037853725751
 31
-2.940036553351507
  0
SPLINE
  5
1A4
330
2
100
AcDbEntity
  8
0
  6
HIDDEN
 62
     9
100
AcDbSpline
 70
     0
 71
     3
 72
     9
 73
     5
 74
     0
 42
0.0000000001
 43
0.0000000001
 40
0.6153765629407717
 40
0.6153765629407717
 40
0.6153765629407717
 40
0.6153765629407717
 40
1.273309223145197
 40
1.94829804941258
 40
1.94829804941258
 40
1.94829804941258
 40
1.94829804941258
 10
110.379776876287
 20
37.45380755589355
 30
-3.063160820136092
 10
110.3961850433448
 20
37.70937988022251
 30
-3.117376799933726
 10
110.560281031472
 20
38.32222155912367
 30
-3.11602270803587
 10
111.3818255520256
 20
38.36837605541876
 30
-3.177272125995826
 10
111.4323335922451
 20
38.35026183558875
 30
-3.011064866148098
  0
LINE
  5
1A5
330
2
100
AcDbEntity
  8
0
  6
HIDDEN
 62
     9
100
AcDbLine
 10
112.3684194348979
 20
37.27098097001254
 30
-2.929356239224325
 11
112.3802529670171
 21
37.37758246211905
 31
-2.775563068380356
210
-0.0330425412699208
220
-0.8202277396845575
230
0.5710819954423246
  0
LINE
  5
1A6
330
2
100
AcDbEntity
  8
0
  6
HIDDEN
 62
     9
100
AcDbLine
 10
110.3735008457821
 20
37.39727040287061
 30
-2.863395630154549
 11
110.3853343779014
 21
37.50387189497715
 31
-2.709602459310573
  0
LINE
  5
1A7
330
2
100
AcDbEntity
  8
0
  6
HIDDEN
 62
     9
100
AcDbLine
 10
110.3735008457821
 20
37.39727040287061
 30
-2.863395630154549
 11
110.3853343779014
 21
37.50387189497715
 31
-2.709602459310573
210
-0.9974592945578702
220
0.0631447164290211
230
0.0329803045348976
  0
LINE
  5
1A8
330
2
100
AcDbEntity
  8
0
  6
HIDDEN
 62
     9
100
AcDbLine
 10
111.4306518425673
 20
38.35037853725751
 30
-2.940036553351507
 11
112.8048172977628
 21
38.25502106293302
 31
-2.985384472087008
210
0.0330425412699448
220
0.8202277396845561
230
-0.5710819954423254
  0
LINE
  5
1A9
330
2
100
AcDbEntity
  8
0
  6
HIDDEN
 62
     9
100
AcDbLine
 10
112.3684194348979
 20
37.27098097001254
 30
-2.929356239224325
 11
112.7304889232467
 21
37.24805995930651
 31
-2.941327817466842
  0
LINE
  5
1AA
330
2
100
AcDbEntity
  8
0
  6
HIDDEN
 62
     9
100
AcDbLine
 10
112.7398291545141
 20
37.35481929121277
 30
-2.7874522073476
 11
112.3802529670171
 21
37.37758246211905
 31
-2.775563068380356
  0
LINE
  5
1AB
330
2
100
AcDbEntity
  8
0
  6
HIDDEN
 62
     9
100
AcDbLine
 10
110.9156201108316
 20
37.75657018238007
 30
-2.315977489327444
 11
110.8825775695617
 21
36.93634244269549
 31
-1.744895493885102
210
0.0631121713026925
220
0.5685412912349133
230
0.8202302445011383
  0
LINE
  5
1AC
330
2
100
AcDbEntity
  8
0
  6
HIDDEN
 62
     9
100
AcDbLine
 10
110.9156201108316
 20
37.75657018238007
 30
-2.315977489327444
 11
110.8825775695617
 21
36.93634244269549
 31
-1.744895493885102
  0
ARC
  5
1AD
330
2
100
AcDbEntity
  8
0
  6
HIDDEN
 62
     9
100
AcDbCircle
 10
-109.2858664081723
 20
21.69349189178681
 30
34.95653321993264
 40
0.5000000000000001
210
0.0330425412699397
220
0.8202277396845564
230
-0.571081995442325
100
AcDbArc
 50
92.3025423823514
 51
182.3025423823516
  0
ARC
  5
1AE
330
2
100
AcDbEntity
  8
0
  6
HIDDEN
 62
     9
100
AcDbCircle
 10
-109.2858664081723
 20
21.69349189178681
 30
34.95653321993264
 40
0.5000000000000001
210
0.0330425412699397
220
0.8202277396845564
230
-0.571081995442325
100
AcDbArc
 50
92.3025423823514
 51
182.3025423823516
  0
ARC
  5
1AF
330
2
100
AcDbEntity
  8
0
  6
HIDDEN
 62
     9
100
AcDbCircle
 10
-106.5719923801287
 20
-42.17103525901753
 30
26.56665999834099
 40
0.5000000000000004
210
0.0631121713026925
220
0.5685412912349133
230
0.8202302445011383
100
AcDbArc
 50
273.3051921518265
 51
3.305192151829759
  0
ARC
  5
1B0
330
2
100
AcDbEntity
  8
0
  6
HIDDEN
 62
     9
100
AcDbCircle
 10
-106.5719923801287
 20
-42.17103525901753
 30
26.56665999834099
 40
0.5000000000000004
210
0.0631121713026925
220
0.5685412912349133
230
0.8202302445011383
100
AcDbArc
 50
273.3051921518265
 51
3.305192151829759
  0
LINE
  5
1B1
330
2
100
AcDbEntity
  8
0
  6
HIDDEN
 62
     9
100
AcDbLine
 10
112.4283303233034
 20
38.07196697757882
 30
-2.650988943850939
 11
111.4308710287456
 21
38.13511169400786
 31
-2.618008639316065
210
0.0631121713026925
220
0.5685412912349133
230
0.8202302445011383
  0
LINE
  5
1B2
330
2
100
AcDbEntity
  8
0
  6
HIDDEN
 62
     9
100
AcDbLine
 10
112.4283303233034
 20
38.07196697757882
 30
-2.650988943850939
 11
111.4308710287456
 21
38.13511169400786
 31
-2.618008639316065
  0
LINE
  5
1B3
330
2
100
AcDbEntity
  8
0
  6
HIDDEN
 62
     9
 48
0.1
100
AcDbLine
 10
111.33791759907
 20
36.51389794675703
 30
-2.325293939247103
 11
111.3497511311893
 21
36.62049943886353
 31
-2.171500768403134
  0
LINE
  5
1B4
330
2
100
AcDbEntity
  8
0
  6
HIDDEN
 62
     9
 48
0.1
100
AcDbLine
 10
111.33791759907
 20
36.51389794675703
 30
-2.325293939247103
 11
111.3497511311893
 21
36.62049943886353
 31
-2.171500768403134
210
0.9974592945578702
220
-0.0631447164290211
230
-0.0329803045348976
  0
LINE
  5
1B5
330
2
100
AcDbEntity
  8
0
100
AcDbLine
 10
110.47239142796
 20
28.92155199507402
 30
0.0
 11
110.0427306560921
 21
24.26050690017916
 31
0.0
  0
LINE
  5
1B6
330
2
100
AcDbEntity
  8
0
100
AcDbLine
 10
109.8529196255328
 20
32.48394389282282
 30
0.0
 11
109.1115899475753
 21
24.26050690017916
 31
0.0
  0
ARC
  5
1B7
330
2
100
AcDbEntity
  8
0
 48
0.5
100
AcDbCircle
 10
107.0541465618168
 20
24.52197412842214
 30
0.0
 40
3.0
100
AcDbArc
 50
270.0
 51
354.9999999999997
  0
LINE
  5
1B8
330
2
100
AcDbEntity
  8
0
100
AcDbLine
 10
105.7098408663353
 20
20.75163878276629
 30
0.0
 11
104.7098408663353
 21
20.75163878276629
 31
0.0
  0
ARC
  5
1B9
330
2
100
AcDbEntity
  8
0
 48
0.5
100
AcDbCircle
 10
106.1230058533
 20
24.52197412842214
 30
0.0
 40
3.0
100
AcDbArc
 50
270.0
 51
354.9999999999996
  0
ARC
  5
1BA
330
2
100
AcDbEntity
  8
0
100
AcDbCircle
 10
105.7098408663353
 20
21.25163878276627
 30
0.0
 40
0.5
100
AcDbArc
 50
269.9999999999999
 51
348.4701659727357
  0
ARC
  5
1BB
330
2
100
AcDbEntity
  8
0
 48
0.1
100
AcDbCircle
 10
106.9346168169585
 20
21.00179108760989
 30
0.0
 40
0.75
100
AcDbArc
 50
136.086038469246
 51
168.4701659727356
  0
ARC
  5
1BC
330
2
100
AcDbEntity
  8
0
 48
0.1
100
AcDbCircle
 10
104.7098408663353
 20
21.25163878276627
 30
0.0
 40
0.5
100
AcDbArc
 50
191.5298340272642
 51
270.0
  0
ARC
  5
1BD
330
2
100
AcDbEntity
  8
0
 48
0.1
100
AcDbCircle
 10
103.4850649157121
 20
21.00179108760989
 30
0.0
 40
0.75
100
AcDbArc
 50
11.52983402726428
 51
43.91396153075395
  0
LINE
  5
1BE
330
2
100
AcDbEntity
  8
0
100
AcDbLine
 10
111.4310396126327
 20
39.50163878276629
 30
0.0
 11
110.9498520531871
 21
34.00163981086419
 31
0.0
  0
LINE
  5
1BF
330
2
100
AcDbEntity
  8
0
100
AcDbLine
 10
112.9310396126328
 20
39.50163878276629
 30
0.0
 11
112.4498519632402
 21
34.00163878276629
 31
0.0
  0
SPLINE
  5
1C0
330
2
100
AcDbEntity
  8
0
 48
0.1
100
AcDbSpline
210
0.0
220
0.0
230
1.0
 70
     8
 71
     3
 72
    10
 73
     6
 74
     4
 42
0.0000000001
 43
0.0000000001
 44
0.0000000001
 12
-0.0902957725541786
 22
-0.9959149930886894
 32
0.0
 13
-0.0859596848406924
 23
-0.9962986161699157
 33
0.0
 40
0.0
 40
0.0
 40
0.0
 40
0.0
 40
1.750586719168465
 40
3.521534685101862
 40
5.502475389801677
 40
5.502475389801677
 40
5.502475389801677
 40
5.502475389801677
 10
112.4498519632402
 20
34.00163878276629
 30
0.0
 10
112.3971617698301
 20
33.42049359599235
 30
0.0
 10
112.0614842383622
 20
32.252739907227
 30
0.0
 10
110.9078115709225
 20
30.80972384339992
 30
0.0
 10
110.5281965755133
 20
29.56850351860743
 30
0.0
 10
110.4714362292919
 20
28.9106340243384
 30
0.0
 11
112.4498519632402
 21
34.00163878276629
 31
0.0
 11
111.9639201714249
 21
32.31984683516035
 31
0.0
 11
111.0425233574283
 21
30.80746969661302
 31
0.0
 11
110.4714362292919
 21
28.9106340243384
 31
0.0
  0
SPLINE
  5
1C1
330
2
100
AcDbEntity
  8
0
 48
0.1
100
AcDbSpline
210
0.0
220
0.0
230
1.0
 70
     8
 71
     3
 72
    10
 73
     6
 74
     4
 42
0.0000000001
 43
0.0000000001
 44
0.0000000001
 12
-0.084005978596606
 22
-0.9964652505531875
 32
0.0
 13
-0.0934873802387392
 23
-0.9956204647033413
 33
0.0
 40
0.0
 40
0.0
 40
0.0
 40
0.0
 40
0.4726210363617822
 40
1.082673667254132
 40
2.132219433342331
 40
2.132219433342331
 40
2.132219433342331
 40
2.132219433342331
 10
110.9498520531871
 20
34.00163981086419
 30
0.0
 10
110.9366177222987
 20
33.8446563310592
 30
0.0
 10
110.8448867213449
 20
33.3857342763862
 30
0.0
 10
109.8694407144463
 20
33.68852304626988
 30
0.0
 10
109.8852135815855
 20
32.82754573091653
 30
0.0
 10
109.852507153548
 20
32.47922931646314
 30
0.0
 11
110.9498520531871
 21
34.00163981086419
 31
0.0
 11
110.7796267059021
 21
33.56073848953096
 31
0.0
 11
110.1752204555302
 21
33.47792969186983
 31
0.0
 11
109.852507153548
 21
32.47922931646314
 31
0.0
  0
SPLINE
  5
1C2
330
2
100
AcDbEntity
  8
0
 48
0.1
100
AcDbSpline
210
0.0
220
0.0
230
1.0
 70
     8
 71
     3
 72
    10
 73
     6
 74
     0
 42
0.0000000001
 43
0.0000000001
 40
0.0
 40
0.0
 40
0.0
 40
0.0
 40
0.7261807570757185
 40
1.103047293837589
 40
1.363100321835224
 40
1.363100321835224
 40
1.363100321835224
 40
1.363100321835224
 10
112.4829651335659
 20
34.39160448774936
 30
0.0
 10
112.4223218486835
 20
34.07649065816627
 30
0.0
 10
112.3955060598341
 20
33.71691478050493
 30
0.0
 10
112.0562473195391
 20
33.52292648456182
 30
0.0
 10
111.8994466461548
 20
33.50427876339208
 30
0.0
 10
111.7930837397628
 20
33.50163878276632
 30
0.0
  0
SPLINE
  5
1C3
330
2
100
AcDbEntity
  8
0
 48
0.1
100
AcDbSpline
210
0.0
220
0.0
230
1.0
 70
    24
 71
     3
 72
     8
 73
     4
 74
     0
 42
0.0000000001
 43
0.0000000001
 40
1.639151913155329
 40
1.639151913155329
 40
1.639151913155329
 40
1.639151913155329
 40
1.639158202722391
 40
1.639158202722391
 40
1.639158202722391
 40
1.639158202722391
 10
112.4648550592211
 20
33.89160345964711
 30
0.6465103620296202
 10
112.4648491508859
 20
33.89160345965001
 30
0.6465103620296202
 10
112.4648432424995
 20
33.89160345965146
 30
0.6465103620296202
 10
112.4648373340619
 20
33.89160345965146
 30
0.6465103620296202
  0
VIEWPORT
  5
B9
330
B2
100
AcDbEntity
 67
     1
  8
0
 48
0.1
100
AcDbViewport
 10
5.313749914094218
 20
3.96875022903202
 30
0.0
 40
15.25338497598259
 41
8.746133096049151
 68
     1
 69
     1
1001
ACAD
1000
MVIEW
1002
{
1070
    16
1010
0.0
1020
0.0
1030
0.0
1010
0.0
1020
0.0
1030
1.0
1040
0.0
1040
8.746133096049151
1040
5.313749914094218
1040
3.96875022903202
1040
50.0
1040
0.0
1040
0.0
1070
     0
1070
   100
1070
     1
1070
     1
1070
     0
1070
     0
1070
     0
1070
     0
1040
0.0
1040
0.0
1040
0.0
1040
10.0
1040
10.0
1040
10.0
1040
10.0
1070
     0
1002
{
1002
}
1002
}
  0
ENDSEC
  0
SECTION
  2
OBJECTS
  0
DICTIONARY
  5
7
330
0
100
AcDbDictionary
  3
ACAD_GROUP
350
27
  3
ACAD_LAYOUT
350
B
  3
ACAD_MLINESTYLE
350
28
  3
ACAD_PLOTSETTINGS
350
29
  3
ACAD_PLOTSTYLENAME
350
6
  3
ACDBHEADERROUNDTRIPXREC
350
216
  3
ACDBVARIABLEDICTIONARY
350
96
  0
DICTIONARY
  5
11
330
10
100
AcDbDictionary
280
     1
  3
ACAD_LAYERFILTERS
360
12
  0
DICTIONARY
  5
CC
330
2
100
AcDbDictionary
280
     1
  3
ACAD_LAYOUTSELFREF
360
237
  0
DICTIONARY
  5
CE
330
B2
100
AcDbDictionary
280
     1
  3
ACAD_LAYOUTSELFREF
360
238
  0
DICTIONARY
  5
27
102
{ACAD_REACTORS
330
7
102
}
330
7
100
AcDbDictionary
  0
DICTIONARY
  5
B
102
{ACAD_REACTORS
330
7
102
}
330
7
100
AcDbDictionary
  0
DICTIONARY
  5
28
102
{ACAD_REACTORS
330
7
102
}
330
7
100
AcDbDictionary
  3
STANDARD
350
2B
  0
DICTIONARY
  5
29
102
{ACAD_REACTORS
330
7
102
}
330
7
100
AcDbDictionary
  0
ACDBDICTIONARYWDFLT
  5
6
102
{ACAD_REACTORS
330
7
102
}
330
7
100
AcDbDictionary
281
     1
  3
Normal
350
5
100
AcDbDictionaryWithDefault
340
5
  0
DICTIONARY
  5
216
102
{ACAD_REACTORS
330
7
102
}
330
7
100
AcDbDictionary
  3
CEPSNTYPE
350
220
  3
DIMSTYLEDATA
350
224
  3
FINGERPRINTGUID
350
221
  3
HYPERLINKBASE
350
219
  3
INSUNITS
350
21F
  3
LAYOUTDICT
350
21B
  3
LWETCUNION
350
21E
  3
PLOTSETDICT
350
21C
  3
PLOTSTYLNAMDICT
350
21D
  3
PSVPSCALE
350
223
  3
PUCSBASE
350
227
  3
PUCSORGBACK
350
22D
  3
PUCSORGBOTTOM
350
229
  3
PUCSORGFRONT
350
22C
  3
PUCSORGLEFT
350
22A
  3
PUCSORGRIGHT
350
22B
  3
PUCSORGTOP
350
228
  3
PUCSORTHOREF
350
225
  3
PUCSORTHOVIEW
350
226
  3
STYLESHEET
350
21A
  3
TSTACKALIGN
350
217
  3
TSTACKSIZE
350
218
  3
UCSBASE
350
230
  3
UCSORGBACK
350
236
  3
UCSORGBOTTOM
350
232
  3
UCSORGFRONT
350
235
  3
UCSORGLEFT
350
233
  3
UCSORGRIGHT
350
234
  3
UCSORGTOP
350
231
  3
UCSORTHOREF
350
22E
  3
UCSORTHOVIEW
350
22F
  3
VERSIONGUID
350
222
  0
DICTIONARY
  5
96
102
{ACAD_REACTORS
330
7
102
}
330
7
100
AcDbDictionary
  3
DIMASSOC
350
98
  3
HIDETEXT
350
97
  0
DICTIONARY
  5
12
102
{ACAD_REACTORS
330
11
102
}
330
11
100
AcDbDictionary
280
     1
  3
DIM-1_12
360
13
  3
DIM-1_16
360
14
  0
XRECORD
  5
237
102
{ACAD_REACTORS
330
CC
102
}
330
CC
100
AcDbXrecord
340
2
  0
XRECORD
  5
238
102
{ACAD_REACTORS
330
CE
102
}
330
CE
100
AcDbXrecord
340
B2
  0
MLINESTYLE
  5
2B
102
{ACAD_REACTORS
330
28
102
}
330
28
100
AcDbMlineStyle
  2
STANDARD
 70
     0
  3

 62
   256
 51
90.0
 52
90.0
 71
     2
 49
0.5
 62
   256
  6
BYLAYER
 49
-0.5
 62
   256
  6
BYLAYER
  0
ACDBPLACEHOLDER
  5
5
102
{ACAD_REACTORS
330
6
102
}
330
6
100
AcDbPlaceHolder
280
     0
  0
XRECORD
  5
220
102
{ACAD_REACTORS
330
216
102
}
330
216
100
AcDbXrecord
 90
        0
  0
XRECORD
  5
224
102
{ACAD_REACTORS
330
216
102
}
330
216
100
AcDbXrecord
1000
DSTYLE
1002
{
1070
    79
 70
     1
1070
   276
 70
     1
1070
   277
 70
     5
1002
}
  0
XRECORD
  5
221
102
{ACAD_REACTORS
330
216
102
}
330
216
100
AcDbXrecord
  1
{6A4AC8E0-4F58-11D5-8420-0003476D26AB}
  0
XRECORD
  5
219
102
{ACAD_REACTORS
330
216
102
}
330
216
100
AcDbXrecord
  1

  0
XRECORD
  5
21F
102
{ACAD_REACTORS
330
216
102
}
330
216
100
AcDbXrecord
 90
        1
  0
XRECORD
  5
21B
102
{ACAD_REACTORS
330
216
102
}
330
216
100
AcDbXrecord
340
B
  0
XRECORD
  5
21E
102
{ACAD_REACTORS
330
216
102
}
330
216
100
AcDbXrecord
 90
    10781
  0
XRECORD
  5
21C
102
{ACAD_REACTORS
330
216
102
}
330
216
100
AcDbXrecord
340
29
  0
XRECORD
  5
21D
102
{ACAD_REACTORS
330
216
102
}
330
216
100
AcDbXrecord
340
6
  0
XRECORD
  5
223
102
{ACAD_REACTORS
330
216
102
}
330
216
100
AcDbXrecord
 40
0.0
  0
XRECORD
  5
227
102
{ACAD_REACTORS
330
216
102
}
330
216
100
AcDbXrecord
340
0
  0
XRECORD
  5
22D
102
{ACAD_REACTORS
330
216
102
}
330
216
100
AcDbXrecord
 10
0.0
 20
0.0
 30
0.0
  0
XRECORD
  5
229
102
{ACAD_REACTORS
330
216
102
}
330
216
100
AcDbXrecord
 10
0.0
 20
0.0
 30
0.0
  0
XRECORD
  5
22C
102
{ACAD_REACTORS
330
216
102
}
330
216
100
AcDbXrecord
 10
0.0
 20
0.0
 30
0.0
  0
XRECORD
  5
22A
102
{ACAD_REACTORS
330
216
102
}
330
216
100
AcDbXrecord
 10
0.0
 20
0.0
 30
0.0
  0
XRECORD
  5
22B
102
{ACAD_REACTORS
330
216
102
}
330
216
100
AcDbXrecord
 10
0.0
 20
0.0
 30
0.0
  0
XRECORD
  5
228
102
{ACAD_REACTORS
330
216
102
}
330
216
100
AcDbXrecord
 10
0.0
 20
0.0
 30
0.0
  0
XRECORD
  5
225
102
{ACAD_REACTORS
330
216
102
}
330
216
100
AcDbXrecord
340
0
  0
XRECORD
  5
226
102
{ACAD_REACTORS
330
216
102
}
330
216
100
AcDbXrecord
 70
     0
  0
XRECORD
  5
21A
102
{ACAD_REACTORS
330
216
102
}
330
216
100
AcDbXrecord
  1

  0
XRECORD
  5
217
102
{ACAD_REACTORS
330
216
102
}
330
216
100
AcDbXrecord
 90
        1
  0
XRECORD
  5
218
102
{ACAD_REACTORS
330
216
102
}
330
216
100
AcDbXrecord
 90
       70
  0
XRECORD
  5
230
102
{ACAD_REACTORS
330
216
102
}
330
216
100
AcDbXrecord
340
0
  0
XRECORD
  5
236
102
{ACAD_REACTORS
330
216
102
}
330
216
100
AcDbXrecord
 10
0.0
 20
0.0
 30
0.0
  0
XRECORD
  5
232
102
{ACAD_REACTORS
330
216
102
}
330
216
100
AcDbXrecord
 10
0.0
 20
0.0
 30
0.0
  0
XRECORD
  5
235
102
{ACAD_REACTORS
330
216
102
}
330
216
100
AcDbXrecord
 10
0.0
 20
0.0
 30
0.0
  0
XRECORD
  5
233
102
{ACAD_REACTORS
330
216
102
}
330
216
100
AcDbXrecord
 10
0.0
 20
0.0
 30
0.0
  0
XRECORD
  5
234
102
{ACAD_REACTORS
330
216
102
}
330
216
100
AcDbXrecord
 10
0.0
 20
0.0
 30
0.0
  0
XRECORD
  5
231
102
{ACAD_REACTORS
330
216
102
}
330
216
100
AcDbXrecord
 10
0.0
 20
0.0
 30
0.0
  0
XRECORD
  5
22E
102
{ACAD_REACTORS
330
216
102
}
330
216
100
AcDbXrecord
340
0
  0
XRECORD
  5
22F
102
{ACAD_REACTORS
330
216
102
}
330
216
100
AcDbXrecord
 70
     0
  0
XRECORD
  5
222
102
{ACAD_REACTORS
330
216
102
}
330
216
100
AcDbXrecord
  1
{50B176F0-1CF2-4391-9F53-7E1E27FE1765}
  0
DICTIONARYVAR
  5
98
102
{ACAD_REACTORS
330
96
102
}
330
96
100
DictionaryVariables
280
     0
  1
1
  0
DICTIONARYVAR
  5
97
102
{ACAD_REACTORS
330
96
102
}
330
96
100
DictionaryVariables
280
     0
  1
1
  0
XRECORD
  5
13
102
{ACAD_REACTORS
330
12
102
}
330
12
100
AcDbXrecord
  1
DIM-1_12
  1
DIM-1_12
  1
*
  1
*
 70
     0
  1
*
  1
*
  0
XRECORD
  5
14
102
{ACAD_REACTORS
330
12
102
}
330
12
100
AcDbXrecord
  1
dim-1_16
  1
*
  1
*
  1
*
 70
     0
  1
*
  1
*
  0
ENDSEC
  0
EOF
