  0
SECTION
  2
HEADER
  9
$ACADVER
  1
AC1014
  9
$ACADMAINTVER
 70
     9
  9
$DWGCODEPAGE
  3
ANSI_1252
  9
$INSBASE
 10
58.39133505244063
 20
104.7949583744185
 30
0.0
  9
$EXTMIN
 10
-4.048982879006643
 20
86.73777336461984
 30
-3.749524990598516
  9
$EXTMAX
 10
67.58124691289293
 20
122.8528911527077
 30
0.5250578460890445
  9
$LIMMIN
 10
0.0
 20
0.0
  9
$LIMMAX
 10
187.3118571637889
 20
134.3269220688476
  9
$ORTHOMODE
 70
     1
  9
$REGENMODE
 70
     1
  9
$FILLMODE
 70
     1
  9
$QTEXTMODE
 70
     0
  9
$MIRRTEXT
 70
     1
  9
$DRAGMODE
 70
     2
  9
$LTSCALE
 40
2.0
  9
$OSMODE
 70
    55
  9
$ATTMODE
 70
     1
  9
$TEXTSIZE
 40
0.06
  9
$TRACEWID
 40
1.0
  9
$TEXTSTYLE
  7
CARTOUCHE
  9
$CLAYER
  8
0
  9
$CELTYPE
  6
BYLAYER
  9
$CECOLOR
 62
   256
  9
$CELTSCALE
 40
0.1
  9
$DELOBJ
 70
     1
  9
$DISPSILH
 70
     0
  9
$DIMSCALE
 40
16.0
  9
$DIMASZ
 40
0.1
  9
$DIMEXO
 40
0.0625
  9
$DIMDLI
 40
0.25
  9
$DIMRND
 40
0.0
  9
$DIMDLE
 40
0.0
  9
$DIMEXE
 40
0.1
  9
$DIMTP
 40
0.0
  9
$DIMTM
 40
0.0
  9
$DIMTXT
 40
0.1
  9
$DIMCEN
 40
0.0625
  9
$DIMTSZ
 40
0.0
  9
$DIMTOL
 70
     0
  9
$DIMLIM
 70
     0
  9
$DIMTIH
 70
     1
  9
$DIMTOH
 70
     1
  9
$DIMSE1
 70
     0
  9
$DIMSE2
 70
     0
  9
$DIMTAD
 70
     0
  9
$DIMZIN
 70
    12
  9
$DIMBLK
  1

  9
$DIMASO
 70
     1
  9
$DIMSHO
 70
     1
  9
$DIMPOST
  1
\X
  9
$DIMAPOST
  1
cm
  9
$DIMALT
 70
     1
  9
$DIMALTD
 70
     1
  9
$DIMALTF
 40
2.54
  9
$DIMLFAC
 40
1.0
  9
$DIMTOFL
 70
     0
  9
$DIMTVP
 40
0.0
  9
$DIMTIX
 70
     0
  9
$DIMSOXD
 70
     0
  9
$DIMSAH
 70
     0
  9
$DIMBLK1
  1

  9
$DIMBLK2
  1

  9
$DIMSTYLE
  2
STANDARD
  9
$DIMCLRD
 70
     0
  9
$DIMCLRE
 70
     0
  9
$DIMCLRT
 70
     0
  9
$DIMTFAC
 40
1.0
  9
$DIMGAP
 40
0.08
  9
$DIMJUST
 70
     0
  9
$DIMSD1
 70
     0
  9
$DIMSD2
 70
     0
  9
$DIMTOLJ
 70
     1
  9
$DIMTZIN
 70
     4
  9
$DIMALTZ
 70
    12
  9
$DIMALTTZ
 70
     4
  9
$DIMFIT
 70
     3
  9
$DIMUPT
 70
     0
  9
$DIMUNIT
 70
     5
  9
$DIMDEC
 70
     3
  9
$DIMTDEC
 70
     3
  9
$DIMALTU
 70
     2
  9
$DIMALTTD
 70
     1
  9
$DIMTXSTY
  7
ROMANS
  9
$DIMAUNIT
 70
     0
  9
$LUNITS
 70
     2
  9
$LUPREC
 70
     2
  9
$SKETCHINC
 40
1.0
  9
$FILLETRAD
 40
0.25
  9
$AUNITS
 70
     0
  9
$AUPREC
 70
     0
  9
$MENU
  1
.
  9
$ELEVATION
 40
0.0
  9
$PELEVATION
 40
0.0
  9
$THICKNESS
 40
0.0
  9
$LIMCHECK
 70
     0
  9
$BLIPMODE
 70
     0
  9
$CHAMFERA
 40
10.0
  9
$CHAMFERB
 40
10.0
  9
$CHAMFERC
 40
20.0
  9
$CHAMFERD
 40
0.0
  9
$SKPOLY
 70
     0
  9
$TDCREATE
 40
2452053.367185764
  9
$TDUPDATE
 40
2453689.403006296
  9
$TDINDWG
 40
2.0079068519
  9
$TDUSRTIMER
 40
2.0079037269
  9
$USRTIMER
 70
     1
  9
$ANGBASE
 50
0.0
  9
$ANGDIR
 70
     0
  9
$PDMODE
 70
    33
  9
$PDSIZE
 40
0.25
  9
$PLINEWID
 40
0.0
  9
$COORDS
 70
     1
  9
$SPLFRAME
 70
     0
  9
$SPLINETYPE
 70
     6
  9
$SPLINESEGS
 70
     8
  9
$ATTDIA
 70
     0
  9
$ATTREQ
 70
     1
  9
$HANDLING
 70
 22529
  9
$HANDSEED
  5
19E
  9
$SURFTAB1
 70
     6
  9
$SURFTAB2
 70
     6
  9
$SURFTYPE
 70
     6
  9
$SURFU
 70
     6
  9
$SURFV
 70
     6
  9
$UCSNAME
  2

  9
$UCSORG
 10
0.0
 20
0.0
 30
0.0
  9
$UCSXDIR
 10
1.0
 20
0.0
 30
0.0
  9
$UCSYDIR
 10
0.0
 20
1.0
 30
0.0
  9
$PUCSNAME
  2

  9
$PUCSORG
 10
0.0
 20
0.0
 30
0.0
  9
$PUCSXDIR
 10
1.0
 20
0.0
 30
0.0
  9
$PUCSYDIR
 10
0.0
 20
1.0
 30
0.0
  9
$USERI1
 70
     0
  9
$USERI2
 70
     0
  9
$USERI3
 70
     0
  9
$USERI4
 70
     0
  9
$USERI5
 70
     0
  9
$USERR1
 40
0.0
  9
$USERR2
 40
0.0
  9
$USERR3
 40
0.0
  9
$USERR4
 40
0.0
  9
$USERR5
 40
0.0
  9
$WORLDVIEW
 70
     1
  9
$SHADEDGE
 70
     3
  9
$SHADEDIF
 70
    70
  9
$TILEMODE
 70
     1
  9
$MAXACTVP
 70
    48
  9
$PINSBASE
 10
0.0
 20
0.0
 30
0.0
  9
$PLIMCHECK
 70
     0
  9
$PEXTMIN
 10
0.0
 20
0.0
 30
0.0
  9
$PEXTMAX
 10
0.0
 20
0.0
 30
0.0
  9
$PLIMMIN
 10
0.0
 20
0.0
  9
$PLIMMAX
 10
12.0
 20
9.0
  9
$UNITMODE
 70
     0
  9
$VISRETAIN
 70
     1
  9
$PLINEGEN
 70
     0
  9
$PSLTSCALE
 70
     1
  9
$TREEDEPTH
 70
  3020
  9
$PICKSTYLE
 70
     1
  9
$CMLSTYLE
  2
STANDARD
  9
$CMLJUST
 70
     0
  9
$CMLSCALE
 40
20.0
  9
$PROXYGRAPHICS
 70
     1
  9
$MEASUREMENT
 70
     0
  0
ENDSEC
  0
SECTION
  2
CLASSES
  0
CLASS
  1
ACDBDICTIONARYWDFLT
  2
AcDbDictionaryWithDefault
  3
AutoCAD 2000
 90
        0
280
     0
281
     0
  0
CLASS
  1
ACDBPLACEHOLDER
  2
AcDbPlaceHolder
  3
AutoCAD 2000
 90
        0
280
     0
281
     0
  0
CLASS
  1
LAYOUT
  2
AcDbLayout
  3
AutoCAD 2000
 90
        0
280
     0
281
     0
  0
CLASS
  1
DICTIONARYVAR
  2
AcDbDictionaryVar
  3
AutoCAD 2000
 90
        0
280
     0
281
     0
  0
CLASS
  1
IMAGEDEF
  2
AcDbRasterImageDef
  3
ISM
 90
        0
280
     0
281
     0
  0
CLASS
  1
LONG_TRANSACTION
  2
AcDbLongTransaction
  3
AutoCAD 2000
 90
        0
280
     0
281
     0
  0
CLASS
  1
LWPOLYLINE
  2
AcDbPolyline
  3
AutoCAD 2000
 90
        0
280
     0
281
     1
  0
CLASS
  1
HATCH
  2
AcDbHatch
  3
AutoCAD 2000
 90
        0
280
     0
281
     1
  0
CLASS
  1
XRECORD
  2
AcDbXrecord
  3
AutoCAD 2000
 90
        0
280
     0
281
     0
  0
CLASS
  1
LONG_TRANSACTION
  2
AcDbLongTransaction
  3
AutoCAD 2000
 90
        0
280
     0
281
     0
  0
CLASS
  1
LWPOLYLINE
  2
AcDbPolyline
  3
AutoCAD 2000
 90
        0
280
     0
281
     1
  0
CLASS
  1
HATCH
  2
AcDbHatch
  3
AutoCAD 2000
 90
        0
280
     0
281
     1
  0
CLASS
  1
XRECORD
  2
AcDbXrecord
  3
AutoCAD 2000
 90
        0
280
     0
281
     0
  0
ENDSEC
  0
SECTION
  2
TABLES
  0
TABLE
  2
VPORT
  5
1D
330
0
100
AcDbSymbolTable
 70
     3
  0
VPORT
  5
17A
330
1D
100
AcDbSymbolTableRecord
100
AcDbViewportTableRecord
  2
*ACTIVE
 70
     0
 10
0.0
 20
0.0
 11
1.0
 21
1.0
 12
31.7661318109139
 22
104.7953321634565
 13
0.0
 23
0.0
 14
10.0
 24
10.0
 15
10.0
 25
10.0
 16
0.0
 26
0.0
 36
1.0
 17
0.0
 27
0.0
 37
0.0
 40
48.00726530372918
 41
1.786792452830188
 42
50.0
 43
0.0
 44
0.0
 50
0.0
 51
0.0
 71
     0
 72
   100
 73
     1
 74
     3
 75
     0
 76
     0
 77
     0
 78
     2
  0
ENDTAB
  0
TABLE
  2
LTYPE
  5
18
330
0
100
AcDbSymbolTable
 70
     3
  0
LTYPE
  5
19
330
18
100
AcDbSymbolTableRecord
100
AcDbLinetypeTableRecord
  2
BYBLOCK
 70
     0
  3

 72
    65
 73
     0
 40
0.0
  0
LTYPE
  5
1A
330
18
100
AcDbSymbolTableRecord
100
AcDbLinetypeTableRecord
  2
BYLAYER
 70
     0
  3

 72
    65
 73
     0
 40
0.0
  0
LTYPE
  5
8
330
18
100
AcDbSymbolTableRecord
100
AcDbLinetypeTableRecord
  2
CONTINUOUS
 70
     0
  3
Solid line
 72
    65
 73
     0
 40
0.0
  0
LTYPE
  5
2F
330
18
100
AcDbSymbolTableRecord
100
AcDbLinetypeTableRecord
  2
CENTER
 70
     0
  3
Center ____ _ ____ _ ____ _ ____ _ ____ _ ____
 72
    65
 73
     4
 40
50.8
 49
31.75
 74
     0
 49
-6.349999999999999
 74
     0
 49
6.349999999999999
 74
     0
 49
-6.349999999999999
 74
     0
  0
LTYPE
  5
39
330
18
100
AcDbSymbolTableRecord
100
AcDbLinetypeTableRecord
  2
HIDDEN
 70
     0
  3
Hidden __ __ __ __ __ __ __ __ __ __ __ __ __ _
 72
    65
 73
     2
 40
0.375
 49
0.25
 74
     0
 49
-0.125
 74
     0
  0
ENDTAB
  0
TABLE
  2
LAYER
  5
10
102
{ACAD_XDICTIONARY
360
11
102
}
330
0
100
AcDbSymbolTable
 70
     3
  0
LAYER
  5
4
330
10
100
AcDbSymbolTableRecord
100
AcDbLayerTableRecord
  2
0
 70
     0
 62
     7
  6
CONTINUOUS
  0
LAYER
  5
2E
330
10
100
AcDbSymbolTableRecord
100
AcDbLayerTableRecord
  2
CENTER
 70
     0
 62
     1
  6
CENTER
  0
LAYER
  5
100
330
10
100
AcDbSymbolTableRecord
100
AcDbLayerTableRecord
  2
DEFPOINTS
 70
     0
 62
     7
  6
CONTINUOUS
  0
ENDTAB
  0
TABLE
  2
STYLE
  5
15
330
0
100
AcDbSymbolTable
 70
     3
  0
STYLE
  5
16
330
15
100
AcDbSymbolTableRecord
100
AcDbTextStyleTableRecord
  2
STANDARD
 70
     0
 40
0.0
 41
1.0
 50
0.0
 71
     0
 42
0.125
  3
txt
  4

  0
STYLE
  5
2B
330
15
100
AcDbSymbolTableRecord
100
AcDbTextStyleTableRecord
  2
CARTOUCHE
 70
     0
 40
0.0
 41
1.0
 50
0.0
 71
     0
 42
0.06
  3
romans.shx
  4

  0
STYLE
  5
23
330
15
100
AcDbSymbolTableRecord
100
AcDbTextStyleTableRecord
  2
ROMANS
 70
     0
 40
0.0
 41
1.0
 50
0.0
 71
     0
 42
1.0
  3
romans.shx
  4

  0
ENDTAB
  0
TABLE
  2
VIEW
  5
1B
330
0
100
AcDbSymbolTable
 70
     0
  0
ENDTAB
  0
TABLE
  2
UCS
  5
1C
330
0
100
AcDbSymbolTable
 70
     0
  0
ENDTAB
  0
TABLE
  2
APPID
  5
1F
330
0
100
AcDbSymbolTable
 70
     3
  0
APPID
  5
20
330
1F
100
AcDbSymbolTableRecord
100
AcDbRegAppTableRecord
  2
ACAD
 70
     0
  0
APPID
  5
9F
330
1F
100
AcDbSymbolTableRecord
100
AcDbRegAppTableRecord
  2
DCO15
 70
     0
  0
APPID
  5
12D
330
1F
100
AcDbSymbolTableRecord
100
AcDbRegAppTableRecord
  2
ACADASER13
 70
     0
 71
     1
  0
ENDTAB
  0
TABLE
  2
DIMSTYLE
  5
21
330
0
100
AcDbSymbolTable
 70
     1
  0
DIMSTYLE
105
22
330
21
100
AcDbSymbolTableRecord
100
AcDbDimStyleTableRecord
  2
STANDARD
 70
     0
  3
\X
  4
cm
  5

  6

  7

 40
16.0
 41
0.1
 42
0.0625
 43
0.25
 44
0.1
 45
0.0
 46
0.0
 47
0.0
 48
0.0
140
0.1
141
0.0625
142
0.0
143
2.54
144
1.0
145
0.0
146
1.0
147
0.08
 71
     0
 72
     0
 73
     1
 74
     1
 75
     0
 76
     0
 77
     0
 78
    12
170
     1
171
     1
172
     0
173
     0
174
     0
175
     0
176
     0
177
     0
178
     0
270
     5
271
     3
272
     3
273
     2
274
     1
340
23
275
     0
280
     0
281
     0
282
     0
283
     1
284
     4
285
    12
286
     4
287
     3
288
     0
  0
ENDTAB
  0
TABLE
  2
BLOCK_RECORD
  5
1
330
0
100
AcDbSymbolTable
 70
     2
  0
BLOCK_RECORD
  5
2
102
{ACAD_XDICTIONARY
360
B2
102
}
330
1
100
AcDbSymbolTableRecord
100
AcDbBlockTableRecord
  2
*MODEL_SPACE
  0
BLOCK_RECORD
  5
A7
102
{ACAD_XDICTIONARY
360
B4
102
}
330
1
100
AcDbSymbolTableRecord
100
AcDbBlockTableRecord
  2
*PAPER_SPACE
  0
ENDTAB
  0
ENDSEC
  0
SECTION
  2
BLOCKS
  0
BLOCK
  5
3
330
2
100
AcDbEntity
  8
0
100
AcDbBlockBegin
  2
*MODEL_SPACE
 70
     0
 10
0.0
 20
0.0
 30
0.0
  3
*MODEL_SPACE
  1

  0
ENDBLK
  5
9
330
2
100
AcDbEntity
  8
0
100
AcDbBlockEnd
  0
BLOCK
  5
A9
330
A7
100
AcDbEntity
 67
     1
  8
0
 48
0.1
100
AcDbBlockBegin
  2
*PAPER_SPACE
 70
     0
 10
0.0
 20
0.0
 30
0.0
  3
*PAPER_SPACE
  1

  0
ENDBLK
  5
AA
330
A7
100
AcDbEntity
 67
     1
  8
0
 48
0.1
100
AcDbBlockEnd
  0
ENDSEC
  0
SECTION
  2
ENTITIES
  0
LINE
  5
2D
330
2
100
AcDbEntity
  8
CENTER
 48
0.05
100
AcDbLine
 10
58.39133505244063
 20
101.031763651732
 30
0.0
 11
58.39133505244063
 21
108.558153097105
 31
0.0
  0
SPLINE
  5
30
330
2
100
AcDbEntity
  8
0
 48
0.1
100
AcDbSpline
210
0.0
220
0.0
230
1.0
 70
     8
 71
     3
 72
    10
 73
     6
 74
     0
 42
0.0000000001
 43
0.0000000001
 40
0.0
 40
0.0
 40
0.0
 40
0.0
 40
9.125053125719926
 40
28.9301292314621
 40
29.45483374876999
 40
29.45483374876999
 40
29.45483374876999
 40
29.45483374876999
 10
0.0169629030691425
 20
104.7949583744185
 30
0.0
 10
0.0169629030691425
 20
107.8366427496585
 30
0.0
 10
2.714925379686799
 20
118.0036141850655
 30
0.0
 10
15.05476966535758
 20
120.9831592443963
 30
0.0
 10
21.53183590733374
 20
119.8708840451979
 30
0.0
 10
21.93294748842329
 20
119.8147619030069
 30
0.0
  0
SPLINE
  5
31
330
2
100
AcDbEntity
  8
0
 48
0.1
100
AcDbSpline
210
0.0
220
0.0
230
1.0
 70
     8
 71
     3
 72
    10
 73
     6
 74
     4
 42
0.0000000001
 43
0.0000000001
 44
0.0000000001
 12
1.0
 22
0.0
 32
0.0
 13
0.0
 23
-1.0
 33
0.0
 40
0.0
 40
0.0
 40
0.0
 40
0.0
 40
7.483951548862653
 40
14.09333004490165
 40
18.96991723370068
 40
18.96991723370068
 40
18.96991723370068
 40
18.96991723370068
 10
52.61006071638529
 20
117.7949583744185
 30
0.0
 10
55.10471123267285
 20
117.7949583744185
 30
0.0
 10
59.89054176252437
 20
115.9247026291385
 30
0.0
 10
63.6045780390059
 20
110.3270011991145
 30
0.0
 10
63.76633505244064
 20
106.4204874373515
 30
0.0
 10
63.76633505244064
 20
104.7949583744185
 30
0.0
 11
52.61006071638529
 21
117.7949583744185
 31
0.0
 11
59.61605950163948
 21
115.1633216580877
 31
0.0
 11
63.25277511964078
 21
109.6444283253906
 31
0.0
 11
63.76633505244064
 21
104.7949583744185
 31
0.0
  0
CIRCLE
  5
32
330
2
100
AcDbEntity
  8
0
100
AcDbCircle
 10
58.39133505244063
 20
104.7949583744185
 30
0.0
 40
1.0
  0
SPLINE
  5
33
330
2
100
AcDbEntity
  8
0
 48
0.1
100
AcDbSpline
210
0.0
220
0.0
230
1.0
 70
     8
 71
     3
 72
    17
 73
    13
 74
    11
 42
0.0000000001
 43
0.0000000001
 44
0.0000000001
 12
0.0
 22
1.0
 32
0.0
 40
0.0
 40
0.0
 40
0.0
 40
0.0
 40
4.876084386355889
 40
11.01612276992987
 40
18.18685244684932
 40
24.79217444255537
 40
35.36363575359544
 40
46.31583443156616
 40
56.25700611227185
 40
61.0255358337062
 40
65.53691534400515
 40
68.44581296218945
 40
68.44581296218945
 40
68.44581296218945
 40
68.44581296218945
 10
7.751122703083089
 20
104.7949583744185
 30
0.0
 10
7.751122703083089
 20
106.4203198365372
 30
0.0
 10
8.392133397326189
 20
110.0815782808689
 30
0.0
 10
11.86356148801318
 20
115.5716500815354
 30
0.0
 10
19.0085415572548
 20
117.0403604124291
 30
0.0
 10
26.79403186207666
 20
114.9144927193722
 30
0.0
 10
36.23922795283503
 20
112.9979095301969
 30
0.0
 10
46.33210447968913
 20
115.7188786936297
 30
0.0
 10
55.46271765585585
 20
116.5535503520327
 30
0.0
 10
60.82483514635766
 20
112.2897610343098
 30
0.0
 10
62.00377556418415
 20
108.2287935141726
 30
0.0
 10
62.09256868687337
 20
105.7619935059028
 30
0.0
 10
62.12737737374983
 20
104.7949583744185
 30
0.0
 11
7.751122703083089
 21
104.7949583744185
 31
0.0
 11
8.604966100459932
 21
109.5957031495154
 31
0.0
 11
12.14230952215939
 21
114.6143954960058
 31
0.0
 11
19.06585737660293
 21
116.4809027171768
 31
0.0
 11
25.56648070077881
 21
115.309503953246
 31
0.0
 11
36.03342327630548
 21
113.8266326265813
 31
0.0
 11
46.8575609606969
 21
115.4965725270212
 31
0.0
 11
56.78696034709878
 21
115.0129174737169
 31
0.0
 11
60.45000540911861
 21
111.9598900290621
 31
0.0
 11
61.92629907541095
 21
107.6968978760304
 31
0.0
 11
62.12737737374983
 21
104.7949583744185
 31
0.0
  0
CIRCLE
  5
34
330
2
100
AcDbEntity
  8
0
 48
0.1
100
AcDbCircle
 10
58.39133505244063
 20
104.7949583744185
 30
0.0
 40
1.625
  0
SPLINE
  5
35
330
2
100
AcDbEntity
  8
0
 48
0.1
100
AcDbSpline
210
0.0
220
0.0
230
1.0
 70
     8
 71
     3
 72
    13
 73
     9
 74
     0
 42
0.0000000001
 43
0.0000000001
 40
25.04800398795821
 40
25.04800398795821
 40
25.04800398795821
 40
25.04800398795821
 40
31.66467629738304
 40
39.76174978861712
 40
44.18261776011012
 40
48.78923732368569
 40
53.44876874101091
 40
57.4223560628144
 40
57.4223560628144
 40
57.4223560628144
 40
57.4223560628144
 10
37.65590660576047
 20
114.7396225547642
 30
0.0
 10
39.38991719844443
 20
114.8667027899143
 30
0.0
 10
43.17725767299698
 20
115.4659070904759
 30
0.0
 10
51.97593813814387
 20
117.3890206595007
 30
0.0
 10
58.55611842475695
 20
115.6093620985822
 30
0.0
 10
61.85903276983641
 20
112.0391669636667
 30
0.0
 10
62.93998563294213
 20
109.0390033086352
 30
0.0
 10
63.12014444345959
 20
106.6088703305126
 30
0.0
 10
63.18019878976065
 20
104.7949583744185
 30
0.0
  0
LINE
  5
36
330
2
100
AcDbEntity
  8
0
 48
0.1
100
AcDbLine
 10
67.51633505244064
 20
122.5440088589818
 30
0.0
 11
67.51633505244064
 21
87.04400885898182
 31
0.0
  0
LINE
  5
37
330
2
100
AcDbEntity
  8
0
 48
0.1
100
AcDbLine
 10
-3.983664947559361
 20
87.04400885898181
 30
0.0
 11
-3.983664947559361
 21
122.5440088589818
 31
0.0
  0
SPLINE
  5
38
330
2
100
AcDbEntity
  8
0
100
AcDbSpline
 70
     0
 71
     3
 72
    10
 73
     6
 74
     4
 42
0.0000000001
 43
0.0000000001
 44
0.0000000001
 12
0.7270064325916273
 22
0.0581354119987493
 32
0.6841651268824886
 13
0.1234033456662577
 23
-0.9898468057509679
 33
0.0705330803451816
 40
0.0
 40
0.0
 40
0.0
 40
0.0
 40
0.7457801560228879
 40
1.284407931689909
 40
1.580778344877187
 40
1.580778344877187
 40
1.580778344877187
 40
1.580778344877187
 10
36.9340532619234
 20
95.13700977883932
 30
-0.4421615457598991
 10
37.114782252166
 20
95.15146185771627
 30
-0.272082620735952
 10
37.55281848153098
 20
95.09319804173282
 30
-0.0389577954182685
 10
37.83260508674599
 20
94.57044543898556
 30
0.0171067948418042
 10
37.90541041408955
 20
94.33566970783273
 30
-0.1702806645995353
 10
37.91760144760415
 20
94.23788260556188
 30
-0.1633126918777776
 11
36.9340532619234
 21
95.13700977883932
 31
-0.4421615457598991
 11
37.55242801136183
 21
94.96024413295307
 31
-0.0645974891961112
 11
37.84428168764425
 21
94.5075396903413
 31
-0.0645974891961112
 11
37.91760144760415
 21
94.23788260556188
 31
-0.1633126918777776
  0
LINE
  5
3A
330
2
100
AcDbEntity
  8
0
100
AcDbLine
 10
36.9340532619234
 20
95.13700977883932
 30
-0.4421615457598991
 11
36.80743565412889
 21
95.11455126457951
 31
-0.3057069872664728
  0
ARC
  5
3B
330
2
100
AcDbEntity
  8
0
100
AcDbCircle
 10
48.71799932949321
 20
-4.257099064498532
 30
-87.67955117749338
 40
0.5000000000000001
210
0.1242569292546994
220
-0.9910970319118277
230
-0.0478214268687005
100
AcDbArc
 50
175.8744776342288
 51
223.2315788077711
  0
SPLINE
  5
3C
330
2
100
AcDbEntity
  8
0
100
AcDbSpline
 70
     0
 71
     3
 72
     9
 73
     5
 74
     0
 42
0.0000000001
 43
0.0000000001
 40
0.0
 40
0.0
 40
0.0
 40
0.0
 40
1.294423937454767
 40
1.817106841493468
 40
1.817106841493468
 40
1.817106841493468
 40
1.817106841493468
 10
36.20468615079198
 20
94.06531882066891
 30
-1.03769354101766
 10
36.48759535740993
 20
94.04644207947653
 30
-1.362926410569222
 10
36.79933429403513
 20
93.76612905253102
 30
0.0564431659302966
 10
36.91547682113069
 20
93.1702870200185
 30
0.0493449576327737
 10
36.94368009439269
 20
92.99049973773007
 30
0.0093463351801086
  0
LINE
  5
3D
330
2
100
AcDbEntity
  8
0
100
AcDbLine
 10
36.53191716463751
 20
94.55911337726419
 30
0.0342611219483251
 11
35.80491073204587
 21
94.50097796526543
 31
-0.649904004934176
210
-0.6752939082374338
220
-0.1197787427188251
230
0.7277576452982887
  0
LINE
  5
3E
330
2
100
AcDbEntity
  8
0
100
AcDbLine
 10
36.53191716463751
 20
94.55911337726419
 30
0.0342611219483251
 11
35.80491073204587
 21
94.50097796526543
 31
-0.649904004934176
  0
ARC
  5
3F
330
2
100
AcDbEntity
  8
0
100
AcDbCircle
 10
-86.22688578150405
 20
38.18492470762996
 30
-36.65851903701545
 40
1.0
210
-0.6752939082374338
220
-0.1197787427188251
230
0.7277576452982887
100
AcDbArc
 50
86.00167170590109
 51
176.0016717059014
  0
ARC
  5
40
330
2
100
AcDbEntity
  8
0
100
AcDbCircle
 10
-86.22688578150405
 20
38.18492470762996
 30
-36.65851903701545
 40
1.0
210
-0.6752939082374338
220
-0.1197787427188251
230
0.7277576452982887
100
AcDbArc
 50
86.00167170590109
 51
176.0016717059014
  0
ARC
  5
41
330
2
100
AcDbEntity
  8
0
100
AcDbCircle
 10
-85.29904706441557
 20
37.11763125451051
 30
-35.97101903701543
 40
1.5
210
-0.6752939082374338
220
-0.1197787427188251
230
0.7277576452982887
100
AcDbArc
 50
87.335650600728
 51
176.0016717059019
  0
ARC
  5
42
330
2
100
AcDbEntity
  8
0
100
AcDbCircle
 10
85.29904706441557
 20
37.11763125451051
 30
35.97101903701543
 40
1.5
210
0.6752939082374338
220
0.1197787427188251
230
-0.7277576452982887
100
AcDbArc
 50
3.998328294097976
 51
92.66434939927199
  0
LINE
  5
43
330
2
100
AcDbEntity
  8
0
100
AcDbLine
 10
36.9340532619234
 20
95.13700977883932
 30
-0.4421615457598991
 11
33.51268296964831
 21
94.86341829102723
 31
-3.66191605574677
  0
LINE
  5
44
330
2
100
AcDbEntity
  8
0
100
AcDbLine
 10
36.20468615079195
 20
94.06531882066893
 30
-1.037693541017671
 11
33.41487440652832
 21
93.84223020978343
 31
-3.663106220226426
  0
LINE
  5
45
330
2
100
AcDbEntity
  8
0
100
AcDbLine
 10
36.20468615079195
 20
94.06531882066893
 30
-1.037693541017671
 11
33.41487440652832
 21
93.84223020978343
 31
-3.663106220226426
210
0.124256929254702
220
-0.9910970319118273
230
-0.047821426868698
  0
ELLIPSE
  5
46
330
2
100
AcDbEntity
  8
0
100
AcDbEllipse
 10
33.35274594190098
 20
94.33777872573932
 30
-3.639195506792075
 11
-0.5921746463325207
 21
-0.0802427982186357
 31
0.1243500330374836
210
-0.2081961320922807
220
0.0210805228149185
230
-0.9778598990344493
 40
0.8191520442889917
 41
-1.570796326794889
 42
1.570796326794891
  0
ELLIPSE
  5
47
330
2
100
AcDbEntity
  8
0
100
AcDbEllipse
 10
33.35274594190098
 20
94.33777872573932
 30
-3.639195506792075
 11
-0.5921746463325207
 21
-0.0802427982186357
 31
0.1243500330374836
210
-0.2081961320922807
220
0.0210805228149185
230
-0.9778598990344493
 40
0.8191520442889917
 41
-1.570796326794889
 42
1.570796326794891
  0
CIRCLE
  5
48
330
2
100
AcDbEntity
  8
0
100
AcDbCircle
 10
-97.28627214259635
 20
-24.2087517590517
 30
-1.396642153522492
 40
0.234375
210
-0.2081961320922807
220
0.0210805228149184
230
-0.9778598990344494
  0
CIRCLE
  5
49
330
2
100
AcDbEntity
  8
0
100
AcDbCircle
 10
-97.28627214259633
 20
-24.20875175905168
 30
-1.396642153522487
 40
0.125
210
-0.2081961320922804
220
0.0210805228149184
230
-0.9778598990344493
  0
LINE
  5
4A
330
2
100
AcDbEntity
  8
0
100
AcDbLine
 10
33.29061747727362
 20
94.83332724169526
 30
-3.615284793357721
 11
33.51268296964831
 21
94.86341829102723
 31
-3.66191605574677
210
-0.2081961320922807
220
0.0210805228149185
230
-0.9778598990344494
  0
ARC
  5
4B
330
2
100
AcDbEntity
  8
0
100
AcDbCircle
 10
91.37901575556464
 20
-30.54509874532625
 30
31.07961205286411
 40
0.5
210
0.7270064325916274
220
0.0581354119987443
230
0.6841651268824889
100
AcDbArc
 50
93.75953795854663
 51
183.7595379585453
  0
ARC
  5
4C
330
2
100
AcDbEntity
  8
0
100
AcDbCircle
 10
91.37901575556464
 20
-30.54509874532625
 30
31.07961205286411
 40
0.5
210
0.7270064325916274
220
0.0581354119987443
230
0.6841651268824889
100
AcDbArc
 50
93.75953795854663
 51
183.7595379585453
  0
LINE
  5
4D
330
2
100
AcDbEntity
  8
0
100
AcDbLine
 10
37.0771711306684
 20
93.13612133766737
 30
-0.424220171357276
 11
37.05594951263828
 21
93.13235720075587
 31
-0.4013498410038823
  0
LINE
  5
4E
330
2
100
AcDbEntity
  8
0
100
AcDbLine
 10
37.0771711306684
 20
93.13612133766737
 30
-0.424220171357276
 11
37.05594951263828
 21
93.13235720075587
 31
-0.4013498410038823
210
-0.727006432591625
220
-0.0581354119987631
230
-0.6841651268824898
  0
SPLINE
  5
4F
330
2
100
AcDbEntity
  8
0
 48
0.1
100
AcDbSpline
210
0.0
220
0.0
230
1.0
 70
     8
 71
     3
 72
    10
 73
     6
 74
     0
 42
0.0000000001
 43
0.0000000001
 40
0.0
 40
0.0
 40
0.0
 40
0.0
 40
9.125053125719926
 40
28.9301292314621
 40
29.45483374876999
 40
29.45483374876999
 40
29.45483374876999
 40
29.45483374876999
 10
0.0169629030691425
 20
104.7949583744185
 30
0.0
 10
0.0169629030691425
 20
101.7532739991785
 30
0.0
 10
2.714925379686799
 20
91.58630256377151
 30
0.0
 10
15.05476966535758
 20
88.6067575044408
 30
0.0
 10
21.53183590733374
 20
89.71903270363917
 30
0.0
 10
21.93294748842329
 20
89.77515484583021
 30
0.0
  0
SPLINE
  5
50
330
2
100
AcDbEntity
  8
0
 48
0.1
100
AcDbSpline
210
0.0
220
0.0
230
1.0
 70
     8
 71
     3
 72
    17
 73
    13
 74
    11
 42
0.0000000001
 43
0.0000000001
 44
0.0000000001
 12
0.0
 22
-1.0
 32
0.0
 40
0.0
 40
0.0
 40
0.0
 40
0.0
 40
4.876084386355889
 40
11.01612276992987
 40
18.18685244684932
 40
24.79217444255537
 40
35.36363575359544
 40
46.31583443156616
 40
56.25700611227185
 40
61.0255358337062
 40
65.53691534400515
 40
68.44581296218938
 40
68.44581296218938
 40
68.44581296218938
 40
68.44581296218938
 10
7.751122703083089
 20
104.7949583744186
 30
0.0
 10
7.751122703083089
 20
103.1695969122999
 30
0.0
 10
8.392133397326189
 20
99.50833846796831
 30
0.0
 10
11.86356148801318
 20
94.01826666730181
 30
0.0
 10
19.0085415572548
 20
92.54955633640799
 30
0.0
 10
26.79403186207666
 20
94.67542402946497
 30
0.0
 10
36.23922795283503
 20
96.59200721864015
 30
0.0
 10
46.33210447968914
 20
93.87103805520748
 30
0.0
 10
55.46271765585584
 20
93.03636639680446
 30
0.0
 10
60.82483514635768
 20
97.30015571452728
 30
0.0
 10
62.00377556418413
 20
101.3611232346645
 30
0.0
 10
62.09256868687337
 20
103.8279232429342
 30
0.0
 10
62.12737737374983
 20
104.7949583744185
 30
0.0
 11
7.751122703083089
 21
104.7949583744186
 31
0.0
 11
8.604966100459932
 21
99.99421359932178
 31
0.0
 11
12.14230952215939
 21
94.97552125283135
 31
0.0
 11
19.06585737660293
 21
93.10901403166036
 31
0.0
 11
25.56648070077881
 21
94.28041279559119
 31
0.0
 11
36.03342327630548
 21
95.76328412225583
 31
0.0
 11
46.8575609606969
 21
94.09334422181595
 31
0.0
 11
56.78696034709878
 21
94.57699927512027
 31
0.0
 11
60.45000540911861
 21
97.63002671977501
 31
0.0
 11
61.92629907541095
 21
101.8930188728067
 31
0.0
 11
62.12737737374983
 21
104.7949583744185
 31
0.0
  0
LINE
  5
51
330
2
100
AcDbEntity
  8
0
 48
0.1
100
AcDbLine
 10
67.26633505244064
 20
86.79400885898182
 30
0.0
 11
-3.733664947559361
 21
86.7940088589818
 31
0.0
  0
ARC
  5
52
330
2
100
AcDbEntity
  8
0
 48
0.1
100
AcDbCircle
 10
-3.733664947559361
 20
87.04400885898181
 30
0.0
 40
0.25
100
AcDbArc
 50
180.0
 51
270.0
  0
SPLINE
  5
53
330
2
100
AcDbEntity
  8
0
100
AcDbSpline
210
0.0
220
0.0
230
1.0
 70
     8
 71
     3
 72
    11
 73
     7
 74
     0
 42
0.0000000001
 43
0.0000000001
 40
0.0
 40
0.0
 40
0.0
 40
0.0
 40
3.289593764020968
 40
14.20249737948614
 40
24.96881912929182
 40
30.613679363434
 40
30.613679363434
 40
30.613679363434
 40
30.613679363434
 10
52.6100607163853
 20
91.79495837441859
 30
0.0
 10
51.51387444683372
 20
91.77652289530255
 30
0.0
 10
46.78119809298961
 20
91.69692952827388
 30
0.0
 10
38.42717314342937
 20
93.58312221900346
 30
0.0
 10
29.58985174262325
 20
92.15222890645479
 30
0.0
 10
24.39351360856525
 20
90.14235691004497
 30
0.0
 10
21.93294748842329
 20
89.77515484583021
 30
0.0
  0
SPLINE
  5
54
330
2
100
AcDbEntity
  8
0
 48
0.1
100
AcDbSpline
210
0.0
220
0.0
230
1.0
 70
     8
 71
     3
 72
    13
 73
     9
 74
     0
 42
0.0000000001
 43
0.0000000001
 40
25.04800398795821
 40
25.04800398795821
 40
25.04800398795821
 40
25.04800398795821
 40
31.66467629738304
 40
39.76174978861712
 40
44.18261776011012
 40
48.78923732368569
 40
53.44876874101091
 40
57.4223560628144
 40
57.4223560628144
 40
57.4223560628144
 40
57.4223560628144
 10
37.65590660576047
 20
94.85029419407281
 30
0.0
 10
39.38991719844443
 20
94.72321395892278
 30
0.0
 10
43.17725767299698
 20
94.12400965836118
 30
0.0
 10
51.97593813814387
 20
92.20089608933639
 30
0.0
 10
58.55611842475695
 20
93.98055465025491
 30
0.0
 10
61.85903276983641
 20
97.55074978517038
 30
0.0
 10
62.93998563294213
 20
100.5509134402018
 30
0.0
 10
63.12014444345959
 20
102.9810464183244
 30
0.0
 10
63.18019878976065
 20
104.7949583744185
 30
0.0
  0
SPLINE
  5
55
330
2
100
AcDbEntity
  8
0
 48
0.1
100
AcDbSpline
210
0.0
220
0.0
230
1.0
 70
     8
 71
     3
 72
    10
 73
     6
 74
     0
 42
0.0000000001
 43
0.0000000001
 40
9.797128753142949
 40
9.797128753166781
 40
9.797128753166781
 40
9.797128753166781
 40
14.26887419394174
 40
17.07010811142692
 40
20.79594230441584
 40
20.79594230441584
 40
20.79594230441584
 40
20.79594230441584
 10
12.1141528403738
 20
90.27367051850271
 30
0.0
 10
18.91882484009238
 20
90.30433644013871
 30
0.0
 10
23.45531481390193
 20
92.6612456221431
 30
0.0
 10
30.39690158636644
 20
94.53810585049755
 30
0.0
 10
32.89111316966176
 20
94.84734966038777
 30
0.0
 10
34.08345848206167
 20
94.90906062386692
 30
0.0
  0
ARC
  5
56
330
2
100
AcDbEntity
  8
0
100
AcDbCircle
 10
-86.22688578150404
 20
38.18492470762996
 30
-35.97101903701544
 40
0.5
210
-0.6752939082374338
220
-0.1197787427188251
230
0.7277576452982887
100
AcDbArc
 50
86.00167170590356
 51
176.0016717059008
  0
ARC
  5
57
330
2
100
AcDbEntity
  8
0
100
AcDbCircle
 10
-86.22688578150404
 20
38.18492470762996
 30
-35.97101903701544
 40
0.5
210
-0.6752939082374338
220
-0.1197787427188251
230
0.7277576452982887
100
AcDbArc
 50
86.00167170590356
 51
176.0016717059008
  0
LINE
  5
58
330
2
100
AcDbEntity
  8
0
100
AcDbLine
 10
37.65869901597521
 20
94.18158964466645
 30
0.3306367127473271
 11
37.81396454220427
 21
92.95460326195298
 31
0.0102762978399437
210
0.7270064325916281
220
0.0581354119987392
230
0.6841651268824886
  0
LINE
  5
59
330
2
100
AcDbEntity
  8
0
100
AcDbLine
 10
37.94323875176253
 20
92.9864186918334
 30
0.0102762978399437
 11
37.78531662376973
 21
94.2040481589262
 31
0.1941821542539008
  0
ARC
  5
5B
330
2
100
AcDbEntity
  8
0
100
AcDbCircle
 10
86.22688578150405
 20
38.18492470762996
 30
36.47101903701546
 40
1.0
210
0.6752939082374338
220
0.1197787427188251
230
-0.7277576452982887
100
AcDbArc
 50
3.998328294098532
 51
93.9983282940981
  0
ARC
  5
5C
330
2
100
AcDbEntity
  8
0
100
AcDbCircle
 10
86.22688578150405
 20
38.18492470762996
 30
36.47101903701546
 40
1.0
210
0.6752939082374338
220
0.1197787427188251
230
-0.7277576452982887
100
AcDbArc
 50
3.998328294098532
 51
93.9983282940981
  0
LINE
  5
5D
330
2
100
AcDbEntity
  8
0
100
AcDbLine
 10
38.06430431963196
 20
93.06500559516578
 30
0.0102762978399437
 11
37.91760144760414
 21
94.23788260556179
 31
-0.1633126918777545
  0
ARC
  5
5E
330
2
100
AcDbEntity
  8
0
100
AcDbCircle
 10
91.37901575556465
 20
-30.54509874532625
 30
32.07961205286412
 40
0.5
210
0.7270064325916274
220
0.0581354119987443
230
0.6841651268824889
100
AcDbArc
 50
3.759537958545321
 51
93.75953795854334
  0
ARC
  5
5F
330
2
100
AcDbEntity
  8
0
100
AcDbCircle
 10
91.37901575556465
 20
-30.54509874532625
 30
32.07961205286412
 40
0.5
210
0.7270064325916274
220
0.0581354119987443
230
0.6841651268824889
100
AcDbArc
 50
3.759537958545321
 51
93.75953795854334
  0
ELLIPSE
  5
60
330
2
100
AcDbEntity
  8
0
100
AcDbEllipse
 10
37.50365131994086
 20
93.03004268455197
 30
0.0102762978399437
 11
-0.560632337525684
 21
-0.0353408708532617
 31
0.0
210
0.0
220
0.0
230
1.0
 40
0.2009744915816875
 41
6.283116201717194
 42
9.421425223285012
  0
LINE
  5
65
330
2
100
AcDbEntity
  8
0
100
AcDbLine
 10
37.07746315092108
 20
93.13617313410487
 30
0.3062828440009895
 11
36.95754884556067
 21
94.09263256730765
 31
0.3524329719552233
210
-0.6752939082374338
220
-0.1197787427188251
230
0.7277576452982887
  0
LINE
  5
66
330
2
100
AcDbEntity
  8
0
100
AcDbLine
 10
37.07746315092108
 20
93.13617313410487
 30
0.3062828440009895
 11
36.95754884556067
 21
94.09263256730765
 31
0.3524329719552233
  0
LINE
  5
67
330
2
100
AcDbEntity
  8
CENTER
 48
0.05
100
AcDbLine
 10
62.15452977512711
 20
104.7949583744185
 30
0.0
 11
54.62814032975416
 21
104.7949583744185
 31
0.0
  0
SPLINE
  5
68
330
2
100
AcDbEntity
  8
0
 48
0.1
100
AcDbSpline
210
0.0
220
0.0
230
1.0
 70
     8
 71
     3
 72
    10
 73
     6
 74
     4
 42
0.0000000001
 43
0.0000000001
 44
0.0000000001
 12
1.0
 22
0.0
 32
0.0
 13
0.0
 23
1.0
 33
0.0
 40
0.0
 40
0.0
 40
0.0
 40
0.0
 40
7.483951548862653
 40
14.09333004490165
 40
18.96991723370066
 40
18.96991723370066
 40
18.96991723370066
 40
18.96991723370066
 10
52.61006071638529
 20
91.79495837441853
 30
0.0
 10
55.10471123267285
 20
91.79495837441853
 30
0.0
 10
59.89054176252437
 20
93.66521411969854
 30
0.0
 10
63.60457803900589
 20
99.26291554972257
 30
0.0
 10
63.76633505244064
 20
103.1694293114855
 30
0.0
 10
63.76633505244064
 20
104.7949583744185
 30
0.0
 11
52.61006071638529
 21
91.79495837441853
 31
0.0
 11
59.61605950163948
 21
94.42659509074937
 31
0.0
 11
63.25277511964078
 21
99.94548842344645
 31
0.0
 11
63.76633505244064
 21
104.7949583744185
 31
0.0
  0
ARC
  5
69
330
2
100
AcDbEntity
  8
0
 48
0.1
100
AcDbCircle
 10
67.26633505244064
 20
87.04400885898182
 30
0.0
 40
0.25
100
AcDbArc
 50
270.0
 51
0.0
  0
ARC
  5
6A
330
2
100
AcDbEntity
  8
0
 48
0.1
100
AcDbCircle
 10
-22.6451699757589
 20
5.687934453965238
 30
120.0443932309261
 40
0.5000000000000001
210
0.1242569292546994
220
0.9910970319118277
230
-0.0478214268687005
100
AcDbArc
 50
316.7684211922288
 51
4.125522365771131
  0
LINE
  5
6B
330
2
100
AcDbEntity
  8
0
 48
0.1
100
AcDbLine
 10
36.9340532619234
 20
114.4529069699977
 30
-0.4421615457598991
 11
36.80743565412889
 21
114.4753654842576
 31
-0.3057069872664728
  0
SPLINE
  5
6C
330
2
100
AcDbEntity
  8
0
 48
0.1
100
AcDbSpline
 70
     0
 71
     3
 72
    10
 73
     6
 74
     4
 42
0.0000000001
 43
0.0000000001
 44
0.0000000001
 12
0.7270064325916273
 22
-0.0581354119987493
 32
0.6841651268824886
 13
0.1234033456662577
 23
0.9898468057509679
 33
0.0705330803451816
 40
0.0
 40
0.0
 40
0.0
 40
0.0
 40
0.7457801560228879
 40
1.284407931689909
 40
1.580778344877187
 40
1.580778344877187
 40
1.580778344877187
 40
1.580778344877187
 10
36.9340532619234
 20
114.4529069699977
 30
-0.4421615457598991
 10
37.114782252166
 20
114.4384548911208
 30
-0.272082620735952
 10
37.55281848153098
 20
114.4967187071042
 30
-0.0389577954182685
 10
37.83260508674599
 20
115.0194713098515
 30
0.0171067948418042
 10
37.90541041408955
 20
115.2542470410043
 30
-0.1702806645995353
 10
37.91760144760415
 20
115.3520341432752
 30
-0.1633126918777776
 11
36.9340532619234
 21
114.4529069699977
 31
-0.4421615457598991
 11
37.55242801136183
 21
114.629672615884
 31
-0.0645974891961112
 11
37.84428168764425
 21
115.0823770584958
 31
-0.0645974891961112
 11
37.91760144760415
 21
115.3520341432752
 31
-0.1633126918777776
  0
ARC
  5
6D
330
2
100
AcDbEntity
  8
0
 48
0.1
100
AcDbCircle
 10
121.0697151208069
 20
10.47864744624005
 30
10.86660232229649
 40
1.5
210
0.6752939082374338
220
-0.1197787427188251
230
-0.7277576452982887
100
AcDbArc
 50
87.335650600728
 51
176.0016717059019
  0
ARC
  5
6E
330
2
100
AcDbEntity
  8
0
 48
0.1
100
AcDbCircle
 10
-121.0697151208069
 20
10.47864744624005
 30
-10.86660232229649
 40
1.5
210
-0.6752939082374338
220
0.1197787427188251
230
0.7277576452982887
100
AcDbArc
 50
3.998328294097976
 51
92.66434939927199
  0
ARC
  5
6F
330
2
100
AcDbEntity
  8
0
 48
0.1
100
AcDbCircle
 10
-120.1418764037184
 20
11.5459408993595
 30
-11.5541023222965
 40
1.0
210
-0.6752939082374338
220
0.1197787427188251
230
0.7277576452982887
100
AcDbArc
 50
3.998328294098534
 51
93.99832829409891
  0
ARC
  5
70
330
2
100
AcDbEntity
  8
0
 48
0.1
100
AcDbCircle
 10
-120.1418764037184
 20
11.5459408993595
 30
-11.5541023222965
 40
1.0
210
-0.6752939082374338
220
0.1197787427188251
230
0.7277576452982887
100
AcDbArc
 50
3.998328294098534
 51
93.99832829409891
  0
LINE
  5
71
330
2
100
AcDbEntity
  8
0
 48
0.1
100
AcDbLine
 10
36.53191716463751
 20
115.0308033715729
 30
0.0342611219483251
 11
35.80491073204587
 21
115.0889387835716
 31
-0.649904004934176
  0
LINE
  5
72
330
2
100
AcDbEntity
  8
0
 48
0.1
100
AcDbLine
 10
36.53191716463751
 20
115.0308033715729
 30
0.0342611219483251
 11
35.80491073204587
 21
115.0889387835716
 31
-0.649904004934176
210
-0.6752939082374338
220
0.1197787427188251
230
0.7277576452982887
  0
SPLINE
  5
73
330
2
100
AcDbEntity
  8
0
 48
0.1
100
AcDbSpline
 70
     0
 71
     3
 72
     9
 73
     5
 74
     0
 42
0.0000000001
 43
0.0000000001
 40
0.0
 40
0.0
 40
0.0
 40
0.0
 40
1.294423937454767
 40
1.817106841493468
 40
1.817106841493468
 40
1.817106841493468
 40
1.817106841493468
 10
36.20468615079198
 20
115.5245979281682
 30
-1.03769354101766
 10
36.48759535740993
 20
115.5434746693605
 30
-1.362926410569222
 10
36.79933429403513
 20
115.823787696306
 30
0.0564431659302966
 10
36.91547682113069
 20
116.4196297288186
 30
0.0493449576327737
 10
36.94368009439269
 20
116.599417011107
 30
0.0093463351801086
  0
LINE
  5
74
330
2
100
AcDbEntity
  8
0
 48
0.1
100
AcDbLine
 10
36.20468615079195
 20
115.5245979281681
 30
-1.037693541017671
 11
33.41487440652832
 21
115.7476865390536
 31
-3.663106220226426
210
0.124256929254702
220
0.9910970319118273
230
-0.047821426868698
  0
LINE
  5
75
330
2
100
AcDbEntity
  8
0
 48
0.1
100
AcDbLine
 10
36.20468615079195
 20
115.5245979281681
 30
-1.037693541017671
 11
33.41487440652832
 21
115.7476865390536
 31
-3.663106220226426
  0
LINE
  5
76
330
2
100
AcDbEntity
  8
0
 48
0.1
100
AcDbLine
 10
36.9340532619234
 20
114.4529069699977
 30
-0.4421615457598991
 11
33.51268296964831
 21
114.7264984578098
 31
-3.66191605574677
  0
ELLIPSE
  5
77
330
2
100
AcDbEntity
  8
0
 48
0.1
100
AcDbEllipse
 10
33.35274594190098
 20
115.2521380230977
 30
-3.639195506792075
 11
-0.5921746463325207
 21
0.0802427982186357
 31
0.1243500330374836
210
0.2081961320922807
220
0.0210805228149185
230
0.9778598990344493
 40
0.8191520442889917
 41
-1.570796326794889
 42
1.570796326794891
  0
ELLIPSE
  5
78
330
2
100
AcDbEntity
  8
0
 48
0.1
100
AcDbEllipse
 10
33.35274594190098
 20
115.2521380230977
 30
-3.639195506792075
 11
-0.5921746463325207
 21
0.0802427982186357
 31
0.1243500330374836
210
0.2081961320922807
220
0.0210805228149185
230
0.9778598990344493
 40
0.8191520442889917
 41
-1.570796326794889
 42
1.570796326794891
  0
CIRCLE
  5
79
330
2
100
AcDbEntity
  8
0
 48
0.1
100
AcDbCircle
 10
-111.2374559379726
 20
-44.85498541951726
 30
-5.814907175323197
 40
0.234375
210
-0.2081961320922807
220
-0.0210805228149184
230
-0.9778598990344494
  0
CIRCLE
  5
7A
330
2
100
AcDbEntity
  8
0
 48
0.1
100
AcDbCircle
 10
-111.2374559379726
 20
-44.85498541951733
 30
-5.814907175323199
 40
0.125
210
-0.2081961320922804
220
-0.0210805228149184
230
-0.9778598990344493
  0
LINE
  5
7B
330
2
100
AcDbEntity
  8
0
 48
0.1
100
AcDbLine
 10
33.29061747727362
 20
114.7565895071418
 30
-3.615284793357721
 11
33.51268296964831
 21
114.7264984578098
 31
-3.66191605574677
210
-0.2081961320922807
220
-0.0210805228149185
230
-0.9778598990344494
  0
ARC
  5
7C
330
2
100
AcDbEntity
  8
0
 48
0.1
100
AcDbCircle
 10
117.5439888015015
 20
-19.11500749343813
 30
18.89501589188793
 40
0.5
210
0.7270064325916274
220
-0.0581354119987443
230
0.6841651268824889
100
AcDbArc
 50
356.2404620414546
 51
86.24046204145336
  0
ARC
  5
7D
330
2
100
AcDbEntity
  8
0
 48
0.1
100
AcDbCircle
 10
117.5439888015015
 20
-19.11500749343813
 30
18.89501589188793
 40
0.5
210
0.7270064325916274
220
-0.0581354119987443
230
0.6841651268824889
100
AcDbArc
 50
356.2404620414546
 51
86.24046204145336
  0
LINE
  5
7E
330
2
100
AcDbEntity
  8
0
 48
0.1
100
AcDbLine
 10
37.0771711306684
 20
116.4537954111697
 30
-0.424220171357276
 11
37.05594951263828
 21
116.4575595480812
 31
-0.4013498410038823
210
-0.727006432591625
220
0.0581354119987631
230
-0.6841651268824898
  0
LINE
  5
7F
330
2
100
AcDbEntity
  8
0
 48
0.1
100
AcDbLine
 10
37.0771711306684
 20
116.4537954111697
 30
-0.424220171357276
 11
37.05594951263828
 21
116.4575595480812
 31
-0.4013498410038823
  0
LINE
  5
80
330
2
100
AcDbEntity
  8
0
 48
0.1
100
AcDbLine
 10
-3.733664947559361
 20
122.7940088589818
 30
0.0
 11
67.26633505244064
 21
122.7940088589818
 31
0.0
  0
ARC
  5
81
330
2
100
AcDbEntity
  8
0
 48
0.1
100
AcDbCircle
 10
-3.733664947559361
 20
122.5440088589818
 30
0.0
 40
0.25
100
AcDbArc
 50
90.0
 51
180.0
  0
SPLINE
  5
82
330
2
100
AcDbEntity
  8
0
100
AcDbSpline
210
0.0
220
0.0
230
1.0
 70
     8
 71
     3
 72
    11
 73
     7
 74
     0
 42
0.0000000001
 43
0.0000000001
 40
0.0
 40
0.0
 40
0.0
 40
0.0
 40
3.289593764020968
 40
14.20249737948614
 40
24.96881912929182
 40
30.613679363434
 40
30.613679363434
 40
30.613679363434
 40
30.613679363434
 10
52.6100607163853
 20
117.7949583744185
 30
0.0
 10
51.51387444683372
 20
117.8133938535345
 30
0.0
 10
46.78119809298961
 20
117.8929872205632
 30
0.0
 10
38.42717314342937
 20
116.0067945298336
 30
0.0
 10
29.58985174262325
 20
117.4376878423823
 30
0.0
 10
24.39351360856525
 20
119.4475598387921
 30
0.0
 10
21.93294748842329
 20
119.8147619030069
 30
0.0
  0
SPLINE
  5
83
330
2
100
AcDbEntity
  8
0
 48
0.1
100
AcDbSpline
210
0.0
220
0.0
230
1.0
 70
     8
 71
     3
 72
    10
 73
     6
 74
     0
 42
0.0000000001
 43
0.0000000001
 40
9.797128753142949
 40
9.797128753166781
 40
9.797128753166781
 40
9.797128753166781
 40
14.26887419394174
 40
17.07010811142692
 40
20.79594230441584
 40
20.79594230441584
 40
20.79594230441584
 40
20.79594230441584
 10
12.1141528403738
 20
119.3162462303344
 30
0.0
 10
18.91882484009238
 20
119.2855803086984
 30
0.0
 10
23.45531481390193
 20
116.928671126694
 30
0.0
 10
30.39690158636644
 20
115.0518108983395
 30
0.0
 10
32.89111316966176
 20
114.7425670884493
 30
0.0
 10
34.08345848206167
 20
114.6808561249701
 30
0.0
  0
LINE
  5
84
330
2
100
AcDbEntity
  8
0
 48
0.1
100
AcDbLine
 10
37.94323875176253
 20
116.6034980570037
 30
0.0102762978399437
 11
37.78531662376973
 21
115.3858685899109
 31
0.1941821542539008
  0
LINE
  5
85
330
2
100
AcDbEntity
  8
0
 48
0.1
100
AcDbLine
 10
37.65869901597521
 20
115.4083271041706
 30
0.3306367127473271
 11
37.81396454220427
 21
116.6353134868841
 31
0.0102762978399437
210
0.7270064325916281
220
-0.0581354119987392
230
0.6841651268824886
  0
ARC
  5
86
330
2
100
AcDbEntity
  8
0
 48
0.1
100
AcDbCircle
 10
-120.1418764037184
 20
11.5459408993595
 30
-10.86660232229649
 40
0.5
210
-0.6752939082374338
220
0.1197787427188251
230
0.7277576452982887
100
AcDbArc
 50
3.998328294099159
 51
93.99832829409644
  0
ARC
  5
87
330
2
100
AcDbEntity
  8
0
 48
0.1
100
AcDbCircle
 10
-120.1418764037184
 20
11.5459408993595
 30
-10.86660232229649
 40
0.5
210
-0.6752939082374338
220
0.1197787427188251
230
0.7277576452982887
100
AcDbArc
 50
3.998328294099159
 51
93.99832829409644
  0
ARC
  5
88
330
2
100
AcDbEntity
  8
0
 48
0.1
100
AcDbCircle
 10
120.1418764037184
 20
11.5459408993595
 30
11.36660232229652
 40
1.0
210
0.6752939082374338
220
-0.1197787427188251
230
-0.7277576452982887
100
AcDbArc
 50
86.00167170590189
 51
176.0016717059014
  0
ARC
  5
89
330
2
100
AcDbEntity
  8
0
 48
0.1
100
AcDbCircle
 10
120.1418764037184
 20
11.5459408993595
 30
11.36660232229652
 40
1.0
210
0.6752939082374338
220
-0.1197787427188251
230
-0.7277576452982887
100
AcDbArc
 50
86.00167170590189
 51
176.0016717059014
  0
ARC
  5
8B
330
2
100
AcDbEntity
  8
0
 48
0.1
100
AcDbCircle
 10
117.5439888015015
 20
-19.11500749343814
 30
19.89501589188794
 40
0.5
210
0.7270064325916274
220
-0.0581354119987443
230
0.6841651268824889
100
AcDbArc
 50
86.24046204145665
 51
176.2404620414546
  0
ARC
  5
8C
330
2
100
AcDbEntity
  8
0
 48
0.1
100
AcDbCircle
 10
117.5439888015015
 20
-19.11500749343814
 30
19.89501589188794
 40
0.5
210
0.7270064325916274
220
-0.0581354119987443
230
0.6841651268824889
100
AcDbArc
 50
86.24046204145665
 51
176.2404620414546
  0
LINE
  5
8D
330
2
100
AcDbEntity
  8
0
 48
0.1
100
AcDbLine
 10
38.06430431963196
 20
116.5249111536713
 30
0.0102762978399437
 11
37.91760144760414
 21
115.3520341432753
 31
-0.1633126918777545
  0
ELLIPSE
  5
8E
330
2
100
AcDbEntity
  8
0
 48
0.1
100
AcDbEllipse
 10
37.50365131994086
 20
116.5598740642851
 30
0.0102762978399437
 11
-0.560632337525684
 21
0.0353408708532617
 31
0.0
210
0.0
220
0.0
230
-1.0
 40
0.2009744915816875
 41
6.283116201717194
 42
9.421425223285012
  0
LINE
  5
93
330
2
100
AcDbEntity
  8
0
 48
0.1
100
AcDbLine
 10
37.07746315092108
 20
116.4537436147322
 30
0.3062828440009895
 11
36.95754884556067
 21
115.4972841815294
 31
0.3524329719552233
  0
LINE
  5
94
330
2
100
AcDbEntity
  8
0
 48
0.1
100
AcDbLine
 10
37.07746315092108
 20
116.4537436147322
 30
0.3062828440009895
 11
36.95754884556067
 21
115.4972841815294
 31
0.3524329719552233
210
-0.6752939082374338
220
0.1197787427188251
230
0.7277576452982887
  0
ARC
  5
95
330
2
100
AcDbEntity
  8
0
 48
0.1
100
AcDbCircle
 10
67.26633505244064
 20
122.5440088589818
 30
0.0
 40
0.25
100
AcDbArc
 50
0.0
 51
90.0
  0
ENDSEC
  0
SECTION
  2
OBJECTS
  0
DICTIONARY
  5
7
330
0
100
AcDbDictionary
  3
ACAD_GROUP
350
27
  3
ACAD_LAYOUT
350
B
  3
ACAD_MLINESTYLE
350
28
  3
ACAD_PLOTSETTINGS
350
29
  3
ACAD_PLOTSTYLENAME
350
6
  3
ACDBHEADERROUNDTRIPXREC
350
17B
  3
ACDBVARIABLEDICTIONARY
350
96
  3
ASE_INDEX_DICTIONARY
350
12C
  0
DICTIONARY
  5
11
330
10
100
AcDbDictionary
280
     1
  3
ACAD_LAYERFILTERS
360
12
  0
DICTIONARY
  5
B2
330
2
100
AcDbDictionary
280
     1
  3
ACAD_LAYOUTSELFREF
360
19C
  0
DICTIONARY
  5
B4
330
A7
100
AcDbDictionary
280
     1
  3
ACAD_LAYOUTSELFREF
360
19D
  0
DICTIONARY
  5
27
102
{ACAD_REACTORS
330
7
102
}
330
7
100
AcDbDictionary
  0
DICTIONARY
  5
B
102
{ACAD_REACTORS
330
7
102
}
330
7
100
AcDbDictionary
  0
DICTIONARY
  5
28
102
{ACAD_REACTORS
330
7
102
}
330
7
100
AcDbDictionary
  3
STANDARD
350
2C
  0
DICTIONARY
  5
29
102
{ACAD_REACTORS
330
7
102
}
330
7
100
AcDbDictionary
  0
ACDBDICTIONARYWDFLT
  5
6
102
{ACAD_REACTORS
330
7
102
}
330
7
100
AcDbDictionary
281
     1
  3
Normal
350
5
100
AcDbDictionaryWithDefault
340
5
  0
DICTIONARY
  5
17B
102
{ACAD_REACTORS
330
7
102
}
330
7
100
AcDbDictionary
  3
CEPSNTYPE
350
185
  3
DIMSTYLEDATA
350
189
  3
FINGERPRINTGUID
350
186
  3
HYPERLINKBASE
350
17E
  3
INSUNITS
350
184
  3
LAYOUTDICT
350
180
  3
LWETCUNION
350
183
  3
PLOTSETDICT
350
181
  3
PLOTSTYLNAMDICT
350
182
  3
PSVPSCALE
350
188
  3
PUCSBASE
350
18C
  3
PUCSORGBACK
350
192
  3
PUCSORGBOTTOM
350
18E
  3
PUCSORGFRONT
350
191
  3
PUCSORGLEFT
350
18F
  3
PUCSORGRIGHT
350
190
  3
PUCSORGTOP
350
18D
  3
PUCSORTHOREF
350
18A
  3
PUCSORTHOVIEW
350
18B
  3
STYLESHEET
350
17F
  3
TSTACKALIGN
350
17C
  3
TSTACKSIZE
350
17D
  3
UCSBASE
350
195
  3
UCSORGBACK
350
19B
  3
UCSORGBOTTOM
350
197
  3
UCSORGFRONT
350
19A
  3
UCSORGLEFT
350
198
  3
UCSORGRIGHT
350
199
  3
UCSORGTOP
350
196
  3
UCSORTHOREF
350
193
  3
UCSORTHOVIEW
350
194
  3
VERSIONGUID
350
187
  0
DICTIONARY
  5
96
102
{ACAD_REACTORS
330
7
102
}
330
7
100
AcDbDictionary
  3
DIMASSOC
350
98
  3
HIDETEXT
350
97
  0
DICTIONARY
  5
12C
102
{ACAD_REACTORS
330
7
102
}
330
7
100
AcDbDictionary
  3
ASEBLOCKHIERARCHYINDEXRECORD
350
12E
1001
ACADASER13
1040
1544696499.655
  0
DICTIONARY
  5
12
102
{ACAD_REACTORS
330
11
102
}
330
11
100
AcDbDictionary
280
     1
  3
DIM-1_12
360
13
  3
DIM-1_16
360
14
  0
XRECORD
  5
19C
102
{ACAD_REACTORS
330
B2
102
}
330
B2
100
AcDbXrecord
340
2
  0
XRECORD
  5
19D
102
{ACAD_REACTORS
330
B4
102
}
330
B4
100
AcDbXrecord
340
A7
  0
MLINESTYLE
  5
2C
102
{ACAD_REACTORS
330
28
102
}
330
28
100
AcDbMlineStyle
  2
STANDARD
 70
     0
  3

 62
   256
 51
90.0
 52
90.0
 71
     2
 49
0.5
 62
   256
  6
BYLAYER
 49
-0.5
 62
   256
  6
BYLAYER
  0
ACDBPLACEHOLDER
  5
5
102
{ACAD_REACTORS
330
6
102
}
330
6
100
AcDbPlaceHolder
280
     0
  0
XRECORD
  5
185
102
{ACAD_REACTORS
330
17B
102
}
330
17B
100
AcDbXrecord
 90
        0
  0
XRECORD
  5
189
102
{ACAD_REACTORS
330
17B
102
}
330
17B
100
AcDbXrecord
1000
DSTYLE
1002
{
1070
    79
 70
     1
1070
   276
 70
     1
1070
   277
 70
     5
1002
}
  0
XRECORD
  5
186
102
{ACAD_REACTORS
330
17B
102
}
330
17B
100
AcDbXrecord
  1
{6A4AC8E0-4F58-11D5-8420-0003476D26AB}
  0
XRECORD
  5
17E
102
{ACAD_REACTORS
330
17B
102
}
330
17B
100
AcDbXrecord
  1

  0
XRECORD
  5
184
102
{ACAD_REACTORS
330
17B
102
}
330
17B
100
AcDbXrecord
 90
        1
  0
XRECORD
  5
180
102
{ACAD_REACTORS
330
17B
102
}
330
17B
100
AcDbXrecord
340
B
  0
XRECORD
  5
183
102
{ACAD_REACTORS
330
17B
102
}
330
17B
100
AcDbXrecord
 90
    10781
  0
XRECORD
  5
181
102
{ACAD_REACTORS
330
17B
102
}
330
17B
100
AcDbXrecord
340
29
  0
XRECORD
  5
182
102
{ACAD_REACTORS
330
17B
102
}
330
17B
100
AcDbXrecord
340
6
  0
XRECORD
  5
188
102
{ACAD_REACTORS
330
17B
102
}
330
17B
100
AcDbXrecord
 40
0.0
  0
XRECORD
  5
18C
102
{ACAD_REACTORS
330
17B
102
}
330
17B
100
AcDbXrecord
340
0
  0
XRECORD
  5
192
102
{ACAD_REACTORS
330
17B
102
}
330
17B
100
AcDbXrecord
 10
0.0
 20
0.0
 30
0.0
  0
XRECORD
  5
18E
102
{ACAD_REACTORS
330
17B
102
}
330
17B
100
AcDbXrecord
 10
0.0
 20
0.0
 30
0.0
  0
XRECORD
  5
191
102
{ACAD_REACTORS
330
17B
102
}
330
17B
100
AcDbXrecord
 10
0.0
 20
0.0
 30
0.0
  0
XRECORD
  5
18F
102
{ACAD_REACTORS
330
17B
102
}
330
17B
100
AcDbXrecord
 10
0.0
 20
0.0
 30
0.0
  0
XRECORD
  5
190
102
{ACAD_REACTORS
330
17B
102
}
330
17B
100
AcDbXrecord
 10
0.0
 20
0.0
 30
0.0
  0
XRECORD
  5
18D
102
{ACAD_REACTORS
330
17B
102
}
330
17B
100
AcDbXrecord
 10
0.0
 20
0.0
 30
0.0
  0
XRECORD
  5
18A
102
{ACAD_REACTORS
330
17B
102
}
330
17B
100
AcDbXrecord
340
0
  0
XRECORD
  5
18B
102
{ACAD_REACTORS
330
17B
102
}
330
17B
100
AcDbXrecord
 70
     0
  0
XRECORD
  5
17F
102
{ACAD_REACTORS
330
17B
102
}
330
17B
100
AcDbXrecord
  1

  0
XRECORD
  5
17C
102
{ACAD_REACTORS
330
17B
102
}
330
17B
100
AcDbXrecord
 90
        1
  0
XRECORD
  5
17D
102
{ACAD_REACTORS
330
17B
102
}
330
17B
100
AcDbXrecord
 90
       70
  0
XRECORD
  5
195
102
{ACAD_REACTORS
330
17B
102
}
330
17B
100
AcDbXrecord
340
0
  0
XRECORD
  5
19B
102
{ACAD_REACTORS
330
17B
102
}
330
17B
100
AcDbXrecord
 10
0.0
 20
0.0
 30
0.0
  0
XRECORD
  5
197
102
{ACAD_REACTORS
330
17B
102
}
330
17B
100
AcDbXrecord
 10
0.0
 20
0.0
 30
0.0
  0
XRECORD
  5
19A
102
{ACAD_REACTORS
330
17B
102
}
330
17B
100
AcDbXrecord
 10
0.0
 20
0.0
 30
0.0
  0
XRECORD
  5
198
102
{ACAD_REACTORS
330
17B
102
}
330
17B
100
AcDbXrecord
 10
0.0
 20
0.0
 30
0.0
  0
XRECORD
  5
199
102
{ACAD_REACTORS
330
17B
102
}
330
17B
100
AcDbXrecord
 10
0.0
 20
0.0
 30
0.0
  0
XRECORD
  5
196
102
{ACAD_REACTORS
330
17B
102
}
330
17B
100
AcDbXrecord
 10
0.0
 20
0.0
 30
0.0
  0
XRECORD
  5
193
102
{ACAD_REACTORS
330
17B
102
}
330
17B
100
AcDbXrecord
340
0
  0
XRECORD
  5
194
102
{ACAD_REACTORS
330
17B
102
}
330
17B
100
AcDbXrecord
 70
     1
  0
XRECORD
  5
187
102
{ACAD_REACTORS
330
17B
102
}
330
17B
100
AcDbXrecord
  1
{2490DD03-0531-4C30-85B5-3464C1A8FA54}
  0
DICTIONARYVAR
  5
98
102
{ACAD_REACTORS
330
96
102
}
330
96
100
DictionaryVariables
280
     0
  1
1
  0
DICTIONARYVAR
  5
97
102
{ACAD_REACTORS
330
96
102
}
330
96
100
DictionaryVariables
280
     0
  1
1
  0
XRECORD
  5
12E
102
{ACAD_REACTORS
330
12C
102
}
330
12C
100
AcDbXrecord
  0
XRECORD
  5
13
102
{ACAD_REACTORS
330
12
102
}
330
12
100
AcDbXrecord
  1
DIM-1_12
  1
DIM-1_12
  1
*
  1
*
 70
     0
  1
*
  1
*
  0
XRECORD
  5
14
102
{ACAD_REACTORS
330
12
102
}
330
12
100
AcDbXrecord
  1
dim-1_16
  1
*
  1
*
  1
*
 70
     0
  1
*
  1
*
  0
ENDSEC
  0
EOF
