  0
SECTION
  2
HEADER
  9
$ACADVER
  1
AC1014
  9
$ACADMAINTVER
 70
     9
  9
$DWGCODEPAGE
  3
ANSI_1252
  9
$INSBASE
 10
58.39133505244063
 20
107.9190088589818
 30
0.0
  9
$EXTMIN
 10
-3.866415685722245
 20
86.97348497435957
 30
-3.749524990598517
  9
$EXTMAX
 10
67.64285978637213
 20
128.8584130356409
 30
0.5250578460890552
  9
$LIMMIN
 10
0.0
 20
0.0
  9
$LIMMAX
 10
187.3118571637889
 20
134.3269220688476
  9
$ORTHOMODE
 70
     1
  9
$REGENMODE
 70
     1
  9
$FILLMODE
 70
     1
  9
$QTEXTMODE
 70
     0
  9
$MIRRTEXT
 70
     1
  9
$DRAGMODE
 70
     2
  9
$LTSCALE
 40
2.0
  9
$OSMODE
 70
    55
  9
$ATTMODE
 70
     1
  9
$TEXTSIZE
 40
0.06
  9
$TRACEWID
 40
1.0
  9
$TEXTSTYLE
  7
CARTOUCHE
  9
$CLAYER
  8
0
  9
$CELTYPE
  6
BYLAYER
  9
$CECOLOR
 62
   256
  9
$CELTSCALE
 40
0.1
  9
$DELOBJ
 70
     1
  9
$DISPSILH
 70
     0
  9
$DIMSCALE
 40
16.0
  9
$DIMASZ
 40
0.1
  9
$DIMEXO
 40
0.0625
  9
$DIMDLI
 40
0.25
  9
$DIMRND
 40
0.0
  9
$DIMDLE
 40
0.0
  9
$DIMEXE
 40
0.1
  9
$DIMTP
 40
0.0
  9
$DIMTM
 40
0.0
  9
$DIMTXT
 40
0.1
  9
$DIMCEN
 40
0.0625
  9
$DIMTSZ
 40
0.0
  9
$DIMTOL
 70
     0
  9
$DIMLIM
 70
     0
  9
$DIMTIH
 70
     1
  9
$DIMTOH
 70
     1
  9
$DIMSE1
 70
     0
  9
$DIMSE2
 70
     0
  9
$DIMTAD
 70
     0
  9
$DIMZIN
 70
    12
  9
$DIMBLK
  1

  9
$DIMASO
 70
     1
  9
$DIMSHO
 70
     1
  9
$DIMPOST
  1
\X
  9
$DIMAPOST
  1
cm
  9
$DIMALT
 70
     1
  9
$DIMALTD
 70
     1
  9
$DIMALTF
 40
2.54
  9
$DIMLFAC
 40
1.0
  9
$DIMTOFL
 70
     0
  9
$DIMTVP
 40
0.0
  9
$DIMTIX
 70
     0
  9
$DIMSOXD
 70
     0
  9
$DIMSAH
 70
     0
  9
$DIMBLK1
  1

  9
$DIMBLK2
  1

  9
$DIMSTYLE
  2
STANDARD
  9
$DIMCLRD
 70
     0
  9
$DIMCLRE
 70
     0
  9
$DIMCLRT
 70
     0
  9
$DIMTFAC
 40
1.0
  9
$DIMGAP
 40
0.08
  9
$DIMJUST
 70
     0
  9
$DIMSD1
 70
     0
  9
$DIMSD2
 70
     0
  9
$DIMTOLJ
 70
     1
  9
$DIMTZIN
 70
     4
  9
$DIMALTZ
 70
    12
  9
$DIMALTTZ
 70
     4
  9
$DIMFIT
 70
     3
  9
$DIMUPT
 70
     0
  9
$DIMUNIT
 70
     5
  9
$DIMDEC
 70
     3
  9
$DIMTDEC
 70
     3
  9
$DIMALTU
 70
     2
  9
$DIMALTTD
 70
     1
  9
$DIMTXSTY
  7
ROMANS
  9
$DIMAUNIT
 70
     0
  9
$LUNITS
 70
     2
  9
$LUPREC
 70
     2
  9
$SKETCHINC
 40
1.0
  9
$FILLETRAD
 40
3.0
  9
$AUNITS
 70
     0
  9
$AUPREC
 70
     0
  9
$MENU
  1
.
  9
$ELEVATION
 40
0.0
  9
$PELEVATION
 40
0.0
  9
$THICKNESS
 40
0.0
  9
$LIMCHECK
 70
     0
  9
$BLIPMODE
 70
     0
  9
$CHAMFERA
 40
10.0
  9
$CHAMFERB
 40
10.0
  9
$CHAMFERC
 40
20.0
  9
$CHAMFERD
 40
0.0
  9
$SKPOLY
 70
     0
  9
$TDCREATE
 40
2452053.367185764
  9
$TDUPDATE
 40
2453689.413338275
  9
$TDINDWG
 40
2.0842623380
  9
$TDUSRTIMER
 40
2.0842592130
  9
$USRTIMER
 70
     1
  9
$ANGBASE
 50
0.0
  9
$ANGDIR
 70
     0
  9
$PDMODE
 70
    33
  9
$PDSIZE
 40
0.25
  9
$PLINEWID
 40
0.0
  9
$COORDS
 70
     1
  9
$SPLFRAME
 70
     0
  9
$SPLINETYPE
 70
     6
  9
$SPLINESEGS
 70
     8
  9
$ATTDIA
 70
     0
  9
$ATTREQ
 70
     1
  9
$HANDLING
 70
 22529
  9
$HANDSEED
  5
18F
  9
$SURFTAB1
 70
     6
  9
$SURFTAB2
 70
     6
  9
$SURFTYPE
 70
     6
  9
$SURFU
 70
     6
  9
$SURFV
 70
     6
  9
$UCSNAME
  2

  9
$UCSORG
 10
0.0
 20
0.0
 30
0.0
  9
$UCSXDIR
 10
1.0
 20
0.0
 30
0.0
  9
$UCSYDIR
 10
0.0
 20
1.0
 30
0.0
  9
$PUCSNAME
  2

  9
$PUCSORG
 10
0.0
 20
0.0
 30
0.0
  9
$PUCSXDIR
 10
1.0
 20
0.0
 30
0.0
  9
$PUCSYDIR
 10
0.0
 20
1.0
 30
0.0
  9
$USERI1
 70
     0
  9
$USERI2
 70
     0
  9
$USERI3
 70
     0
  9
$USERI4
 70
     0
  9
$USERI5
 70
     0
  9
$USERR1
 40
0.0
  9
$USERR2
 40
0.0
  9
$USERR3
 40
0.0
  9
$USERR4
 40
0.0
  9
$USERR5
 40
0.0
  9
$WORLDVIEW
 70
     1
  9
$SHADEDGE
 70
     3
  9
$SHADEDIF
 70
    70
  9
$TILEMODE
 70
     1
  9
$MAXACTVP
 70
    48
  9
$PINSBASE
 10
0.0
 20
0.0
 30
0.0
  9
$PLIMCHECK
 70
     0
  9
$PEXTMIN
 10
0.0
 20
0.0
 30
0.0
  9
$PEXTMAX
 10
0.0
 20
0.0
 30
0.0
  9
$PLIMMIN
 10
0.0
 20
0.0
  9
$PLIMMAX
 10
12.0
 20
9.0
  9
$UNITMODE
 70
     0
  9
$VISRETAIN
 70
     1
  9
$PLINEGEN
 70
     0
  9
$PSLTSCALE
 70
     1
  9
$TREEDEPTH
 70
  3020
  9
$PICKSTYLE
 70
     1
  9
$CMLSTYLE
  2
STANDARD
  9
$CMLJUST
 70
     0
  9
$CMLSCALE
 40
20.0
  9
$PROXYGRAPHICS
 70
     1
  9
$MEASUREMENT
 70
     0
  0
ENDSEC
  0
SECTION
  2
CLASSES
  0
CLASS
  1
ACDBDICTIONARYWDFLT
  2
AcDbDictionaryWithDefault
  3
AutoCAD 2000
 90
        0
280
     0
281
     0
  0
CLASS
  1
ACDBPLACEHOLDER
  2
AcDbPlaceHolder
  3
AutoCAD 2000
 90
        0
280
     0
281
     0
  0
CLASS
  1
LAYOUT
  2
AcDbLayout
  3
AutoCAD 2000
 90
        0
280
     0
281
     0
  0
CLASS
  1
DICTIONARYVAR
  2
AcDbDictionaryVar
  3
AutoCAD 2000
 90
        0
280
     0
281
     0
  0
CLASS
  1
IMAGEDEF
  2
AcDbRasterImageDef
  3
ISM
 90
        0
280
     0
281
     0
  0
CLASS
  1
LONG_TRANSACTION
  2
AcDbLongTransaction
  3
AutoCAD 2000
 90
        0
280
     0
281
     0
  0
CLASS
  1
LWPOLYLINE
  2
AcDbPolyline
  3
AutoCAD 2000
 90
        0
280
     0
281
     1
  0
CLASS
  1
HATCH
  2
AcDbHatch
  3
AutoCAD 2000
 90
        0
280
     0
281
     1
  0
CLASS
  1
XRECORD
  2
AcDbXrecord
  3
AutoCAD 2000
 90
        0
280
     0
281
     0
  0
CLASS
  1
LONG_TRANSACTION
  2
AcDbLongTransaction
  3
AutoCAD 2000
 90
        0
280
     0
281
     0
  0
CLASS
  1
LWPOLYLINE
  2
AcDbPolyline
  3
AutoCAD 2000
 90
        0
280
     0
281
     1
  0
CLASS
  1
HATCH
  2
AcDbHatch
  3
AutoCAD 2000
 90
        0
280
     0
281
     1
  0
CLASS
  1
XRECORD
  2
AcDbXrecord
  3
AutoCAD 2000
 90
        0
280
     0
281
     0
  0
ENDSEC
  0
SECTION
  2
TABLES
  0
TABLE
  2
VPORT
  5
1D
330
0
100
AcDbSymbolTable
 70
     3
  0
VPORT
  5
16B
330
1D
100
AcDbSymbolTableRecord
100
AcDbViewportTableRecord
  2
*ACTIVE
 70
     0
 10
0.0
 20
0.0
 11
1.0
 21
1.0
 12
30.95264701807424
 22
107.8744607759383
 13
0.0
 23
0.0
 14
10.0
 24
10.0
 15
10.0
 25
10.0
 16
0.0
 26
0.0
 36
1.0
 17
0.0
 27
0.0
 37
0.0
 40
47.5288571441434
 41
1.786792452830188
 42
50.0
 43
0.0
 44
0.0
 50
0.0
 51
0.0
 71
     0
 72
   100
 73
     1
 74
     3
 75
     0
 76
     0
 77
     0
 78
     2
  0
ENDTAB
  0
TABLE
  2
LTYPE
  5
18
330
0
100
AcDbSymbolTable
 70
     3
  0
LTYPE
  5
19
330
18
100
AcDbSymbolTableRecord
100
AcDbLinetypeTableRecord
  2
BYBLOCK
 70
     0
  3

 72
    65
 73
     0
 40
0.0
  0
LTYPE
  5
1A
330
18
100
AcDbSymbolTableRecord
100
AcDbLinetypeTableRecord
  2
BYLAYER
 70
     0
  3

 72
    65
 73
     0
 40
0.0
  0
LTYPE
  5
8
330
18
100
AcDbSymbolTableRecord
100
AcDbLinetypeTableRecord
  2
CONTINUOUS
 70
     0
  3
Solid line
 72
    65
 73
     0
 40
0.0
  0
LTYPE
  5
69
330
18
100
AcDbSymbolTableRecord
100
AcDbLinetypeTableRecord
  2
CENTER
 70
     0
  3
Center ____ _ ____ _ ____ _ ____ _ ____ _ ____
 72
    65
 73
     4
 40
50.8
 49
31.75
 74
     0
 49
-6.349999999999999
 74
     0
 49
6.349999999999999
 74
     0
 49
-6.349999999999999
 74
     0
  0
ENDTAB
  0
TABLE
  2
LAYER
  5
10
102
{ACAD_XDICTIONARY
360
11
102
}
330
0
100
AcDbSymbolTable
 70
     3
  0
LAYER
  5
4
330
10
100
AcDbSymbolTableRecord
100
AcDbLayerTableRecord
  2
0
 70
     0
 62
     7
  6
CONTINUOUS
  0
LAYER
  5
68
330
10
100
AcDbSymbolTableRecord
100
AcDbLayerTableRecord
  2
CENTER
 70
     0
 62
     1
  6
CENTER
  0
LAYER
  5
FB
330
10
100
AcDbSymbolTableRecord
100
AcDbLayerTableRecord
  2
DEFPOINTS
 70
     0
 62
     7
  6
CONTINUOUS
  0
ENDTAB
  0
TABLE
  2
STYLE
  5
15
330
0
100
AcDbSymbolTable
 70
     3
  0
STYLE
  5
16
330
15
100
AcDbSymbolTableRecord
100
AcDbTextStyleTableRecord
  2
STANDARD
 70
     0
 40
0.0
 41
1.0
 50
0.0
 71
     0
 42
0.125
  3
txt
  4

  0
STYLE
  5
2A
330
15
100
AcDbSymbolTableRecord
100
AcDbTextStyleTableRecord
  2
CARTOUCHE
 70
     0
 40
0.0
 41
1.0
 50
0.0
 71
     0
 42
0.06
  3
romans.shx
  4

  0
STYLE
  5
23
330
15
100
AcDbSymbolTableRecord
100
AcDbTextStyleTableRecord
  2
ROMANS
 70
     0
 40
0.0
 41
1.0
 50
0.0
 71
     0
 42
1.0
  3
romans.shx
  4

  0
ENDTAB
  0
TABLE
  2
VIEW
  5
1B
330
0
100
AcDbSymbolTable
 70
     0
  0
ENDTAB
  0
TABLE
  2
UCS
  5
1C
330
0
100
AcDbSymbolTable
 70
     0
  0
ENDTAB
  0
TABLE
  2
APPID
  5
1F
330
0
100
AcDbSymbolTable
 70
     3
  0
APPID
  5
20
330
1F
100
AcDbSymbolTableRecord
100
AcDbRegAppTableRecord
  2
ACAD
 70
     0
  0
APPID
  5
97
330
1F
100
AcDbSymbolTableRecord
100
AcDbRegAppTableRecord
  2
DCO15
 70
     0
  0
APPID
  5
11C
330
1F
100
AcDbSymbolTableRecord
100
AcDbRegAppTableRecord
  2
ACADASER13
 70
     0
 71
     1
  0
ENDTAB
  0
TABLE
  2
DIMSTYLE
  5
21
330
0
100
AcDbSymbolTable
 70
     1
  0
DIMSTYLE
105
22
330
21
100
AcDbSymbolTableRecord
100
AcDbDimStyleTableRecord
  2
STANDARD
 70
     0
  3
\X
  4
cm
  5

  6

  7

 40
16.0
 41
0.1
 42
0.0625
 43
0.25
 44
0.1
 45
0.0
 46
0.0
 47
0.0
 48
0.0
140
0.1
141
0.0625
142
0.0
143
2.54
144
1.0
145
0.0
146
1.0
147
0.08
 71
     0
 72
     0
 73
     1
 74
     1
 75
     0
 76
     0
 77
     0
 78
    12
170
     1
171
     1
172
     0
173
     0
174
     0
175
     0
176
     0
177
     0
178
     0
270
     5
271
     3
272
     3
273
     2
274
     1
340
23
275
     0
280
     0
281
     0
282
     0
283
     1
284
     4
285
    12
286
     4
287
     3
288
     0
  0
ENDTAB
  0
TABLE
  2
BLOCK_RECORD
  5
1
330
0
100
AcDbSymbolTable
 70
     2
  0
BLOCK_RECORD
  5
2
102
{ACAD_XDICTIONARY
360
AD
102
}
330
1
100
AcDbSymbolTableRecord
100
AcDbBlockTableRecord
  2
*MODEL_SPACE
  0
BLOCK_RECORD
  5
A2
102
{ACAD_XDICTIONARY
360
AF
102
}
330
1
100
AcDbSymbolTableRecord
100
AcDbBlockTableRecord
  2
*PAPER_SPACE
  0
ENDTAB
  0
ENDSEC
  0
SECTION
  2
BLOCKS
  0
BLOCK
  5
3
330
2
100
AcDbEntity
  8
0
100
AcDbBlockBegin
  2
*MODEL_SPACE
 70
     0
 10
0.0
 20
0.0
 30
0.0
  3
*MODEL_SPACE
  1

  0
ENDBLK
  5
9
330
2
100
AcDbEntity
  8
0
100
AcDbBlockEnd
  0
BLOCK
  5
A4
330
A2
100
AcDbEntity
 67
     1
  8
0
 48
0.1
100
AcDbBlockBegin
  2
*PAPER_SPACE
 70
     0
 10
0.0
 20
0.0
 30
0.0
  3
*PAPER_SPACE
  1

  0
ENDBLK
  5
A5
330
A2
100
AcDbEntity
 67
     1
  8
0
 48
0.1
100
AcDbBlockEnd
  0
ENDSEC
  0
SECTION
  2
ENTITIES
  0
LINE
  5
2C
330
2
100
AcDbEntity
  8
0
100
AcDbLine
 10
36.41827499118651
 20
94.23136794816821
 30
-1.037693541017671
 11
33.61960293596332
 21
94.21546750631929
 31
-3.663106220226426
210
0.0505285698196982
220
-0.9975770520437093
230
-0.047821426868698
  0
LINE
  5
2E
330
2
100
AcDbEntity
  8
0
100
AcDbLine
 10
36.41827499118651
 20
94.23136794816821
 30
-1.037693541017671
 11
33.61960293596332
 21
94.21546750631929
 31
-3.663106220226426
  0
LINE
  5
2F
330
2
100
AcDbEntity
  8
0
100
AcDbLine
 10
37.22499478220086
 20
95.24610982244469
 30
-0.4421615457598991
 11
33.7927583787053
 21
95.22660983306803
 31
-3.66191605574677
  0
LINE
  5
30
330
2
100
AcDbEntity
  8
0
100
AcDbLine
 10
37.22499478220086
 20
120.5919078955189
 30
-0.4421615457598991
 11
33.7927583787053
 21
120.6114078848956
 31
-3.66191605574677
  0
LINE
  5
31
330
2
100
AcDbEntity
  8
0
100
AcDbLine
 10
36.41827499118651
 20
121.6066497697954
 30
-1.037693541017671
 11
33.61960293596332
 21
121.6225502116443
 31
-3.663106220226426
  0
LINE
  5
32
330
2
100
AcDbEntity
  8
0
100
AcDbLine
 10
36.41827499118651
 20
121.6066497697954
 30
-1.037693541017671
 11
33.61960293596332
 21
121.6225502116443
 31
-3.663106220226426
210
0.0505285698196982
220
0.9975770520437093
230
-0.047821426868698
  0
ELLIPSE
  5
33
330
2
100
AcDbEntity
  8
0
100
AcDbEllipse
 10
33.59433865105349
 20
94.71425603234115
 30
-3.639195506792075
 11
-0.5964907001644756
 21
-0.0361740658800776
 31
0.1243500330374836
210
-0.2060636516897158
220
0.0364388434590914
230
-0.9778598990344494
 40
0.8191520442889917
 41
-1.570796326794889
 42
1.570796326794891
  0
ELLIPSE
  5
34
330
2
100
AcDbEntity
  8
0
100
AcDbEllipse
 10
33.59433865105349
 20
94.71425603234115
 30
-3.639195506792075
 11
-0.5964907001644756
 21
-0.0361740658800776
 31
0.1243500330374836
210
-0.2060636516897158
220
0.0364388434590914
230
-0.9778598990344494
 40
0.8191520442889917
 41
-1.570796326794889
 42
1.570796326794891
  0
CIRCLE
  5
35
330
2
100
AcDbEntity
  8
0
100
AcDbCircle
 10
-99.1855798133923
 20
-17.27445929549563
 30
0.0872866998708641
 40
0.125
210
-0.2060636516897156
220
0.0364388434590913
230
-0.9778598990344493
  0
CIRCLE
  5
36
330
2
100
AcDbEntity
  8
0
100
AcDbCircle
 10
-99.18557981339228
 20
-17.27445929549562
 30
0.0872866998708641
 40
0.234375
210
-0.2060636516897158
220
0.0364388434590913
230
-0.9778598990344494
  0
LINE
  5
37
330
2
100
AcDbEntity
  8
0
100
AcDbLine
 10
33.56907436614363
 20
95.21304455836302
 30
-3.615284793357721
 11
33.7927583787053
 21
95.22660983306803
 31
-3.66191605574677
210
-0.2060636516897158
220
0.0364388434590914
230
-0.9778598990344494
  0
ELLIPSE
  5
38
330
2
100
AcDbEntity
  8
0
100
AcDbEllipse
 10
33.59433865105349
 20
121.1237616856225
 30
-3.639195506792075
 11
-0.5964907001644756
 21
0.0361740658800776
 31
0.1243500330374836
210
0.2060636516897158
220
0.0364388434590914
230
0.9778598990344494
 40
0.8191520442889917
 41
-1.570796326794889
 42
1.570796326794891
  0
ELLIPSE
  5
39
330
2
100
AcDbEntity
  8
0
100
AcDbEllipse
 10
33.59433865105349
 20
121.1237616856225
 30
-3.639195506792075
 11
-0.5964907001644756
 21
0.0361740658800776
 31
0.1243500330374836
210
0.2060636516897158
220
0.0364388434590914
230
0.9778598990344494
 40
0.8191520442889917
 41
-1.570796326794889
 42
1.570796326794891
  0
CIRCLE
  5
3A
330
2
100
AcDbEntity
  8
0
100
AcDbCircle
 10
-113.3549575853527
 20
-54.0265122382579
 30
-7.777601040274593
 40
0.234375
210
-0.2060636516897158
220
-0.0364388434590913
230
-0.9778598990344494
  0
CIRCLE
  5
3B
330
2
100
AcDbEntity
  8
0
100
AcDbCircle
 10
-113.3549575853527
 20
-54.02651223825794
 30
-7.777601040274589
 40
0.125
210
-0.2060636516897156
220
-0.0364388434590913
230
-0.9778598990344493
  0
LINE
  5
3C
330
2
100
AcDbEntity
  8
0
100
AcDbLine
 10
33.56907436614363
 20
120.6249731596006
 30
-3.615284793357721
 11
33.7927583787053
 21
120.6114078848956
 31
-3.66191605574677
210
-0.2060636516897158
220
-0.0364388434590914
230
-0.9778598990344494
  0
LWPOLYLINE
  5
3D
330
2
100
AcDbEntity
  8
0
 48
0.1
100
AcDbPolyline
 90
        4
 70
     1
 43
0.0
 10
67.64133505244064
 20
86.98150885898185
 10
-3.858664947559361
 20
86.98150885898185
 10
-3.858664947559361
 20
128.8565088589818
 10
67.64133505244064
 20
128.8565088589818
  0
SPLINE
  5
3E
330
2
100
AcDbEntity
  8
0
 48
0.1
100
AcDbSpline
210
0.0
220
0.0
230
1.0
 70
     8
 71
     3
 72
    17
 73
    13
 74
    11
 42
0.0000000001
 43
0.0000000001
 44
0.0000000001
 12
0.0
 22
1.0
 32
0.0
 40
0.0
 40
0.0
 40
0.0
 40
0.0
 40
7.145749024610006
 40
12.93450288626248
 40
20.53223176688262
 40
29.52426820836492
 40
37.25134520057754
 40
48.68730960960376
 40
56.09008318489594
 40
63.5243165275421
 40
69.72432816669602
 40
73.62720629857776
 40
73.62720629857776
 40
73.62720629857776
 40
73.62720629857776
 10
7.376122703083087
 20
107.9190088589818
 30
0.0
 10
7.376122703083087
 20
110.3009252005185
 30
0.0
 10
7.431499220167909
 20
114.7703345842521
 30
0.0
 10
11.52824028850242
 20
120.7048692530303
 30
0.0
 10
19.18595358609076
 20
123.4074796493172
 30
0.0
 10
27.03961118712481
 20
120.6130822842027
 30
0.0
 10
36.45295300819442
 20
119.8387910445277
 30
0.0
 10
45.19448211949844
 20
121.0540617115176
 30
0.0
 10
54.03060144719592
 20
122.6487026798822
 30
0.0
 10
60.79853026746341
 20
118.5466122340895
 30
0.0
 10
62.30880565051785
 20
112.5708623120101
 30
0.0
 10
62.2681018016387
 20
109.2153045880265
 30
0.0
 10
62.25237737374982
 20
107.9190088589818
 30
0.0
 11
7.376122703083087
 21
107.9190088589818
 31
0.0
 11
8.208084509053151
 21
115.0161610115091
 31
0.0
 11
11.52442115839062
 21
119.7607982472793
 31
0.0
 11
18.64196290306915
 21
122.4190088589818
 31
0.0
 11
27.50313103000894
 21
120.8904740078737
 31
0.0
 11
35.19645325662314
 21
120.1690088589818
 31
0.0
 11
46.5720660589684
 21
121.3423439925361
 31
0.0
 11
53.96607844563073
 21
121.7023959789606
 31
0.0
 11
60.24058355244119
 21
117.7151148178784
 31
0.0
 11
62.16363202403863
 21
111.8208778951266
 31
0.0
 11
62.25237737374982
 21
107.9190088589818
 31
0.0
  0
SPLINE
  5
3F
330
2
100
AcDbEntity
  8
0
 48
0.1
100
AcDbSpline
210
0.0
220
0.0
230
1.0
 70
     8
 71
     3
 72
    10
 73
     6
 74
     0
 42
0.0000000001
 43
0.0000000001
 40
0.0
 40
0.0
 40
0.0
 40
0.0
 40
9.125053125719926
 40
28.9301292314621
 40
29.0975014698432
 40
29.0975014698432
 40
29.0975014698432
 40
29.0975014698432
 10
0.1419629030691425
 20
107.9190088589818
 30
0.0
 10
0.1419629030691425
 20
104.8773244837418
 30
0.0
 10
1.461783222908934
 20
94.33235633092015
 30
0.0
 10
11.39356569724039
 20
89.85437141190381
 30
0.0
 10
17.19362895214326
 20
90.16900885898191
 30
0.0
 10
17.19362895214326
 20
90.16900885898191
 30
0.0
  0
SPLINE
  5
40
330
2
100
AcDbEntity
  8
0
 48
0.1
100
AcDbSpline
210
0.0
220
0.0
230
1.0
 70
     8
 71
     3
 72
    17
 73
    13
 74
    11
 42
0.0000000001
 43
0.0000000001
 44
0.0000000001
 12
0.0
 22
-1.0
 32
0.0
 40
0.0
 40
0.0
 40
0.0
 40
0.0
 40
7.145749024610006
 40
12.93450288626248
 40
20.53223176688262
 40
29.52426820836492
 40
37.25134520057754
 40
48.68730960960376
 40
56.09008318489594
 40
63.5243165275421
 40
69.72432816669602
 40
73.62720629857776
 40
73.62720629857776
 40
73.62720629857776
 40
73.62720629857776
 10
7.376122703083087
 20
107.9190088589818
 30
0.0
 10
7.376122703083087
 20
105.5370925174452
 30
0.0
 10
7.431499220167909
 20
101.0676831337115
 30
0.0
 10
11.52824028850242
 20
95.13314846493331
 30
0.0
 10
19.18595358609076
 20
92.43053806864649
 30
0.0
 10
27.03961118712481
 20
95.22493543376103
 30
0.0
 10
36.45295300819442
 20
95.99922667343591
 30
0.0
 10
45.19448211949844
 20
94.78395600644606
 30
0.0
 10
54.03060144719592
 20
93.18931503808149
 30
0.0
 10
60.79853026746341
 20
97.2914054838742
 30
0.0
 10
62.30880565051785
 20
103.2671554059536
 30
0.0
 10
62.2681018016387
 20
106.6227131299372
 30
0.0
 10
62.25237737374982
 20
107.9190088589818
 30
0.0
 11
7.376122703083087
 21
107.9190088589818
 31
0.0
 11
8.208084509053151
 21
100.8218567064546
 31
0.0
 11
11.52442115839062
 21
96.07721947068439
 31
0.0
 11
18.64196290306915
 21
93.41900885898189
 31
0.0
 11
27.50313103000894
 21
94.94754371008998
 31
0.0
 11
35.19645325662314
 21
95.6690088589819
 31
0.0
 11
46.5720660589684
 21
94.49567372542759
 31
0.0
 11
53.96607844563073
 21
94.13562173900306
 31
0.0
 11
60.24058355244119
 21
98.12290290008531
 31
0.0
 11
62.16363202403863
 21
104.0171398228371
 31
0.0
 11
62.25237737374982
 21
107.9190088589818
 31
0.0
  0
SPLINE
  5
41
330
2
100
AcDbEntity
  8
0
 48
0.1
100
AcDbSpline
210
0.0
220
0.0
230
1.0
 70
     8
 71
     3
 72
    10
 73
     6
 74
     0
 42
0.0000000001
 43
0.0000000001
 40
0.0
 40
0.0
 40
0.0
 40
0.0
 40
9.125053125719926
 40
28.9301292314621
 40
29.0975014698432
 40
29.0975014698432
 40
29.0975014698432
 40
29.0975014698432
 10
0.1419629030691425
 20
107.9190088589818
 30
0.0
 10
0.1419629030691425
 20
110.9606932342218
 30
0.0
 10
1.461783222908934
 20
121.5056613870435
 30
0.0
 10
11.39356569724039
 20
125.9836463060599
 30
0.0
 10
17.19362895214326
 20
125.6690088589818
 30
0.0
 10
17.19362895214326
 20
125.6690088589818
 30
0.0
  0
SPLINE
  5
42
330
2
100
AcDbEntity
  8
0
 48
0.1
100
AcDbSpline
210
0.0
220
0.0
230
1.0
 70
     8
 71
     3
 72
    13
 73
     9
 74
     0
 42
0.0000000001
 43
0.0000000001
 40
24.31787581055949
 40
24.31787581055949
 40
24.31787581055949
 40
24.31787581055949
 40
31.66467629738304
 40
39.76174978861712
 40
44.18261776011012
 40
48.78923732368569
 40
53.44876874101091
 40
57.4223560628144
 40
57.4223560628144
 40
57.4223560628144
 40
57.4223560628144
 10
37.47668471431828
 20
120.6230714103486
 30
0.0
 10
40.69104324088811
 20
120.7681574358446
 30
0.0
 10
46.38220598932127
 20
121.7522424428022
 30
0.0
 10
54.10894148874604
 20
123.1612559410771
 30
0.0
 10
60.0820740744241
 20
120.1698506557686
 30
0.0
 10
62.51853167410172
 20
115.8984247170911
 30
0.0
 10
63.16890947625324
 20
112.1552496038278
 30
0.0
 10
63.2866291311866
 20
109.8027386667894
 30
0.0
 10
63.30519878976065
 20
107.9190088589818
 30
0.0
  0
SPLINE
  5
43
330
2
100
AcDbEntity
  8
0
 48
0.1
100
AcDbSpline
210
0.0
220
0.0
230
1.0
 70
     8
 71
     3
 72
    10
 73
     6
 74
     4
 42
0.0000000001
 43
0.0000000001
 44
0.0000000001
 12
1.0
 22
0.0
 32
0.0
 13
0.0
 23
-1.0
 33
0.0
 40
0.0
 40
0.0
 40
0.0
 40
0.0
 40
6.128196935666538
 40
12.49006747649323
 40
21.68335101399901
 40
21.68335101399901
 40
21.68335101399901
 40
21.68335101399901
 10
52.7350607163853
 20
123.9190088589818
 30
0.0
 10
54.77779302827415
 20
123.9190088589818
 30
0.0
 10
59.05059121412188
 20
122.6036923129114
 30
0.0
 10
63.70615532210475
 20
116.5232590822835
 30
0.0
 10
63.89133505244064
 20
111.1074871893803
 30
0.0
 10
63.89133505244064
 20
108.043059343545
 30
0.0
 11
52.7350607163853
 21
123.9190088589818
 31
0.0
 11
58.58762318894355
 21
122.1017828996923
 31
0.0
 11
62.57055490734342
 21
117.1409713023019
 31
0.0
 11
63.89133505244064
 21
108.043059343545
 31
0.0
  0
ARC
  5
44
330
2
100
AcDbEntity
  8
0
100
AcDbCircle
 10
89.06179164941583
 20
32.53012623157176
 30
31.6477821370791
 40
1.5
210
0.6823092799294872
220
0.0694467870530742
230
-0.7277576452982887
100
AcDbArc
 50
3.998328294097865
 51
92.66434939927236
  0
ARC
  5
45
330
2
100
AcDbEntity
  8
0
100
AcDbCircle
 10
-89.06179164941583
 20
32.53012623157176
 30
-31.6477821370791
 40
1.5
210
-0.6823092799294872
220
-0.0694467870530742
230
0.7277576452982887
100
AcDbArc
 50
87.33565060072763
 51
176.0016717059021
  0
SPLINE
  5
46
330
2
100
AcDbEntity
  8
0
 48
0.1
100
AcDbSpline
210
0.0
220
0.0
230
1.0
 70
     8
 71
     3
 72
    13
 73
     9
 74
     0
 42
0.0000000001
 43
0.0000000001
 40
24.31787581055943
 40
24.31787581055943
 40
24.31787581055943
 40
24.31787581055943
 40
31.66467629738304
 40
39.76174978861712
 40
44.18261776011012
 40
48.78923732368569
 40
53.44876874101091
 40
57.4223560628144
 40
57.4223560628144
 40
57.4223560628144
 40
57.4223560628144
 10
37.4766847143182
 20
95.21494630761504
 30
0.0
 10
40.69104324088805
 20
95.06986028211906
 30
0.0
 10
46.38220598932124
 20
94.08577527516143
 30
0.0
 10
54.10894148874604
 20
92.67676177688654
 30
0.0
 10
60.0820740744241
 20
95.66816706219501
 30
0.0
 10
62.51853167410172
 20
99.93959300087247
 30
0.0
 10
63.16890947625324
 20
103.6827681141357
 30
0.0
 10
63.2866291311866
 20
106.0352790511742
 30
0.0
 10
63.30519878976065
 20
107.9190088589818
 30
0.0
  0
SPLINE
  5
47
330
2
100
AcDbEntity
  8
0
100
AcDbSpline
210
0.0
220
0.0
230
1.0
 70
     8
 71
     3
 72
    11
 73
     7
 74
     0
 42
0.0000000001
 43
0.0000000001
 40
0.0
 40
0.0
 40
0.0
 40
0.0
 40
3.289593764020968
 40
14.20249737948614
 40
24.96881912929182
 40
30.613679363434
 40
30.613679363434
 40
30.613679363434
 40
30.613679363434
 10
52.7350607163853
 20
91.91900885898188
 30
0.0
 10
51.41626065621654
 20
91.71581302286034
 30
0.0
 10
44.61336666183274
 20
92.2669630906293
 30
0.0
 10
38.80882402461748
 20
93.2153741039869
 30
0.0
 10
28.21723623578554
 20
93.01904776960389
 30
0.0
 10
22.47598846656728
 20
90.20154428430902
 30
0.0
 10
17.19362895214326
 20
90.16900885898191
 30
0.0
  0
SPLINE
  5
48
330
2
100
AcDbEntity
  8
0
 48
0.1
100
AcDbSpline
210
0.0
220
0.0
230
1.0
 70
     8
 71
     3
 72
    11
 73
     7
 74
     0
 42
0.0000000001
 43
0.0000000001
 40
9.797128753142949
 40
9.797128753166781
 40
9.797128753166781
 40
9.797128753166781
 40
14.26887419394174
 40
17.07010811142692
 40
22.66034253134038
 40
23.73704190978572
 40
23.73704190978572
 40
23.73704190978572
 40
23.73704190978572
 10
12.89133505244064
 20
90.51892441724257
 30
0.0
 10
15.49044560641505
 20
90.57849654628046
 30
0.0
 10
20.2715039572131
 20
91.55824688588234
 30
0.0
 10
28.05424525073044
 20
94.89107039214207
 30
0.0
 10
33.15471309501119
 20
95.29417843386495
 30
0.0
 10
36.22116104084183
 20
95.25665672559245
 30
0.0
 10
36.70451554578409
 20
95.24315275935586
 30
0.0
  0
LINE
  5
49
330
2
100
AcDbEntity
  8
0
100
AcDbLine
 10
37.22499478220086
 20
95.24610982244469
 30
-0.4421615457598991
 11
37.09706179221408
 21
95.23308854987224
 31
-0.3057069872664728
  0
ARC
  5
4A
330
2
100
AcDbEntity
  8
0
100
AcDbCircle
 10
42.23136498761003
 20
-4.421492141009781
 30
-91.11326291139084
 40
0.5000000000000001
210
0.0505285698196956
220
-0.9975770520437093
230
-0.0478214268687004
100
AcDbArc
 50
175.8744776342288
 51
223.2315788077714
  0
SPLINE
  5
4B
330
2
100
AcDbEntity
  8
0
100
AcDbSpline
 70
     0
 71
     3
 72
    10
 73
     6
 74
     4
 42
0.0000000001
 43
0.0000000001
 44
0.0000000001
 12
0.7293153708472633
 22
0.0041435496602968
 32
0.6841651268824886
 13
0.0497699043449591
 23
-0.9962670531531763
 33
0.0705330803451816
 40
0.0
 40
0.0
 40
0.0
 40
0.0
 40
0.7457801560228827
 40
1.284407931689909
 40
1.58077834487719
 40
1.58077834487719
 40
1.58077834487719
 40
1.58077834487719
 10
37.22499478220086
 20
95.24610982244469
 30
-0.4421615457598991
 10
37.40629775922097
 20
95.24713988148207
 30
-0.2720826207359532
 10
37.83881725708687
 20
95.15660097020605
 30
-0.038957795418266
 10
38.07912779862497
 20
94.61456621877175
 30
0.0171067948418036
 10
38.13434894326636
 20
94.37504401768707
 30
-0.1702806645995354
 10
38.13926571897137
 20
94.27662265829111
 30
-0.1633126918777776
 11
37.22499478220086
 21
95.24610982244469
 31
-0.4421615457598991
 11
37.82858308966895
 21
95.02404096061033
 31
-0.0645974891961112
 11
38.0861143954509
 21
94.55096854832838
 31
-0.0645974891961112
 11
38.13926571897137
 21
94.27662265829111
 31
-0.1633126918777776
  0
ARC
  5
4C
330
2
100
AcDbEntity
  8
0
100
AcDbCircle
 10
-89.98963036650433
 20
33.59741968469121
 30
-32.33528213707911
 40
1.0
210
-0.6823092799294872
220
-0.0694467870530742
230
0.7277576452982887
100
AcDbArc
 50
86.00167170590129
 51
176.0016717059015
  0
ARC
  5
4D
330
2
100
AcDbEntity
  8
0
100
AcDbCircle
 10
-89.98963036650433
 20
33.59741968469121
 30
-32.33528213707911
 40
1.0
210
-0.6823092799294872
220
-0.0694467870530742
230
0.7277576452982887
100
AcDbArc
 50
86.00167170590129
 51
176.0016717059015
  0
LINE
  5
4E
330
2
100
AcDbEntity
  8
0
100
AcDbLine
 10
36.78117143715917
 20
94.69957663032383
 30
0.0342611219483251
 11
36.0518560663119
 21
94.69543308066354
 31
-0.649904004934176
  0
LINE
  5
4F
330
2
100
AcDbEntity
  8
0
100
AcDbLine
 10
36.78117143715917
 20
94.69957663032383
 30
0.0342611219483251
 11
36.0518560663119
 21
94.69543308066354
 31
-0.649904004934176
210
-0.6823092799294872
220
-0.0694467870530742
230
0.7277576452982887
  0
SPLINE
  5
50
330
2
100
AcDbEntity
  8
0
100
AcDbSpline
 70
     0
 71
     3
 72
     9
 73
     5
 74
     0
 42
0.0000000001
 43
0.0000000001
 40
0.0
 40
0.0
 40
0.0
 40
0.0
 40
1.294423937454767
 40
1.817106841493468
 40
1.817106841493468
 40
1.817106841493468
 40
1.817106841493468
 10
36.41827499118653
 20
94.23136794816819
 30
-1.03769354101766
 10
36.69900979668702
 20
94.19159459618667
 30
-1.362926410569222
 10
36.98913675142204
 20
93.88896791557218
 30
0.0564431659302966
 10
37.06084043688344
 20
93.28616164835189
 30
0.0493449576327737
 10
37.07565367056666
 20
93.10477956653784
 30
0.0093463351801086
  0
ARC
  5
51
330
2
100
AcDbEntity
  8
0
100
AcDbCircle
 10
94.52186685596588
 20
-26.00601948569847
 30
26.24090635030977
 40
0.5
210
0.729315370847263
220
0.0041435496602918
230
0.6841651268824888
100
AcDbArc
 50
93.75953795854641
 51
183.7595379585454
  0
ARC
  5
52
330
2
100
AcDbEntity
  8
0
100
AcDbCircle
 10
94.52186685596588
 20
-26.00601948569847
 30
26.24090635030977
 40
0.5
210
0.729315370847263
220
0.0041435496602918
230
0.6841651268824888
100
AcDbArc
 50
93.75953795854641
 51
183.7595379585454
  0
LINE
  5
53
330
2
100
AcDbEntity
  8
0
100
AcDbLine
 10
37.21956101320567
 20
93.2401168632038
 30
-0.424220171357276
 11
37.19811893185346
 21
93.2379344457848
 31
-0.4013498410038823
210
-0.729315370847262
220
-0.0041435496603107
230
-0.6841651268824898
  0
LINE
  5
54
330
2
100
AcDbEntity
  8
0
100
AcDbLine
 10
37.21956101320567
 20
93.2401168632038
 30
-0.424220171357276
 11
37.19811893185346
 21
93.2379344457848
 31
-0.4013498410038823
  0
LINE
  5
55
330
2
100
AcDbEntity
  8
0
100
AcDbLine
 10
38.07216614361354
 20
93.02669592215179
 30
0.0102762978399437
 11
38.00483872286781
 21
94.25267632006123
 31
0.1941821542539008
  0
LINE
  5
56
330
2
100
AcDbEntity
  8
0
100
AcDbLine
 10
37.87690573288104
 20
94.23965504748883
 30
0.3306367127473271
 11
37.94089099810848
 21
93.00454013265975
 31
0.0102762978399437
210
0.7293153708472633
220
0.0041435496602866
230
0.6841651268824886
  0
ARC
  5
57
330
2
100
AcDbEntity
  8
0
100
AcDbCircle
 10
-89.98963036650431
 20
33.59741968469123
 30
-31.6477821370791
 40
0.5
210
-0.6823092799294872
220
-0.0694467870530742
230
0.7277576452982887
100
AcDbArc
 50
86.00167170590372
 51
176.0016717059009
  0
ARC
  5
58
330
2
100
AcDbEntity
  8
0
100
AcDbCircle
 10
-89.98963036650431
 20
33.59741968469123
 30
-31.6477821370791
 40
0.5
210
-0.6823092799294872
220
-0.0694467870530742
230
0.7277576452982887
100
AcDbArc
 50
86.00167170590372
 51
176.0016717059009
  0
ARC
  5
59
330
2
100
AcDbEntity
  8
0
100
AcDbCircle
 10
89.98963036650431
 20
33.59741968469121
 30
32.14778213707912
 40
1.0
210
0.6823092799294872
220
0.0694467870530742
230
-0.7277576452982887
100
AcDbArc
 50
3.998328294098423
 51
93.9983282940979
  0
ARC
  5
5A
330
2
100
AcDbEntity
  8
0
100
AcDbCircle
 10
89.98963036650431
 20
33.59741968469121
 30
32.14778213707912
 40
1.0
210
0.6823092799294872
220
0.0694467870530742
230
-0.7277576452982887
100
AcDbArc
 50
3.998328294098423
 51
93.9983282940979
  0
ARC
  5
5B
330
2
100
AcDbEntity
  8
0
100
AcDbCircle
 10
42.35979288311662
 20
-4.558102995833753
 30
-92.11326291139069
 40
0.5000000000000001
210
0.0505285698196982
220
-0.9975770520437093
230
-0.047821426868698
100
AcDbArc
 50
358.2315788096112
 51
43.23157880777091
  0
ARC
  5
5C
330
2
100
AcDbEntity
  8
0
100
AcDbCircle
 10
94.5218668559659
 20
-26.00601948569847
 30
27.24090635030979
 40
0.5
210
0.729315370847263
220
0.0041435496602918
230
0.6841651268824888
100
AcDbArc
 50
3.759537958545425
 51
93.75953795854316
  0
ARC
  5
5D
330
2
100
AcDbEntity
  8
0
100
AcDbCircle
 10
94.5218668559659
 20
-26.00601948569847
 30
27.24090635030979
 40
0.5
210
0.729315370847263
220
0.0041435496602918
230
0.6841651268824888
100
AcDbArc
 50
3.759537958545425
 51
93.75953795854316
  0
ELLIPSE
  5
5E
330
2
100
AcDbEntity
  8
0
100
AcDbEllipse
 10
37.63701567426037
 20
93.10275006061903
 30
0.0102762978399437
 11
-0.5617101518395517
 21
0.0062689993274306
 31
0.0
210
0.0
220
0.0
230
1.0
 40
0.2009744915816875
 41
6.283116201717194
 42
9.421425223285012
  0
LINE
  5
5F
330
2
100
AcDbEntity
  8
0
100
AcDbLine
 10
38.19871844491741
 20
93.09610260867128
 30
0.0102762978399437
 11
38.13926571897136
 21
94.27662265829104
 31
-0.1633126918777545
  0
ARC
  5
60
330
2
100
AcDbEntity
  8
0
100
AcDbCircle
 10
42.23136498761024
 20
-4.421492141009548
 30
-92.11326291139069
 40
0.5000000000000001
210
0.0505285698196982
220
-0.9975770520437093
230
-0.047821426868698
100
AcDbArc
 50
43.23157880777217
 51
133.231578807772
  0
ARC
  5
61
330
2
100
AcDbEntity
  8
0
100
AcDbCircle
 10
42.23136498761024
 20
-4.421492141009548
 30
-92.11326291139069
 40
0.5000000000000001
210
0.0505285698196982
220
-0.9975770520437093
230
-0.047821426868698
100
AcDbArc
 50
43.23157880777217
 51
133.231578807772
  0
LINE
  5
62
330
2
100
AcDbEntity
  8
0
100
AcDbLine
 10
37.21985606714572
 20
93.24014689437696
 30
0.3062828440009895
 11
37.17109340749265
 21
94.20285987913214
 31
0.3524329719552233
  0
LINE
  5
63
330
2
100
AcDbEntity
  8
0
100
AcDbLine
 10
37.21985606714572
 20
93.24014689437696
 30
0.3062828440009895
 11
37.17109340749265
 21
94.20285987913214
 31
0.3524329719552233
210
-0.6823092799294872
220
-0.0694467870530742
230
0.7277576452982887
  0
LINE
  5
64
330
2
100
AcDbEntity
  8
0
100
AcDbLine
 10
38.00483872286781
 20
94.25267632006123
 30
0.1941821542539008
 11
37.87690573288104
 21
94.23965504748883
 31
0.3306367127473271
  0
LINE
  5
65
330
2
100
AcDbEntity
  8
0
100
AcDbLine
 10
38.00483872286781
 20
94.25267632006123
 30
0.1941821542539008
 11
37.87690573288104
 21
94.23965504748883
 31
0.3306367127473271
210
0.7293153708472633
220
0.0041435496602866
230
0.6841651268824886
  0
SPLINE
  5
66
330
2
100
AcDbEntity
  8
0
 48
0.1
100
AcDbSpline
210
0.0
220
0.0
230
1.0
 70
     8
 71
     3
 72
    10
 73
     6
 74
     4
 42
0.0000000001
 43
0.0000000001
 44
0.0000000001
 12
1.0
 22
0.0
 32
0.0
 13
0.0
 23
1.0
 33
0.0
 40
0.0
 40
0.0
 40
0.0
 40
0.0
 40
6.128196935666538
 40
12.49006747649323
 40
21.68335101399901
 40
21.68335101399901
 40
21.68335101399901
 40
21.68335101399901
 10
52.7350607163853
 20
91.91900885898188
 30
0.0
 10
54.77779302827415
 20
91.91900885898188
 30
0.0
 10
59.05059121412188
 20
93.23432540505226
 30
0.0
 10
63.70615532210475
 20
99.31475863568014
 30
0.0
 10
63.89133505244064
 20
104.7305305285834
 30
0.0
 10
63.89133505244064
 20
107.7949583744186
 30
0.0
 11
52.7350607163853
 21
91.91900885898188
 31
0.0
 11
58.58762318894355
 21
93.73623481827138
 31
0.0
 11
62.57055490734342
 21
98.69704641566176
 31
0.0
 11
63.89133505244064
 21
107.7949583744186
 31
0.0
  0
LINE
  5
67
330
2
100
AcDbEntity
  8
CENTER
 48
0.05
100
AcDbLine
 10
62.15452977512711
 20
107.9190088589818
 30
0.0
 11
54.62814032975416
 21
107.9190088589818
 31
0.0
  0
LINE
  5
6A
330
2
100
AcDbEntity
  8
CENTER
 48
0.05
100
AcDbLine
 10
58.39133505244063
 20
104.1558141362953
 30
0.0
 11
58.39133505244063
 21
111.6822035816683
 31
0.0
  0
CIRCLE
  5
6B
330
2
100
AcDbEntity
  8
0
 48
0.1
100
AcDbCircle
 10
58.39133505244063
 20
107.9190088589818
 30
0.0
 40
1.625
  0
CIRCLE
  5
6C
330
2
100
AcDbEntity
  8
0
100
AcDbCircle
 10
58.39133505244063
 20
107.9190088589818
 30
0.0
 40
1.0
  0
ARC
  5
6D
330
2
100
AcDbEntity
  8
0
100
AcDbCircle
 10
-125.6668436050576
 20
16.62461545311534
 30
-16.65852528266203
 40
1.5
210
-0.6823092799294872
220
0.0694467870530742
230
0.7277576452982887
100
AcDbArc
 50
3.998328294097861
 51
92.66434939927236
  0
ARC
  5
6E
330
2
100
AcDbEntity
  8
0
100
AcDbCircle
 10
125.6668436050576
 20
16.62461545311534
 30
16.65852528266203
 40
1.5
210
0.6823092799294872
220
-0.0694467870530742
230
-0.7277576452982887
100
AcDbArc
 50
87.33565060072763
 51
176.0016717059021
  0
SPLINE
  5
6F
330
2
100
AcDbEntity
  8
0
100
AcDbSpline
210
0.0
220
0.0
230
1.0
 70
     8
 71
     3
 72
    11
 73
     7
 74
     0
 42
0.0000000001
 43
0.0000000001
 40
0.0
 40
0.0
 40
0.0
 40
0.0
 40
3.289593764020968
 40
14.20249737948614
 40
24.96881912929182
 40
30.613679363434
 40
30.613679363434
 40
30.613679363434
 40
30.613679363434
 10
52.7350607163853
 20
123.9190088589817
 30
0.0
 10
51.41626065621654
 20
124.1222046951033
 30
0.0
 10
44.61336666183274
 20
123.5710546273343
 30
0.0
 10
38.80882402461748
 20
122.6226436139767
 30
0.0
 10
28.21723623578554
 20
122.8189699483597
 30
0.0
 10
22.47598846656728
 20
125.6364734336546
 30
0.0
 10
17.19362895214326
 20
125.6690088589817
 30
0.0
  0
ARC
  5
70
330
2
100
AcDbEntity
  8
0
100
AcDbCircle
 10
-31.3128868205784
 20
5.886974846412748
 30
124.2017905226532
 40
0.5000000000000001
210
0.0505285698196956
220
0.9975770520437093
230
-0.0478214268687004
100
AcDbArc
 50
316.7684211922285
 51
4.125522365771142
  0
LINE
  5
71
330
2
100
AcDbEntity
  8
0
100
AcDbLine
 10
37.22499478220086
 20
120.5919078955189
 30
-0.4421615457598991
 11
37.09706179221408
 21
120.6049291680914
 31
-0.3057069872664728
  0
SPLINE
  5
72
330
2
100
AcDbEntity
  8
0
100
AcDbSpline
 70
     0
 71
     3
 72
    10
 73
     6
 74
     4
 42
0.0000000001
 43
0.0000000001
 44
0.0000000001
 12
0.7293153708472633
 22
-0.0041435496602968
 32
0.6841651268824886
 13
0.0497699043449591
 23
0.9962670531531763
 33
0.0705330803451816
 40
0.0
 40
0.0
 40
0.0
 40
0.0
 40
0.7457801560228827
 40
1.284407931689909
 40
1.58077834487719
 40
1.58077834487719
 40
1.58077834487719
 40
1.58077834487719
 10
37.22499478220086
 20
120.5919078955189
 30
-0.4421615457598991
 10
37.40629775922097
 20
120.5908778364815
 30
-0.2720826207359532
 10
37.83881725708687
 20
120.6814167477575
 30
-0.038957795418266
 10
38.07912779862497
 20
121.2234514991918
 30
0.0171067948418036
 10
38.13434894326636
 20
121.4629737002765
 30
-0.1702806645995354
 10
38.13926571897137
 20
121.5613950596725
 30
-0.1633126918777776
 11
37.22499478220086
 21
120.5919078955189
 31
-0.4421615457598991
 11
37.82858308966895
 21
120.8139767573533
 31
-0.0645974891961112
 11
38.0861143954509
 21
121.2870491696352
 31
-0.0645974891961112
 11
38.13926571897137
 21
121.5613950596725
 31
-0.1633126918777776
  0
SPLINE
  5
73
330
2
100
AcDbEntity
  8
0
100
AcDbSpline
 70
     0
 71
     3
 72
     9
 73
     5
 74
     0
 42
0.0000000001
 43
0.0000000001
 40
0.0
 40
0.0
 40
0.0
 40
0.0
 40
1.294423937454767
 40
1.817106841493468
 40
1.817106841493468
 40
1.817106841493468
 40
1.817106841493468
 10
36.41827499118653
 20
121.6066497697954
 30
-1.03769354101766
 10
36.69900979668702
 20
121.6464231217769
 30
-1.362926410569222
 10
36.98913675142204
 20
121.9490498023914
 30
0.0564431659302966
 10
37.06084043688344
 20
122.5518560696117
 30
0.0493449576327737
 10
37.07565367056666
 20
122.7332381514258
 30
0.0093463351801086
  0
LINE
  5
74
330
2
100
AcDbEntity
  8
0
100
AcDbLine
 10
36.78117143715917
 20
121.1384410876398
 30
0.0342611219483251
 11
36.0518560663119
 21
121.1425846373001
 31
-0.649904004934176
210
-0.6823092799294872
220
0.0694467870530742
230
0.7277576452982887
  0
LINE
  5
75
330
2
100
AcDbEntity
  8
0
100
AcDbLine
 10
36.78117143715917
 20
121.1384410876398
 30
0.0342611219483251
 11
36.0518560663119
 21
121.1425846373001
 31
-0.649904004934176
  0
ARC
  5
76
330
2
100
AcDbEntity
  8
0
100
AcDbCircle
 10
-124.7390048879692
 20
17.69190890623479
 30
-17.34602528266203
 40
1.0
210
-0.6823092799294872
220
0.0694467870530742
230
0.7277576452982887
100
AcDbArc
 50
3.998328294098418
 51
93.99832829409872
  0
ARC
  5
77
330
2
100
AcDbEntity
  8
0
100
AcDbCircle
 10
-124.7390048879692
 20
17.69190890623479
 30
-17.34602528266203
 40
1.0
210
-0.6823092799294872
220
0.0694467870530742
230
0.7277576452982887
100
AcDbArc
 50
3.998328294098418
 51
93.99832829409872
  0
ARC
  5
78
330
2
100
AcDbEntity
  8
0
100
AcDbCircle
 10
121.3126674744309
 20
-25.16706374567812
 30
25.34657080531645
 40
0.5
210
0.729315370847263
220
-0.0041435496602918
230
0.6841651268824888
100
AcDbArc
 50
356.2404620414545
 51
86.24046204145358
  0
ARC
  5
79
330
2
100
AcDbEntity
  8
0
100
AcDbCircle
 10
121.3126674744309
 20
-25.16706374567812
 30
25.34657080531645
 40
0.5
210
0.729315370847263
220
-0.0041435496602918
230
0.6841651268824888
100
AcDbArc
 50
356.2404620414545
 51
86.24046204145358
  0
LINE
  5
7A
330
2
100
AcDbEntity
  8
0
100
AcDbLine
 10
37.21956101320567
 20
122.5979008547598
 30
-0.424220171357276
 11
37.19811893185346
 21
122.6000832721788
 31
-0.4013498410038823
  0
LINE
  5
7B
330
2
100
AcDbEntity
  8
0
100
AcDbLine
 10
37.21956101320567
 20
122.5979008547598
 30
-0.424220171357276
 11
37.19811893185346
 21
122.6000832721788
 31
-0.4013498410038823
210
-0.729315370847262
220
0.0041435496603107
230
-0.6841651268824898
  0
SPLINE
  5
7C
330
2
100
AcDbEntity
  8
0
 48
0.1
100
AcDbSpline
210
0.0
220
0.0
230
1.0
 70
     8
 71
     3
 72
    11
 73
     7
 74
     0
 42
0.0000000001
 43
0.0000000001
 40
9.797128753142949
 40
9.797128753166781
 40
9.797128753166781
 40
9.797128753166781
 40
14.26887419394174
 40
17.07010811142692
 40
22.66034253134038
 40
23.73704190978572
 40
23.73704190978572
 40
23.73704190978572
 40
23.73704190978572
 10
12.89133505244064
 20
125.319093300721
 30
0.0
 10
15.49044560641505
 20
125.2595211716831
 30
0.0
 10
20.2715039572131
 20
124.2797708320813
 30
0.0
 10
28.05424525073044
 20
120.9469473258215
 30
0.0
 10
33.15471309501119
 20
120.5438392840987
 30
0.0
 10
36.22116104084183
 20
120.5813609923712
 30
0.0
 10
36.70451554578409
 20
120.5948649586077
 30
0.0
  0
LINE
  5
7D
330
2
100
AcDbEntity
  8
0
100
AcDbLine
 10
37.87690573288104
 20
121.5983626704748
 30
0.3306367127473271
 11
37.94089099810848
 21
122.8334775853038
 31
0.0102762978399437
210
0.7293153708472633
220
-0.0041435496602866
230
0.6841651268824886
  0
LINE
  5
7E
330
2
100
AcDbEntity
  8
0
100
AcDbLine
 10
38.07216614361354
 20
122.8113217958118
 30
0.0102762978399437
 11
38.00483872286781
 21
121.5853413979024
 31
0.1941821542539008
  0
ARC
  5
7F
330
2
100
AcDbEntity
  8
0
100
AcDbCircle
 10
-124.7390048879692
 20
17.6919089062348
 30
-16.65852528266203
 40
0.5
210
-0.6823092799294872
220
0.0694467870530742
230
0.7277576452982887
100
AcDbArc
 50
3.99832829409899
 51
93.99832829409628
  0
ARC
  5
80
330
2
100
AcDbEntity
  8
0
100
AcDbCircle
 10
-124.7390048879692
 20
17.6919089062348
 30
-16.65852528266203
 40
0.5
210
-0.6823092799294872
220
0.0694467870530742
230
0.7277576452982887
100
AcDbArc
 50
3.99832829409899
 51
93.99832829409628
  0
ARC
  5
81
330
2
100
AcDbEntity
  8
0
100
AcDbCircle
 10
121.3126674744309
 20
-25.16706374567813
 30
26.34657080531646
 40
0.5
210
0.729315370847263
220
-0.0041435496602918
230
0.6841651268824888
100
AcDbArc
 50
86.24046204145685
 51
176.2404620414545
  0
ARC
  5
82
330
2
100
AcDbEntity
  8
0
100
AcDbCircle
 10
121.3126674744309
 20
-25.16706374567813
 30
26.34657080531646
 40
0.5
210
0.729315370847263
220
-0.0041435496602918
230
0.6841651268824888
100
AcDbArc
 50
86.24046204145685
 51
176.2404620414545
  0
ARC
  5
83
330
2
100
AcDbEntity
  8
0
100
AcDbCircle
 10
-31.4413147160844
 20
5.750363991588256
 30
123.2017905226534
 40
0.5000000000000001
210
0.0505285698196982
220
0.9975770520437093
230
-0.047821426868698
100
AcDbArc
 50
136.768421192229
 51
181.7684211903887
  0
ARC
  5
84
330
2
100
AcDbEntity
  8
0
100
AcDbCircle
 10
124.7390048879692
 20
17.69190890623478
 30
17.15852528266204
 40
1.0
210
0.6823092799294872
220
-0.0694467870530742
230
-0.7277576452982887
100
AcDbArc
 50
86.00167170590209
 51
176.0016717059015
  0
ARC
  5
85
330
2
100
AcDbEntity
  8
0
100
AcDbCircle
 10
124.7390048879692
 20
17.69190890623478
 30
17.15852528266204
 40
1.0
210
0.6823092799294872
220
-0.0694467870530742
230
-0.7277576452982887
100
AcDbArc
 50
86.00167170590209
 51
176.0016717059015
  0
ELLIPSE
  5
86
330
2
100
AcDbEntity
  8
0
100
AcDbEllipse
 10
37.63701567426037
 20
122.7352676573446
 30
0.0102762978399437
 11
-0.5617101518395517
 21
-0.0062689993274306
 31
0.0
210
0.0
220
0.0
230
-1.0
 40
0.2009744915816875
 41
6.283116201717194
 42
9.421425223285012
  0
LINE
  5
87
330
2
100
AcDbEntity
  8
0
100
AcDbLine
 10
38.19871844491741
 20
122.7419151092923
 30
0.0102762978399437
 11
38.13926571897136
 21
121.5613950596726
 31
-0.1633126918777545
  0
ARC
  5
88
330
2
100
AcDbEntity
  8
0
100
AcDbCircle
 10
-31.31288682057804
 20
5.886974846412458
 30
123.2017905226534
 40
0.5000000000000001
210
0.0505285698196982
220
0.9975770520437093
230
-0.047821426868698
100
AcDbArc
 50
46.76842119222795
 51
136.7684211922278
  0
ARC
  5
89
330
2
100
AcDbEntity
  8
0
100
AcDbCircle
 10
-31.31288682057804
 20
5.886974846412458
 30
123.2017905226534
 40
0.5000000000000001
210
0.0505285698196982
220
0.9975770520437093
230
-0.047821426868698
100
AcDbArc
 50
46.76842119222795
 51
136.7684211922278
  0
LINE
  5
8A
330
2
100
AcDbEntity
  8
0
100
AcDbLine
 10
37.21985606714572
 20
122.5978708235866
 30
0.3062828440009895
 11
37.17109340749265
 21
121.6351578388315
 31
0.3524329719552233
210
-0.6823092799294872
220
0.0694467870530742
230
0.7277576452982887
  0
LINE
  5
8B
330
2
100
AcDbEntity
  8
0
100
AcDbLine
 10
37.21985606714572
 20
122.5978708235866
 30
0.3062828440009895
 11
37.17109340749265
 21
121.6351578388315
 31
0.3524329719552233
  0
LINE
  5
8C
330
2
100
AcDbEntity
  8
0
100
AcDbLine
 10
38.00483872286781
 20
121.5853413979024
 30
0.1941821542539008
 11
37.87690573288104
 21
121.5983626704748
 31
0.3306367127473271
210
0.7293153708472633
220
-0.0041435496602866
230
0.6841651268824886
  0
LINE
  5
8D
330
2
100
AcDbEntity
  8
0
100
AcDbLine
 10
38.00483872286781
 20
121.5853413979024
 30
0.1941821542539008
 11
37.87690573288104
 21
121.5983626704748
 31
0.3306367127473271
  0
ENDSEC
  0
SECTION
  2
OBJECTS
  0
DICTIONARY
  5
7
330
0
100
AcDbDictionary
  3
ACAD_GROUP
350
27
  3
ACAD_LAYOUT
350
B
  3
ACAD_MLINESTYLE
350
28
  3
ACAD_PLOTSETTINGS
350
29
  3
ACAD_PLOTSTYLENAME
350
6
  3
ACDBHEADERROUNDTRIPXREC
350
16C
  3
ACDBVARIABLEDICTIONARY
350
8E
  3
ASE_INDEX_DICTIONARY
350
11B
  0
DICTIONARY
  5
11
330
10
100
AcDbDictionary
280
     1
  3
ACAD_LAYERFILTERS
360
12
  0
DICTIONARY
  5
AD
330
2
100
AcDbDictionary
280
     1
  3
ACAD_LAYOUTSELFREF
360
18D
  0
DICTIONARY
  5
AF
330
A2
100
AcDbDictionary
280
     1
  3
ACAD_LAYOUTSELFREF
360
18E
  0
DICTIONARY
  5
27
102
{ACAD_REACTORS
330
7
102
}
330
7
100
AcDbDictionary
  0
DICTIONARY
  5
B
102
{ACAD_REACTORS
330
7
102
}
330
7
100
AcDbDictionary
  0
DICTIONARY
  5
28
102
{ACAD_REACTORS
330
7
102
}
330
7
100
AcDbDictionary
  3
STANDARD
350
2B
  0
DICTIONARY
  5
29
102
{ACAD_REACTORS
330
7
102
}
330
7
100
AcDbDictionary
  0
ACDBDICTIONARYWDFLT
  5
6
102
{ACAD_REACTORS
330
7
102
}
330
7
100
AcDbDictionary
281
     1
  3
Normal
350
5
100
AcDbDictionaryWithDefault
340
5
  0
DICTIONARY
  5
16C
102
{ACAD_REACTORS
330
7
102
}
330
7
100
AcDbDictionary
  3
CEPSNTYPE
350
176
  3
DIMSTYLEDATA
350
17A
  3
FINGERPRINTGUID
350
177
  3
HYPERLINKBASE
350
16F
  3
INSUNITS
350
175
  3
LAYOUTDICT
350
171
  3
LWETCUNION
350
174
  3
PLOTSETDICT
350
172
  3
PLOTSTYLNAMDICT
350
173
  3
PSVPSCALE
350
179
  3
PUCSBASE
350
17D
  3
PUCSORGBACK
350
183
  3
PUCSORGBOTTOM
350
17F
  3
PUCSORGFRONT
350
182
  3
PUCSORGLEFT
350
180
  3
PUCSORGRIGHT
350
181
  3
PUCSORGTOP
350
17E
  3
PUCSORTHOREF
350
17B
  3
PUCSORTHOVIEW
350
17C
  3
STYLESHEET
350
170
  3
TSTACKALIGN
350
16D
  3
TSTACKSIZE
350
16E
  3
UCSBASE
350
186
  3
UCSORGBACK
350
18C
  3
UCSORGBOTTOM
350
188
  3
UCSORGFRONT
350
18B
  3
UCSORGLEFT
350
189
  3
UCSORGRIGHT
350
18A
  3
UCSORGTOP
350
187
  3
UCSORTHOREF
350
184
  3
UCSORTHOVIEW
350
185
  3
VERSIONGUID
350
178
  0
DICTIONARY
  5
8E
102
{ACAD_REACTORS
330
7
102
}
330
7
100
AcDbDictionary
  3
DIMASSOC
350
90
  3
HIDETEXT
350
8F
  0
DICTIONARY
  5
11B
102
{ACAD_REACTORS
330
7
102
}
330
7
100
AcDbDictionary
  3
ASEBLOCKHIERARCHYINDEXRECORD
350
11D
1001
ACADASER13
1040
1544696903.342
  0
DICTIONARY
  5
12
102
{ACAD_REACTORS
330
11
102
}
330
11
100
AcDbDictionary
280
     1
  3
DIM-1_12
360
13
  3
DIM-1_16
360
14
  0
XRECORD
  5
18D
102
{ACAD_REACTORS
330
AD
102
}
330
AD
100
AcDbXrecord
340
2
  0
XRECORD
  5
18E
102
{ACAD_REACTORS
330
AF
102
}
330
AF
100
AcDbXrecord
340
A2
  0
MLINESTYLE
  5
2B
102
{ACAD_REACTORS
330
28
102
}
330
28
100
AcDbMlineStyle
  2
STANDARD
 70
     0
  3

 62
   256
 51
90.0
 52
90.0
 71
     2
 49
0.5
 62
   256
  6
BYLAYER
 49
-0.5
 62
   256
  6
BYLAYER
  0
ACDBPLACEHOLDER
  5
5
102
{ACAD_REACTORS
330
6
102
}
330
6
100
AcDbPlaceHolder
280
     0
  0
XRECORD
  5
176
102
{ACAD_REACTORS
330
16C
102
}
330
16C
100
AcDbXrecord
 90
        0
  0
XRECORD
  5
17A
102
{ACAD_REACTORS
330
16C
102
}
330
16C
100
AcDbXrecord
1000
DSTYLE
1002
{
1070
    79
 70
     1
1070
   276
 70
     1
1070
   277
 70
     5
1002
}
  0
XRECORD
  5
177
102
{ACAD_REACTORS
330
16C
102
}
330
16C
100
AcDbXrecord
  1
{6A4AC8E0-4F58-11D5-8420-0003476D26AB}
  0
XRECORD
  5
16F
102
{ACAD_REACTORS
330
16C
102
}
330
16C
100
AcDbXrecord
  1

  0
XRECORD
  5
175
102
{ACAD_REACTORS
330
16C
102
}
330
16C
100
AcDbXrecord
 90
        1
  0
XRECORD
  5
171
102
{ACAD_REACTORS
330
16C
102
}
330
16C
100
AcDbXrecord
340
B
  0
XRECORD
  5
174
102
{ACAD_REACTORS
330
16C
102
}
330
16C
100
AcDbXrecord
 90
    10781
  0
XRECORD
  5
172
102
{ACAD_REACTORS
330
16C
102
}
330
16C
100
AcDbXrecord
340
29
  0
XRECORD
  5
173
102
{ACAD_REACTORS
330
16C
102
}
330
16C
100
AcDbXrecord
340
6
  0
XRECORD
  5
179
102
{ACAD_REACTORS
330
16C
102
}
330
16C
100
AcDbXrecord
 40
0.0
  0
XRECORD
  5
17D
102
{ACAD_REACTORS
330
16C
102
}
330
16C
100
AcDbXrecord
340
0
  0
XRECORD
  5
183
102
{ACAD_REACTORS
330
16C
102
}
330
16C
100
AcDbXrecord
 10
0.0
 20
0.0
 30
0.0
  0
XRECORD
  5
17F
102
{ACAD_REACTORS
330
16C
102
}
330
16C
100
AcDbXrecord
 10
0.0
 20
0.0
 30
0.0
  0
XRECORD
  5
182
102
{ACAD_REACTORS
330
16C
102
}
330
16C
100
AcDbXrecord
 10
0.0
 20
0.0
 30
0.0
  0
XRECORD
  5
180
102
{ACAD_REACTORS
330
16C
102
}
330
16C
100
AcDbXrecord
 10
0.0
 20
0.0
 30
0.0
  0
XRECORD
  5
181
102
{ACAD_REACTORS
330
16C
102
}
330
16C
100
AcDbXrecord
 10
0.0
 20
0.0
 30
0.0
  0
XRECORD
  5
17E
102
{ACAD_REACTORS
330
16C
102
}
330
16C
100
AcDbXrecord
 10
0.0
 20
0.0
 30
0.0
  0
XRECORD
  5
17B
102
{ACAD_REACTORS
330
16C
102
}
330
16C
100
AcDbXrecord
340
0
  0
XRECORD
  5
17C
102
{ACAD_REACTORS
330
16C
102
}
330
16C
100
AcDbXrecord
 70
     0
  0
XRECORD
  5
170
102
{ACAD_REACTORS
330
16C
102
}
330
16C
100
AcDbXrecord
  1

  0
XRECORD
  5
16D
102
{ACAD_REACTORS
330
16C
102
}
330
16C
100
AcDbXrecord
 90
        1
  0
XRECORD
  5
16E
102
{ACAD_REACTORS
330
16C
102
}
330
16C
100
AcDbXrecord
 90
       70
  0
XRECORD
  5
186
102
{ACAD_REACTORS
330
16C
102
}
330
16C
100
AcDbXrecord
340
0
  0
XRECORD
  5
18C
102
{ACAD_REACTORS
330
16C
102
}
330
16C
100
AcDbXrecord
 10
0.0
 20
0.0
 30
0.0
  0
XRECORD
  5
188
102
{ACAD_REACTORS
330
16C
102
}
330
16C
100
AcDbXrecord
 10
0.0
 20
0.0
 30
0.0
  0
XRECORD
  5
18B
102
{ACAD_REACTORS
330
16C
102
}
330
16C
100
AcDbXrecord
 10
0.0
 20
0.0
 30
0.0
  0
XRECORD
  5
189
102
{ACAD_REACTORS
330
16C
102
}
330
16C
100
AcDbXrecord
 10
0.0
 20
0.0
 30
0.0
  0
XRECORD
  5
18A
102
{ACAD_REACTORS
330
16C
102
}
330
16C
100
AcDbXrecord
 10
0.0
 20
0.0
 30
0.0
  0
XRECORD
  5
187
102
{ACAD_REACTORS
330
16C
102
}
330
16C
100
AcDbXrecord
 10
0.0
 20
0.0
 30
0.0
  0
XRECORD
  5
184
102
{ACAD_REACTORS
330
16C
102
}
330
16C
100
AcDbXrecord
340
0
  0
XRECORD
  5
185
102
{ACAD_REACTORS
330
16C
102
}
330
16C
100
AcDbXrecord
 70
     0
  0
XRECORD
  5
178
102
{ACAD_REACTORS
330
16C
102
}
330
16C
100
AcDbXrecord
  1
{51A44BBF-DF9A-4C48-9184-A5BCDE4308D4}
  0
DICTIONARYVAR
  5
90
102
{ACAD_REACTORS
330
8E
102
}
330
8E
100
DictionaryVariables
280
     0
  1
1
  0
DICTIONARYVAR
  5
8F
102
{ACAD_REACTORS
330
8E
102
}
330
8E
100
DictionaryVariables
280
     0
  1
1
  0
XRECORD
  5
11D
102
{ACAD_REACTORS
330
11B
102
}
330
11B
100
AcDbXrecord
  0
XRECORD
  5
13
102
{ACAD_REACTORS
330
12
102
}
330
12
100
AcDbXrecord
  1
DIM-1_12
  1
DIM-1_12
  1
*
  1
*
 70
     0
  1
*
  1
*
  0
XRECORD
  5
14
102
{ACAD_REACTORS
330
12
102
}
330
12
100
AcDbXrecord
  1
dim-1_16
  1
*
  1
*
  1
*
 70
     0
  1
*
  1
*
  0
ENDSEC
  0
EOF
