  0
SECTION
  2
HEADER
  9
$ACADVER
  1
AC1014
  9
$ACADMAINTVER
 70
     9
  9
$DWGCODEPAGE
  3
ANSI_1252
  9
$INSBASE
 10
16.8993757209059
 20
35.07683315215095
 30
0.0
  9
$EXTMIN
 10
-31.85165536640808
 20
17.07472138842504
 30
-0.0015258207003583
  9
$EXTMAX
 10
31.47187138490952
 20
53.0779814807305
 30
0.0000000349246037
  9
$LIMMIN
 10
0.0
 20
0.0
  9
$LIMMAX
 10
17.0
 20
11.0
  9
$ORTHOMODE
 70
     1
  9
$REGENMODE
 70
     1
  9
$FILLMODE
 70
     1
  9
$QTEXTMODE
 70
     0
  9
$MIRRTEXT
 70
     1
  9
$DRAGMODE
 70
     2
  9
$LTSCALE
 40
8.0
  9
$OSMODE
 70
    55
  9
$ATTMODE
 70
     1
  9
$TEXTSIZE
 40
0.2
  9
$TRACEWID
 40
0.05
  9
$TEXTSTYLE
  7
STANDARD
  9
$CLAYER
  8
0
  9
$CELTYPE
  6
BYLAYER
  9
$CECOLOR
 62
   256
  9
$CELTSCALE
 40
1.0
  9
$DELOBJ
 70
     1
  9
$DISPSILH
 70
     0
  9
$DIMSCALE
 40
16.0
  9
$DIMASZ
 40
0.1875
  9
$DIMEXO
 40
0.10625
  9
$DIMDLI
 40
0.6459999999999999
  9
$DIMRND
 40
0.0
  9
$DIMDLE
 40
0.0
  9
$DIMEXE
 40
0.306
  9
$DIMTP
 40
0.0
  9
$DIMTM
 40
0.0
  9
$DIMTXT
 40
0.125
  9
$DIMCEN
 40
0.153
  9
$DIMTSZ
 40
0.0
  9
$DIMTOL
 70
     0
  9
$DIMLIM
 70
     0
  9
$DIMTIH
 70
     1
  9
$DIMTOH
 70
     1
  9
$DIMSE1
 70
     0
  9
$DIMSE2
 70
     0
  9
$DIMTAD
 70
     0
  9
$DIMZIN
 70
     0
  9
$DIMBLK
  1
_FILLED
  9
$DIMASO
 70
     1
  9
$DIMSHO
 70
     1
  9
$DIMPOST
  1

  9
$DIMAPOST
  1

  9
$DIMALT
 70
     0
  9
$DIMALTD
 70
     2
  9
$DIMALTF
 40
25.4
  9
$DIMLFAC
 40
1.0
  9
$DIMTOFL
 70
     0
  9
$DIMTVP
 40
0.0
  9
$DIMTIX
 70
     0
  9
$DIMSOXD
 70
     0
  9
$DIMSAH
 70
     0
  9
$DIMBLK1
  1

  9
$DIMBLK2
  1

  9
$DIMSTYLE
  2
STANDARD
  9
$DIMCLRD
 70
     0
  9
$DIMCLRE
 70
     0
  9
$DIMCLRT
 70
     0
  9
$DIMTFAC
 40
1.0
  9
$DIMGAP
 40
0.09
  9
$DIMJUST
 70
     0
  9
$DIMSD1
 70
     0
  9
$DIMSD2
 70
     0
  9
$DIMTOLJ
 70
     1
  9
$DIMTZIN
 70
     0
  9
$DIMALTZ
 70
     0
  9
$DIMALTTZ
 70
     0
  9
$DIMFIT
 70
     3
  9
$DIMUPT
 70
     0
  9
$DIMUNIT
 70
     2
  9
$DIMDEC
 70
     4
  9
$DIMTDEC
 70
     4
  9
$DIMALTU
 70
     2
  9
$DIMALTTD
 70
     2
  9
$DIMTXSTY
  7
STANDARD
  9
$DIMAUNIT
 70
     0
  9
$LUNITS
 70
     2
  9
$LUPREC
 70
     4
  9
$SKETCHINC
 40
0.1
  9
$FILLETRAD
 40
0.0
  9
$AUNITS
 70
     0
  9
$AUPREC
 70
     0
  9
$MENU
  1
acad
  9
$ELEVATION
 40
0.0
  9
$PELEVATION
 40
0.0
  9
$THICKNESS
 40
0.0
  9
$LIMCHECK
 70
     0
  9
$BLIPMODE
 70
     0
  9
$CHAMFERA
 40
0.0
  9
$CHAMFERB
 40
0.0
  9
$CHAMFERC
 40
0.0
  9
$CHAMFERD
 40
0.0
  9
$SKPOLY
 70
     0
  9
$TDCREATE
 40
2453679.095380312
  9
$TDUPDATE
 40
2453689.434223402
  9
$TDINDWG
 40
0.0227112269
  9
$TDUSRTIMER
 40
0.0227112269
  9
$USRTIMER
 70
     1
  9
$ANGBASE
 50
0.0
  9
$ANGDIR
 70
     0
  9
$PDMODE
 70
     3
  9
$PDSIZE
 40
0.3125
  9
$PLINEWID
 40
0.0
  9
$COORDS
 70
     1
  9
$SPLFRAME
 70
     0
  9
$SPLINETYPE
 70
     6
  9
$SPLINESEGS
 70
     8
  9
$ATTDIA
 70
     0
  9
$ATTREQ
 70
     1
  9
$HANDLING
 70
 22529
  9
$HANDSEED
  5
878
  9
$SURFTAB1
 70
     6
  9
$SURFTAB2
 70
     6
  9
$SURFTYPE
 70
     6
  9
$SURFU
 70
     6
  9
$SURFV
 70
     6
  9
$UCSNAME
  2

  9
$UCSORG
 10
0.0
 20
0.0
 30
0.0
  9
$UCSXDIR
 10
1.0
 20
0.0
 30
0.0
  9
$UCSYDIR
 10
0.0
 20
1.0
 30
0.0
  9
$PUCSNAME
  2

  9
$PUCSORG
 10
0.0
 20
0.0
 30
0.0
  9
$PUCSXDIR
 10
1.0
 20
0.0
 30
0.0
  9
$PUCSYDIR
 10
0.0
 20
1.0
 30
0.0
  9
$USERI1
 70
     0
  9
$USERI2
 70
     0
  9
$USERI3
 70
     0
  9
$USERI4
 70
     0
  9
$USERI5
 70
     0
  9
$USERR1
 40
0.0
  9
$USERR2
 40
0.0
  9
$USERR3
 40
0.0
  9
$USERR4
 40
0.0
  9
$USERR5
 40
0.0
  9
$WORLDVIEW
 70
     1
  9
$SHADEDGE
 70
     3
  9
$SHADEDIF
 70
    70
  9
$TILEMODE
 70
     1
  9
$MAXACTVP
 70
    16
  9
$PINSBASE
 10
0.0
 20
0.0
 30
0.0
  9
$PLIMCHECK
 70
     0
  9
$PEXTMIN
 10
1.000000000000000E+20
 20
1.000000000000000E+20
 30
1.000000000000000E+20
  9
$PEXTMAX
 10
-1.000000000000000E+20
 20
-1.000000000000000E+20
 30
-1.000000000000000E+20
  9
$PLIMMIN
 10
0.0
 20
0.0
  9
$PLIMMAX
 10
12.0
 20
9.0
  9
$UNITMODE
 70
     0
  9
$VISRETAIN
 70
     0
  9
$PLINEGEN
 70
     1
  9
$PSLTSCALE
 70
     0
  9
$TREEDEPTH
 70
  3020
  9
$PICKSTYLE
 70
     1
  9
$CMLSTYLE
  2
STANDARD
  9
$CMLJUST
 70
     0
  9
$CMLSCALE
 40
1.0
  9
$PROXYGRAPHICS
 70
     1
  9
$MEASUREMENT
 70
     0
  0
ENDSEC
  0
SECTION
  2
CLASSES
  0
CLASS
  1
LWPOLYLINE
  2
AcDbPolyline
  3
AutoCAD 2000
 90
        0
280
     0
281
     1
  0
CLASS
  1
XRECORD
  2
AcDbXrecord
  3
AutoCAD 2000
 90
        0
280
     0
281
     0
  0
CLASS
  1
ACDBDICTIONARYWDFLT
  2
AcDbDictionaryWithDefault
  3
AutoCAD 2000
 90
        0
280
     0
281
     0
  0
CLASS
  1
ACDBPLACEHOLDER
  2
AcDbPlaceHolder
  3
AutoCAD 2000
 90
        0
280
     0
281
     0
  0
CLASS
  1
LAYOUT
  2
AcDbLayout
  3
AutoCAD 2000
 90
        0
280
     0
281
     0
  0
CLASS
  1
DICTIONARYVAR
  2
AcDbDictionaryVar
  3
AutoCAD 2000
 90
        0
280
     0
281
     0
  0
CLASS
  1
LONG_TRANSACTION
  2
AcDbLongTransaction
  3
AutoCAD 2000
 90
        0
280
     0
281
     0
  0
CLASS
  1
LWPOLYLINE
  2
AcDbPolyline
  3
AutoCAD 2000
 90
        0
280
     0
281
     1
  0
CLASS
  1
HATCH
  2
AcDbHatch
  3
AutoCAD 2000
 90
        0
280
     0
281
     1
  0
CLASS
  1
XRECORD
  2
AcDbXrecord
  3
AutoCAD 2000
 90
        0
280
     0
281
     0
  0
ENDSEC
  0
SECTION
  2
TABLES
  0
TABLE
  2
VPORT
  5
12
330
0
100
AcDbSymbolTable
 70
     3
  0
VPORT
  5
852
330
12
100
AcDbSymbolTableRecord
100
AcDbViewportTableRecord
  2
*ACTIVE
 70
     0
 10
0.0
 20
0.0
 11
1.0
 21
1.0
 12
-0.1898921845431971
 22
35.07635130359764
 13
0.0
 23
0.0
 14
1.0
 24
1.0
 15
0.0
 25
0.0
 16
0.0
 26
0.0
 36
1.0
 17
0.0
 27
0.0
 37
0.0
 40
43.32799101475318
 41
1.786792452830188
 42
50.0
 43
0.0
 44
0.0
 50
0.0
 51
0.0
 71
     0
 72
   100
 73
     1
 74
     1
 75
     0
 76
     0
 77
     0
 78
     0
  0
ENDTAB
  0
TABLE
  2
LTYPE
  5
D
330
0
100
AcDbSymbolTable
 70
     4
  0
LTYPE
  5
E
330
D
100
AcDbSymbolTableRecord
100
AcDbLinetypeTableRecord
  2
BYBLOCK
 70
     0
  3

 72
    65
 73
     0
 40
0.0
  0
LTYPE
  5
F
330
D
100
AcDbSymbolTableRecord
100
AcDbLinetypeTableRecord
  2
BYLAYER
 70
     0
  3

 72
    65
 73
     0
 40
0.0
  0
LTYPE
  5
5
330
D
100
AcDbSymbolTableRecord
100
AcDbLinetypeTableRecord
  2
CONTINUOUS
 70
     0
  3
Solid line
 72
    65
 73
     0
 40
0.0
  0
LTYPE
  5
2EA
330
D
100
AcDbSymbolTableRecord
100
AcDbLinetypeTableRecord
  2
CENTER
 70
     0
  3
____ _ ____ _ ____ _ ____ _ ____ _ ____ _ ____
 72
    65
 73
     4
 40
0.6
 49
0.375
 74
     0
 49
-0.075
 74
     0
 49
0.075
 74
     0
 49
-0.075
 74
     0
  0
LTYPE
  5
3E4
330
D
100
AcDbSymbolTableRecord
100
AcDbLinetypeTableRecord
  2
HIDDEN
 70
     0
  3
- - - - - - - - - - - - - - - - - - - -
 72
    65
 73
     2
 40
0.2
 49
0.1
 74
     0
 49
-0.1
 74
     0
  0
LTYPE
  5
2E
330
D
100
AcDbSymbolTableRecord
100
AcDbLinetypeTableRecord
  2
DASHED
 70
     0
  3
- - - - - - - - - - - - - - - - - - - -
 72
    65
 73
     2
 40
0.2
 49
0.1
 74
     0
 49
-0.1
 74
     0
  0
ENDTAB
  0
TABLE
  2
LAYER
  5
A
330
0
100
AcDbSymbolTable
 70
     2
  0
LAYER
  5
4
330
A
100
AcDbSymbolTableRecord
100
AcDbLayerTableRecord
  2
0
 70
     0
 62
     7
  6
CONTINUOUS
  0
LAYER
  5
2E7
330
A
100
AcDbSymbolTableRecord
100
AcDbLayerTableRecord
  2
CENTER
 70
     0
 62
     1
  6
CENTER
  0
ENDTAB
  0
TABLE
  2
STYLE
  5
B
330
0
100
AcDbSymbolTable
 70
     1
  0
STYLE
  5
C
330
B
100
AcDbSymbolTableRecord
100
AcDbTextStyleTableRecord
  2
STANDARD
 70
     0
 40
0.0
 41
0.8
 50
0.0
 71
     0
 42
0.2
  3
txt
  4

  0
ENDTAB
  0
TABLE
  2
VIEW
  5
10
330
0
100
AcDbSymbolTable
 70
     0
  0
ENDTAB
  0
TABLE
  2
UCS
  5
11
330
0
100
AcDbSymbolTable
 70
     0
  0
ENDTAB
  0
TABLE
  2
APPID
  5
14
330
0
100
AcDbSymbolTable
 70
     1
  0
APPID
  5
15
330
14
100
AcDbSymbolTableRecord
100
AcDbRegAppTableRecord
  2
ACAD
 70
     0
  0
ENDTAB
  0
TABLE
  2
DIMSTYLE
  5
16
330
0
100
AcDbSymbolTable
 70
     1
  0
DIMSTYLE
105
1C
330
16
100
AcDbSymbolTableRecord
100
AcDbDimStyleTableRecord
  2
STANDARD
 70
     0
  3

  4

  5
_FILLED
  6
_FILLED
  7
_FILLED
 40
1.0
 41
0.1875
 42
0.0625
 43
0.38
 44
0.18
 45
0.0
 46
0.0
 47
0.00001
 48
0.00001
140
0.125
141
0.09
142
0.0
143
25.4
144
1.0
145
0.0
146
1.0
147
0.09
 71
     0
 72
     0
 73
     1
 74
     1
 75
     0
 76
     0
 77
     0
 78
     4
170
     0
171
     2
172
     0
173
     0
174
     0
175
     0
176
     0
177
     0
178
     0
270
     2
271
     4
272
     4
273
     2
274
     2
340
C
275
     0
280
     0
281
     0
282
     0
283
     1
284
     0
285
     0
286
     0
287
     3
288
     0
  0
ENDTAB
  0
TABLE
  2
BLOCK_RECORD
  5
1
330
0
100
AcDbSymbolTable
 70
     1
  0
BLOCK_RECORD
  5
2
102
{ACAD_XDICTIONARY
360
874
102
}
330
1
100
AcDbSymbolTableRecord
100
AcDbBlockTableRecord
  2
*MODEL_SPACE
  0
BLOCK_RECORD
  5
7
102
{ACAD_XDICTIONARY
360
876
102
}
330
1
100
AcDbSymbolTableRecord
100
AcDbBlockTableRecord
  2
*PAPER_SPACE
  0
BLOCK_RECORD
  5
1D
330
1
100
AcDbSymbolTableRecord
100
AcDbBlockTableRecord
  2
_FILLED
  0
ENDTAB
  0
ENDSEC
  0
SECTION
  2
BLOCKS
  0
BLOCK
  5
3
330
2
100
AcDbEntity
  8
0
100
AcDbBlockBegin
  2
*MODEL_SPACE
 70
     0
 10
0.0
 20
0.0
 30
0.0
  3
*MODEL_SPACE
  1

  0
ENDBLK
  5
6
330
2
100
AcDbEntity
  8
0
100
AcDbBlockEnd
  0
BLOCK
  5
8
330
7
100
AcDbEntity
 67
     1
  8
0
100
AcDbBlockBegin
  2
*PAPER_SPACE
 70
     0
 10
0.0
 20
0.0
 30
0.0
  3
*PAPER_SPACE
  1

  0
ENDBLK
  5
9
330
7
100
AcDbEntity
 67
     1
  8
0
100
AcDbBlockEnd
  0
BLOCK
  5
1F
330
1D
100
AcDbEntity
  8
0
100
AcDbBlockBegin
  2
_FILLED
 70
     0
 10
0.0
 20
0.0
 30
0.0
  3
_FILLED
  1

  0
SOLID
  5
1E
330
1D
100
AcDbEntity
  8
0
  6
BYBLOCK
 62
     0
100
AcDbTrace
 10
0.0
 20
0.0
 30
0.0
 11
-1.0
 21
0.1666666667
 31
0.0
 12
-1.0
 22
-0.1666666667
 32
0.0
 13
-1.0
 23
-0.1666666667
 33
0.0
  0
ENDBLK
  5
20
330
1D
100
AcDbEntity
  8
0
  6
BYBLOCK
 62
     0
100
AcDbBlockEnd
  0
ENDSEC
  0
SECTION
  2
ENTITIES
  0
LWPOLYLINE
  5
21
330
2
100
AcDbEntity
  8
0
  6
CONTINUOUS
100
AcDbPolyline
 90
        9
 70
     0
 43
0.0
 10
-20.83000201829408
 20
35.07683314735095
 10
-20.65882502309409
 20
33.20989168975092
 10
-20.13867487589411
 20
31.38124552655091
 10
-19.27895487749409
 20
29.66836009615096
 10
-18.11103010629409
 20
28.13984060175096
 10
-16.6744461990941
 20
26.85251973615095
 10
-15.03739345829411
 20
25.85854430895094
 10
-13.36392365349411
 20
25.21346612495094
 10
-11.81212941029409
 20
24.88539381775092
  0
LWPOLYLINE
  5
2C
330
2
100
AcDbEntity
  8
0
  6
DASHED
100
AcDbPolyline
 90
       45
 70
     0
 43
0.0
 10
-29.89444452229409
 20
35.07683315215095
 10
-29.88889622789409
 20
34.66483255855095
 10
-29.87249250789409
 20
34.25295256335096
 10
-29.84493091269409
 20
33.84157831695091
 10
-29.80590899429409
 20
33.43109497615091
 10
-29.75512430309411
 20
33.02188769775094
 10
-29.69142576229409
 20
32.60912935535091
 10
-29.61526071109409
 20
32.19849876655095
 10
-29.52653943109409
 20
31.79041957135092
 10
-29.42517220229411
 20
31.38531540815091
 10
-29.31106930789409
 20
30.98360991375094
 10
-29.18858500069411
 20
30.59887465935094
 10
-29.05417318309409
 20
30.21812645455094
 10
-28.90789433669411
 20
29.84177960495091
 10
-28.74980894629409
 20
29.47024841775092
 10
-28.57997749349411
 20
29.10394719695094
 10
-28.39908008869411
 20
28.74438993615092
 10
-28.20684156549409
 20
28.39075535215096
 10
-28.00353359909411
 20
28.04335700815096
 10
-27.78942785989411
 20
27.70250846735092
 10
-27.56479601989411
 20
27.36852329295095
 10
-27.36147844869409
 20
27.08437517135095
 10
-27.15069026949411
 20
26.80572622735096
 10
-26.93268884549412
 20
26.53266694095091
 10
-26.70773154149411
 20
26.26528778895095
 10
-26.47607571909412
 20
26.00367925615092
 10
-26.23797874309411
 20
25.74793181775095
 10
-25.97263348229409
 20
25.47714355855095
 10
-25.70031792709412
 20
25.21337912015096
 10
-25.42134261349412
 20
24.95665490255092
 10
-25.13601808229409
 20
24.70698730255091
 10
-24.84465486789409
 20
24.46439272015095
 10
-24.54756351109411
 20
24.22888755535092
 10
-24.20789257029411
 20
23.97316698255096
 10
-23.86177899749411
 20
23.72626070575091
 10
-23.50959589349409
 20
23.48804339535095
 10
-23.15171636229409
 20
23.25838972015091
 10
-22.78851350469409
 20
23.03717435215091
 10
-22.42036042629409
 20
22.82427196335092
 10
-22.00189826469412
 20
22.59516003855091
 10
-21.57808519429411
 20
22.37613969615091
 10
-21.14933084549412
 20
22.16699795055095
 10
-20.71604484069409
 20
21.96752181455096
 10
-20.2786368102941
 20
21.77749830255095
 10
-19.83751638149412
 20
21.59671442895092
  0
LWPOLYLINE
  5
5C
330
2
100
AcDbEntity
  8
0
  6
CONTINUOUS
100
AcDbPolyline
 90
       10
 70
     0
 43
0.0
 10
-31.85062427909411
 20
35.07683315215095
 10
-31.62426919269409
 20
32.29588423535094
 10
-31.00418547909411
 20
29.84815358415096
 10
-29.92186496229409
 20
27.43093513295096
 10
-28.44576373829411
 20
25.26933588335092
 10
-26.59169083749411
 20
23.35885923055096
 10
-24.29435713029409
 20
21.64329546095092
 10
-21.52437372869409
 20
20.16138168495095
 10
-18.19343597669411
 20
18.93776905455095
 10
-14.15434504869411
 20
18.03347836175093
  0
LWPOLYLINE
  5
68
330
2
100
AcDbEntity
  8
0
  6
CONTINUOUS
100
AcDbPolyline
 90
       18
 70
     0
 43
0.0
 10
-31.02073293669409
 20
35.07683315215095
 10
-30.99759685029409
 20
34.19002667375096
 10
-30.91815805189411
 20
33.23315990415096
 10
-30.7626235686941
 20
32.19010936815095
 10
-30.50462652069411
 20
31.04953316815096
 10
-30.1086421526941
 20
29.80736128015095
 10
-29.53286839589411
 20
28.47295136975091
 10
-28.73005369829409
 20
27.06543977935095
 10
-27.64996560069409
 20
25.61429585455096
 10
-26.48351533189411
 20
24.38293277775096
 10
-25.30491697509409
 20
23.36970240655091
 10
-24.10996274629409
 20
22.51246662735096
 10
-22.87093461509409
 20
21.76217715055094
 10
-21.52902157669411
 20
21.07626773615095
 10
-20.01199227269409
 20
20.43032398255096
 10
-18.2511128502941
 20
19.82269135215094
 10
-16.25043164709411
 20
19.28674881135092
 10
-14.00172491909409
 20
18.84950879215091
  0
LWPOLYLINE
  5
7C
330
2
100
AcDbEntity
  8
0
  6
CONTINUOUS
100
AcDbPolyline
 90
       16
 70
     0
 43
0.0
 10
-28.0701260886941
 20
35.07683315215095
 10
-28.05688363589409
 20
34.45677304975095
 10
-28.00930001349411
 20
33.77275866735095
 10
-27.91539337829412
 20
33.02901205775091
 10
-27.76052275909409
 20
32.22117976175096
 10
-27.52259684709409
 20
31.33545297615091
 10
-27.18513824869409
 20
30.39727810415095
 10
-26.76080555909409
 20
29.48062870095091
 10
-26.24786871909409
 20
28.59590155695096
 10
-25.63757024069409
 20
27.73746488655095
 10
-24.87811412389409
 20
26.85577122895091
 10
-23.93357271269409
 20
25.95181361775095
 10
-22.78503609829409
 20
25.05469627535095
 10
-21.40461034149411
 20
24.18508673295096
 10
-19.77876604869409
 20
23.37402242735092
 10
-17.8774720134941
 20
22.64559757135092
  0
LWPOLYLINE
  5
8E
330
2
100
AcDbEntity
  8
0
  6
CONTINUOUS
100
AcDbPolyline
 90
       17
 70
     0
 43
0.0
 10
-13.67766504389409
 20
20.88057094735091
 10
-16.52443007269409
 20
21.47147901935096
 10
-19.00567061029411
 20
22.24844233615095
 10
-21.13587189989412
 20
23.17103215695095
 10
-22.92932048229409
 20
24.19780989135091
 10
-24.40966216069411
 20
25.29024389615094
 10
-25.60594528229409
 20
26.41311579535096
 10
-26.55112721989412
 20
27.53508162575096
 10
-27.27815417029409
 20
28.62590867535095
 10
-27.82378339589411
 20
29.66557765455096
 10
-28.2252108390941
 20
30.64598064015092
 10
-28.51058925189411
 20
31.55473367535091
 10
-28.7060420694941
 20
32.38667447855096
 10
-28.83430903749409
 20
33.14568702095096
 10
-28.91208175589409
 20
33.83988903535095
 10
-28.95216250309409
 20
34.47946518735093
 10
-28.9639810598941
 20
35.07683315215095
  0
LWPOLYLINE
  5
A1
330
2
100
AcDbEntity
  8
0
  6
DASHED
100
AcDbPolyline
 90
       43
 70
     0
 43
0.0
 10
24.88480080410591
 20
29.17949976335092
 10
24.91910599930588
 20
29.25452783375095
 10
24.9522269641059
 20
29.33010054895092
 10
24.98405651450591
 20
29.40623693455092
 10
25.0144874665059
 20
29.48295601935092
 10
25.04341263450588
 20
29.56027682895092
 10
25.07072483450591
 20
29.63821839215091
 10
25.09631688090589
 20
29.71679973455096
 10
25.11542757530588
 20
29.77998303055096
 10
25.13326734490588
 20
29.84356147375092
 10
25.14972926490588
 20
29.90751055855094
 10
25.16470641050588
 20
29.97180577615091
 10
25.17809185530591
 20
30.03642261935095
 10
25.18977867770589
 20
30.10133658255091
 10
25.19965994970589
 20
30.16652315695091
 10
25.2076287465059
 20
30.23195783695095
 10
25.21357814490591
 20
30.29761611375096
 10
25.2173943049059
 20
30.36271452015091
 10
25.2191746841059
 20
30.42793935695096
 10
25.21896163930589
 20
30.49322247695096
 10
25.21679752570588
 20
30.55849573615091
 10
25.21272469690591
 20
30.62369098255095
 10
25.20678551290591
 20
30.68874007215095
 10
25.19902232570589
 20
30.75357485615092
 10
25.18947749370591
 20
30.81812718895093
 10
25.17819337210591
 20
30.88232892015094
 10
25.1629256249059
 20
30.95670383535096
 10
25.14562019130591
 20
31.03057543215095
 10
25.1265477193059
 20
31.10401001295096
 10
25.1059788569059
 20
31.17707387695091
 10
25.08418425050588
 20
31.24983332975091
 10
25.0614345513059
 20
31.32235466895096
 10
25.03800040410588
 20
31.39470420015095
 10
25.01415245690592
 20
31.46694822095094
 10
24.99016135930588
 20
31.53915303695095
 10
24.9573493481059
 20
31.63852637135096
 10
24.9250562889059
 20
31.73802309135095
 10
24.8935598361059
 20
31.83771530575091
 10
24.8631376473059
 20
31.93767511855091
 10
24.8340673801059
 20
32.03797464015096
 10
24.80662668890591
 20
32.13868597455095
 10
24.78109323130587
 20
32.23988123055096
 10
24.75774466330588
 20
32.34163251375096
  0
LWPOLYLINE
  5
CE
330
2
100
AcDbEntity
  8
0
  6
CONTINUOUS
100
AcDbPolyline
 90
       13
 70
     0
 43
0.0
 10
14.7356951801059
 20
25.51993011215091
 10
16.13274357530591
 20
26.19907174735095
 10
17.26890565530588
 20
26.97604782575095
 10
18.1850356537059
 20
27.79568984495091
 10
18.9173270953059
 20
28.62363737455092
 10
19.49420334970588
 20
29.43370788495096
 10
19.94450868090589
 20
30.21149986895096
 10
20.29184111450588
 20
30.94990760335096
 10
20.55505369050588
 20
31.64538872335092
 10
20.74917864250591
 20
32.29405963215091
 10
20.88801146810588
 20
32.89604896975095
 10
20.9827855433059
 20
33.45296324815092
 10
21.04194023930588
 20
33.96066532335092
  0
LWPOLYLINE
  5
DD
330
2
100
AcDbEntity
  8
0
  6
CONTINUOUS
100
AcDbPolyline
 90
       10
 70
     0
 43
0.0
 10
10.45309649210588
 20
18.03347836175093
 10
14.6974698169059
 20
18.99911749295091
 10
18.22277069530589
 20
20.34496033935096
 10
21.08276365210591
 20
21.96452892655094
 10
23.4031056649059
 20
23.82738810575091
 10
25.15547078330588
 20
25.79371885295091
 10
26.4673562105059
 20
27.89038911215095
 10
27.3883849225059
 20
30.10394396015096
 10
27.93722636410591
 20
32.38182380975095
 10
28.1493757209059
 20
35.07683315215095
  0
LWPOLYLINE
  5
E9
330
2
100
AcDbEntity
  8
0
  6
CONTINUOUS
100
AcDbPolyline
 90
       18
 70
     0
 43
0.0
 10
10.3004763625059
 20
18.84950879215091
 10
12.5666078873059
 20
19.29078706895092
 10
14.58122995770588
 20
19.83232540015094
 10
16.35292110650588
 20
20.44664866095095
 10
17.87939036730588
 20
21.10051937135091
 10
19.22693537210588
 20
21.79417753775095
 10
20.46567611290591
 20
22.55009890735095
 10
21.65316460730591
 20
23.40855104015094
 10
22.8184752505059
 20
24.41731065295096
 10
23.97028497690588
 20
25.63984103535094
 10
25.03881620090588
 20
27.08083743855095
 10
25.8435149577059
 20
28.49707885135094
 10
26.4159240361059
 20
29.83039736015095
 10
26.80859884090589
 20
31.06906298735092
 10
27.06423800250588
 20
32.20556327535095
 10
27.2181241913059
 20
33.24389880015095
 10
27.2966350377059
 20
34.19547257455096
 10
27.3194843801059
 20
35.07683315215095
  0
LWPOLYLINE
  5
FD
330
2
100
AcDbEntity
  8
0
  6
CONTINUOUS
100
AcDbPolyline
 90
       11
 70
     0
 43
0.0
 10
16.61916053850591
 20
23.48548790895091
 10
18.27217990650589
 20
24.34142290415095
 10
19.6586169897059
 20
25.26061642735095
 10
20.7926171737059
 20
26.20386617455094
 10
21.6942863705059
 20
27.13327316015096
 10
22.4105844105059
 20
28.04001214895095
 10
23.04135798970588
 20
29.02921139055095
 10
23.61076825530588
 20
30.18818327375092
 10
24.09381593050589
 20
31.57668999375096
 10
24.42481372090588
 20
33.20226720495091
 10
24.53686596250588
 20
35.07683306415094
  0
LWPOLYLINE
  5
10A
330
2
100
AcDbEntity
  8
0
  6
CONTINUOUS
100
AcDbPolyline
 90
       17
 70
     0
 43
0.0
 10
25.26273250330589
 20
35.07683315215095
 10
25.25099495930588
 20
34.48150688975096
 10
25.2111319865059
 20
33.84336918735096
 10
25.13364579930591
 20
33.14995832015091
 10
25.00571430650591
 20
32.39121524655095
 10
24.81052918810588
 20
31.55915615695096
 10
24.5254797017059
 20
30.65020803055091
 10
24.12446464250588
 20
29.66978790415092
 10
23.5794455833059
 20
28.63019203695091
 10
22.85307978010588
 20
27.53940516335095
 10
21.9083921833059
 20
26.41701062415092
 10
20.71250143930591
 20
25.29365371055095
 10
19.23222722970588
 20
24.20052396655091
 10
17.4384342217059
 20
23.17294343375095
 10
15.3075554809059
 20
22.24960824175096
 10
12.82493504250588
 20
21.47193920655095
 10
9.976416487305897
 20
20.88057094735091
  0
LINE
  5
11D
330
2
100
AcDbEntity
  8
0
  6
CONTINUOUS
100
AcDbLine
 10
-5.033003966330142
 20
17.08025298265453
 30
0.0
 11
1.260550081226114
 21
17.0773047091629
 31
0.0
  0
LWPOLYLINE
  5
11E
330
2
100
AcDbEntity
  8
0
  6
DASHED
100
AcDbPolyline
 90
       24
 70
     0
 43
0.0
 10
-13.5414899014941
 20
19.94315128655091
 10
-12.58460079109409
 20
19.80117197135095
 10
-11.62577837029411
 20
19.67208599535095
 10
-10.66523688869411
 20
19.55573492815094
 10
-9.703190602294114
 20
19.45196034415096
 10
-8.739853760694089
 20
19.36060381135095
 10
-7.775440616694126
 20
19.28150690415091
 10
-6.762154482294093
 20
19.21151207855095
 10
-5.748080485494114
 20
19.15477589455096
 10
-4.733380639094093
 20
19.11122294255093
 10
-3.718216954294092
 20
19.08077781935091
 10
-2.702751442294115
 20
19.06336511855096
 10
-1.687146115894094
 20
19.05890943215095
 10
-0.6766023158941153
 20
19.06728931215096
 10
0.3337554665059059
 20
19.08851362895094
 10
1.34376318970591
 20
19.12267272015091
 10
2.353256816905897
 20
19.16985692015094
 10
3.362072303305907
 20
19.23015656655095
 10
4.370045612105897
 20
19.30366199535095
 10
5.484792135305909
 20
19.40057314095094
 10
6.597972613705906
 20
19.51402057775095
 10
7.709254328905885
 20
19.64424341135091
 10
8.818304567305887
 20
19.79148074415095
 10
9.924790616905909
 20
19.95597167855092
  0
LWPOLYLINE
  5
138
330
2
100
AcDbEntity
  8
0
  6
CONTINUOUS
100
AcDbPolyline
 90
        4
 70
     0
 43
0.0
 10
9.976416487305897
 20
20.88057094735091
 10
2.20490260090591
 20
20.06870595215096
 10
-5.900742264694102
 20
20.06842396815096
 10
-13.67766504389409
 20
20.88057094735091
  0
LWPOLYLINE
  5
13E
330
2
100
AcDbEntity
  8
0
  6
CONTINUOUS
100
AcDbPolyline
 90
        4
 70
     0
 43
0.0
 10
-14.00172491909409
 20
18.84950879215091
 10
-6.00418160549411
 20
18.01427213935093
 10
2.305626983305884
 20
18.01441234575095
 10
10.3004763625059
 20
18.84950879215091
  0
LWPOLYLINE
  5
144
330
2
100
AcDbEntity
  8
0
  6
CONTINUOUS
100
AcDbPolyline
 90
       16
 70
     0
 43
0.0
 10
-13.33103747269409
 20
21.56012738095091
 10
-12.3002652502941
 20
21.40508424655095
 10
-11.1637755158941
 20
21.25261234415091
 10
-9.91440296389409
 20
21.10644877135095
 10
-8.545390549494115
 20
20.97112234895095
 10
-7.050047543094095
 20
20.85200568015094
 10
-5.421628000694113
 20
20.75546199535091
 10
-3.648476216694092
 20
20.68896055215091
 10
-1.706616123894093
 20
20.66201733935093
 10
0.3340185561058888
 20
20.68579426575095
 10
2.309698984905907
 20
20.76071609615095
 10
4.127776304905907
 20
20.87542096815096
 10
5.775674381705897
 20
21.01790457135095
 10
7.256712072905884
 20
21.17790793935091
 10
8.574675204105886
 20
21.34640188335095
 10
9.733706516105897
 20
21.51549197295094
  0
LWPOLYLINE
  5
156
330
2
100
AcDbEntity
  8
0
  6
CONTINUOUS
100
AcDbPolyline
 90
        4
 70
     0
 43
0.0
 10
-6.052972306294094
 20
24.37368261295091
 10
-1.768386109494102
 20
24.20404065455096
 10
2.506810343305886
 20
24.21273557775092
 10
6.743732636105889
 20
24.39541205775091
  0
LWPOLYLINE
  5
15C
330
2
100
AcDbEntity
  8
0
  6
DASHED
100
AcDbPolyline
 90
       17
 70
     0
 43
0.0
 10
-19.83788668389411
 20
21.59651511535094
 10
-19.58519810629409
 20
21.49767613295091
 10
-19.3313935206941
 20
21.40171715215092
 10
-19.07651234629409
 20
21.30859756495095
 10
-18.82059400069409
 20
21.21827676015095
 10
-18.54707664389409
 20
21.12516171535091
 10
-18.27248486629409
 20
21.03512957135095
 10
-17.99687485189411
 20
20.94813781615096
 10
-17.72030277829411
 20
20.86414393935095
 10
-17.4428248246941
 20
20.78310543055096
 10
-17.16449717349411
 20
20.70497977775096
 10
-16.88537600229409
 20
20.62972447215094
 10
-16.60551749189411
 20
20.55729700015095
 10
-16.32497782309409
 20
20.48765485295095
 10
-16.04381317349409
 20
20.42075551855091
 10
-15.76207972549409
 20
20.35655648655091
 10
-15.47983365829411
 20
20.29501524495092
  0
LINE
  5
16F
330
2
100
AcDbEntity
  8
0
  6
CONTINUOUS
100
AcDbLine
 10
-14.13248181349409
 20
18.02998315215094
 30
0.0
 11
-5.033003966330142
 21
17.08025298265453
 31
0.0
  0
LWPOLYLINE
  5
170
330
2
100
AcDbEntity
  8
0
  6
DASHED
100
AcDbPolyline
 90
       11
 70
     0
 43
0.0
 10
-15.4797986806941
 20
20.29504425455095
 10
-15.34423409189409
 20
20.26646175695091
 10
-15.20854274629409
 20
20.23848374255095
 10
-15.07272737509411
 20
20.21110342895096
 10
-14.89438623589411
 20
20.17608293935091
 10
-14.71584561509411
 20
20.14207109295091
 10
-14.53711475269409
 20
20.10905971055092
 10
-14.35820287909409
 20
20.07704061295092
 10
-14.1791192342941
 20
20.04600562095095
 10
-13.9998730534941
 20
20.01594655375094
 10
-13.82047357189411
 20
19.98685523215096
  0
LINE
  5
17D
330
2
100
AcDbEntity
  8
0
  6
CONTINUOUS
100
AcDbLine
 10
-14.15434504709411
 20
18.03347837775095
 30
0.0
 11
-14.13248181029409
 21
18.02998316655094
 31
0.0
  0
LINE
  5
17E
330
2
100
AcDbEntity
  8
0
  6
DASHED
100
AcDbLine
 10
-13.82021920229411
 20
19.98710533295096
 30
0.0
 11
-13.5414899014941
 21
19.94315128655091
 31
0.0
  0
LWPOLYLINE
  5
17F
330
2
100
AcDbEntity
  8
0
  6
CONTINUOUS
100
AcDbPolyline
 90
        4
 70
     0
 43
0.0
 10
-11.81212875429409
 20
24.88539882895094
 10
-10.64207171589409
 20
24.75394528015096
 10
-9.542729264694102
 20
24.64349163695095
 10
-8.51011770789411
 20
24.55114925615095
  0
LWPOLYLINE
  5
185
330
2
100
AcDbEntity
  8
0
  6
CONTINUOUS
100
AcDbPolyline
 90
        4
 70
     0
 43
0.0
 10
-17.87747242149412
 20
22.64559633935096
 10
-16.52464797029411
 20
22.23900119215096
 10
-15.08752303749409
 20
21.88868334095096
 10
-13.56179252709412
 20
21.59748624015091
  0
LWPOLYLINE
  5
18B
330
2
100
AcDbEntity
  8
0
  6
CONTINUOUS
100
AcDbPolyline
 90
        3
 70
     0
 43
0.0
 10
-13.56179245829409
 20
21.59748665935095
 10
-13.44665841989409
 20
21.57862990255091
 10
-13.33103746629409
 20
21.56012742415094
  0
LWPOLYLINE
  5
190
330
2
100
AcDbEntity
  8
0
  6
CONTINUOUS
100
AcDbPolyline
 90
        5
 70
     0
 43
0.0
 10
-8.51011770949411
 20
24.55114922895091
 10
-7.823312565494092
 20
24.49572319055096
 10
-7.187146274294093
 20
24.44842058255096
 10
-6.59774036869409
 20
24.40805125455094
 10
-6.052972445494091
 20
24.37368066255095
  0
LWPOLYLINE
  5
197
330
2
100
AcDbEntity
  8
0
  6
DASHED
100
AcDbPolyline
 90
       38
 70
     0
 43
0.0
 10
14.8389939369059
 20
21.12561653935091
 10
15.22360411290589
 20
21.25771704975096
 10
15.60613285850588
 20
21.39612759055091
 10
15.9863682681059
 20
21.54097745615095
 10
16.3640984329059
 20
21.69239593615091
 10
16.73911144890588
 20
21.85051232335095
 10
17.11119540570588
 20
22.01545590895094
 10
17.48013839930588
 20
22.18735598255094
 10
17.8457285193059
 20
22.36634183855096
 10
18.16965599130587
 20
22.53251869935096
 10
18.4905128617059
 20
22.70455720815096
 10
18.80807962010588
 20
22.88254842415093
 10
19.12213676250589
 20
23.06658340975096
 10
19.43246478010588
 20
23.25675322575091
 10
19.73884416730588
 20
23.45314893295094
 10
20.0410554153059
 20
23.65586159535095
 10
20.3388790169059
 20
23.86498227055093
 10
20.63288338650591
 20
24.08117705935095
 10
20.9220236441059
 20
24.30388192815096
 10
21.2060678809059
 20
24.53307253775093
 10
21.4847841897059
 20
24.76872454895095
 10
21.75794066490588
 20
25.01081362735095
 10
22.0253053993059
 20
25.25931543215091
 10
22.28664648570588
 20
25.51420562575092
 10
22.5180920937059
 20
25.75072920655091
 10
22.74408056410588
 20
25.99248537455096
 10
22.96429357690588
 20
26.23947877615091
 10
23.1784128105059
 20
26.49171405775095
 10
23.38611994010588
 20
26.74919586415092
 10
23.58709664570588
 20
27.01192884015091
 10
23.78102460570591
 20
27.27991763215095
 10
23.9584595817059
 20
27.53928618415093
 10
24.1292880537059
 20
27.80311506895091
 10
24.2935500153059
 20
28.07111868175096
 10
24.4512854585059
 20
28.34301142095091
 10
24.60253437530591
 20
28.61850768015094
 10
24.74733675930591
 20
28.89732185775093
 10
24.88573260250591
 20
29.17916834895092
  0
LWPOLYLINE
  5
1BF
330
2
100
AcDbEntity
  8
0
  6
CONTINUOUS
100
AcDbPolyline
 90
        4
 70
     0
 43
0.0
 10
6.743732634505889
 20
24.39541210095095
 10
8.641248400905908
 20
24.53439329295096
 10
10.53497443130589
 20
24.70883711535091
 10
12.40595611130589
 20
24.91691056975094
  0
LWPOLYLINE
  5
1C5
330
2
100
AcDbEntity
  8
0
  6
DASHED
100
AcDbPolyline
 90
       17
 70
     0
 43
0.0
 10
10.1187841721059
 20
19.98667246895095
 10
10.43387530490591
 20
20.03844184815093
 10
10.74848432890588
 20
20.09316320815094
 10
11.0625605273059
 20
20.15091217935093
 10
11.37605318330588
 20
20.21176439535094
 10
11.6889115785059
 20
20.27579548815091
 10
12.0041908553059
 20
20.34376382575095
 10
12.31872212410588
 20
20.41510576495096
 10
12.63245606650591
 20
20.48987524815092
 10
12.94534336250591
 20
20.56812621935091
 10
13.25733469530588
 20
20.64991262415091
 10
13.52290424570588
 20
20.72256060495095
 10
13.78774426810591
 20
20.79784068175095
 10
14.0518140057059
 20
20.87576958255096
 10
14.31507270010588
 20
20.95636403855095
 10
14.57747959610588
 20
21.03964078095092
 10
14.8389939369059
 20
21.12561653935091
  0
LWPOLYLINE
  5
1D8
330
2
100
AcDbEntity
  8
0
  6
CONTINUOUS
100
AcDbPolyline
 90
        5
 70
     0
 43
0.0
 10
9.871861980105904
 20
21.53712554575093
 10
11.4290036681059
 20
21.82326035695095
 10
13.0939687625059
 20
22.22456990895094
 10
14.88619531130589
 20
22.78670150415095
 10
16.61916125050589
 20
23.48548634255095
  0
LINE
  5
1DF
330
2
100
AcDbEntity
  8
0
  6
CONTINUOUS
100
AcDbLine
 10
1.260550081226114
 20
17.0773047091629
 30
0.0
 11
10.43123325530589
 21
18.02998315215094
 31
0.0
  0
LINE
  5
1E0
330
2
100
AcDbEntity
  8
0
  6
DASHED
100
AcDbLine
 10
9.924790616905909
 20
19.95597167855092
 30
0.0
 11
10.11878417370589
 21
19.98667245455095
 31
0.0
  0
LWPOLYLINE
  5
1E1
330
2
100
AcDbEntity
  8
0
  6
CONTINUOUS
100
AcDbPolyline
 90
        3
 70
     0
 43
0.0
 10
9.733706512905897
 20
21.51549199535091
 10
9.802868744905907
 20
21.52624784655091
 10
9.871861991305905
 20
21.53712546895096
  0
LWPOLYLINE
  5
1E6
330
2
100
AcDbEntity
  8
0
  6
CONTINUOUS
100
AcDbPolyline
 90
        4
 70
     0
 43
0.0
 10
12.40595607770591
 20
24.91691084655096
 10
13.20485088890591
 20
25.05638874575092
 10
13.9775528953059
 20
25.25682523535095
 10
14.7357034057059
 20
25.51990843695091
  0
LWPOLYLINE
  5
1EC
330
2
100
AcDbEntity
  8
0
  6
CONTINUOUS
100
AcDbPolyline
 90
        4
 70
     0
 43
0.0
 10
6.685712944905887
 20
45.78337361135095
 10
2.520837839305897
 20
45.94751957775094
 10
-1.751451570294094
 20
45.94352915055094
 10
-6.01494748709409
 20
45.76772420335092
  0
LWPOLYLINE
  5
1F2
330
2
100
AcDbEntity
  8
0
  6
DASHED
100
AcDbPolyline
 90
       24
 70
     0
 43
0.0
 10
-13.5414899014941
 20
50.21051501775096
 10
-12.58460079109409
 20
50.35249433135096
 10
-11.62577837029411
 20
50.48158030735095
 10
-10.66523688869411
 20
50.59793137455094
 10
-9.703190602294114
 20
50.70170596015095
 10
-8.739853760694089
 20
50.79306249135095
 10
-7.775440616694126
 20
50.87215939855096
 10
-6.762154482294093
 20
50.94215422415095
 10
-5.748080485494114
 20
50.99889040975097
 10
-4.733380639094093
 20
51.04244336015094
 10
-3.718216954294092
 20
51.07288848335094
 10
-2.702751442294115
 20
51.09030118575095
 10
-1.687146115894094
 20
51.09475687055095
 10
-0.6766023158941153
 20
51.08637699055098
 10
0.3337554665059059
 20
51.06515267375096
 10
1.34376318970591
 20
51.03099358255096
 10
2.353256816905897
 20
50.98380938255096
 10
3.362072303305907
 20
50.92350973775094
 10
4.370045612105897
 20
50.85000430735096
 10
5.484792136905909
 20
50.75309316335093
 10
6.597972613705906
 20
50.63964572495092
 10
7.709254328905885
 20
50.50942289135097
 10
8.818304567305887
 20
50.36218555855095
 10
9.924790616905909
 20
50.19769462415095
  0
LWPOLYLINE
  5
20C
330
2
100
AcDbEntity
  8
0
  6
CONTINUOUS
100
AcDbPolyline
 90
        4
 70
     0
 43
0.0
 10
-13.67766504389409
 20
49.27309535535096
 10
-5.906150890294114
 20
50.08496036495095
 10
2.199493688905889
 20
50.08524233615094
 10
9.976416487305897
 20
49.27309535535096
  0
LWPOLYLINE
  5
212
330
2
100
AcDbEntity
  8
0
  6
CONTINUOUS
100
AcDbPolyline
 90
        4
 70
     0
 43
0.0
 10
10.3004763625059
 20
51.30415751215096
 10
2.302933047305884
 20
52.13939416495094
 10
-6.00687553989411
 20
52.13925395695096
 10
-14.00172491909409
 20
51.30415751215096
  0
LWPOLYLINE
  5
218
330
2
100
AcDbEntity
  8
0
  6
CONTINUOUS
100
AcDbPolyline
 90
       16
 70
     0
 43
0.0
 10
9.713517335305908
 20
48.60763683215094
 10
8.575686562505907
 20
48.77850228015095
 10
7.322802424905887
 20
48.94459887375095
 10
5.940483023305887
 20
49.10171762415098
 10
4.41505003930591
 20
49.24399285455095
 10
2.732907536905884
 20
49.36375933455096
 10
0.8804325593058877
 20
49.45124075215097
 10
-1.156305607094111
 20
49.49427871215096
 10
-3.283817466294095
 20
49.48105235215095
 10
-5.216284568694092
 20
49.41822680975096
 10
-6.948815490294094
 20
49.32065915055097
 10
-8.499458287094114
 20
49.19971893455096
 10
-9.889891181494093
 20
49.06356002095094
 10
-11.14189593829412
 20
48.91779350415095
 10
-12.27722537829409
 20
48.76591705135095
 10
-13.31860558149411
 20
48.60945983855095
  0
LINE
  5
22A
330
2
100
AcDbEntity
  8
0
  6
CONTINUOUS
100
AcDbLine
 10
-5.033003966330142
 20
53.07341332164736
 30
0.0
 11
1.260550081226114
 21
53.07636159513901
 31
0.0
  0
LWPOLYLINE
  5
22B
330
2
100
AcDbEntity
  8
0
  6
CONTINUOUS
100
AcDbPolyline
 90
       10
 70
     0
 43
0.0
 10
-14.15434504869411
 20
52.12018794095095
 10
-18.39871837349411
 20
51.15454881135097
 10
-21.92401925189409
 20
49.80870596335094
 10
-24.78401221029409
 20
48.18913737615094
 10
-27.10435422149412
 20
46.32627819695096
 10
-28.85671933989412
 20
44.35994744975096
 10
-30.16860476709409
 20
42.26327719055092
 10
-31.08963347909409
 20
40.04972234415098
 10
-31.63847492069409
 20
37.77184249455095
 10
-31.85062427909411
 20
35.07683315215095
  0
LWPOLYLINE
  5
237
330
2
100
AcDbEntity
  8
0
  6
CONTINUOUS
100
AcDbPolyline
 90
       18
 70
     0
 43
0.0
 10
-14.00172491909409
 20
51.30415751215096
 10
-16.26785644549409
 20
50.86287923375095
 10
-18.28247851429412
 20
50.32134090255095
 10
-20.05416966309409
 20
49.70701764175093
 10
-21.58063892389411
 20
49.05314693295096
 10
-22.92818392869411
 20
48.35948876495095
 10
-24.16692467109409
 20
47.60356739535097
 10
-25.35441316549409
 20
46.74511526255094
 10
-26.5197238086941
 20
45.73635564975094
 10
-27.67153353349411
 20
44.51382526735094
 10
-28.74006475909411
 20
43.07282886415094
 10
-29.54476351429411
 20
41.65658745135096
 10
-30.11717259269409
 20
40.32326894255095
 10
-30.50984739749412
 20
39.08460331535096
 10
-30.76548655909409
 20
37.94810302735095
 10
-30.91937274949409
 20
36.90976750415094
 10
-30.99788359429409
 20
35.95819372815094
 10
-31.02073293669409
 20
35.07683315215095
  0
LWPOLYLINE
  5
24B
330
2
100
AcDbEntity
  8
0
  6
CONTINUOUS
100
AcDbPolyline
 90
       17
 70
     0
 43
0.0
 10
-28.9639810598941
 20
35.07683315215095
 10
-28.95224441829409
 20
35.67213671535094
 10
-28.91238400869411
 20
36.31025667055095
 10
-28.83490170469412
 20
37.00365453455094
 10
-28.70697537349409
 20
37.76238885135095
 10
-28.51179586949409
 20
38.59444298095096
 10
-28.22675326789411
 20
39.50338837775092
 10
-27.82574642149409
 20
40.48380633295096
 10
-27.28073767909409
 20
41.52340050735094
 10
-26.55438310469411
 20
42.61418755695092
 10
-25.60970417189409
 20
43.73658859535092
 10
-24.41381983269409
 20
44.85995424175095
 10
-22.93354724869411
 20
45.95309564655096
 10
-21.13974913349411
 20
46.98068959855095
 10
-19.0088571702941
 20
47.90403829455096
 10
-16.52621427109411
 20
48.68171913775094
 10
-13.67766504389409
 20
49.27309535535096
  0
LWPOLYLINE
  5
25E
330
2
100
AcDbEntity
  8
0
  6
DASHED
100
AcDbPolyline
 90
       45
 70
     0
 43
0.0
 10
-29.89444452229409
 20
35.07683315215095
 10
-29.88889603429411
 20
35.48883372975092
 10
-29.87249215429409
 20
35.90071370575094
 10
-29.84493045029409
 20
36.31208792975096
 10
-29.80590848389409
 20
36.72257125775095
 10
-29.75512382629409
 20
37.13177854095096
 10
-29.69142540549409
 20
37.54453690575096
 10
-29.61526052229409
 20
37.95516752815092
 10
-29.52653940869412
 20
38.36324675375095
 10
-29.42517229669409
 20
38.76835093135096
 10
-29.31106941989411
 20
39.17005640495094
 10
-29.18858500869411
 20
39.55479160335096
 10
-29.05417299429411
 20
39.93553972175095
 10
-28.90789390949411
 20
40.31188647375095
 10
-28.74980828389411
 20
40.68341756495096
 10
-28.57997664709411
 20
41.04971870735096
 10
-28.39907915429411
 20
41.40927590575095
 10
-28.20684062789409
 20
41.76291045775096
 10
-28.00353272389411
 20
42.11030880015096
 10
-27.78942709829411
 20
42.45115736815094
 10
-27.56479540709409
 20
42.78514259855095
 10
-27.36147797349411
 20
43.06929080335092
 10
-27.15068993989409
 20
43.34793984655095
 10
-26.93268866629412
 20
43.62099924495092
 10
-26.70773151269409
 20
43.88837851375098
 10
-26.47607583589409
 20
44.14998717295094
 10
-26.23797899749411
 20
44.40573473615095
 10
-25.97263385509409
 20
44.67652313935096
 10
-25.70031839589409
 20
44.94028770575096
 10
-25.42134315269411
 20
45.19701202415098
 10
-25.13601865349411
 20
45.44667968335097
 10
-24.84465543429411
 20
45.68927427215095
 10
-24.54756402469411
 20
45.92477937775092
 10
-24.20789297349411
 20
46.18049979375095
 10
-23.86177924709412
 20
46.42740584975095
 10
-23.50959596869409
 20
46.66562290735092
 10
-23.15171626149409
 20
46.89527632655094
 10
-22.78851325029409
 20
47.11649146895095
 10
-22.42036005829409
 20
47.32939369615095
 10
-22.00189785189409
 20
47.55850553455096
 10
-21.57808480069409
 20
47.77752589295096
 10
-21.14933051749409
 20
47.98666773775096
 10
-20.71604461349411
 20
48.18614403855097
 10
-20.27863669669409
 20
48.37616776175096
 10
-19.83751638149412
 20
48.55695187375096
  0
LWPOLYLINE
  5
28D
330
2
100
AcDbEntity
  8
0
  6
CONTINUOUS
100
AcDbPolyline
 90
        4
 70
     0
 43
0.0
 10
-13.56383271109409
 20
48.56970097775096
 10
-15.08412440549409
 20
48.27874653935094
 10
-16.51635656709409
 20
47.92878504335095
 10
-17.8643985702941
 20
47.52282752175093
  0
LWPOLYLINE
  5
293
330
2
100
AcDbEntity
  8
0
  6
CONTINUOUS
100
AcDbPolyline
 90
        9
 70
     0
 43
0.0
 10
-11.7655168118941
 20
45.25604391535094
 10
-13.3750776518941
 20
44.91424670735094
 10
-15.11013993829411
 20
44.23306036175094
 10
-16.79705579749408
 20
43.18032134415093
 10
-18.25011757189409
 20
41.83083977615092
 10
-19.41141343589412
 20
40.23788460975095
 10
-20.24324599269411
 20
38.46187356175096
 10
-20.70241128709409
 20
36.66282569135094
 10
-20.83000659909412
 20
35.07683315695095
  0
LWPOLYLINE
  5
29E
330
2
100
AcDbEntity
  8
0
  6
CONTINUOUS
100
AcDbPolyline
 90
       17
 70
     0
 43
0.0
 10
-17.8643982694941
 20
47.52282661775092
 10
-19.6467262262941
 20
46.84512617775095
 10
-21.17962047749411
 20
46.09839458735095
 10
-22.49542123589411
 20
45.30058444975094
 10
-23.60857205509409
 20
44.47531090735094
 10
-24.53918855269411
 20
43.64114752175092
 10
-25.30517710149409
 20
42.81886565935096
 10
-25.92363878149412
 20
42.02905016815094
 10
-26.44539834629412
 20
41.23215321295094
 10
-26.89837010629409
 20
40.39086384975095
 10
-27.28229659429409
 20
39.50211264495095
 10
-27.58875114629409
 20
38.58828227535096
 10
-27.79887537189412
 20
37.74729402575096
 10
-27.93432411749409
 20
36.98925533455096
 10
-28.01634867749409
 20
36.29427901935097
 10
-28.05813185989411
 20
35.65639880815095
 10
-28.07012578629411
 20
35.07683315215095
  0
LWPOLYLINE
  5
2B1
330
2
100
AcDbEntity
  8
0
  6
CONTINUOUS
100
AcDbPolyline
 90
        4
 70
     0
 43
0.0
 10
-8.466545621494091
 20
45.58928992815094
 10
-9.497073109494095
 20
45.49707342415096
 10
-10.59708622309409
 20
45.38677307695095
 10
-11.76551625189411
 20
45.25603962095096
  0
LWPOLYLINE
  5
2B7
330
2
100
AcDbEntity
  8
0
  6
CONTINUOUS
100
AcDbPolyline
 90
        5
 70
     0
 43
0.0
 10
-6.014947336694092
 20
45.76772212975098
 10
-6.705102307894094
 20
45.72313382415095
 10
-7.356383723894111
 20
45.67701339215093
 10
-7.949720736694089
 20
45.63155943215096
 10
-8.466545624694091
 20
45.58928995695095
  0
LWPOLYLINE
  5
2BE
330
2
100
AcDbEntity
  8
0
  6
DASHED
100
AcDbPolyline
 90
       17
 70
     0
 43
0.0
 10
-19.83788668389411
 20
48.55715118735094
 10
-19.58519810629409
 20
48.65599017135096
 10
-19.3313935206941
 20
48.75194915055096
 10
-19.07651234629409
 20
48.84506873775094
 10
-18.82059400069409
 20
48.93538954255098
 10
-18.54707664389409
 20
49.02850458735096
 10
-18.27248486629409
 20
49.11853673295095
 10
-17.99687485189411
 20
49.20552848655095
 10
-17.72030277829411
 20
49.28952236335096
 10
-17.4428248246941
 20
49.37056087215094
 10
-17.16449717349411
 20
49.44868652495094
 10
-16.88537600229409
 20
49.52394183055094
 10
-16.60551749189411
 20
49.59636930255095
 10
-16.32497782309409
 20
49.66601144975095
 10
-16.04381317349409
 20
49.73291078415096
 10
-15.76207972549409
 20
49.79710981775096
 10
-15.47983365829411
 20
49.85865105775096
  0
LINE
  5
2D1
330
2
100
AcDbEntity
  8
0
  6
CONTINUOUS
100
AcDbLine
 10
-14.13248181349409
 20
52.12368315215096
 30
0.0
 11
-5.033003966330142
 21
53.07341332164736
 31
0.0
  0
LWPOLYLINE
  5
2D2
330
2
100
AcDbEntity
  8
0
  6
DASHED
100
AcDbPolyline
 90
       11
 70
     0
 43
0.0
 10
-15.4797986806941
 20
49.85862204815095
 10
-15.34423409189409
 20
49.88720454575096
 10
-15.20854274629409
 20
49.91518256175095
 10
-15.07272737509411
 20
49.94256287375094
 10
-14.89438623589411
 20
49.97758336495095
 10
-14.71584561509411
 20
50.01159521135097
 10
-14.53711475269409
 20
50.04460659215095
 10
-14.35820287909409
 20
50.07662568975096
 10
-14.1791192342941
 20
50.10766068175096
 10
-13.9998730534941
 20
50.13771974895096
 10
-13.82047357189411
 20
50.16681107055095
  0
LWPOLYLINE
  5
2DF
330
2
100
AcDbEntity
  8
0
  6
CONTINUOUS
100
AcDbPolyline
 90
        3
 70
     0
 43
0.0
 10
-13.31860557509411
 20
48.60945980175094
 10
-13.44149457189411
 20
48.58978105775094
 10
-13.56383268709409
 20
48.56970083055094
  0
LINE
  5
2E4
330
2
100
AcDbEntity
  8
0
  6
DASHED
100
AcDbLine
 10
-13.82021920229411
 20
50.16656097135094
 30
0.0
 11
-13.5414899014941
 21
50.21051501775096
 31
0.0
  0
LINE
  5
2E5
330
2
100
AcDbEntity
  8
0
  6
CONTINUOUS
100
AcDbLine
 10
-14.13248181509409
 20
52.12368316655093
 30
0.0
 11
-14.15434505189411
 21
52.12018795535096
 31
0.0
  0
LINE
  5
2E6
330
2
100
AcDbEntity
  8
CENTER
100
AcDbLine
 10
8.700296585861707
 20
35.07683315215095
 30
0.0
 11
31.46993872730588
 21
35.07683315215095
 31
0.0
  0
LWPOLYLINE
  5
2EB
330
2
100
AcDbEntity
  8
0
  6
DASHED
100
AcDbPolyline
 90
       19
 70
     0
 43
0.0
 10
24.75774466330588
 20
37.81203378895094
 10
24.74669811770592
 20
37.75988742895094
 10
24.7362334553059
 20
37.70761605935095
 10
24.72635945530591
 20
37.65522659215093
 10
24.7170848953059
 20
37.60272594255096
 10
24.70841854970589
 20
37.55012102095093
 10
24.70036919930591
 20
37.49741873935096
 10
24.69270182970591
 20
37.44282417615096
 10
24.68570274010591
 20
37.38814069935094
 10
24.6793710297059
 20
37.33337611535094
 10
24.6737057993059
 20
37.27853823055096
 10
24.6687061497059
 20
37.22363485295096
 10
24.66437118170588
 20
37.16867378735094
 10
24.66058484570588
 20
37.11177621295095
 10
24.65750137210589
 20
37.05483553775096
 10
24.65511354650589
 20
36.99786201775094
 10
24.65341415130591
 20
36.94086591055094
 10
24.6523959721059
 20
36.88385747535096
 10
24.6520517913059
 20
36.82684696975096
  0
LWPOLYLINE
  5
300
330
2
100
AcDbEntity
  8
0
  6
DASHED
100
AcDbPolyline
 90
       19
 70
     0
 43
0.0
 10
24.75774466330588
 20
32.34163251375096
 10
24.74669815450591
 20
32.39377890575096
 10
24.73623353370588
 20
32.44605030575096
 10
24.7263595753059
 20
32.49843980175092
 10
24.71708505850588
 20
32.55094048175095
 10
24.70841876090588
 20
32.60354543375092
 10
24.70036945690589
 20
32.65624774415096
 10
24.6927021369059
 20
32.71084233935096
 10
24.68570309690589
 20
32.76552584815096
 10
24.67937143930591
 20
32.82029046255095
 10
24.67370626170588
 20
32.87512837775094
 10
24.66870666650589
 20
32.93003178575091
 10
24.6643717529059
 20
32.98499288015094
 10
24.6605854745059
 20
33.04189048335095
 10
24.65750206010589
 20
33.09883118735095
 10
24.6551142921059
 20
33.15580473455094
 10
24.6534149561059
 20
33.21280086735095
 10
24.6523968361059
 20
33.26980932975095
 10
24.65205271610588
 20
33.32681986095096
  0
LWPOLYLINE
  5
315
330
2
100
AcDbEntity
  8
0
  6
DASHED
100
AcDbPolyline
 90
       38
 70
     0
 43
0.0
 10
14.8389939369059
 20
49.02804976335096
 10
15.22360411290589
 20
48.89594925295094
 10
15.60613285850588
 20
48.75753871215096
 10
15.9863682681059
 20
48.61268884655093
 10
16.3640984345059
 20
48.46127036655096
 10
16.73911144890588
 20
48.30315397935092
 10
17.11119540570588
 20
48.13821039375094
 10
17.48013839930588
 20
47.96631032015094
 10
17.8457285193059
 20
47.78732446415093
 10
18.16965599130587
 20
47.62114760335094
 10
18.4905128617059
 20
47.44910909455095
 10
18.80807962010588
 20
47.27111787855093
 10
19.12213676250589
 20
47.08708289455095
 10
19.43246478010588
 20
46.89691307695096
 10
19.73884416730588
 20
46.70051736975094
 10
20.0410554153059
 20
46.49780470735092
 10
20.3388790169059
 20
46.28868403215093
 10
20.63288338650591
 20
46.07248924335095
 10
20.9220236441059
 20
45.84978437455094
 10
21.2060678809059
 20
45.62059376495094
 10
21.4847841897059
 20
45.38494175375092
 10
21.75794066490588
 20
45.14285267535092
 10
22.0253053993059
 20
44.89435087215096
 10
22.28664648570588
 20
44.63946067855096
 10
22.5180920937059
 20
44.40293709615096
 10
22.74408056410588
 20
44.16118092815094
 10
22.96429357690588
 20
43.91418752655096
 10
23.1784128105059
 20
43.66195224495095
 10
23.38611994010588
 20
43.40447044015095
 10
23.58709664570588
 20
43.14173746415096
 10
23.78102460570591
 20
42.87374867055092
 10
23.9584595817059
 20
42.61438011855093
 10
24.1292880537059
 20
42.35055123375096
 10
24.2935500153059
 20
42.08254762095094
 10
24.4512854585059
 20
41.81065488175096
 10
24.60253437530591
 20
41.53515862255097
 10
24.74733675930591
 20
41.25634444495093
 10
24.88573260250591
 20
40.97449795375095
  0
LWPOLYLINE
  5
33D
330
2
100
AcDbEntity
  8
0
  6
CONTINUOUS
100
AcDbPolyline
 90
       17
 70
     0
 43
0.0
 10
9.976416487305897
 20
49.27309535535096
 10
12.82314729370588
 20
48.68219613935096
 10
15.3043638409059
 20
47.90524561295095
 10
17.4345509385059
 20
46.98267042735094
 10
19.2279946601059
 20
45.95590685775095
 10
20.70833859290588
 20
44.86348503375094
 10
21.90462885050588
 20
43.74062231055094
 10
22.84982041850588
 20
42.61866271375097
 10
23.57685941690591
 20
41.52783580175094
 10
24.12249982330588
 20
40.48816447535094
 10
24.52393619450591
 20
39.50775840175094
 10
24.8093227097059
 20
38.59899905935094
 10
25.00478190970589
 20
37.76704963535095
 10
25.13305403770589
 20
37.00802590255094
 10
25.21083037370589
 20
36.31381016975092
 10
25.2509132761059
 20
35.67421791055096
 10
25.26273250330589
 20
35.07683315215095
  0
LWPOLYLINE
  5
350
330
2
100
AcDbEntity
  8
0
  6
CONTINUOUS
100
AcDbPolyline
 90
       10
 70
     0
 43
0.0
 10
28.1493757209059
 20
35.07683315215095
 10
27.92302063610589
 20
37.85778206735094
 10
27.3029369209059
 20
40.30551271855094
 10
26.22061640570589
 20
42.72273116975094
 10
24.74451518170591
 20
44.88433041935095
 10
22.89044227930588
 20
46.79480707215094
 10
20.5931085737059
 20
48.51037084175096
 10
17.82312517050589
 20
49.99228461775095
 10
14.4921874185059
 20
51.21589724815095
 10
10.45309649210588
 20
52.12018794095095
  0
LWPOLYLINE
  5
35C
330
2
100
AcDbEntity
  8
0
  6
CONTINUOUS
100
AcDbPolyline
 90
       18
 70
     0
 43
0.0
 10
27.3194843801059
 20
35.07683315215095
 10
27.29634829370588
 20
35.96363962895094
 10
27.21690949530588
 20
36.92050639855094
 10
27.06137501210588
 20
37.96355693455092
 10
26.8033779625059
 20
39.10413313455094
 10
26.4073935945059
 20
40.34630502415097
 10
25.83161983770589
 20
41.68071493455096
 10
25.02880514010588
 20
43.08822652495095
 10
23.9487170425059
 20
44.53937044975094
 10
22.78226677370588
 20
45.77073352655093
 10
21.6036684185059
 20
46.78396389615096
 10
20.4087141897059
 20
47.64119967535094
 10
19.16968605690589
 20
48.39148915215094
 10
17.82777302010591
 20
49.07739856815095
 10
16.31074371610589
 20
49.72334232015095
 10
14.5498642921059
 20
50.33097495055094
 10
12.5491830905059
 20
50.86691749135096
 10
10.3004763625059
 20
51.30415751215096
  0
LWPOLYLINE
  5
370
330
2
100
AcDbEntity
  8
0
  6
CONTINUOUS
100
AcDbPolyline
 90
        5
 70
     0
 43
0.0
 10
16.58113303930591
 20
46.61161331055097
 10
14.85855628890588
 20
47.31421865455096
 10
13.06084842170588
 20
47.88661560975095
 10
11.39442365050588
 20
48.29547568175096
 10
9.865408512905901
 20
48.58318489775095
  0
LWPOLYLINE
  5
377
330
2
100
AcDbEntity
  8
0
  6
CONTINUOUS
100
AcDbPolyline
 90
        4
 70
     0
 43
0.0
 10
12.3028202729059
 20
45.28455258735095
 10
10.45668544090588
 20
45.48460207375095
 10
8.583816636105908
 20
45.65114779535096
 10
6.68571287930591
 20
45.78337237615096
  0
LINE
  5
37D
330
2
100
AcDbEntity
  8
CENTER
100
AcDbLine
 10
16.8993757209059
 20
39.55722168032792
 30
0.0
 11
16.8993757209059
 21
30.59644462397398
 31
0.0
  0
LWPOLYLINE
  5
37E
330
2
100
AcDbEntity
  8
0
  6
CONTINUOUS
100
AcDbPolyline
 90
       13
 70
     0
 43
0.0
 10
21.0131219689059
 20
36.30592965135096
 10
20.94397164890588
 20
36.80652787535092
 10
20.84005179450591
 20
37.35543878095095
 10
20.6935912985059
 20
37.94800696015096
 10
20.4937938009059
 20
38.58602510255096
 10
20.22695595610589
 20
39.27106575215094
 10
19.8791480953059
 20
39.99780243695096
 10
19.43149144730588
 20
40.76424979215096
 10
18.86182149370588
 20
41.56224883855094
 10
18.14049493850591
 20
42.38020698095096
 10
17.24136067930588
 20
43.19069379215096
 10
16.1268522729059
 20
43.96304723695095
 10
14.75437165210587
 20
44.64417790255097
  0
LWPOLYLINE
  5
38D
330
2
100
AcDbEntity
  8
0
  6
CONTINUOUS
100
AcDbPolyline
 90
       22
 70
     0
 43
0.0
 10
24.5368796297059
 20
35.07683315215095
 10
24.5351728969059
 20
35.30190744175095
 10
24.5292289433059
 20
35.55067646735094
 10
24.5175731257059
 20
35.82489009455096
 10
24.4983759689059
 20
36.12607070415094
 10
24.46939662810589
 20
36.45561395695094
 10
24.42792468410589
 20
36.81476421615096
 10
24.37072598170589
 20
37.20458936815095
 10
24.29400057850588
 20
37.62595000495096
 10
24.19312698970589
 20
38.08052127215094
 10
24.0617713641059
 20
38.57320921295095
 10
23.89215600890588
 20
39.10908190735094
 10
23.67768264730588
 20
39.68479439375096
 10
23.41106024090589
 20
40.29402513615096
 10
23.07263066650588
 20
40.95163117295095
 10
22.6372116665059
 20
41.66844056655094
 10
22.07629130170591
 20
42.44728113295096
 10
21.3723328089059
 20
43.26718167855093
 10
20.5018204825059
 20
44.11041992175094
 10
19.4244226649059
 20
44.97022619695096
 10
18.12249578970591
 20
45.81483664175095
 10
16.58113270490589
 20
46.61161258095094
  0
LWPOLYLINE
  5
3A5
330
2
100
AcDbEntity
  8
0
  6
CONTINUOUS
100
AcDbPolyline
 90
        9
 70
     0
 43
0.0
 10
15.7082338697059
 20
36.43346939535095
 10
16.02306393370591
 20
36.65579081455095
 10
16.33808646170591
 20
36.79387715215094
 10
16.63892493210591
 20
36.86519275375096
 10
16.91775483450591
 20
36.88483055055096
 10
17.16781948890589
 20
36.86570280495095
 10
17.39306839290589
 20
36.81760970415095
 10
17.60802932570591
 20
36.74170545135095
 10
17.82699927770591
 20
36.62940759055095
  0
LWPOLYLINE
  5
3B0
330
2
100
AcDbEntity
  8
0
  6
CONTINUOUS
100
AcDbPolyline
 90
        9
 70
     0
 43
0.0
 10
15.59719438810589
 20
36.55960473935095
 10
15.94186803290588
 20
36.80153041615094
 10
16.2863288985059
 20
36.95080146895094
 10
16.61480750490591
 20
37.02676967375094
 10
16.91870436090589
 20
37.04626061775096
 10
17.19097090170591
 20
37.02416789455094
 10
17.43650777210591
 20
36.97184264815095
 10
17.67188258170588
 20
36.89083715375096
 10
17.9129010153059
 20
36.77107792975096
  0
LWPOLYLINE
  5
3BB
330
2
100
AcDbEntity
  8
0
  6
CONTINUOUS
100
AcDbPolyline
 90
       16
 70
     0
 43
0.0
 10
17.82699927770591
 20
33.52425871215095
 10
17.76138125370589
 20
33.48650111855096
 10
17.68737745690589
 20
33.44824095535094
 10
17.60432218970591
 20
33.41038466735094
 10
17.51156016410588
 20
33.37402944175096
 10
17.40841734490591
 20
33.34046410255095
 10
17.29414718810591
 20
33.31118772175094
 10
17.16790767930591
 20
33.28797883055094
 10
17.0289134073059
 20
33.27302429455096
 10
16.8765115241059
 20
33.26902509935095
 10
16.71039379770589
 20
33.27930716815095
 10
16.53063704090588
 20
33.30793076495095
 10
16.33783551130591
 20
33.35987339215091
 10
16.1338924953059
 20
33.44105206575096
 10
15.92210626650589
 20
33.55849421455096
 10
15.7082338697059
 20
33.72019690895095
  0
LWPOLYLINE
  5
3CD
330
2
100
AcDbEntity
  8
0
  6
CONTINUOUS
100
AcDbPolyline
 90
       16
 70
     0
 43
0.0
 10
17.91290100410589
 20
33.38258839695095
 10
17.84056448410591
 20
33.34225004015095
 10
17.75909102970591
 20
33.30146408975096
 10
17.6678141097059
 20
33.26116407535096
 10
17.56609807450588
 20
33.22244092655092
 10
17.45328286490588
 20
33.18654788335095
 10
17.32858847610589
 20
33.15496263695095
 10
17.19106007770591
 20
33.12952760655096
 10
17.0397388841059
 20
33.11263432655096
 10
16.87378296090591
 20
33.10733079215092
 10
16.69274133210591
 20
33.11739726575092
 10
16.49662266970589
 20
33.14741795215096
 10
16.28604176570588
 20
33.20295427695092
 10
16.06307716570589
 20
33.29056595215095
 10
15.83136089210587
 20
33.41799627375095
 10
15.59719439130587
 20
33.59406156655092
  0
CIRCLE
  5
3DF
330
2
100
AcDbEntity
  8
0
  6
CONTINUOUS
100
AcDbCircle
 10
16.8993757209059
 20
35.07683315215095
 30
0.0
 40
1.411608345599999
  0
CIRCLE
  5
3E0
330
2
100
AcDbEntity
  8
0
  6
CONTINUOUS
100
AcDbCircle
 10
16.8993757209059
 20
35.07683315215095
 30
0.0
 40
1.323217497599999
  0
LINE
  5
3E1
330
2
100
AcDbEntity
  8
CENTER
100
AcDbLine
 10
11.8993757209059
 20
37.7830095574692
 30
0.0
 11
11.8993757209059
 21
32.3706567468327
 31
0.0
  0
LWPOLYLINE
  5
3E2
330
2
100
AcDbEntity
  8
0
  6
HIDDEN
100
AcDbPolyline
 90
       17
 70
     0
 43
0.0
 10
11.98367046170591
 20
34.22097428655095
 10
12.11297447930589
 20
34.24013255535095
 10
12.23827906330591
 20
34.27874297455096
 10
12.35667504250591
 20
34.33601563055091
 10
12.46540083130591
 20
34.41072704335096
 10
12.56191180410588
 20
34.50125093135094
 10
12.6439333929059
 20
34.60559162255091
 10
12.70951757850591
 20
34.72143307055091
 10
12.75708551290589
 20
34.84619068015095
 10
12.78546248410589
 20
34.97706459855095
 10
12.79390837210589
 20
35.11110539375096
 10
12.78213697210588
 20
35.24527686255092
 10
12.75031737210591
 20
35.37655787055095
 10
12.6990712345059
 20
35.50196591695092
 10
12.62946134490589
 20
35.61864319215095
 10
12.54296695130591
 20
35.72392197295096
 10
12.44145170490588
 20
35.81538291375096
  0
LWPOLYLINE
  5
3F6
330
2
100
AcDbEntity
  8
0
  6
HIDDEN
100
AcDbPolyline
 90
       15
 70
     0
 43
0.0
 10
12.19950320410591
 20
34.20814842255092
 10
12.32403970330591
 20
34.26175636495094
 10
12.4393341561059
 20
34.33310299055094
 10
12.5428773849059
 20
34.42063556495091
 10
12.63241595610588
 20
34.52244909775095
 10
12.70600122490589
 20
34.63632780335092
 10
12.76203174170591
 20
34.75979331695091
 10
12.79928810010591
 20
34.89015863215096
 10
12.8169594841059
 20
35.02458658095096
 10
12.81466130810591
 20
35.16015158415092
 10
12.79244358650591
 20
35.29390331215094
 10
12.75078984890591
 20
35.42293089615094
 10
12.69060661530591
 20
35.54442628495095
 10
12.61320366170591
 20
35.65574535215094
 10
12.53271954970588
 20
35.74284010415095
  0
LWPOLYLINE
  5
407
330
2
100
AcDbEntity
  8
0
  6
HIDDEN
100
AcDbPolyline
 90
       17
 70
     0
 43
0.0
 10
12.5100623977059
 20
34.38999150415091
 10
12.60400459930591
 20
34.48675874095096
 10
12.68277375130588
 20
34.59623228655095
 10
12.74467368410589
 20
34.71605480015091
 10
12.7883714809059
 20
34.84364609295096
 10
12.81292618170589
 20
34.97625869455095
 10
12.81780904090591
 20
35.11103700975096
 10
12.80291491130587
 20
35.24507879855096
 10
12.76856451610591
 20
35.37549768495094
 10
12.7154975369059
 20
35.49948531055096
 10
12.64485668250588
 20
35.61437180175096
 10
12.5581630921059
 20
35.71768326255096
 10
12.4572835753059
 20
35.80719504335096
 10
12.3443904089059
 20
35.88097965135094
 10
12.22191456410588
 20
35.93744825775095
 10
12.09249336090589
 20
35.97538489935095
 10
11.9589136825059
 20
35.99397267055095
  0
LWPOLYLINE
  5
41A
330
2
100
AcDbEntity
  8
0
  6
HIDDEN
100
AcDbPolyline
 90
       40
 70
     0
 43
0.0
 10
12.05431684730591
 20
35.97977023215094
 10
11.91834926010591
 20
35.99277099215092
 10
11.78195992570589
 20
35.98541207055097
 10
11.64818053530591
 20
35.95785704495094
 10
11.5199847721059
 20
35.91071841295095
 10
11.4002221993059
 20
35.84504398415095
 10
11.29155492730591
 20
35.76229358415094
 10
11.19639843930591
 20
35.66430660975092
 10
11.11686789530588
 20
35.55326113775092
 10
11.05473111930591
 20
35.43162551215095
 10
11.01136930170591
 20
35.30210347855094
 10
10.98774629850591
 20
35.16757408335095
 10
10.9843872073059
 20
35.03102767695094
 10
11.0013666953059
 20
34.89549944495095
 10
11.03830734010588
 20
34.76400194255091
 10
11.0943880137059
 20
34.63945812495095
 10
11.16836214330591
 20
34.52463638255096
 10
11.25858541530588
 20
34.42208899855092
 10
11.3630523225059
 20
34.33409542255091
 10
11.47944075290588
 20
34.26261159375096
 10
11.60516359610591
 20
34.20922647375096
 10
11.73742625690589
 20
34.17512671695095
 10
11.8732887673059
 20
34.16107030415094
 10
12.00973114330591
 20
34.16736968175095
 10
12.1437205145059
 20
34.19388482735095
 10
12.2722785321059
 20
34.24002635375094
 10
12.39254757850591
 20
34.30476861935096
 10
12.50185428570588
 20
34.38667251695096
 10
12.59776895770591
 20
34.48391746575095
 10
12.67815958010591
 20
34.59434188495094
 10
12.74123921370591
 20
34.71549123215095
 10
12.78560570810589
 20
34.84467257135094
 10
12.81027287290591
 20
34.97901443215096
 10
12.81469240250591
 20
35.11553063055095
 10
12.79876606010589
 20
35.25118665135096
 10
12.76284785530589
 20
35.38296710095096
 10
12.70773619130591
 20
35.50794273455096
 10
12.6346561017059
 20
35.62333556335096
 10
12.5452320265059
 20
35.72658060815095
 10
12.44145170490588
 20
35.81538291375096
  0
LWPOLYLINE
  5
444
330
2
100
AcDbEntity
  8
0
  6
HIDDEN
100
AcDbPolyline
 90
      115
 70
     0
 43
0.0
 10
12.13648873530589
 20
35.96175096815096
 10
12.00224888250591
 20
35.98717332655096
 10
11.86572106330591
 20
35.99234911855095
 10
11.7299417449059
 20
35.97716323055095
 10
11.5979307497059
 20
35.94195340495096
 10
11.47262409210588
 20
35.88750273135096
 10
11.35680867130591
 20
35.81502223215096
 10
11.2530603017059
 20
35.72612391855094
 10
11.16368641370588
 20
35.62278494895096
 10
11.09067474330591
 20
35.50730364975092
 10
11.03564911770588
 20
35.38224840175095
 10
10.9998333417059
 20
35.25040051695095
 10
10.98402398490588
 20
35.11469237935094
 10
10.98857265530588
 20
34.97814222735096
 10
11.01337818970588
 20
34.84378702575091
 10
11.0578888953059
 20
34.71461492655095
 10
11.12111482330588
 20
34.59349879855094
 10
11.20164978970591
 20
34.48313234575095
 10
11.29770264090591
 20
34.38597019215094
 10
11.40713710170591
 20
34.30417328815096
 10
11.5275192729059
 20
34.23956085135091
 10
11.65617177850592
 20
34.19356990415096
 10
11.79023330170591
 20
34.16722331535092
 10
11.92672222330588
 20
34.16110705135094
 10
12.06260294010589
 20
34.17535714095095
 10
12.19485337690591
 20
34.20965665455094
 10
12.3205321945059
 20
34.26324274575091
 10
12.43684421370591
 20
34.33492362735091
 10
12.54120257690588
 20
34.42310506575092
 10
12.63128628730591
 20
34.52582585135095
 10
12.70509182330589
 20
34.64080140175096
 10
12.76097769850591
 20
34.76547458895092
 10
12.7977009769059
 20
34.89707259535094
 10
12.81444490650591
 20
35.03266859535094
 10
12.81083709370591
 20
35.16924684495094
 10
12.78695777530589
 20
35.30376975215094
 10
12.74333804570591
 20
35.43324543855095
 10
12.68094803450589
 20
35.55479428175095
 10
12.60117533850591
 20
35.66571295215095
 10
12.50579415610589
 20
35.76353454575095
 10
12.39692582490589
 20
35.84608344655094
 10
12.27699165050587
 20
35.91152371215097
 10
12.14865904890591
 20
35.95839990735092
 10
12.0147822201059
 20
35.98566947535096
 10
11.87833867450591
 20
35.99272592175094
 10
11.74236300730591
 20
35.97941230575094
 10
11.60987940730591
 20
35.94602473295094
 10
11.48383439610589
 20
35.89330576495092
 10
11.36703129850592
 20
35.82242790575094
 10
11.26206789370588
 20
35.73496752655094
 10
11.17127863610591
 20
35.63286980175095
 10
11.09668274010589
 20
35.51840545615096
 10
11.03993926650591
 20
35.39412024815095
 10
11.00231022810591
 20
35.26277836655094
 10
10.98463251930589
 20
35.12730094095096
 10
10.98729930490588
 20
34.99070107695095
 10
11.0102512745059
 20
34.85601684815091
 10
11.05297795930589
 20
34.72624371855096
 10
11.11452908890591
 20
34.60426793135096
 10
11.1935357289059
 20
34.49280230735095
 10
11.28824071610589
 20
34.39432591535092
 10
11.39653775130591
 20
34.31102893455096
 10
11.51601823450589
 20
34.24476394735092
 10
11.64402484090591
 20
34.19700472975091
 10
11.7777106217059
 20
34.16881347855095
 10
11.91410231450591
 20
34.16081718575091
 10
12.0501664777059
 20
34.17319369295091
 10
12.1828769545059
 20
34.20566774095096
 10
12.30928217690591
 20
34.25751708335096
 10
12.4265708073059
 20
34.32758855695095
 10
12.53213427130589
 20
34.41432372495091
 10
12.62362476730591
 20
34.51579354255096
 10
12.69900748410589
 20
34.62974125135096
 10
12.7566058617059
 20
34.75363257935095
 10
12.7951388745059
 20
34.88471210415096
 10
12.8137495209059
 20
35.02006452655095
 10
12.81202389050591
 20
35.15667952015096
 10
12.7900003609059
 20
35.29151867855094
 10
12.74816874970591
 20
35.42158308815095
 10
12.68745942010591
 20
35.54398003215095
 10
12.6092225865059
 20
35.65598732015095
 10
12.5151982905059
 20
35.75511383535095
 10
12.40747769210591
 20
35.83915493935094
 10
12.2884565705059
 20
35.90624150415095
 10
12.16078203450591
 20
35.95488147695096
 10
12.02729364730591
 20
35.98399307535092
 10
11.8909602809059
 20
35.99292883535096
 10
11.75481408090588
 20
35.98149002255095
 10
11.62188302650591
 20
35.94993104175094
 10
11.49512359290591
 20
35.89895378735096
 10
11.37735499450589
 20
35.82969202575094
 10
11.2711964825059
 20
35.74368618415096
 10
11.1790090921059
 20
35.64284908975094
 10
11.10284313210588
 20
35.52942342735096
 10
11.0443925849059
 20
35.40593185615094
 10
11.00495742650591
 20
35.27512091375095
 10
10.9854147241059
 20
35.13989992015095
 10
10.9861991177059
 20
35.00327627855094
 10
11.00729316410588
 20
34.86828859215092
 10
11.04822771610591
 20
34.73793907375096
 10
11.1080923641059
 20
34.61512678415096
 10
11.18555567610589
 20
34.50258314895092
 10
11.27889481850589
 20
34.40281121455092
 10
11.38603386650591
 20
34.31802997455093
 10
11.50458997690589
 20
34.25012501775091
 10
11.63192638330591
 20
34.20060659695096
 10
11.76521104090591
 20
34.17057603535096
 10
11.90147960890588
 20
34.16070123055095
 10
12.0377013849059
 20
34.17120180655095
 10
12.17084670810591
 20
34.20184422255096
 10
12.29795433530588
 20
34.25194697135092
 10
12.4161973113059
 20
34.32039573455091
 10
12.52294583290589
 20
34.40566816495095
 10
12.61582574330589
 20
34.50586775055092
 10
12.69277133050587
 20
34.61876598255094
  0
LWPOLYLINE
  5
4B9
330
2
100
AcDbEntity
  8
0
  6
HIDDEN
100
AcDbPolyline
 90
       23
 70
     0
 43
0.0
 10
11.31200448890591
 20
34.36994935535094
 10
11.42354260090588
 20
34.29053008975091
 10
11.54564198970591
 20
34.22856308175096
 10
11.67559261690588
 20
34.18542371375096
 10
11.8105101833059
 20
34.16206947695096
 10
11.94740014970591
 20
34.15901872655095
 10
12.08322420090588
 20
34.17633917455091
 10
12.21496767290591
 20
34.21364639055096
 10
12.33970647450588
 20
34.27011232495095
 10
12.4546719865059
 20
34.34448369775092
 10
12.5573125129059
 20
34.43510981295094
 10
12.64534991290591
 20
34.53997919535092
 10
12.7168301625059
 20
34.65676422735092
 10
12.77016673850589
 20
34.78287283055095
 10
12.80417581530591
 20
34.91550598415094
 10
12.81810255130591
 20
35.05171984815092
 10
12.81163783610588
 20
35.18849110895095
 10
12.78492515770591
 20
35.32278408335093
 10
12.73855741210587
 20
35.45161809615092
 10
12.67356374650589
 20
35.57213363215092
 10
12.59138672090588
 20
35.68165580495096
 10
12.49385027770588
 20
35.77775373615094
 10
12.3831192713059
 20
35.85829450255096
  0
LWPOLYLINE
  5
4D2
330
2
100
AcDbEntity
  8
0
  6
HIDDEN
100
AcDbPolyline
 90
       64
 70
     0
 43
0.0
 10
11.15677602810591
 20
34.54031864335096
 10
11.24465681370588
 20
34.43601704975091
 10
11.3470484489059
 20
34.34591817295091
 10
11.46168157690588
 20
34.27201891215094
 10
11.58601553050589
 20
34.21595713615096
 10
11.7172946345059
 20
34.17897536655095
 10
11.85260929050591
 20
34.16189324975096
 10
11.9889604521059
 20
34.16508938415091
 10
12.12332610490591
 20
34.18849292975096
 10
12.2527282377059
 20
34.23158518735096
 10
12.3742988505059
 20
34.29341107855091
 10
12.48534351450591
 20
34.37260032975092
 10
12.58340109370588
 20
34.46739782895096
 10
12.66629829050589
 20
34.57570253455091
 10
12.73219781530591
 20
34.69511403855094
 10
12.77963910650591
 20
34.82298576495091
 10
12.80757069850591
 20
34.95648363375096
 10
12.8153735305059
 20
35.09264886575095
 10
12.8028746649059
 20
35.22846356655094
 10
12.7703511193059
 20
35.36091760975094
 10
12.7185237289059
 20
35.48707535375095
 10
12.6485411689059
 20
35.60414070255095
 10
12.56195449690591
 20
35.70951908335095
 10
12.46068277530591
 20
35.80087494095096
 10
12.34697053530591
 20
35.87618351535096
 10
12.2233380393059
 20
35.93377570415094
 10
12.09252540890591
 20
35.97237506575095
 10
11.95743191130588
 20
35.99112610255096
 10
11.82105168570591
 20
35.98961322735096
 10
11.68640739290589
 20
35.96786997135097
 10
11.55648322010588
 20
35.92637823855094
 10
11.43415873850589
 20
35.86605763215095
 10
11.32214508250591
 20
35.78824506575094
 10
11.22292486490589
 20
35.69466513615094
 10
11.13869715130587
 20
35.58739190095096
 10
11.07132872250591
 20
35.46880290735094
 10
11.02231269370591
 20
35.34152650095094
 10
10.99273543450588
 20
35.20838356815096
 10
10.98325247610588
 20
35.07232502255095
 10
10.99407399770591
 20
34.93636639055094
 10
11.0249601529059
 20
34.80352099215096
 10
11.07522639930589
 20
34.67673314095091
 10
11.14375866170588
 20
34.55881289775095
 10
11.22903802810589
 20
34.45237378575095
 10
11.32917440730591
 20
34.35977486575095
 10
11.44194843290588
 20
34.28306845135091
 10
11.56486063770589
 20
34.22395462415096
 10
11.69518686010589
 20
34.18374355215096
 10
11.8300386185059
 20
34.16332645295094
 10
11.96642712730589
 20
34.16315583855094
 10
12.1013295449059
 20
34.18323549295095
 10
12.2317559625059
 20
34.22312037935091
 10
12.3548156793059
 20
34.28192651055096
 10
12.46778126010591
 20
34.35835053775096
 10
12.56814899770589
 20
34.45069864015096
 10
12.6536943929059
 20
34.55692405935096
 10
12.72252146330591
 20
34.67467247535092
 10
12.7731047609059
 20
34.80133416815096
 10
12.80432318170591
 20
34.93410187855096
 10
12.8154848201059
 20
35.07003300975094
 10
12.80634229370591
 20
35.20611485615094
 10
12.77709823290591
 20
35.33933136975096
 10
12.7284007881059
 20
35.46673000975096
 10
12.66117915130588
 20
35.58571197455094
  0
LWPOLYLINE
  5
514
330
2
100
AcDbEntity
  8
0
  6
HIDDEN
100
AcDbPolyline
 90
       23
 70
     0
 43
0.0
 10
11.14053477530591
 20
34.55832559695096
 10
11.2259892921059
 20
34.45134104015096
 10
11.32638984890589
 20
34.35823948655095
 10
11.43950801850589
 20
34.28108736175096
 10
11.56283310490589
 20
34.22159708335096
 10
11.69362786650589
 20
34.18108905615096
 10
11.8289892729059
 20
34.16046236815091
 10
11.9659129321059
 20
34.16017483695091
 10
12.1013597721059
 20
34.18023284495095
 10
12.23232350810589
 20
34.22019119855096
 10
12.35589735770591
 20
34.27916300655096
 10
12.46933855770591
 20
34.35583937135095
 10
12.57012923930591
 20
34.44851843535096
 10
12.6560323209059
 20
34.55514315215092
 10
12.72514115770589
 20
34.67334695695092
 10
12.77592185370591
 20
34.80050627375095
 10
12.8072473129059
 20
34.93379875535095
 10
12.81842225850589
 20
35.07026593455094
 10
12.80919865690589
 20
35.20687887535092
 10
12.77978123130589
 20
35.34060540975096
 10
12.73082290970589
 20
35.46847742735096
 10
12.66341033850591
 20
35.58765676815096
 10
12.5790397625059
 20
35.69549821135092
  0
LWPOLYLINE
  5
52D
330
2
100
AcDbEntity
  8
0
  6
HIDDEN
100
AcDbPolyline
 90
       55
 70
     0
 43
0.0
 10
12.69277133050587
 20
34.61876598255094
 10
12.75205727610588
 20
34.74181630255091
 10
12.79238961690592
 20
34.87231345455092
 10
12.81287183450591
 20
35.00735671855096
 10
12.81304864570589
 20
35.14394432175098
 10
12.7929161225059
 20
35.27904016175094
 10
12.75292177210589
 20
35.40964129615096
 10
12.69395460090591
 20
35.53284469455096
 10
12.6173253433059
 20
35.64591176015096
 10
12.5247373337059
 20
35.74632921295094
 10
12.4182486393059
 20
35.83186495055096
 10
12.30022631610589
 20
35.90061766415095
 10
12.17329379130591
 20
35.95105910255094
 10
12.04027255130589
 20
35.98206804175095
 10
11.9041194249059
 20
35.99295520655096
 10
11.76786085210591
 20
35.98347859535095
 10
11.63452562490589
 20
35.95384885775095
 10
11.50707754650591
 20
35.90472460815095
 10
11.3883495641059
 20
35.83719779375096
 10
11.2809807913059
 20
35.75276941615095
 10
11.18735784570588
 20
35.65331616655092
 10
11.1095618009059
 20
35.54104872015094
 10
11.04932192570591
 20
35.41846257935094
 10
11.00797724410588
 20
35.28828261935092
 10
10.9864467785059
 20
35.15340251215096
 10
10.98520911130589
 20
35.01682040175094
 10
11.00429175290591
 20
34.88157227055092
 10
11.0432705321059
 20
34.75066444335095
 10
11.10127901690589
 20
34.62700676975094
 10
11.17702778330588
 20
34.51334794415092
 10
11.26883306970589
 20
34.41221439855095
 10
11.3746542057059
 20
34.32585415535095
 10
11.49213897530589
 20
34.25618684815091
 10
11.61867589690591
 20
34.20476106095091
 10
11.7514522825059
 20
34.17271989615096
 10
11.88751674330591
 20
34.16077557295094
 10
12.02384480890589
 20
34.16919359215091
 10
12.15740614490589
 20
34.19778683695094
 10
12.2852319225059
 20
34.24591972975096
 10
12.4044807961059
 20
34.31252236015095
 10
12.51250207610588
 20
34.39611427055095
 10
12.60689464090589
 20
34.49483736015094
 10
12.68556030810589
 20
34.60649718735095
 10
12.74675047930588
 20
34.72861175375095
 10
12.78910500730589
 20
34.85846666735094
 10
12.81168242330591
 20
34.99317548335094
 10
12.8139808713059
 20
35.12974385935095
 10
12.79594926170591
 20
35.26513612495094
 10
12.75798840570588
 20
35.39634274735095
 10
12.70094210490589
 20
35.52044723695095
 10
12.62607839770591
 20
35.63469096655095
 10
12.5350613753059
 20
35.73653450255093
 10
12.42991418170591
 20
35.82371404335094
 10
12.3129740537059
 20
35.89429173935096
 10
12.18684036570589
 20
35.94669877295095
  0
LWPOLYLINE
  5
566
330
2
100
AcDbEntity
  8
0
  6
HIDDEN
100
AcDbPolyline
 90
       23
 70
     0
 43
0.0
 10
12.5790397625059
 20
35.69549821135092
 10
12.4795838153059
 20
35.78960817455095
 10
12.36724995610591
 20
35.86789785615096
 10
12.24453147130587
 20
35.92862959055094
 10
12.1141521369059
 20
35.97045541935094
 10
11.97900576730589
 20
35.99244700015094
 10
11.84209198490589
 20
35.99411622575095
 10
11.7064496345059
 20
35.97542604655098
 10
11.57508934170589
 20
35.93679129455094
 10
11.4509266921059
 20
35.87906948335094
 10
11.3367175225059
 20
35.80354176975097
 10
11.23499674010591
 20
35.71188451375096
 10
11.14802206970588
 20
35.60613207855095
 10
11.07772394650591
 20
35.48863167695094
 10
11.0256626601059
 20
35.36199126895096
 10
10.9929937289059
 20
35.22902168335096
 10
10.98044225050588
 20
35.09267421775095
 10
10.98828680730591
 20
34.95597515535095
 10
11.01635328890589
 20
34.82195857935096
 10
11.0640187481059
 20
34.69359902895095
 10
11.1302252377059
 20
34.57374548815096
 10
11.21350327930591
 20
34.46505814415095
 10
11.31200448890591
 20
34.36994935535094
  0
LWPOLYLINE
  5
57F
330
2
100
AcDbEntity
  8
0
  6
HIDDEN
100
AcDbPolyline
 90
       48
 70
     0
 43
0.0
 10
12.66132926490588
 20
35.58548717935096
 10
12.57737019930589
 20
35.69297080655096
 10
12.47838441850591
 20
35.78679868015092
 10
12.36656578970588
 20
35.86489124655094
 10
12.24439260570591
 20
35.92551770575096
 10
12.11457264570589
 20
35.96733436175094
 10
11.97998317370589
 20
35.98941441455096
 10
11.84360715930589
 20
35.99126849135092
 10
11.70846717210591
 20
35.97285549935094
 10
11.57755838170591
 20
35.93458353615094
 10
11.45378218170588
 20
35.87730084015092
 10
11.33988188570589
 20
35.80227699535092
 10
11.2383819193059
 20
35.71117479215095
 10
11.15153187610589
 20
35.60601337135094
 10
11.08125665210589
 20
35.48912347535096
 10
11.02911379290588
 20
35.36309579215094
 10
10.99625896730589
 20
35.23072353295094
 10
10.98342034810591
 20
35.09494052815094
 10
10.99088248730591
 20
34.95875620015095
 10
11.01847999770591
 20
34.82518886895096
 10
11.06560122010588
 20
34.69719884975091
 10
11.13120178650591
 20
34.57762284655092
 10
11.2138277593059
 20
34.46911108175092
 10
11.3116478601059
 20
34.37406855055096
 10
11.42249405530588
 20
34.29460172975092
 10
11.54390960570589
 20
34.23247187695094
 10
11.6732035225059
 20
34.18905600655091
 10
11.80751020250591
 20
34.16531636655093
 10
11.94385294010591
 20
34.16177910895092
 10
12.07920990970591
 20
34.17852263375095
 10
12.2105811273059
 20
34.21517584335092
 10
12.33505495130589
 20
34.27092637615095
 10
12.44987260730589
 20
34.34453860655094
 10
12.55248933850592
 20
34.43438103055092
 10
12.64063079770591
 20
34.53846243055096
 10
12.71234346810591
 20
34.65447599695096
 10
12.76603794330589
 20
34.77985046735094
 10
12.8005241705059
 20
34.91180710735093
 10
12.81503781210591
 20
35.04742129935095
 10
12.80925719770588
 20
35.18368735855094
 10
12.7833104441059
 20
35.31758515855094
 10
12.7377726217059
 20
35.44614705455094
 10
12.67365300890588
 20
35.56652367215096
 10
12.59237271610591
 20
35.67604704335096
 10
12.49573320090588
 20
35.77228974895095
 10
12.3858763289059
 20
35.85311871855094
 10
12.26523690970589
 20
35.91674249935095
 10
12.13648873530589
 20
35.96175096815096
  0
CIRCLE
  5
5B1
330
2
100
AcDbEntity
  8
0
  6
HIDDEN
100
AcDbCircle
 10
11.8993757209059
 20
35.07683315215095
 30
0.0
 40
0.7975
  0
CIRCLE
  5
5B2
330
2
100
AcDbEntity
  8
0
  6
HIDDEN
100
AcDbCircle
 10
11.8993757209059
 20
35.07683315215095
 30
0.0
 40
1.0937499776
  0
CIRCLE
  5
5B3
330
2
100
AcDbEntity
  8
0
  6
HIDDEN
100
AcDbCircle
 10
11.8993757209059
 20
35.07683315215095
 30
0.0
 40
0.8599999999999999
  0
CIRCLE
  5
5B4
330
2
100
AcDbEntity
  8
0
  6
HIDDEN
100
AcDbCircle
 10
11.8993757209059
 20
35.07683315215095
 30
0.0
 40
0.9375
  0
CIRCLE
  5
5B5
330
2
100
AcDbEntity
  8
0
  6
HIDDEN
100
AcDbCircle
 10
11.8993757209059
 20
35.07683315215095
 30
0.0
 40
0.6725
  0
CIRCLE
  5
5B6
330
2
100
AcDbEntity
  8
0
  6
HIDDEN
100
AcDbCircle
 10
11.8993757209059
 20
35.07683315215095
 30
0.0
 40
1.125
  0
LWPOLYLINE
  5
5B7
330
2
100
AcDbEntity
  8
0
  6
HIDDEN
100
AcDbPolyline
 90
       16
 70
     0
 43
0.0
 10
11.15605852890588
 20
34.54131314735096
 10
11.24309750170588
 20
34.43761408015095
 10
11.34446874490591
 20
34.34787473615091
 10
11.45795844410591
 20
34.27405490735091
 10
11.58108812890588
 20
34.21776672175096
 10
11.7111688057059
 20
34.18023944175095
 10
11.8453596793059
 20
34.16229261615095
 10
11.98073019290591
 20
34.16431818095091
 10
12.11432402970591
 20
34.18627189775091
 10
12.24322367290591
 20
34.22767432655095
 10
12.36461411770591
 20
34.28762129295091
 10
12.4758443561059
 20
34.36480363215096
 10
12.57448525850588
 20
34.45753577935096
 10
12.65838263930591
 20
34.56379258575092
 10
12.72570428250588
 20
34.68125353775096
 10
12.77497997370591
 20
34.80735344015096
  0
LWPOLYLINE
  5
5C9
330
2
100
AcDbEntity
  8
0
  6
HIDDEN
100
AcDbPolyline
 90
       22
 70
     0
 43
0.0
 10
12.81356251130588
 20
35.07683315215095
 10
12.80208043290591
 20
34.94092952815094
 10
12.7701415833059
 20
34.80720164495096
 10
12.71865827130591
 20
34.68021332495095
 10
12.6497046217059
 20
34.56383662575092
 10
12.5644372025059
 20
34.45918859695092
 10
12.46444523610588
 20
34.36823070575096
 10
12.35247310650591
 20
34.29340355375094
 10
12.23040686010588
 20
34.23593396655096
 10
12.10180986490589
 20
34.19742467055096
 10
11.96904043450591
 20
34.17842703535095
 10
11.8340315177059
 20
34.17942072655091
 10
11.70063753690588
 20
34.20061783055095
 10
11.57297224250591
 20
34.24115267535091
 10
11.45216322010588
 20
34.30059816335094
 10
11.34160473050589
 20
34.37749814895096
 10
11.24468844250589
 20
34.46919623695094
 10
11.16273295290591
 20
34.57397875215096
 10
11.09713126490591
 20
34.69009020495096
 10
11.04970434010589
 20
34.81436007695092
 10
11.02134363770591
 20
34.94431725135092
 10
11.01271238010591
 20
35.07683315215095
  0
LWPOLYLINE
  5
5E1
330
2
100
AcDbEntity
  8
0
  6
HIDDEN
100
AcDbPolyline
 90
       19
 70
     0
 43
0.0
 10
10.9930730649059
 20
35.22949342575094
 10
10.9804895625059
 20
35.09521501455094
 10
10.98769279930589
 20
34.96054077935096
 10
11.01452766490591
 20
34.82837071695096
 10
11.0604163113059
 20
34.70155089295096
 10
11.12437060410589
 20
34.58281216655092
 10
11.20501338810591
 20
34.47471139215096
 10
11.3006081465059
 20
34.37957634255096
 10
11.4090964057059
 20
34.29945560015096
 10
11.52814204410589
 20
34.23607443375095
 10
11.65518160410589
 20
34.19079765615094
 10
11.78747948890588
 20
34.16460023215091
 10
11.92218688090591
 20
34.15804628015095
 10
12.05640307450591
 20
34.17127692655091
 10
12.18723793370588
 20
34.20400727535096
 10
12.3118741417059
 20
34.25553252495092
 10
12.4276278569059
 20
34.32474316655091
 10
12.5320065145059
 20
34.41014885935095
 10
12.62276248090589
 20
34.50991052815095
  0
LWPOLYLINE
  5
5F6
330
2
100
AcDbEntity
  8
0
  6
HIDDEN
100
AcDbPolyline
 90
       23
 70
     0
 43
0.0
 10
11.06029010970589
 20
34.70183315215095
 10
11.08016426330588
 20
34.66020111855096
 10
11.15115340410591
 20
34.54311690735096
 10
11.23874959290589
 20
34.43787870735096
 10
11.3410085961059
 20
34.34682231695095
 10
11.45566074650591
 20
34.27196876175094
 10
11.58016130010591
 20
34.21497944175095
 10
11.71174692570591
 20
34.17711925295091
 10
11.84749703290589
 20
34.15922851695091
 10
11.98439860570589
 20
34.16170432175096
 10
12.11941306970591
 20
34.18449172015096
 10
12.24954372890589
 20
34.22708493455095
 10
12.3719022921059
 20
34.28853859695095
 10
12.48377296730591
 20
34.36748871855096
 10
12.5826727529059
 20
34.46218298095095
 10
12.66640653050591
 20
34.57051960975096
 10
12.73311580090589
 20
34.69009403535094
 10
12.78131993210588
 20
34.81825226575091
 10
12.80994901530589
 20
34.95214978735095
 10
12.81836761850589
 20
35.08881469935096
 10
12.8063888889059
 20
35.22521367215094
 10
12.7742786985059
 20
35.35831929135096
 10
12.72274974010591
 20
35.48517723375096
  0
LWPOLYLINE
  5
60F
330
2
100
AcDbEntity
  8
0
  6
HIDDEN
100
AcDbPolyline
 90
       13
 70
     0
 43
0.0
 10
10.98824807930589
 20
34.95626747055095
 10
11.0159004329059
 20
34.82353277775095
 10
11.06278003770589
 20
34.69631071215096
 10
11.1278666441059
 20
34.57737003055092
 10
11.2097437577059
 20
34.46929926735092
 10
11.30662946970591
 20
34.37445038735091
 10
11.41641523930589
 20
34.29488760495095
 10
11.53671177530589
 20
34.23234246095091
 10
11.66490104090588
 20
34.18817613775095
 10
11.7981932233059
 20
34.16334983695091
 10
11.9336874617059
 20
34.15840385615095
 10
12.06843496890589
 20
34.17344584015092
 10
12.19950320410591
 20
34.20814842255092
  0
LWPOLYLINE
  5
61E
330
2
100
AcDbEntity
  8
0
  6
HIDDEN
100
AcDbPolyline
 90
       10
 70
     0
 43
0.0
 10
11.0575743305059
 20
34.71534658095094
 10
11.12004045530591
 20
34.59523304175096
 10
11.19952626010591
 20
34.48563702895091
 10
11.29429587770589
 20
34.38895198095096
 10
11.40227966010588
 20
34.30728937135091
 10
11.5211193817059
 20
34.24243260975095
 10
11.6482197353059
 20
34.19579808175092
 10
11.7808050137059
 20
34.16840422735091
 10
11.9159797225059
 20
34.16084929295095
 10
12.0507918217059
 20
34.17329826735095
  0
LWPOLYLINE
  5
62A
330
2
100
AcDbEntity
  8
0
  6
HIDDEN
100
AcDbPolyline
 90
        9
 70
     0
 43
0.0
 10
12.18229718810589
 20
34.20547928175094
 10
12.30762391290591
 20
34.25668954415096
 10
12.42403502330589
 20
34.32581068815096
 10
12.52898824890589
 20
34.41133319695095
 10
12.6201915449059
 20
34.51138936975095
 10
12.6956531529059
 20
34.62379410735096
 10
12.7537250841059
 20
34.74609263375092
 10
12.79313912410589
 20
34.87561410895091
 10
12.81303452090588
 20
35.00952994895095
  0
LWPOLYLINE
  5
635
330
2
100
AcDbEntity
  8
0
  6
CONTINUOUS
100
AcDbPolyline
 90
        4
 70
     0
 43
0.0
 10
15.59719438490589
 20
33.59406156015092
 10
15.23547954170591
 20
34.01487676015094
 10
15.00430710970589
 20
34.52396118575094
 10
14.92527748730589
 20
35.07683318575095
  0
LWPOLYLINE
  5
63B
330
2
100
AcDbEntity
  8
0
  6
CONTINUOUS
100
AcDbPolyline
 90
        4
 70
     0
 43
0.0
 10
15.7082338697059
 20
33.72019690895095
 10
15.37788419930591
 20
34.10562815055095
 10
15.16667382330591
 20
34.57134804975092
 10
15.09448092250591
 20
35.07683315215095
  0
LINE
  5
641
330
2
100
AcDbEntity
  8
0
  6
CONTINUOUS
100
AcDbLine
 10
15.59719438490589
 20
33.59406156015092
 30
0.0
 11
15.7082365385059
 21
33.72019994575095
 31
0.0
  0
LWPOLYLINE
  5
642
330
2
100
AcDbEntity
  8
0
  6
HIDDEN
100
AcDbPolyline
 90
       22
 70
     0
 43
0.0
 10
11.01271238010591
 20
35.07683315215095
 10
11.02311590010589
 20
35.20374857295095
 10
11.05198126330589
 20
35.32903692815094
 10
11.09892960730589
 20
35.44926656335096
 10
11.16239967930589
 20
35.56060935215095
 10
11.24063483290591
 20
35.66078906735095
 10
11.3327270377059
 20
35.74885900335095
 10
11.43601166810589
 20
35.82233995055094
 10
11.54871493050591
 20
35.88014036335096
 10
11.66828009370588
 20
35.92101583535094
 10
11.7926772937059
 20
35.94426947215095
 10
11.91875946810589
 20
35.94932486895095
 10
12.04430578490588
 20
35.93613464175095
 10
12.16636343290591
 20
35.90503148655094
 10
12.2826079865059
 20
35.85665361135096
 10
12.39049304890591
 20
35.79208542735094
 10
12.4878105081059
 20
35.71269802255093
 10
12.57257521850589
 20
35.62013887215096
 10
12.64290628730589
 20
35.51654347055094
 10
12.69746125210591
 20
35.40401713615094
 10
12.73516600570589
 20
35.28480387695094
 10
12.75523458650589
 20
35.16112789295096
  0
LWPOLYLINE
  5
65A
330
2
100
AcDbEntity
  8
0
  6
HIDDEN
100
AcDbPolyline
 90
       16
 70
     0
 43
0.0
 10
12.57786457370591
 20
35.69242636175096
 10
12.47973267290591
 20
35.78569698415094
 10
12.36892652090588
 20
35.86348693135096
 10
12.2478659849059
 20
35.92409737135094
 10
12.1191948697059
 20
35.96620465135095
 10
11.9857231849059
 20
35.98888920175096
 10
11.85036578490588
 20
35.99165561935098
 10
11.71607869850591
 20
35.97444349295094
 10
11.58579458170591
 20
35.93762870895094
 10
11.46235867610589
 20
35.88201525775096
 10
11.34846665850591
 20
35.80881766415098
 10
11.24660578810591
 20
35.71963447055094
 10
11.15900057370591
 20
35.61641332335094
 10
11.08756419930588
 20
35.50140843855095
 10
11.03385674490588
 20
35.37713137615094
 10
10.99905111130588
 20
35.24629618575096
  0
LWPOLYLINE
  5
66C
330
2
100
AcDbEntity
  8
0
  6
HIDDEN
100
AcDbPolyline
 90
       23
 70
     0
 43
0.0
 10
12.72274974010591
 20
35.48517723375096
 10
12.65294572090589
 20
35.60297184015095
 10
12.5664159641059
 20
35.70908862255098
 10
12.46508102490591
 20
35.80117228015097
 10
12.3511900649059
 20
35.87717899215096
 10
12.22727093370591
 20
35.93542175695094
 10
12.09607406170589
 20
35.97460786095095
 10
11.9605114025059
 20
35.99386755215096
 10
11.82359181530588
 20
35.99277336015095
 10
11.68835427770591
 20
35.97134956495094
 10
11.5578004329059
 20
35.93007168015094
 10
11.43482796570589
 20
35.86985588015096
 10
11.32216629050589
 20
35.79203867375096
 10
11.22231597210588
 20
35.69834724015092
 10
11.1374932249059
 20
35.59086109455094
 10
11.06958071290588
 20
35.47196592655097
 10
11.02008578010588
 20
35.34430065135095
 10
10.99010698170589
 20
35.21069884655094
 10
10.98030970970589
 20
35.07412584815094
 10
10.99091141370588
 20
34.93761294095094
 10
11.0216767897059
 20
34.80419007055095
 10
11.07192298810591
 20
34.67681860495096
 10
11.14053477530591
 20
34.55832559695096
  0
LINE
  5
685
330
2
100
AcDbEntity
  8
0
  6
HIDDEN
100
AcDbLine
 10
12.18706188570588
 20
35.94662553615094
 30
0.0
 11
12.05431684730591
 21
35.97977023215094
 31
0.0
  0
LWPOLYLINE
  5
686
330
2
100
AcDbEntity
  8
0
  6
HIDDEN
100
AcDbPolyline
 90
        3
 70
     0
 43
0.0
 10
12.3831192713059
 20
35.85829450255096
 10
12.2616514137059
 20
35.92149047055096
 10
12.1372485417059
 20
35.96458660015096
  0
LWPOLYLINE
  5
68B
330
2
100
AcDbEntity
  8
0
  6
HIDDEN
100
AcDbPolyline
 90
        3
 70
     0
 43
0.0
 10
11.32954409050589
 20
35.79793063215092
 10
11.2296556905059
 20
35.70624934415096
 10
11.14434254010591
 20
35.60086994415096
  0
LWPOLYLINE
  5
690
330
2
100
AcDbEntity
  8
0
  6
HIDDEN
100
AcDbPolyline
 90
       10
 70
     0
 43
0.0
 10
12.0557346169059
 20
35.97952580015092
 10
11.9209926697059
 20
35.99271241775096
 10
11.78577863770588
 20
35.98589740975095
 10
11.65304541850591
 20
35.95922960655096
 10
11.52569173690591
 20
35.91329140015094
 10
11.40649883290591
 20
35.84908602095095
 10
11.2980697257059
 20
35.76801563375096
 10
11.20277236890591
 20
35.67185070895095
 10
11.1226879337059
 20
35.56269136495098
 10
11.0595653609059
 20
35.44292150255094
  0
LWPOLYLINE
  5
69C
330
2
100
AcDbEntity
  8
0
  6
HIDDEN
100
AcDbPolyline
 90
        4
 70
     0
 43
0.0
 10
10.99905111130588
 20
35.24629618575096
 10
10.98390741050589
 20
35.11176014095096
 10
10.98875636090591
 20
34.97646133615095
 10
11.01349206490588
 20
34.84335452175093
  0
LWPOLYLINE
  5
6A2
330
2
100
AcDbEntity
  8
0
  6
HIDDEN
100
AcDbPolyline
 90
        6
 70
     0
 43
0.0
 10
11.0595653609059
 20
35.44292150255094
 10
11.0147831657059
 20
35.31515674255095
 10
10.98931933530589
 20
35.18218730095094
 10
10.98372996570589
 20
35.04691706095096
 10
10.9981371225059
 20
34.91230014895094
 10
11.0322261705059
 20
34.78127642575091
  0
LWPOLYLINE
  5
6AA
330
2
100
AcDbEntity
  8
0
  6
HIDDEN
100
AcDbPolyline
 90
        4
 70
     0
 43
0.0
 10
11.07546132890588
 20
35.48408582415092
 10
11.0245111337059
 20
35.35843858255094
 10
10.99260079450589
 20
35.22666270735095
 10
10.98042477850589
 20
35.09162605935094
  0
LINE
  5
6B0
330
2
100
AcDbEntity
  8
0
  6
HIDDEN
100
AcDbLine
 10
11.07609618010589
 20
35.48536768015094
 30
0.0
 11
11.02517234010591
 21
35.36048454255094
 31
0.0
  0
LINE
  5
6B1
330
2
100
AcDbEntity
  8
0
  6
HIDDEN
100
AcDbLine
 10
11.1447480233059
 20
35.60145368335094
 30
0.0
 11
11.07546132890588
 21
35.48408582415092
 31
0.0
  0
LINE
  5
6B2
330
2
100
AcDbEntity
  8
0
  6
HIDDEN
100
AcDbLine
 10
11.0852526489059
 20
34.65670728175095
 30
0.0
 11
11.15677602810591
 21
34.54031864335096
 31
0.0
  0
LINE
  5
6B3
330
2
100
AcDbEntity
  8
0
  6
HIDDEN
100
AcDbLine
 10
11.0319731977059
 20
34.78201967695096
 30
0.0
 11
11.0853538345059
 21
34.65651126255096
 31
0.0
  0
ARC
  5
6B4
330
2
100
AcDbEntity
  8
0
  6
HIDDEN
100
AcDbCircle
 10
11.54114504090588
 20
34.91673446415095
 30
0.0
 40
0.5266915984000001
100
AcDbArc
 50
162.3037649711999
 51
204.0805871283
  0
LWPOLYLINE
  5
6B5
330
2
100
AcDbEntity
  8
0
  6
HIDDEN
100
AcDbPolyline
 90
        4
 70
     0
 43
0.0
 10
11.82405194970588
 20
35.99281131375096
 10
11.69081219290591
 20
35.97192583855095
 10
11.5620635145059
 20
35.93176597935095
 10
11.44057831450591
 20
35.87319651375094
  0
LWPOLYLINE
  5
6BB
330
2
100
AcDbEntity
  8
0
  6
HIDDEN
100
AcDbPolyline
 90
        4
 70
     0
 43
0.0
 10
11.69362561210587
 20
35.97257672975095
 10
11.56408119290588
 20
35.93255930095094
 10
11.44183385370588
 20
35.87391853135097
 10
11.32897258330591
 20
35.79747864335095
  0
LWPOLYLINE
  5
6C1
330
2
100
AcDbEntity
  8
0
  6
HIDDEN
100
AcDbPolyline
 90
       11
 70
     0
 43
0.0
 10
12.75161575130587
 20
34.74069470575094
 10
12.7918483449059
 20
34.86996425775092
 10
12.81259048410591
 20
35.00375156175095
 10
12.81338918810588
 20
35.13913487375095
 10
12.79422701370589
 20
35.27315759695096
 10
12.75552243770589
 20
35.40289284495094
 10
12.69812071770589
 20
35.52550736975095
 10
12.62327543450591
 20
35.63832342575094
 10
12.5326211113059
 20
35.73887725775094
 10
12.42813752410589
 20
35.82497289615094
 10
12.3121064601059
 20
35.89473012495094
  0
LWPOLYLINE
  5
6CE
330
2
100
AcDbEntity
  8
0
  6
HIDDEN
100
AcDbPolyline
 90
       20
 70
     0
 43
0.0
 10
12.53271954010588
 20
35.74284009455095
 10
12.53889609690588
 20
35.73690930415094
 10
12.5480572665059
 20
35.72789763855095
 10
12.55784413370591
 20
35.71797644015095
 10
12.56823150490591
 20
35.70709920015096
 10
12.57925633050591
 20
35.69514311375096
 10
12.59101575450588
 20
35.68189622735096
 10
12.60355790490591
 20
35.66716784815094
 10
12.61683624730591
 20
35.65084845455095
 10
12.63084173850592
 20
35.63275401135095
 10
12.64561902170591
 20
35.61258095535094
 10
12.6610992777059
 20
35.59011515215095
 10
12.6772230409059
 20
35.56506186735095
 10
12.69393694010591
 20
35.53701431695094
 10
12.71108628410589
 20
35.50559830735096
 10
12.72849068250589
 20
35.47031484335096
 10
12.74585087610589
 20
35.43066448495096
 10
12.76277870810591
 20
35.38602581135094
 10
12.7787368425059
 20
35.33567332335096
 10
12.79296717530589
 20
35.27881442735096
  0
LINE
  5
6E4
330
2
100
AcDbEntity
  8
0
  6
HIDDEN
100
AcDbLine
 10
12.81303452090588
 20
35.00952994895095
 30
0.0
 11
12.81297678490591
 21
35.14491560495093
 31
0.0
  0
LWPOLYLINE
  5
6E5
330
2
100
AcDbEntity
  8
0
  6
HIDDEN
100
AcDbPolyline
 90
        6
 70
     0
 43
0.0
 10
12.77497997370591
 20
34.80735344015096
 10
12.80513359450589
 20
34.93933843215094
 10
12.8155066281059
 20
35.07432613135094
 10
12.8058725401059
 20
35.20936858255092
 10
12.7764417273059
 20
35.34151662895095
 10
12.7278569209059
 20
35.46788432975094
  0
LINE
  5
6ED
330
2
100
AcDbEntity
  8
0
  6
HIDDEN
100
AcDbLine
 10
12.62276248090589
 20
34.50991052815095
 30
0.0
 11
12.69531368890591
 21
34.61729815215096
 31
0.0
  0
LWPOLYLINE
  5
6EE
330
2
100
AcDbEntity
  8
0
  6
HIDDEN
100
AcDbPolyline
 90
        3
 70
     0
 43
0.0
 10
12.79296717530589
 20
35.27881442735096
 10
12.8088994953059
 20
35.17824109295094
 10
12.81356251130588
 20
35.07683315215095
  0
LINE
  5
6F3
330
2
100
AcDbEntity
  8
0
  6
HIDDEN
100
AcDbLine
 10
12.42057789690591
 20
35.83247292335096
 30
0.0
 11
12.42152093850589
 21
35.83188594575094
 31
0.0
  0
LINE
  5
6F4
330
2
100
AcDbEntity
  8
0
  6
HIDDEN
100
AcDbLine
 10
12.42152093850589
 20
35.83188594575094
 30
0.0
 11
12.42257667930589
 21
35.83121766575095
 31
0.0
  0
LINE
  5
6F5
330
2
100
AcDbEntity
  8
0
  6
HIDDEN
100
AcDbLine
 10
12.42257667930589
 20
35.83121766575095
 30
0.0
 11
12.42380667610591
 21
35.83042768975096
 31
0.0
  0
LINE
  5
6F6
330
2
100
AcDbEntity
  8
0
  6
HIDDEN
100
AcDbLine
 10
12.42380667610591
 20
35.83042768975096
 30
0.0
 11
12.4252715945059
 21
35.82947409455096
 31
0.0
  0
LINE
  5
6F7
330
2
100
AcDbEntity
  8
0
  6
HIDDEN
100
AcDbLine
 10
12.4252715945059
 20
35.82947409455096
 30
0.0
 11
12.42703115770591
 21
35.82831369775095
 31
0.0
  0
LINE
  5
6F8
330
2
100
AcDbEntity
  8
0
  6
HIDDEN
100
AcDbLine
 10
12.42703115770591
 20
35.82831369775095
 30
0.0
 11
12.4291443513059
 21
35.82690189295095
 31
0.0
  0
LINE
  5
6F9
330
2
100
AcDbEntity
  8
0
  6
HIDDEN
100
AcDbLine
 10
12.4291443513059
 20
35.82690189295095
 30
0.0
 11
12.43163899930588
 21
35.82521317455095
 31
0.0
  0
LINE
  5
6FA
330
2
100
AcDbEntity
  8
0
  6
HIDDEN
100
AcDbLine
 10
12.43163899930588
 20
35.82521317455095
 30
0.0
 11
12.43450560890591
 21
35.82324651855094
 31
0.0
  0
LINE
  5
6FB
330
2
100
AcDbEntity
  8
0
  6
HIDDEN
100
AcDbLine
 10
12.43450560890591
 20
35.82324651855094
 30
0.0
 11
12.43781472730589
 21
35.82094469295094
 31
0.0
  0
LINE
  5
6FC
330
2
100
AcDbEntity
  8
0
  6
HIDDEN
100
AcDbLine
 10
12.43781472730589
 20
35.82094469295094
 30
0.0
 11
12.44160749210588
 21
35.81826779855095
 31
0.0
  0
LINE
  5
6FD
330
2
100
AcDbEntity
  8
0
  6
HIDDEN
100
AcDbLine
 10
12.44160749210588
 20
35.81826779855095
 30
0.0
 11
12.44591642650588
 21
35.81517923695094
 31
0.0
  0
LWPOLYLINE
  5
6FE
330
2
100
AcDbEntity
  8
0
  6
HIDDEN
100
AcDbPolyline
 90
       19
 70
     0
 43
0.0
 10
12.44591642650588
 20
35.81517923695094
 10
12.45087516730591
 20
35.81156503215092
 10
12.45365816890589
 20
35.80950921615095
 10
12.45667579130591
 20
35.80725811375094
 10
12.45994319610591
 20
35.80479507855093
 10
12.46345216090588
 20
35.80212043695095
 10
12.4671808857059
 20
35.79924485135094
 10
12.4711252697059
 20
35.79616542575095
 10
12.47531601850592
 20
35.79285126575095
 10
12.47979838970589
 20
35.78925788175095
 10
12.48461517210587
 20
35.78533999375096
 10
12.48980741690589
 20
35.78105060495096
 10
12.4954147417059
 20
35.77634033135092
 10
12.50146724090591
 20
35.77116385295096
 10
12.50797803610591
 20
35.76548658255095
 10
12.51495022010588
 20
35.75927930895096
 10
12.52239606330589
 20
35.75250101455094
 10
12.53035806970591
 20
35.74507750575094
 10
12.53271954010588
 20
35.74284009455095
  0
LINE
  5
713
330
2
100
AcDbEntity
  8
0
  6
HIDDEN
100
AcDbLine
 10
12.43759143290589
 20
35.81835941615094
 30
0.0
 11
12.42311408570589
 21
35.82941182735092
 31
0.0
  0
LINE
  5
714
330
2
100
AcDbEntity
  8
0
  6
HIDDEN
100
AcDbLine
 10
12.44145170490588
 20
35.81538291375096
 30
0.0
 11
12.43759143290589
 21
35.81835941615094
 31
0.0
  0
LINE
  5
715
330
2
100
AcDbEntity
  8
0
  6
HIDDEN
100
AcDbLine
 10
12.42311408570589
 20
35.82941182735092
 30
0.0
 11
12.42163659610591
 21
35.83055003375093
 31
0.0
  0
LINE
  5
716
330
2
100
AcDbEntity
  8
0
  6
HIDDEN
100
AcDbLine
 10
12.42163659610591
 20
35.83055003375093
 30
0.0
 11
12.42071959610591
 21
35.83126292175094
 31
0.0
  0
LWPOLYLINE
  5
717
330
2
100
AcDbEntity
  8
0
  6
HIDDEN
100
AcDbPolyline
 90
       18
 70
     0
 43
0.0
 10
12.42071959610591
 20
35.83126292175094
 10
12.4197988777059
 20
35.83198715215095
 10
12.4193528297059
 20
35.83234270255096
 10
12.41893416090589
 20
35.83268061935092
 10
12.4185547033059
 20
35.83299190895095
 10
12.41821390650591
 20
35.83327761615092
 10
12.41790534970589
 20
35.83354443695094
 10
12.4176234633059
 20
35.83380090575096
 10
12.41736674810589
 20
35.83406346735094
 10
12.41736786330591
 20
35.83425496495095
 10
12.4176680217059
 20
35.83414175375094
 10
12.4180248457059
 20
35.83396560815094
 10
12.41840497210588
 20
35.83376068815096
 10
12.41881401530591
 20
35.83352960335094
 10
12.41924389050591
 20
35.83327923055094
 10
12.4196849945059
 20
35.83301667855096
 10
12.42012900570588
 20
35.83274804015096
 10
12.42057789690591
 20
35.83247292335096
  0
LWPOLYLINE
  5
72B
330
2
100
AcDbEntity
  8
0
  6
CONTINUOUS
100
AcDbPolyline
 90
        6
 70
     0
 43
0.0
 10
14.92527749050587
 20
35.07683318575095
 10
14.95324862970591
 20
35.40789796335096
 10
15.0466046105059
 20
35.75804814415096
 10
15.20201395930588
 20
36.08447427695094
 10
15.39032140730589
 20
36.34898203055096
 10
15.59719438970589
 20
36.55960473615095
  0
LWPOLYLINE
  5
733
330
2
100
AcDbEntity
  8
0
  6
CONTINUOUS
100
AcDbPolyline
 90
        6
 70
     0
 43
0.0
 10
15.09448092250591
 20
35.07683315215095
 10
15.12003214970589
 20
35.37951420495096
 10
15.2053209337059
 20
35.69971608655094
 10
15.34729119450591
 20
35.99830480655095
 10
15.5193003513059
 20
36.24041848495096
 10
15.7082338697059
 20
36.43346939535095
  0
LINE
  5
73B
330
2
100
AcDbEntity
  8
0
  6
CONTINUOUS
100
AcDbLine
 10
15.59719438810589
 20
36.55960473935095
 30
0.0
 11
15.70823566650591
 21
36.43346734735095
 31
0.0
  0
LWPOLYLINE
  5
73C
330
2
100
AcDbEntity
  8
0
  6
CONTINUOUS
100
AcDbPolyline
 90
        5
 70
     0
 43
0.0
 10
18.64525839930588
 20
34.14692012655095
 10
18.73891738010589
 20
34.37403764175096
 10
18.80452086010591
 20
34.60326851695092
 10
18.8428989241059
 20
34.82841078095091
 10
18.85677612410589
 20
35.04427023695098
  0
LWPOLYLINE
  5
743
330
2
100
AcDbEntity
  8
0
  6
CONTINUOUS
100
AcDbPolyline
 90
        5
 70
     0
 43
0.0
 10
18.70068929850589
 20
35.07683315215095
 10
18.64180026010591
 20
34.61735403215095
 10
18.4685537033059
 20
34.18728668495091
 10
18.19150061690591
 20
33.81484456175096
 10
17.82699927770591
 20
33.52425871215095
  0
LWPOLYLINE
  5
74A
330
2
100
AcDbEntity
  8
0
  6
CONTINUOUS
100
AcDbPolyline
 90
        5
 70
     0
 43
0.0
 10
21.0419449593059
 20
33.96066492015092
 10
21.0656098089059
 20
34.27723827375095
 10
21.0783052617059
 20
34.56604063215095
 10
21.0828546169059
 20
34.83110825615094
 10
21.0811350409059
 20
35.07683234415094
  0
LINE
  5
751
330
2
100
AcDbEntity
  8
0
  6
DASHED
100
AcDbLine
 10
24.6509363849059
 20
35.07648397775094
 30
0.0
 11
24.6520524713059
 21
33.32681986095096
 31
0.0
  0
LWPOLYLINE
  5
752
330
2
100
AcDbEntity
  8
0
  6
CONTINUOUS
100
AcDbPolyline
 90
        5
 70
     0
 43
0.0
 10
24.2922609689059
 20
35.07683315215095
 10
24.28756898170588
 20
34.73855845455094
 10
24.26143632250588
 20
34.42277748175095
 10
24.2177053049059
 20
34.15071526895096
 10
24.16194913690588
 20
33.94108825615091
  0
LWPOLYLINE
  5
759
330
2
100
AcDbEntity
  8
0
  6
CONTINUOUS
100
AcDbPolyline
 90
        5
 70
     0
 43
0.0
 10
24.13977516890588
 20
33.97612016175091
 10
24.11040931130588
 20
34.14154104495094
 10
24.0855858249059
 20
34.34268382415095
 10
24.06496838330591
 20
34.57210172335095
 10
24.04837129850588
 20
34.82127080815095
  0
LWPOLYLINE
  5
760
330
2
100
AcDbEntity
  8
0
  6
CONTINUOUS
100
AcDbPolyline
 90
        7
 70
     0
 43
0.0
 10
24.04008462010589
 20
33.76433315215095
 10
23.9847714681059
 20
33.80826745295095
 10
23.93618381690591
 20
33.93920333935094
 10
23.8957472425059
 20
34.14730343055095
 10
23.86334608890588
 20
34.41921703375095
 10
23.83836043290588
 20
34.73700978735095
 10
23.82123315450589
 20
35.07683315215095
  0
LWPOLYLINE
  5
769
330
2
100
AcDbEntity
  8
0
  6
CONTINUOUS
100
AcDbPolyline
 90
        3
 70
     0
 43
0.0
 10
17.91290100410589
 20
33.38258839695095
 10
17.8814792057059
 20
33.43455319375095
 10
17.8269992713059
 20
33.52425872495095
  0
LWPOLYLINE
  5
76E
330
2
100
AcDbEntity
  8
0
  6
CONTINUOUS
100
AcDbPolyline
 90
        4
 70
     0
 43
0.0
 10
18.64526059770591
 20
34.14692466095095
 10
18.4493591737059
 20
33.84950608335091
 10
18.2025235465059
 20
33.59183598895091
 10
17.91290101850589
 20
33.38258836495092
  0
LINE
  5
774
330
2
100
AcDbEntity
  8
0
  6
CONTINUOUS
100
AcDbLine
 10
24.15411066970588
 20
33.92420191695094
 30
0.0
 11
24.13977516890588
 21
33.97612016175091
 31
0.0
  0
LWPOLYLINE
  5
775
330
2
100
AcDbEntity
  8
0
  6
CONTINUOUS
100
AcDbPolyline
 90
        3
 70
     0
 43
0.0
 10
24.16194913690588
 20
33.94108825615091
 10
24.1006874905059
 20
33.80911283695096
 10
24.04008462010589
 20
33.76433315215095
  0
LWPOLYLINE
  5
77A
330
2
100
AcDbEntity
  8
0
  6
CONTINUOUS
100
AcDbPolyline
 90
        3
 70
     0
 43
0.0
 10
17.91290101850589
 20
36.77107793775096
 10
17.8522521529059
 20
36.67091137295094
 10
17.82699621370591
 20
36.62940246575095
  0
LWPOLYLINE
  5
77F
330
2
100
AcDbEntity
  8
0
  6
CONTINUOUS
100
AcDbPolyline
 90
        3
 70
     0
 43
0.0
 10
17.91290101850589
 20
36.77107793775096
 10
18.31292783290591
 20
36.45805215375094
 10
18.61928501850589
 20
36.05368254895094
  0
LWPOLYLINE
  5
784
330
2
100
AcDbEntity
  8
0
  6
CONTINUOUS
100
AcDbPolyline
 90
        5
 70
     0
 43
0.0
 10
18.8570288025059
 20
35.07683281455095
 10
18.8438285977059
 20
35.31253567375094
 10
18.8014267305059
 20
35.55897524975094
 10
18.72668752250591
 20
35.80880593455094
 10
18.61928447610589
 20
36.05368361615095
  0
LWPOLYLINE
  5
78B
330
2
100
AcDbEntity
  8
0
  6
CONTINUOUS
100
AcDbPolyline
 90
        5
 70
     0
 43
0.0
 10
17.82699927770591
 20
36.62940759055095
 10
18.19124668730589
 20
36.33907714895096
 10
18.46851251610589
 20
35.96645289295094
 10
18.64180948410589
 20
35.53627767695096
 10
18.70068929850589
 20
35.07683315215095
  0
LWPOLYLINE
  5
792
330
2
100
AcDbEntity
  8
0
  6
CONTINUOUS
100
AcDbPolyline
 90
        3
 70
     0
 43
0.0
 10
18.85678226970588
 20
35.04427035855096
 10
18.85697818010591
 20
35.06071508655094
 10
18.85704462970591
 20
35.07683281295095
  0
LWPOLYLINE
  5
797
330
2
100
AcDbEntity
  8
0
  6
CONTINUOUS
100
AcDbPolyline
 90
        5
 70
     0
 43
0.0
 10
21.08103326650589
 20
35.07652980175092
 10
21.0779840633059
 20
35.34609472335094
 10
21.06738293850588
 20
35.63783027375095
 10
21.04693748890589
 20
35.95614683695095
 10
21.01312976890588
 20
36.30593053935095
  0
LINE
  5
79E
330
2
100
AcDbEntity
  8
0
  6
DASHED
100
AcDbLine
 10
24.6509363849059
 20
35.07648397775094
 30
0.0
 11
24.6520517913059
 21
36.82684696975096
 31
0.0
  0
LWPOLYLINE
  5
79F
330
2
100
AcDbEntity
  8
0
  6
CONTINUOUS
100
AcDbPolyline
 90
        5
 70
     0
 43
0.0
 10
24.03840591290588
 20
35.33949676655092
 10
24.0453341017059
 20
35.58833178095096
 10
24.05729714810588
 20
35.81791099375095
 10
24.0749916969059
 20
36.01942041455098
 10
24.09909626330591
 20
36.18536363375094
  0
LWPOLYLINE
  5
7A6
330
2
100
AcDbEntity
  8
0
  6
CONTINUOUS
100
AcDbPolyline
 90
        5
 70
     0
 43
0.0
 10
24.1299561865059
 20
36.21645222735094
 10
24.19351996090588
 20
36.01012741135096
 10
24.24572054490591
 20
35.73929758095096
 10
24.28025004410589
 20
35.42058938575095
 10
24.2922609689059
 20
35.07683315215095
  0
LWPOLYLINE
  5
7AD
330
2
100
AcDbEntity
  8
0
  6
CONTINUOUS
100
AcDbPolyline
 90
        7
 70
     0
 43
0.0
 10
23.82123315450589
 20
35.07683315215095
 10
23.8253564473059
 20
35.41470050415094
 10
23.83809607130588
 20
35.73051419855096
 10
23.8607041065059
 20
36.00295151855096
 10
23.89475783770591
 20
36.21286827055095
 10
23.94093250330588
 20
36.34474196015094
 10
23.99437053370589
 20
36.38911390255094
  0
LINE
  5
7B6
330
2
100
AcDbEntity
  8
0
  6
CONTINUOUS
100
AcDbLine
 10
24.04837129850588
 20
34.82127080815095
 30
0.0
 11
24.03618873850588
 21
35.08099982415098
 31
0.0
  0
LINE
  5
7B7
330
2
100
AcDbEntity
  8
0
  6
CONTINUOUS
100
AcDbLine
 10
24.03618873850588
 20
35.08099982415098
 30
0.0
 11
24.03840591290588
 21
35.33949676655092
 31
0.0
  0
LINE
  5
7B8
330
2
100
AcDbEntity
  8
0
  6
CONTINUOUS
100
AcDbLine
 10
23.99437053370589
 20
36.38911390255094
 30
0.0
 11
23.9980237097059
 21
36.38933315215095
 31
0.0
  0
LINE
  5
7B9
330
2
100
AcDbEntity
  8
0
  6
CONTINUOUS
100
AcDbLine
 10
24.09909626330591
 20
36.18536363375094
 30
0.0
 11
24.1143720361059
 21
36.24626487855096
 31
0.0
  0
LWPOLYLINE
  5
7BA
330
2
100
AcDbEntity
  8
0
  6
CONTINUOUS
100
AcDbPolyline
 90
        3
 70
     0
 43
0.0
 10
23.9980237097059
 20
36.38933315215095
 10
24.06228720410588
 20
36.34590374255094
 10
24.1299561865059
 20
36.21645222735094
  0
LWPOLYLINE
  5
7BF
330
2
100
AcDbEntity
  8
0
  6
CONTINUOUS
100
AcDbPolyline
 90
        4
 70
     0
 43
0.0
 10
14.7543887161059
 20
44.64422112975094
 10
13.9621520649059
 20
44.92546307855096
 10
13.15278323450589
 20
45.13794641935095
 10
12.30282023930588
 20
45.28455229935096
  0
LWPOLYLINE
  5
7C5
330
2
100
AcDbEntity
  8
0
  6
DASHED
100
AcDbPolyline
 90
       17
 70
     0
 43
0.0
 10
10.11878220410589
 20
50.16698599855096
 10
10.4338736841059
 20
50.11521741615095
 10
10.7484832057059
 20
50.06049762895094
 10
11.06255997210587
 20
50.00275060495096
 10
11.37605319130588
 20
49.94190031055095
 10
11.6889120713059
 20
49.87787071215092
 10
12.00419145210588
 20
49.80990319855095
 10
12.3187227081059
 20
49.73856145935096
 10
12.6324565609059
 20
49.66379176815095
 10
12.94534373210589
 20
49.58554039535096
 10
13.2573349433059
 20
49.50375361295096
 10
13.52290441850588
 20
49.43110545935096
 10
13.7877443897059
 20
49.35582534255096
 10
14.05181409210588
 20
49.27789648815096
 10
14.3150727609059
 20
49.19730212335096
 10
14.5774796297059
 20
49.11402547215096
 10
14.8389939369059
 20
49.02804976335096
  0
LINE
  5
7D8
330
2
100
AcDbEntity
  8
0
  6
CONTINUOUS
100
AcDbLine
 10
1.260550081226114
 20
53.07636159513901
 30
0.0
 11
10.43123325530589
 21
52.12368315215096
 31
0.0
  0
LWPOLYLINE
  5
7D9
330
2
100
AcDbEntity
  8
0
  6
CONTINUOUS
100
AcDbPolyline
 90
        3
 70
     0
 43
0.0
 10
9.865408514505901
 20
48.58318490575095
 10
9.789566346505907
 20
48.59548525615096
 10
9.713517332105908
 20
48.60763680335094
  0
LINE
  5
7DE
330
2
100
AcDbEntity
  8
0
  6
DASHED
100
AcDbLine
 10
9.924790616905909
 20
50.19769462415095
 30
0.0
 11
10.11878220570589
 21
50.16698601135096
 31
0.0
  0
LINE
  5
7DF
330
2
100
AcDbEntity
  8
0
  6
CONTINUOUS
100
AcDbLine
 10
10.45309649050588
 20
52.12018792655095
 30
0.0
 11
10.43123325370589
 21
52.12368313775096
 31
0.0
  0
LWPOLYLINE
  5
7E0
330
2
100
AcDbEntity
  8
0
  6
DASHED
100
AcDbPolyline
 90
       43
 70
     0
 43
0.0
 10
24.88480080410591
 20
40.97416653935096
 10
24.91910599930588
 20
40.89913846895092
 10
24.9522269641059
 20
40.82356575375095
 10
24.98405651450591
 20
40.74742936815096
 10
25.0144874665059
 20
40.67071028335095
 10
25.04341263450588
 20
40.59338947375096
 10
25.07072483450591
 20
40.51544791055095
 10
25.09631688090589
 20
40.43686656815094
 10
25.11542757530588
 20
40.37368327215093
 10
25.13326734490588
 20
40.31010482895095
 10
25.14972926490588
 20
40.24615574415093
 10
25.16470641050588
 20
40.18186052655096
 10
25.17809185530591
 20
40.11724368335094
 10
25.18977867770589
 20
40.05232972015096
 10
25.19965994970589
 20
39.98714314575096
 10
25.2076287465059
 20
39.92170846575095
 10
25.21357814490591
 20
39.85605018895094
 10
25.2173943049059
 20
39.79095178415096
 10
25.2191746841059
 20
39.72572694575095
 10
25.21896163930589
 20
39.66044382575094
 10
25.21679752570588
 20
39.59517056815096
 10
25.21272469690591
 20
39.52997532015095
 10
25.20678551290591
 20
39.46492623055096
 10
25.19902232570589
 20
39.40009144655096
 10
25.18947749370591
 20
39.33553911535094
 10
25.17819337210591
 20
39.27133738255093
 10
25.1629256249059
 20
39.19696246735094
 10
25.14562019130591
 20
39.12309087055095
 10
25.1265477193059
 20
39.04965628975094
 10
25.1059788569059
 20
38.97659242575096
 10
25.08418425050588
 20
38.90383297295096
 10
25.0614345513059
 20
38.83131163375094
 10
25.03800040410588
 20
38.75896210255095
 10
25.01415245690592
 20
38.68671808175093
 10
24.99016135930588
 20
38.61451326575096
 10
24.9573493481059
 20
38.51513993135094
 10
24.9250562889059
 20
38.41564321135095
 10
24.8935598361059
 20
38.31595099695096
 10
24.8631376473059
 20
38.21599118415096
 10
24.8340673801059
 20
38.11569166415094
 10
24.80662668890591
 20
38.01498032815095
 10
24.78109323130587
 20
37.91378507215094
 10
24.75774466330588
 20
37.81203378895094
  0
ENDSEC
  0
SECTION
  2
OBJECTS
  0
DICTIONARY
  5
1A
330
0
100
AcDbDictionary
  3
ACAD_GROUP
350
18
  3
ACAD_LAYOUT
350
814
  3
ACAD_MLINESTYLE
350
19
  3
ACAD_PLOTSETTINGS
350
815
  3
ACAD_PLOTSTYLENAME
350
812
  3
ACDBHEADERROUNDTRIPXREC
350
853
  3
ACDBVARIABLEDICTIONARY
350
850
  0
DICTIONARY
  5
874
330
2
100
AcDbDictionary
280
     1
  3
ACAD_LAYOUTSELFREF
360
875
  0
DICTIONARY
  5
876
330
7
100
AcDbDictionary
280
     1
  3
ACAD_LAYOUTSELFREF
360
877
  0
DICTIONARY
  5
18
102
{ACAD_REACTORS
330
1A
102
}
330
1A
100
AcDbDictionary
  0
DICTIONARY
  5
814
102
{ACAD_REACTORS
330
1A
102
}
330
1A
100
AcDbDictionary
  0
DICTIONARY
  5
19
102
{ACAD_REACTORS
330
1A
102
}
330
1A
100
AcDbDictionary
  3
STANDARD
350
1B
  0
DICTIONARY
  5
815
102
{ACAD_REACTORS
330
1A
102
}
330
1A
100
AcDbDictionary
  0
ACDBDICTIONARYWDFLT
  5
812
102
{ACAD_REACTORS
330
1A
102
}
330
1A
100
AcDbDictionary
281
     1
  3
Normal
350
813
100
AcDbDictionaryWithDefault
340
813
  0
DICTIONARY
  5
853
102
{ACAD_REACTORS
330
1A
102
}
330
1A
100
AcDbDictionary
  3
CEPSNTYPE
350
85D
  3
DIMSTYLEDATA
350
861
  3
FINGERPRINTGUID
350
85E
  3
HYPERLINKBASE
350
856
  3
INSUNITS
350
85C
  3
LAYOUTDICT
350
858
  3
LWETCUNION
350
85B
  3
PLOTSETDICT
350
859
  3
PLOTSTYLNAMDICT
350
85A
  3
PSVPSCALE
350
860
  3
PUCSBASE
350
864
  3
PUCSORGBACK
350
86A
  3
PUCSORGBOTTOM
350
866
  3
PUCSORGFRONT
350
869
  3
PUCSORGLEFT
350
867
  3
PUCSORGRIGHT
350
868
  3
PUCSORGTOP
350
865
  3
PUCSORTHOREF
350
862
  3
PUCSORTHOVIEW
350
863
  3
STYLESHEET
350
857
  3
TSTACKALIGN
350
854
  3
TSTACKSIZE
350
855
  3
UCSBASE
350
86D
  3
UCSORGBACK
350
873
  3
UCSORGBOTTOM
350
86F
  3
UCSORGFRONT
350
872
  3
UCSORGLEFT
350
870
  3
UCSORGRIGHT
350
871
  3
UCSORGTOP
350
86E
  3
UCSORTHOREF
350
86B
  3
UCSORTHOVIEW
350
86C
  3
VERSIONGUID
350
85F
  0
DICTIONARY
  5
850
102
{ACAD_REACTORS
330
1A
102
}
330
1A
100
AcDbDictionary
  3
DIMASSOC
350
851
  0
XRECORD
  5
875
102
{ACAD_REACTORS
330
874
102
}
330
874
100
AcDbXrecord
340
2
  0
XRECORD
  5
877
102
{ACAD_REACTORS
330
876
102
}
330
876
100
AcDbXrecord
340
7
  0
MLINESTYLE
  5
1B
102
{ACAD_REACTORS
330
19
102
}
330
19
100
AcDbMlineStyle
  2
STANDARD
 70
     0
  3

 62
   256
 51
90.0
 52
90.0
 71
     2
 49
0.5
 62
   256
  6
BYLAYER
 49
-0.5
 62
   256
  6
BYLAYER
  0
ACDBPLACEHOLDER
  5
813
102
{ACAD_REACTORS
330
812
102
}
330
812
100
AcDbPlaceHolder
280
     0
  0
XRECORD
  5
85D
102
{ACAD_REACTORS
330
853
102
}
330
853
100
AcDbXrecord
 90
        0
  0
XRECORD
  5
861
102
{ACAD_REACTORS
330
853
102
}
330
853
100
AcDbXrecord
1000
DSTYLE
1002
{
1070
   341
340
1D
1070
   342
340
1D
1002
}
  0
XRECORD
  5
85E
102
{ACAD_REACTORS
330
853
102
}
330
853
100
AcDbXrecord
  1
{79C86760-9D81-4FC3-9B7F-4D2C183FCC25}
  0
XRECORD
  5
856
102
{ACAD_REACTORS
330
853
102
}
330
853
100
AcDbXrecord
  1

  0
XRECORD
  5
85C
102
{ACAD_REACTORS
330
853
102
}
330
853
100
AcDbXrecord
 90
        0
  0
XRECORD
  5
858
102
{ACAD_REACTORS
330
853
102
}
330
853
100
AcDbXrecord
340
814
  0
XRECORD
  5
85B
102
{ACAD_REACTORS
330
853
102
}
330
853
100
AcDbXrecord
 90
    14877
  0
XRECORD
  5
859
102
{ACAD_REACTORS
330
853
102
}
330
853
100
AcDbXrecord
340
815
  0
XRECORD
  5
85A
102
{ACAD_REACTORS
330
853
102
}
330
853
100
AcDbXrecord
340
812
  0
XRECORD
  5
860
102
{ACAD_REACTORS
330
853
102
}
330
853
100
AcDbXrecord
 40
0.0
  0
XRECORD
  5
864
102
{ACAD_REACTORS
330
853
102
}
330
853
100
AcDbXrecord
340
0
  0
XRECORD
  5
86A
102
{ACAD_REACTORS
330
853
102
}
330
853
100
AcDbXrecord
 10
0.0
 20
0.0
 30
0.0
  0
XRECORD
  5
866
102
{ACAD_REACTORS
330
853
102
}
330
853
100
AcDbXrecord
 10
0.0
 20
0.0
 30
0.0
  0
XRECORD
  5
869
102
{ACAD_REACTORS
330
853
102
}
330
853
100
AcDbXrecord
 10
0.0
 20
0.0
 30
0.0
  0
XRECORD
  5
867
102
{ACAD_REACTORS
330
853
102
}
330
853
100
AcDbXrecord
 10
0.0
 20
0.0
 30
0.0
  0
XRECORD
  5
868
102
{ACAD_REACTORS
330
853
102
}
330
853
100
AcDbXrecord
 10
0.0
 20
0.0
 30
0.0
  0
XRECORD
  5
865
102
{ACAD_REACTORS
330
853
102
}
330
853
100
AcDbXrecord
 10
0.0
 20
0.0
 30
0.0
  0
XRECORD
  5
862
102
{ACAD_REACTORS
330
853
102
}
330
853
100
AcDbXrecord
340
0
  0
XRECORD
  5
863
102
{ACAD_REACTORS
330
853
102
}
330
853
100
AcDbXrecord
 70
     0
  0
XRECORD
  5
857
102
{ACAD_REACTORS
330
853
102
}
330
853
100
AcDbXrecord
  1

  0
XRECORD
  5
854
102
{ACAD_REACTORS
330
853
102
}
330
853
100
AcDbXrecord
 90
        1
  0
XRECORD
  5
855
102
{ACAD_REACTORS
330
853
102
}
330
853
100
AcDbXrecord
 90
       70
  0
XRECORD
  5
86D
102
{ACAD_REACTORS
330
853
102
}
330
853
100
AcDbXrecord
340
0
  0
XRECORD
  5
873
102
{ACAD_REACTORS
330
853
102
}
330
853
100
AcDbXrecord
 10
0.0
 20
0.0
 30
0.0
  0
XRECORD
  5
86F
102
{ACAD_REACTORS
330
853
102
}
330
853
100
AcDbXrecord
 10
0.0
 20
0.0
 30
0.0
  0
XRECORD
  5
872
102
{ACAD_REACTORS
330
853
102
}
330
853
100
AcDbXrecord
 10
0.0
 20
0.0
 30
0.0
  0
XRECORD
  5
870
102
{ACAD_REACTORS
330
853
102
}
330
853
100
AcDbXrecord
 10
0.0
 20
0.0
 30
0.0
  0
XRECORD
  5
871
102
{ACAD_REACTORS
330
853
102
}
330
853
100
AcDbXrecord
 10
0.0
 20
0.0
 30
0.0
  0
XRECORD
  5
86E
102
{ACAD_REACTORS
330
853
102
}
330
853
100
AcDbXrecord
 10
0.0
 20
0.0
 30
0.0
  0
XRECORD
  5
86B
102
{ACAD_REACTORS
330
853
102
}
330
853
100
AcDbXrecord
340
0
  0
XRECORD
  5
86C
102
{ACAD_REACTORS
330
853
102
}
330
853
100
AcDbXrecord
 70
     0
  0
XRECORD
  5
85F
102
{ACAD_REACTORS
330
853
102
}
330
853
100
AcDbXrecord
  1
{9BCD7F29-F2E5-41AA-BEAC-55837FAF6469}
  0
DICTIONARYVAR
  5
851
102
{ACAD_REACTORS
330
850
102
}
330
850
100
DictionaryVariables
280
     0
  1
1
  0
ENDSEC
  0
EOF
