  0
SECTION
  2
HEADER
  9
$ACADVER
  1
AC1014
  9
$ACADMAINTVER
 70
     9
  9
$DWGCODEPAGE
  3
ANSI_1252
  9
$INSBASE
 10
338.3186360609756
 20
288.0692455102463
 30
0.0
  9
$EXTMIN
 10
302.5630513843046
 20
276.4423046761931
 30
-0.0015258207003583
  9
$EXTMAX
 10
374.0827276567273
 20
316.3351264897982
 30
0.0000000349246037
  9
$LIMMIN
 10
0.0
 20
0.0
  9
$LIMMAX
 10
100.5024158491978
 20
51.69854817198938
  9
$ORTHOMODE
 70
     1
  9
$REGENMODE
 70
     1
  9
$FILLMODE
 70
     1
  9
$QTEXTMODE
 70
     0
  9
$MIRRTEXT
 70
     1
  9
$DRAGMODE
 70
     2
  9
$LTSCALE
 40
2.0
  9
$OSMODE
 70
    55
  9
$ATTMODE
 70
     1
  9
$TEXTSIZE
 40
0.1
  9
$TRACEWID
 40
1.0
  9
$TEXTSTYLE
  7
CARTOUCHE
  9
$CLAYER
  8
0
  9
$CELTYPE
  6
BYLAYER
  9
$CECOLOR
 62
   256
  9
$CELTSCALE
 40
1.0
  9
$DELOBJ
 70
     1
  9
$DISPSILH
 70
     0
  9
$DIMSCALE
 40
16.0
  9
$DIMASZ
 40
0.1
  9
$DIMEXO
 40
0.0625
  9
$DIMDLI
 40
0.25
  9
$DIMRND
 40
0.0
  9
$DIMDLE
 40
0.0
  9
$DIMEXE
 40
0.1
  9
$DIMTP
 40
0.0
  9
$DIMTM
 40
0.0
  9
$DIMTXT
 40
0.1
  9
$DIMCEN
 40
0.09
  9
$DIMTSZ
 40
0.0
  9
$DIMTOL
 70
     0
  9
$DIMLIM
 70
     0
  9
$DIMTIH
 70
     1
  9
$DIMTOH
 70
     1
  9
$DIMSE1
 70
     0
  9
$DIMSE2
 70
     0
  9
$DIMTAD
 70
     0
  9
$DIMZIN
 70
     4
  9
$DIMBLK
  1

  9
$DIMASO
 70
     1
  9
$DIMSHO
 70
     1
  9
$DIMPOST
  1
\X
  9
$DIMAPOST
  1
cm
  9
$DIMALT
 70
     1
  9
$DIMALTD
 70
     1
  9
$DIMALTF
 40
2.54
  9
$DIMLFAC
 40
1.0
  9
$DIMTOFL
 70
     0
  9
$DIMTVP
 40
0.0
  9
$DIMTIX
 70
     0
  9
$DIMSOXD
 70
     0
  9
$DIMSAH
 70
     0
  9
$DIMBLK1
  1

  9
$DIMBLK2
  1

  9
$DIMSTYLE
  2
STANDARD
  9
$DIMCLRD
 70
     0
  9
$DIMCLRE
 70
     0
  9
$DIMCLRT
 70
     0
  9
$DIMTFAC
 40
1.0
  9
$DIMGAP
 40
0.08
  9
$DIMJUST
 70
     0
  9
$DIMSD1
 70
     0
  9
$DIMSD2
 70
     0
  9
$DIMTOLJ
 70
     1
  9
$DIMTZIN
 70
     4
  9
$DIMALTZ
 70
     4
  9
$DIMALTTZ
 70
     4
  9
$DIMFIT
 70
     1
  9
$DIMUPT
 70
     0
  9
$DIMUNIT
 70
     5
  9
$DIMDEC
 70
     3
  9
$DIMTDEC
 70
     3
  9
$DIMALTU
 70
     2
  9
$DIMALTTD
 70
     1
  9
$DIMTXSTY
  7
ROMANS
  9
$DIMAUNIT
 70
     0
  9
$LUNITS
 70
     2
  9
$LUPREC
 70
     2
  9
$SKETCHINC
 40
1.0
  9
$FILLETRAD
 40
3.0
  9
$AUNITS
 70
     0
  9
$AUPREC
 70
     0
  9
$MENU
  1
.
  9
$ELEVATION
 40
0.0
  9
$PELEVATION
 40
0.0
  9
$THICKNESS
 40
0.0
  9
$LIMCHECK
 70
     0
  9
$BLIPMODE
 70
     0
  9
$CHAMFERA
 40
0.0
  9
$CHAMFERB
 40
0.0
  9
$CHAMFERC
 40
20.0
  9
$CHAMFERD
 40
0.0
  9
$SKPOLY
 70
     0
  9
$TDCREATE
 40
2452062.301426851
  9
$TDUPDATE
 40
2453689.446283217
  9
$TDINDWG
 40
2.5172450810
  9
$TDUSRTIMER
 40
2.5172450810
  9
$USRTIMER
 70
     1
  9
$ANGBASE
 50
0.0
  9
$ANGDIR
 70
     0
  9
$PDMODE
 70
    34
  9
$PDSIZE
 40
-5.0
  9
$PLINEWID
 40
0.0
  9
$COORDS
 70
     1
  9
$SPLFRAME
 70
     0
  9
$SPLINETYPE
 70
     6
  9
$SPLINESEGS
 70
     8
  9
$ATTDIA
 70
     0
  9
$ATTREQ
 70
     1
  9
$HANDLING
 70
 22529
  9
$HANDSEED
  5
13A
  9
$SURFTAB1
 70
     6
  9
$SURFTAB2
 70
     6
  9
$SURFTYPE
 70
     6
  9
$SURFU
 70
     6
  9
$SURFV
 70
     6
  9
$UCSNAME
  2

  9
$UCSORG
 10
-86.61529330307228
 20
17.01116759546271
 30
0.0
  9
$UCSXDIR
 10
1.0
 20
0.0
 30
0.0
  9
$UCSYDIR
 10
0.0
 20
1.0
 30
0.0
  9
$PUCSNAME
  2

  9
$PUCSORG
 10
0.0
 20
0.0
 30
0.0
  9
$PUCSXDIR
 10
1.0
 20
0.0
 30
0.0
  9
$PUCSYDIR
 10
0.0
 20
1.0
 30
0.0
  9
$USERI1
 70
     0
  9
$USERI2
 70
     0
  9
$USERI3
 70
     0
  9
$USERI4
 70
     0
  9
$USERI5
 70
     0
  9
$USERR1
 40
0.0
  9
$USERR2
 40
0.0
  9
$USERR3
 40
0.0
  9
$USERR4
 40
0.0
  9
$USERR5
 40
0.0
  9
$WORLDVIEW
 70
     1
  9
$SHADEDGE
 70
     3
  9
$SHADEDIF
 70
    70
  9
$TILEMODE
 70
     1
  9
$MAXACTVP
 70
    48
  9
$PINSBASE
 10
0.0
 20
0.0
 30
0.0
  9
$PLIMCHECK
 70
     0
  9
$PEXTMIN
 10
0.0
 20
0.0
 30
0.0
  9
$PEXTMAX
 10
0.0
 20
0.0
 30
0.0
  9
$PLIMMIN
 10
0.0
 20
0.0
  9
$PLIMMAX
 10
12.0
 20
9.0
  9
$UNITMODE
 70
     0
  9
$VISRETAIN
 70
     1
  9
$PLINEGEN
 70
     0
  9
$PSLTSCALE
 70
     1
  9
$TREEDEPTH
 70
  3020
  9
$PICKSTYLE
 70
     1
  9
$CMLSTYLE
  2
STANDARD
  9
$CMLJUST
 70
     0
  9
$CMLSCALE
 40
20.0
  9
$PROXYGRAPHICS
 70
     1
  9
$MEASUREMENT
 70
     0
  0
ENDSEC
  0
SECTION
  2
CLASSES
  0
CLASS
  1
ACDBDICTIONARYWDFLT
  2
AcDbDictionaryWithDefault
  3
AutoCAD 2000
 90
        0
280
     0
281
     0
  0
CLASS
  1
ACDBPLACEHOLDER
  2
AcDbPlaceHolder
  3
AutoCAD 2000
 90
        0
280
     0
281
     0
  0
CLASS
  1
LAYOUT
  2
AcDbLayout
  3
AutoCAD 2000
 90
        0
280
     0
281
     0
  0
CLASS
  1
DICTIONARYVAR
  2
AcDbDictionaryVar
  3
AutoCAD 2000
 90
        0
280
     0
281
     0
  0
CLASS
  1
IMAGEDEF
  2
AcDbRasterImageDef
  3
ISM
 90
        0
280
     0
281
     0
  0
CLASS
  1
LONG_TRANSACTION
  2
AcDbLongTransaction
  3
AutoCAD 2000
 90
        0
280
     0
281
     0
  0
CLASS
  1
LWPOLYLINE
  2
AcDbPolyline
  3
AutoCAD 2000
 90
        0
280
     0
281
     1
  0
CLASS
  1
HATCH
  2
AcDbHatch
  3
AutoCAD 2000
 90
        0
280
     0
281
     1
  0
CLASS
  1
XRECORD
  2
AcDbXrecord
  3
AutoCAD 2000
 90
        0
280
     0
281
     0
  0
CLASS
  1
LONG_TRANSACTION
  2
AcDbLongTransaction
  3
AutoCAD 2000
 90
        0
280
     0
281
     0
  0
CLASS
  1
LWPOLYLINE
  2
AcDbPolyline
  3
AutoCAD 2000
 90
        0
280
     0
281
     1
  0
CLASS
  1
HATCH
  2
AcDbHatch
  3
AutoCAD 2000
 90
        0
280
     0
281
     1
  0
CLASS
  1
XRECORD
  2
AcDbXrecord
  3
AutoCAD 2000
 90
        0
280
     0
281
     0
  0
CLASS
  1
LONG_TRANSACTION
  2
AcDbLongTransaction
  3
AutoCAD 2000
 90
        0
280
     0
281
     0
  0
CLASS
  1
LWPOLYLINE
  2
AcDbPolyline
  3
AutoCAD 2000
 90
        0
280
     0
281
     1
  0
CLASS
  1
HATCH
  2
AcDbHatch
  3
AutoCAD 2000
 90
        0
280
     0
281
     1
  0
CLASS
  1
XRECORD
  2
AcDbXrecord
  3
AutoCAD 2000
 90
        0
280
     0
281
     0
  0
ENDSEC
  0
SECTION
  2
TABLES
  0
TABLE
  2
VPORT
  5
1D
330
0
100
AcDbSymbolTable
 70
     3
  0
VPORT
  5
116
330
1D
100
AcDbSymbolTableRecord
100
AcDbViewportTableRecord
  2
*ACTIVE
 70
     0
 10
0.0
 20
0.0
 11
1.0
 21
1.0
 12
338.3228895276307
 22
296.3887155310536
 13
0.0
 23
0.0
 14
10.0
 24
10.0
 15
10.0
 25
10.0
 16
0.0
 26
0.0
 36
1.0
 17
0.0
 27
0.0
 37
0.0
 40
49.22102525784197
 41
1.786792452830188
 42
50.0
 43
0.0
 44
0.0
 50
0.0
 51
0.0
 71
     0
 72
 20000
 73
     1
 74
     3
 75
     0
 76
     0
 77
     0
 78
     2
  0
ENDTAB
  0
TABLE
  2
LTYPE
  5
18
330
0
100
AcDbSymbolTable
 70
     2
  0
LTYPE
  5
19
330
18
100
AcDbSymbolTableRecord
100
AcDbLinetypeTableRecord
  2
BYBLOCK
 70
     0
  3

 72
    65
 73
     0
 40
0.0
  0
LTYPE
  5
1A
330
18
100
AcDbSymbolTableRecord
100
AcDbLinetypeTableRecord
  2
BYLAYER
 70
     0
  3

 72
    65
 73
     0
 40
0.0
  0
LTYPE
  5
8
330
18
100
AcDbSymbolTableRecord
100
AcDbLinetypeTableRecord
  2
CONTINUOUS
 70
     0
  3
Solid line
 72
    65
 73
     0
 40
0.0
  0
LTYPE
  5
3C
330
18
100
AcDbSymbolTableRecord
100
AcDbLinetypeTableRecord
  2
CENTER
 70
     0
  3
Center ____ _ ____ _ ____ _ ____ _ ____ _ ____
 72
    65
 73
     4
 40
50.8
 49
31.75
 74
     0
 49
-6.349999999999999
 74
     0
 49
6.349999999999999
 74
     0
 49
-6.349999999999999
 74
     0
  0
ENDTAB
  0
TABLE
  2
LAYER
  5
10
102
{ACAD_XDICTIONARY
360
11
102
}
330
0
100
AcDbSymbolTable
 70
     2
  0
LAYER
  5
4
330
10
100
AcDbSymbolTableRecord
100
AcDbLayerTableRecord
  2
0
 70
     0
 62
     7
  6
CONTINUOUS
  0
LAYER
  5
3B
330
10
100
AcDbSymbolTableRecord
100
AcDbLayerTableRecord
  2
CENTER
 70
     0
 62
     1
  6
CENTER
  0
ENDTAB
  0
TABLE
  2
STYLE
  5
15
330
0
100
AcDbSymbolTable
 70
     3
  0
STYLE
  5
16
330
15
100
AcDbSymbolTableRecord
100
AcDbTextStyleTableRecord
  2
STANDARD
 70
     0
 40
0.0
 41
1.0
 50
0.0
 71
     0
 42
0.125
  3
txt
  4

  0
STYLE
  5
28
330
15
100
AcDbSymbolTableRecord
100
AcDbTextStyleTableRecord
  2
CARTOUCHE
 70
     0
 40
0.0
 41
1.0
 50
0.0
 71
     0
 42
0.1
  3
romans.shx
  4

  0
STYLE
  5
23
330
15
100
AcDbSymbolTableRecord
100
AcDbTextStyleTableRecord
  2
ROMANS
 70
     0
 40
0.0
 41
1.0
 50
0.0
 71
     0
 42
1.0
  3
romans.shx
  4

  0
ENDTAB
  0
TABLE
  2
VIEW
  5
1B
330
0
100
AcDbSymbolTable
 70
     0
  0
ENDTAB
  0
TABLE
  2
UCS
  5
1C
330
0
100
AcDbSymbolTable
 70
     0
  0
ENDTAB
  0
TABLE
  2
APPID
  5
1F
330
0
100
AcDbSymbolTable
 70
     1
  0
APPID
  5
20
330
1F
100
AcDbSymbolTableRecord
100
AcDbRegAppTableRecord
  2
ACAD
 70
     0
  0
ENDTAB
  0
TABLE
  2
DIMSTYLE
  5
21
330
0
100
AcDbSymbolTable
 70
     1
  0
DIMSTYLE
105
22
330
21
100
AcDbSymbolTableRecord
100
AcDbDimStyleTableRecord
  2
STANDARD
 70
     0
  3
\X
  4
cm
  5

  6

  7

 40
16.0
 41
0.1
 42
0.0625
 43
0.25
 44
0.1
 45
0.0
 46
0.0
 47
0.0
 48
0.0
140
0.1
141
0.09
142
0.0
143
2.54
144
1.0
145
0.0
146
1.0
147
0.08
 71
     0
 72
     0
 73
     1
 74
     1
 75
     0
 76
     0
 77
     0
 78
     4
170
     1
171
     1
172
     0
173
     0
174
     0
175
     0
176
     0
177
     0
178
     0
270
     5
271
     3
272
     3
273
     2
274
     1
340
23
275
     0
280
     0
281
     0
282
     0
283
     1
284
     4
285
     4
286
     4
287
     1
288
     0
  0
ENDTAB
  0
TABLE
  2
BLOCK_RECORD
  5
1
330
0
100
AcDbSymbolTable
 70
     0
  0
BLOCK_RECORD
  5
2
102
{ACAD_XDICTIONARY
360
4B
102
}
330
1
100
AcDbSymbolTableRecord
100
AcDbBlockTableRecord
  2
*MODEL_SPACE
  0
BLOCK_RECORD
  5
C
102
{ACAD_XDICTIONARY
360
4D
102
}
330
1
100
AcDbSymbolTableRecord
100
AcDbBlockTableRecord
  2
*PAPER_SPACE
  0
ENDTAB
  0
ENDSEC
  0
SECTION
  2
BLOCKS
  0
BLOCK
  5
3
330
2
100
AcDbEntity
  8
0
100
AcDbBlockBegin
  2
*MODEL_SPACE
 70
     0
 10
0.0
 20
0.0
 30
0.0
  3
*MODEL_SPACE
  1

  0
ENDBLK
  5
9
330
2
100
AcDbEntity
  8
0
100
AcDbBlockEnd
  0
BLOCK
  5
D
330
C
100
AcDbEntity
 67
     1
  8
0
100
AcDbBlockBegin
  2
*PAPER_SPACE
 70
     0
 10
0.0
 20
0.0
 30
0.0
  3
*PAPER_SPACE
  1

  0
ENDBLK
  5
E
330
C
100
AcDbEntity
 67
     1
  8
0
100
AcDbBlockEnd
  0
ENDSEC
  0
SECTION
  2
ENTITIES
  0
SPLINE
  5
2A
330
2
100
AcDbEntity
  8
0
 48
0.1
100
AcDbSpline
210
0.0
220
0.0
230
1.0
 70
     8
 71
     3
 72
    30
 73
    26
 74
     0
 42
0.0000000001
 43
0.0000000001
 40
0.0
 40
0.0
 40
0.0
 40
0.0
 40
0.658509662886427
 40
0.658509662886427
 40
1.686762086004126
 40
1.686762086004126
 40
2.715014509121825
 40
2.715014509121825
 40
4.771519355357224
 40
4.771519355357224
 40
8.884529047828021
 40
8.884529047828021
 40
12.99753874029881
 40
12.99753874029881
 40
17.07270937995253
 40
17.07270937995253
 40
20.30846714683451
 40
20.30846714683451
 40
23.5442249137165
 40
23.5442249137165
 40
28.250982574081
 40
28.250982574081
 40
36.78596721345423
 40
36.78596721345423
 40
38.53625931349068
 40
38.53625931349068
 40
38.53625931349068
 40
38.53625931349068
 10
369.8185617674579
 20
296.1871942871908
 30
0.0
 10
369.8216235349056
 20
295.9677487147532
 30
0.0
 10
369.8248012726133
 20
295.7439836014831
 30
0.0
 10
369.8178254681869
 20
295.2220151387257
 30
0.0
 10
369.7961358407227
 20
294.8591569103498
 30
0.0
 10
369.7165432536632
 20
294.1417998613788
 30
0.0
 10
369.659204981306
 20
293.7845185045692
 30
0.0
 10
369.4378602682019
 20
292.7209650713558
 30
0.0
 10
369.2245620181163
 20
292.0229920381778
 30
0.0
 10
368.4124757111226
 20
289.9941952944964
 30
0.0
 10
367.6407020323209
 20
288.7287455197353
 30
0.0
 10
365.7652964175683
 20
286.5403356029942
 30
0.0
 10
364.6647617284849
 20
285.6099832046828
 30
0.0
 10
362.2778449026507
 20
284.0475827057857
 30
0.0
 10
360.9930682572334
 20
283.412517847412
 30
0.0
 10
358.6188113507196
 20
282.4954156493017
 30
0.0
 10
357.54574006939
 20
282.1686311164125
 30
0.0
 10
355.3956765362277
 20
281.6486125964769
 30
0.0
 10
354.315128542007
 20
281.4538376048283
 30
0.0
 10
351.6574724240793
 20
281.0882289626478
 30
0.0
 10
350.0779259118464
 20
280.9684470059302
 30
0.0
 10
345.6464085444013
 20
280.7381921527791
 30
0.0
 10
342.7937114686827
 20
280.7033470963954
 30
0.0
 10
339.4859840594331
 20
280.694462335408
 30
0.0
 10
338.9018684934885
 20
280.6942058814078
 30
0.0
 10
338.3184408430347
 20
280.6942455113999
 30
0.0
  0
SPLINE
  5
2B
330
2
100
AcDbEntity
  8
0
 48
0.1
100
AcDbSpline
210
0.0
220
0.0
230
1.0
 70
     8
 71
     3
 72
    30
 73
    26
 74
     0
 42
0.0000000001
 43
0.0000000001
 40
0.0
 40
0.0
 40
0.0
 40
0.0
 40
0.65850966288644
 40
0.65850966288644
 40
1.686762086004492
 40
1.686762086004492
 40
2.715014509122544
 40
2.715014509122544
 40
4.771519355358648
 40
4.771519355358648
 40
8.884529047830858
 40
8.884529047830858
 40
12.99753874030306
 40
12.99753874030306
 40
17.07270937996305
 40
17.07270937996305
 40
20.30846714683578
 40
20.30846714683578
 40
23.54422491370852
 40
23.54422491370852
 40
28.25098257408893
 40
28.25098257408893
 40
36.78596721372972
 40
36.78596721372972
 40
38.53625931349068
 40
38.53625931349068
 40
38.53625931349068
 40
38.53625931349068
 10
369.8185617674579
 20
296.264577396192
 30
0.0
 10
369.8216235349057
 20
296.4840229686296
 30
0.0
 10
369.8248012726133
 20
296.7077880818997
 30
0.0
 10
369.817825468187
 20
297.2922565446572
 30
0.0
 10
369.7961358407227
 20
297.6551147730333
 30
0.0
 10
369.7165432536631
 20
298.3724718220045
 30
0.0
 10
369.6592049813058
 20
298.7297531788143
 30
0.0
 10
369.4378602682017
 20
299.855806612028
 30
0.0
 10
369.2245620181159
 20
300.5537796452063
 30
0.0
 10
368.4124757111217
 20
302.769295725998
 30
0.0
 10
367.6407020323195
 20
304.0347455007594
 30
0.0
 10
365.7652964175658
 20
306.2231554175009
 30
0.0
 10
364.6647617284818
 20
307.1535078158123
 30
0.0
 10
362.277844902645
 20
308.7159083147103
 30
0.0
 10
360.9930682572254
 20
309.3509731730843
 30
0.0
 10
358.6188113507122
 20
310.2680753711932
 30
0.0
 10
357.5457400693857
 20
310.5948599040812
 30
0.0
 10
355.3956765362296
 20
311.1148784240152
 30
0.0
 10
354.3151285420119
 20
311.3096534156633
 30
0.0
 10
351.6574724240821
 20
311.6752620578447
 30
0.0
 10
350.0779259118438
 20
311.7950440145627
 30
0.0
 10
345.6464085443038
 20
312.0252988677183
 30
0.0
 10
342.7937114684957
 20
312.0601439240995
 30
0.0
 10
339.4859840592493
 20
312.0690286850846
 30
0.0
 10
338.9018684933967
 20
312.0692851390848
 30
0.0
 10
338.3184408430347
 20
312.0692455090927
 30
0.0
  0
SPLINE
  5
2C
330
2
100
AcDbEntity
  8
0
 48
0.1
100
AcDbSpline
210
0.0
220
0.0
230
1.0
 70
     8
 71
     3
 72
    13
 73
     9
 74
     7
 42
0.0000000001
 43
0.0000000001
 44
0.0000000001
 40
0.0
 40
0.0
 40
0.0
 40
0.0
 40
0.8372418225556543
 40
9.967548212100409
 40
21.10744364595034
 40
33.02626752350192
 40
44.79626984898078
 40
45.85143377655362
 40
45.85143377655362
 40
45.85143377655362
 40
45.85143377655362
 10
374.0684004583225
 20
296.224880413334
 30
0.0
 10
374.0710747938362
 20
295.9458817935425
 30
0.0
 10
374.1029133468687
 20
292.6243418047821
 30
0.0
 10
371.7623195628825
 20
285.5167711270621
 30
0.0
 10
362.8292025360607
 20
278.5420498164175
 30
0.0
 10
351.1751935112219
 20
276.4922597444568
 30
0.0
 10
342.9455417065232
 20
276.4434738310894
 30
0.0
 10
338.6702181738989
 20
276.4441868482405
 30
0.0
 10
338.3184748061079
 20
276.4442455102464
 30
0.0
 11
374.0684004583225
 21
296.224880413334
 31
0.0
 11
374.0684004583225
 21
295.3876385907784
 31
0.0
 11
371.2998809496691
 21
286.6871906427031
 31
0.0
 11
362.7381322799597
 21
279.5602186353328
 31
0.0
 11
351.1374933499325
 21
276.8246128451589
 31
0.0
 11
339.3736387336807
 21
276.4442455102464
 31
0.0
 11
338.3184748061079
 21
276.4442455102464
 31
0.0
  0
SPLINE
  5
2D
330
2
100
AcDbEntity
  8
0
 48
0.1
100
AcDbSpline
210
0.0
220
0.0
230
1.0
 70
     8
 71
     3
 72
    13
 73
     9
 74
     7
 42
0.0000000001
 43
0.0000000001
 44
0.0000000001
 40
0.0
 40
0.0
 40
0.0
 40
0.0
 40
0.8372418225556543
 40
8.220047852754447
 40
18.94492914160707
 40
28.58037682502036
 40
38.00719515053485
 40
38.35277281825828
 40
38.35277281825828
 40
38.35277281825828
 40
38.35277281825828
 10
369.3186104269268
 20
296.1802188229658
 30
0.0
 10
369.3225892946148
 20
295.9011871474499
 30
0.0
 10
369.3616538538782
 20
293.1616516113809
 30
0.0
 10
366.7998533114494
 20
286.8151702799616
 30
0.0
 10
358.0717503216075
 20
282.138375868139
 30
0.0
 10
348.1624405018449
 20
281.2357424995776
 30
0.0
 10
341.691120011822
 20
281.1939858443001
 30
0.0
 10
338.433666928889
 20
281.1942366414002
 30
0.0
 10
338.3184748061079
 20
281.1942455102463
 30
0.0
 11
369.3186104269268
 21
296.1802188229658
 31
0.0
 11
369.3186104269268
 21
295.3429770004102
 31
0.0
 11
366.7118285356111
 21
288.4356972861776
 31
0.0
 11
357.6269451747185
 21
282.7358750978143
 31
0.0
 11
348.0892963373729
 21
281.3665297376976
 31
0.0
 11
338.6640524738313
 21
281.1942455102463
 31
0.0
 11
338.3184748061079
 21
281.1942455102463
 31
0.0
  0
SPLINE
  5
2E
330
2
100
AcDbEntity
  8
0
 48
0.1
100
AcDbSpline
210
0.0
220
0.0
230
1.0
 70
     8
 71
     3
 72
    12
 73
     8
 74
     6
 42
0.0000000001
 43
0.0000000001
 44
0.0000000001
 40
0.0
 40
0.0
 40
0.0
 40
0.0
 40
0.083993996066738
 40
5.428977097538921
 40
18.16443472101364
 40
27.2043254441215
 40
28.37471251077598
 40
28.37471251077598
 40
28.37471251077598
 40
28.37471251077598
 10
360.8184748061077
 20
296.2258858416914
 30
0.0
 10
360.818504131735
 20
296.1978956851258
 30
0.0
 10
360.8203996024426
 20
294.388743530599
 30
0.0
 10
359.5970052742346
 20
288.0067775190717
 30
0.0
 10
349.5236684099507
 20
284.1584784163496
 30
0.0
 10
342.1167922769752
 20
284.1634844815282
 30
0.0
 10
338.7090936055399
 20
284.1633959858078
 30
0.0
 10
338.3184748061079
 20
284.1633858416914
 30
0.0
 11
360.8184748061077
 21
296.2258858416914
 31
0.0
 11
360.8184748061077
 21
296.1418918456246
 31
0.0
 11
359.6142857656584
 21
290.9343230165178
 31
0.0
 11
348.5132473340489
 21
284.6926223973556
 31
0.0
 11
339.4888618727624
 21
284.1633858416914
 31
0.0
 11
338.3184748061079
 21
284.1633858416914
 31
0.0
  0
SPLINE
  5
2F
330
2
100
AcDbEntity
  8
0
 48
0.1
100
AcDbSpline
210
0.0
220
0.0
230
1.0
 70
     8
 71
     3
 72
    13
 73
     9
 74
     7
 42
0.0000000001
 43
0.0000000001
 44
0.0000000001
 40
0.0
 40
0.0
 40
0.0
 40
0.0
 40
0.8372418225556543
 40
10.26506550811289
 40
21.40496094196282
 40
33.3237848195144
 40
45.09378714499326
 40
46.14895107256609
 40
46.14895107256609
 40
46.14895107256609
 40
46.14895107256609
 10
374.0684004583225
 20
296.2268912700488
 30
0.0
 10
374.0708291531879
 20
296.505832904406
 30
0.0
 10
374.1006063468496
 20
299.92581751635
 30
0.0
 10
371.8788433710372
 20
307.1879367395037
 30
0.0
 10
362.8186727452429
 20
314.2196789566007
 30
0.0
 10
351.1782114621029
 20
316.2717363550454
 30
0.0
 10
342.9454932023702
 20
316.3200090718323
 30
0.0
 10
338.6702144866788
 20
316.3193035551653
 30
0.0
 10
338.3184748061079
 20
316.3192455102462
 30
0.0
 11
374.0684004583225
 21
296.2268912700488
 31
0.0
 11
374.0684004583225
 21
297.0641330926044
 31
0.0
 11
371.2998809496691
 21
306.0763003777895
 31
0.0
 11
362.7381322799597
 21
313.2032723851597
 31
0.0
 11
351.1374933499325
 21
315.9388781753337
 31
0.0
 11
339.3736387336807
 21
316.3192455102462
 31
0.0
 11
338.3184748061079
 21
316.3192455102462
 31
0.0
  0
SPLINE
  5
30
330
2
100
AcDbEntity
  8
0
 48
0.1
100
AcDbSpline
210
0.0
220
0.0
230
1.0
 70
     8
 71
     3
 72
    13
 73
     9
 74
     7
 42
0.0000000001
 43
0.0000000001
 44
0.0000000001
 40
0.0
 40
0.0
 40
0.0
 40
0.0
 40
0.8372418225556543
 40
8.512478570185812
 40
19.23735985903844
 40
28.87280754245172
 40
38.29962586796622
 40
38.64520353568965
 40
38.64520353568965
 40
38.64520353568965
 40
38.64520353568965
 10
369.3186104269268
 20
296.271552860417
 30
0.0
 10
369.3221776837015
 20
296.5504705632653
 30
0.0
 10
369.3584470099946
 20
299.3863071213273
 30
0.0
 10
366.9403240873034
 20
305.9091879833117
 30
0.0
 10
358.0585551068285
 20
310.6223482904749
 30
0.0
 10
348.1659349298516
 20
311.5284812562138
 30
0.0
 10
341.6910981455612
 20
311.5695005911256
 30
0.0
 10
338.4336661820506
 20
311.5692542224903
 30
0.0
 10
338.3184748061079
 20
311.5692455102462
 30
0.0
 11
369.3186104269268
 21
296.271552860417
 31
0.0
 11
369.3186104269268
 21
297.1087946829726
 31
0.0
 11
366.7118285356111
 21
304.3277937343149
 31
0.0
 11
357.6269451747185
 21
310.0276159226783
 31
0.0
 11
348.0892963373729
 21
311.396961282795
 31
0.0
 11
338.6640524738313
 21
311.5692455102462
 31
0.0
 11
338.3184748061079
 21
311.5692455102462
 31
0.0
  0
SPLINE
  5
31
330
2
100
AcDbEntity
  8
0
 48
0.1
100
AcDbSpline
210
0.0
220
0.0
230
1.0
 70
     8
 71
     3
 72
    12
 73
     8
 74
     6
 42
0.0000000001
 43
0.0000000001
 44
0.0000000001
 40
0.0
 40
0.0
 40
0.0
 40
0.0
 40
0.0839939960667948
 40
5.550836006066765
 40
18.37883808722755
 40
27.41872881033541
 40
28.58911587698989
 40
28.58911587698989
 40
28.58911587698989
 40
28.58911587698989
 10
360.8184748061077
 20
296.2258858416914
 30
0.0
 10
360.8185022419535
 20
296.2538762898406
 30
0.0
 10
360.8203153701316
 20
298.1036559727664
 30
0.0
 10
359.6361196735503
 20
304.5558344076591
 30
0.0
 10
349.5731528244981
 20
308.6447390456312
 30
0.0
 10
342.1163997067951
 20
308.5992117086996
 30
0.0
 10
338.70905323364
 20
308.6000132943758
 30
0.0
 10
338.3184748061079
 20
308.6001051788011
 30
0.0
 11
360.8184748061077
 21
296.2258858416914
 31
0.0
 11
360.8184748061077
 21
296.3098798377582
 31
0.0
 11
359.6142857656584
 21
301.642448666865
 31
0.0
 11
348.5132473340489
 21
308.070868623137
 31
0.0
 11
339.4888618727624
 21
308.6001051788011
 31
0.0
 11
338.3184748061079
 21
308.6001051788011
 31
0.0
  0
SPLINE
  5
32
330
2
100
AcDbEntity
  8
0
 48
0.1
100
AcDbSpline
210
0.0
220
0.0
230
1.0
 70
     8
 71
     3
 72
    30
 73
    26
 74
     0
 42
0.0000000001
 43
0.0000000001
 40
0.0
 40
0.0
 40
0.0
 40
0.0
 40
0.65850966288644
 40
0.65850966288644
 40
1.686762086004357
 40
1.686762086004357
 40
2.715014509122275
 40
2.715014509122275
 40
4.77151935535811
 40
4.77151935535811
 40
8.884529047829779
 40
8.884529047829779
 40
12.99753874030145
 40
12.99753874030145
 40
17.0727093799465
 40
17.0727093799465
 40
20.3084671467517
 40
20.3084671467517
 40
23.5442249135569
 40
23.5442249135569
 40
28.25098257416274
 40
28.25098257416274
 40
36.78596721397433
 40
36.78596721397433
 40
38.53625931349068
 40
38.53625931349068
 40
38.53625931349068
 40
38.53625931349068
 10
306.8185490996254
 20
296.2108873586169
 30
0.0
 10
306.8154873321776
 20
296.4840229686296
 30
0.0
 10
306.8123095944699
 20
296.7077880818997
 30
0.0
 10
306.8192853988963
 20
297.2922565446572
 30
0.0
 10
306.8409750263605
 20
297.6551147730333
 30
0.0
 10
306.92056761342
 20
298.3724718220043
 30
0.0
 10
306.9779058857773
 20
298.729753178814
 30
0.0
 10
307.1992505988815
 20
299.8558066120277
 30
0.0
 10
307.4125488489671
 20
300.5537796452059
 30
0.0
 10
308.2246351559612
 20
302.7692957259974
 30
0.0
 10
308.9964088347632
 20
304.0347455007586
 30
0.0
 10
310.8718144495164
 20
306.2231554174999
 30
0.0
 10
311.9723491386003
 20
307.1535078158114
 30
0.0
 10
314.3592659644324
 20
308.7159083147066
 30
0.0
 10
315.6440426098469
 20
309.350973173079
 30
0.0
 10
318.0182995163328
 20
310.2680753711793
 30
0.0
 10
319.0913707976365
 20
310.594859904063
 30
0.0
 10
321.2414343307472
 20
311.1148784239929
 30
0.0
 10
322.321982324942
 20
311.3096534156412
 30
0.0
 10
324.9796384429241
 20
311.6752620578404
 30
0.0
 10
326.5591849552383
 20
311.7950440145638
 30
0.0
 10
330.9907023229104
 20
312.025298867723
 30
0.0
 10
333.7183993987758
 20
312.0601439241016
 30
0.0
 10
337.1511268079971
 20
312.0690286850848
 30
0.0
 10
337.7352423737681
 20
312.0692851390848
 30
0.0
 10
338.3186700240485
 20
312.0692455090927
 30
0.0
  0
SPLINE
  5
33
330
2
100
AcDbEntity
  8
0
 48
0.1
100
AcDbSpline
210
0.0
220
0.0
230
1.0
 70
     8
 71
     3
 72
    13
 73
     9
 74
     7
 42
0.0000000001
 43
0.0000000001
 44
0.0000000001
 40
0.0
 40
0.0
 40
0.0
 40
0.0
 40
0.8372418225556543
 40
10.26506550811289
 40
21.40496094196282
 40
33.3237848195144
 40
45.09378714499326
 40
46.14895107256603
 40
46.14895107256603
 40
46.14895107256603
 40
46.14895107256603
 10
302.5687104087608
 20
296.2268912700488
 30
0.0
 10
302.5662817138954
 20
296.505832904406
 30
0.0
 10
302.5365045202332
 20
299.92581751635
 30
0.0
 10
304.7582674960462
 20
307.1879367395037
 30
0.0
 10
313.8184381218402
 20
314.2196789566007
 30
0.0
 10
325.4588994049801
 20
316.2717363550453
 30
0.0
 10
333.6916176647136
 20
316.3200090718325
 30
0.0
 10
337.9668963804044
 20
316.3193035551653
 30
0.0
 10
338.3186360609753
 20
316.3192455102462
 30
0.0
 11
302.5687104087608
 21
296.2268912700488
 31
0.0
 11
302.5687104087608
 21
297.0641330926044
 31
0.0
 11
305.3372299174141
 21
306.0763003777895
 31
0.0
 11
313.8989785871236
 21
313.2032723851597
 31
0.0
 11
325.4996175171507
 21
315.9388781753337
 31
0.0
 11
337.2634721334025
 21
316.3192455102462
 31
0.0
 11
338.3186360609753
 21
316.3192455102462
 31
0.0
  0
SPLINE
  5
34
330
2
100
AcDbEntity
  8
0
 48
0.1
100
AcDbSpline
210
0.0
220
0.0
230
1.0
 70
     8
 71
     3
 72
    13
 73
     9
 74
     7
 42
0.0000000001
 43
0.0000000001
 44
0.0000000001
 40
0.0
 40
0.0
 40
0.0
 40
0.0
 40
0.8944058624688295
 40
8.569642610098988
 40
19.29452389895161
 40
28.92997158236489
 40
38.35678990787939
 40
38.70236757560283
 40
38.70236757560283
 40
38.70236757560283
 40
38.70236757560283
 10
307.3185004401564
 20
296.2143888205038
 30
0.0
 10
307.3144596663247
 20
296.512339579385
 30
0.0
 10
307.2757434759919
 20
299.3671190773318
 30
0.0
 10
309.6941830932439
 20
305.9090690816674
 30
0.0
 10
318.5792645610894
 20
310.6223806590354
 30
0.0
 10
328.4709882287688
 20
311.5284726841961
 30
0.0
 10
334.9460138961003
 20
311.5695006447667
 30
0.0
 10
338.2034447251502
 20
311.5692542243223
 30
0.0
 10
338.3186360609753
 20
311.5692455102462
 30
0.0
 11
307.3185004401564
 21
296.2143888205038
 31
0.0
 11
307.3185004401564
 21
297.1087946829726
 31
0.0
 11
309.9252823314722
 21
304.3277937343149
 31
0.0
 11
319.0101656923647
 21
310.0276159226783
 31
0.0
 11
328.5478145297104
 21
311.396961282795
 31
0.0
 11
337.9730583932519
 21
311.5692455102462
 31
0.0
 11
338.3186360609753
 21
311.5692455102462
 31
0.0
  0
SPLINE
  5
35
330
2
100
AcDbEntity
  8
0
 48
0.1
100
AcDbSpline
210
0.0
220
0.0
230
1.0
 70
     8
 71
     3
 72
    12
 73
     8
 74
     6
 42
0.0000000001
 43
0.0000000001
 44
0.0000000001
 40
0.0
 40
0.0
 40
0.0
 40
0.0
 40
0.0839939960667948
 40
5.550836006066765
 40
18.37883808722755
 40
27.41872881033541
 40
28.58911587698989
 40
28.58911587698989
 40
28.58911587698989
 40
28.58911587698989
 10
315.8186360609756
 20
296.2258858416914
 30
0.0
 10
315.8186086251298
 20
296.2538762898406
 30
0.0
 10
315.8167954969513
 20
298.1036559727664
 30
0.0
 10
317.0009911935334
 20
304.5558344076591
 30
0.0
 10
327.0639580425852
 20
308.6447390456312
 30
0.0
 10
334.5207111602878
 20
308.5992117086996
 30
0.0
 10
337.9280576334433
 20
308.6000132943758
 30
0.0
 10
338.3186360609753
 20
308.6001051788011
 30
0.0
 11
315.8186360609756
 21
296.2258858416914
 31
0.0
 11
315.8186360609756
 21
296.3098798377582
 31
0.0
 11
317.0228251014248
 21
301.642448666865
 31
0.0
 11
328.1238635330343
 21
308.070868623137
 31
0.0
 11
337.1482489943208
 21
308.6001051788011
 31
0.0
 11
338.3186360609753
 21
308.6001051788011
 31
0.0
  0
SPLINE
  5
36
330
2
100
AcDbEntity
  8
0
 48
0.1
100
AcDbSpline
210
0.0
220
0.0
230
1.0
 70
     8
 71
     3
 72
    30
 73
    26
 74
     0
 42
0.0000000001
 43
0.0000000001
 40
0.0
 40
0.0
 40
0.0
 40
0.0
 40
0.65850966288644
 40
0.65850966288644
 40
1.686762086003359
 40
1.686762086003359
 40
2.715014509120279
 40
2.715014509120279
 40
4.771519355354119
 40
4.771519355354119
 40
8.884529047821798
 40
8.884529047821798
 40
12.99753874028947
 40
12.99753874028947
 40
17.07270938001616
 40
17.07270938001616
 40
20.3084671468072
 40
20.3084671468072
 40
23.54422491359824
 40
23.54422491359824
 40
28.25098257418556
 40
28.25098257418556
 40
36.78596721404064
 40
36.78596721404064
 40
38.53625931349068
 40
38.53625931349068
 40
38.53625931349068
 40
38.53625931349068
 10
306.8185490996254
 20
296.2108873586169
 30
0.0
 10
306.8154873321776
 20
295.9677487147532
 30
0.0
 10
306.8123095944699
 20
295.7439836014831
 30
0.0
 10
306.8192853988963
 20
295.222015138726
 30
0.0
 10
306.8409750263605
 20
294.8591569103504
 30
0.0
 10
306.9205676134199
 20
294.14179986138
 30
0.0
 10
306.9779058857771
 20
293.7845185045706
 30
0.0
 10
307.1992505988808
 20
292.7209650713579
 30
0.0
 10
307.412548848966
 20
292.0229920381804
 30
0.0
 10
308.2246351559586
 20
289.9941952945003
 30
0.0
 10
308.9964088347592
 20
288.72874551974
 30
0.0
 10
310.8718144495095
 20
286.5403356029995
 30
0.0
 10
311.9723491385915
 20
285.6099832046881
 30
0.0
 10
314.3592659644452
 20
284.0475827057764
 30
0.0
 10
315.6440426098869
 20
283.4125178473934
 30
0.0
 10
318.018299516397
 20
282.4954156492922
 30
0.0
 10
319.0913707976962
 20
282.1686311164128
 30
0.0
 10
321.241434330798
 20
281.6486125964897
 30
0.0
 10
322.3219823249881
 20
281.4538376048438
 30
0.0
 10
324.9796384429595
 20
281.0882289626491
 30
0.0
 10
326.5591849552675
 20
280.9684470059269
 30
0.0
 10
330.9907023229478
 20
280.7381921527684
 30
0.0
 10
333.7183993988277
 20
280.7033470963904
 30
0.0
 10
337.1511268080414
 20
280.6944623354078
 30
0.0
 10
337.7352423737902
 20
280.6942058814078
 30
0.0
 10
338.3186700240485
 20
280.6942455113999
 30
0.0
  0
SPLINE
  5
37
330
2
100
AcDbEntity
  8
0
 48
0.1
100
AcDbSpline
210
0.0
220
0.0
230
1.0
 70
     8
 71
     3
 72
    13
 73
     9
 74
     7
 42
0.0000000001
 43
0.0000000001
 44
0.0000000001
 40
0.0
 40
0.0
 40
0.0
 40
0.0
 40
0.8372418225556543
 40
9.967548212100409
 40
21.10744364595034
 40
33.02626752350192
 40
44.79626984898078
 40
45.85143377655356
 40
45.85143377655356
 40
45.85143377655356
 40
45.85143377655356
 10
302.5687104087608
 20
296.224880413334
 30
0.0
 10
302.566036073247
 20
295.9458817935425
 30
0.0
 10
302.5341975202144
 20
292.6243418047821
 30
0.0
 10
304.8747913042006
 20
285.5167711270621
 30
0.0
 10
313.8079083310226
 20
278.5420498164175
 30
0.0
 10
325.4619173558611
 20
276.4922597444567
 30
0.0
 10
333.6915691605602
 20
276.4434738310896
 30
0.0
 10
337.9668926931842
 20
276.4441868482405
 30
0.0
 10
338.3186360609753
 20
276.4442455102464
 30
0.0
 11
302.5687104087608
 21
296.224880413334
 31
0.0
 11
302.5687104087608
 21
295.3876385907784
 31
0.0
 11
305.3372299174141
 21
286.6871906427031
 31
0.0
 11
313.8989785871236
 21
279.5602186353328
 31
0.0
 11
325.4996175171507
 21
276.8246128451589
 31
0.0
 11
337.2634721334025
 21
276.4442455102464
 31
0.0
 11
338.3186360609753
 21
276.4442455102464
 31
0.0
  0
SPLINE
  5
38
330
2
100
AcDbEntity
  8
0
 48
0.1
100
AcDbSpline
210
0.0
220
0.0
230
1.0
 70
     8
 71
     3
 72
    13
 73
     9
 74
     7
 42
0.0000000001
 43
0.0000000001
 44
0.0000000001
 40
0.0
 40
0.0
 40
0.0
 40
0.0
 40
0.8714118200936695
 40
8.254217850292462
 40
18.97909913914509
 40
28.61454682255837
 40
38.04136514807287
 40
38.3869428157963
 40
38.3869428157963
 40
38.3869428157963
 40
38.3869428157963
 10
307.3185004401564
 20
296.2143888205038
 30
0.0
 10
307.3142099839752
 20
295.9239709777152
 30
0.0
 10
307.2735697732496
 20
293.173064819784
 30
0.0
 10
309.8355212185817
 20
286.8151916333857
 30
0.0
 10
318.5658395849863
 20
282.1383699769246
 30
0.0
 10
328.474543503409
 20
281.2357440597207
 30
0.0
 10
334.945991649095
 20
281.1939858345381
 30
0.0
 10
338.2034439653075
 20
281.1942366410667
 30
0.0
 10
338.3186360609753
 20
281.1942455102463
 30
0.0
 11
307.3185004401564
 21
296.2143888205038
 31
0.0
 11
307.3185004401564
 21
295.3429770004102
 31
0.0
 11
309.9252823314722
 21
288.4356972861776
 31
0.0
 11
319.0101656923647
 21
282.7358750978143
 31
0.0
 11
328.5478145297104
 21
281.3665297376976
 31
0.0
 11
337.9730583932519
 21
281.1942455102463
 31
0.0
 11
338.3186360609753
 21
281.1942455102463
 31
0.0
  0
SPLINE
  5
39
330
2
100
AcDbEntity
  8
0
 48
0.1
100
AcDbSpline
210
0.0
220
0.0
230
1.0
 70
     8
 71
     3
 72
    12
 73
     8
 74
     6
 42
0.0000000001
 43
0.0000000001
 44
0.0000000001
 40
0.0
 40
0.0
 40
0.0
 40
0.0
 40
0.083993996066738
 40
5.428977097538921
 40
18.16443472101364
 40
27.2043254441215
 40
28.37471251077598
 40
28.37471251077598
 40
28.37471251077598
 40
28.37471251077598
 10
315.8186360609756
 20
296.2258858416914
 30
0.0
 10
315.8186067353482
 20
296.1978956851258
 30
0.0
 10
315.8167112646389
 20
294.388743530599
 30
0.0
 10
317.0401055928505
 20
288.0067775190717
 30
0.0
 10
327.1134424571321
 20
284.1584784163496
 30
0.0
 10
334.5203185901082
 20
284.1634844815282
 30
0.0
 10
337.9280172615434
 20
284.1633959858078
 30
0.0
 10
338.3186360609753
 20
284.1633858416914
 30
0.0
 11
315.8186360609756
 21
296.2258858416914
 31
0.0
 11
315.8186360609756
 21
296.1418918456246
 31
0.0
 11
317.0228251014248
 21
290.9343230165178
 31
0.0
 11
328.1238635330343
 21
284.6926223973556
 31
0.0
 11
337.1482489943208
 21
284.1633858416914
 31
0.0
 11
338.3186360609753
 21
284.1633858416914
 31
0.0
  0
LINE
  5
3A
330
2
100
AcDbEntity
  8
CENTER
 48
0.05
100
AcDbLine
 10
338.3186360609754
 20
296.2470980777707
 30
0.0
 11
338.3186360609755
 21
290.6413929427219
 31
0.0
  0
CIRCLE
  5
3D
330
2
100
AcDbEntity
  8
0
100
AcDbCircle
 10
338.3186360609754
 20
293.4442455102463
 30
0.0
 40
1.25
  0
LINE
  5
3E
330
2
100
AcDbEntity
  8
CENTER
 48
0.05
100
AcDbLine
 10
342.5141163616012
 20
288.0692455102463
 30
0.0
 11
334.12315576035
 21
288.0692455102463
 31
0.0
  0
LINE
  5
3F
330
2
100
AcDbEntity
  8
CENTER
 48
0.05
100
AcDbLine
 10
338.3186360609756
 20
292.2647258108719
 30
0.0
 11
338.3186360609756
 21
283.8737652096207
 31
0.0
  0
CIRCLE
  5
40
330
2
100
AcDbEntity
  8
0
 48
0.1
100
AcDbCircle
 10
338.3186360609756
 20
288.0692455102463
 30
0.0
 40
1.89014635623478
  0
CIRCLE
  5
41
330
2
100
AcDbEntity
  8
0
 48
0.1
100
AcDbCircle
 10
338.3186360609756
 20
288.0692455102463
 30
0.0
 40
1.25
  0
LINE
  5
42
330
2
100
AcDbEntity
  8
CENTER
 48
0.05
100
AcDbLine
 10
341.0357873929516
 20
293.4442455102463
 30
0.0
 11
335.6014847289993
 21
293.4442455102463
 31
0.0
  0
ENDSEC
  0
SECTION
  2
OBJECTS
  0
DICTIONARY
  5
7
330
0
100
AcDbDictionary
  3
ACAD_GROUP
350
25
  3
ACAD_LAYOUT
350
B
  3
ACAD_MLINESTYLE
350
26
  3
ACAD_PLOTSETTINGS
350
27
  3
ACAD_PLOTSTYLENAME
350
6
  3
ACDBHEADERROUNDTRIPXREC
350
117
  3
ACDBVARIABLEDICTIONARY
350
43
  0
DICTIONARY
  5
11
330
10
100
AcDbDictionary
280
     1
  3
ACAD_LAYERFILTERS
360
12
  0
DICTIONARY
  5
4B
330
2
100
AcDbDictionary
280
     1
  3
ACAD_LAYOUTSELFREF
360
138
  0
DICTIONARY
  5
4D
330
C
100
AcDbDictionary
280
     1
  3
ACAD_LAYOUTSELFREF
360
139
  0
DICTIONARY
  5
25
102
{ACAD_REACTORS
330
7
102
}
330
7
100
AcDbDictionary
  0
DICTIONARY
  5
B
102
{ACAD_REACTORS
330
7
102
}
330
7
100
AcDbDictionary
  0
DICTIONARY
  5
26
102
{ACAD_REACTORS
330
7
102
}
330
7
100
AcDbDictionary
  3
STANDARD
350
29
  0
DICTIONARY
  5
27
102
{ACAD_REACTORS
330
7
102
}
330
7
100
AcDbDictionary
  0
ACDBDICTIONARYWDFLT
  5
6
102
{ACAD_REACTORS
330
7
102
}
330
7
100
AcDbDictionary
281
     1
  3
Normal
350
5
100
AcDbDictionaryWithDefault
340
5
  0
DICTIONARY
  5
117
102
{ACAD_REACTORS
330
7
102
}
330
7
100
AcDbDictionary
  3
CEPSNTYPE
350
121
  3
DIMSTYLEDATA
350
125
  3
FINGERPRINTGUID
350
122
  3
HYPERLINKBASE
350
11A
  3
INSUNITS
350
120
  3
LAYOUTDICT
350
11C
  3
LWETCUNION
350
11F
  3
PLOTSETDICT
350
11D
  3
PLOTSTYLNAMDICT
350
11E
  3
PSVPSCALE
350
124
  3
PUCSBASE
350
128
  3
PUCSORGBACK
350
12E
  3
PUCSORGBOTTOM
350
12A
  3
PUCSORGFRONT
350
12D
  3
PUCSORGLEFT
350
12B
  3
PUCSORGRIGHT
350
12C
  3
PUCSORGTOP
350
129
  3
PUCSORTHOREF
350
126
  3
PUCSORTHOVIEW
350
127
  3
STYLESHEET
350
11B
  3
TSTACKALIGN
350
118
  3
TSTACKSIZE
350
119
  3
UCSBASE
350
131
  3
UCSORGBACK
350
137
  3
UCSORGBOTTOM
350
133
  3
UCSORGFRONT
350
136
  3
UCSORGLEFT
350
134
  3
UCSORGRIGHT
350
135
  3
UCSORGTOP
350
132
  3
UCSORTHOREF
350
12F
  3
UCSORTHOVIEW
350
130
  3
VERSIONGUID
350
123
  0
DICTIONARY
  5
43
102
{ACAD_REACTORS
330
7
102
}
330
7
100
AcDbDictionary
  3
DIMASSOC
350
45
  3
HIDETEXT
350
44
  0
DICTIONARY
  5
12
102
{ACAD_REACTORS
330
11
102
}
330
11
100
AcDbDictionary
280
     1
  3
DIM-1_12
360
13
  3
DIM-1_16
360
14
  0
XRECORD
  5
138
102
{ACAD_REACTORS
330
4B
102
}
330
4B
100
AcDbXrecord
340
2
  0
XRECORD
  5
139
102
{ACAD_REACTORS
330
4D
102
}
330
4D
100
AcDbXrecord
340
C
  0
MLINESTYLE
  5
29
102
{ACAD_REACTORS
330
26
102
}
330
26
100
AcDbMlineStyle
  2
STANDARD
 70
     0
  3

 62
   256
 51
90.0
 52
90.0
 71
     2
 49
0.5
 62
   256
  6
BYLAYER
 49
-0.5
 62
   256
  6
BYLAYER
  0
ACDBPLACEHOLDER
  5
5
102
{ACAD_REACTORS
330
6
102
}
330
6
100
AcDbPlaceHolder
280
     0
  0
XRECORD
  5
121
102
{ACAD_REACTORS
330
117
102
}
330
117
100
AcDbXrecord
 90
        0
  0
XRECORD
  5
125
102
{ACAD_REACTORS
330
117
102
}
330
117
100
AcDbXrecord
1000
DSTYLE
1002
{
1070
    79
 70
     1
1070
   276
 70
     1
1070
   277
 70
     5
1070
   289
 70
     1
1002
}
  0
XRECORD
  5
122
102
{ACAD_REACTORS
330
117
102
}
330
117
100
AcDbXrecord
  1
{6A4AC8E0-4F58-11D5-8420-0003476D26AB}
  0
XRECORD
  5
11A
102
{ACAD_REACTORS
330
117
102
}
330
117
100
AcDbXrecord
  1

  0
XRECORD
  5
120
102
{ACAD_REACTORS
330
117
102
}
330
117
100
AcDbXrecord
 90
        1
  0
XRECORD
  5
11C
102
{ACAD_REACTORS
330
117
102
}
330
117
100
AcDbXrecord
340
B
  0
XRECORD
  5
11F
102
{ACAD_REACTORS
330
117
102
}
330
117
100
AcDbXrecord
 90
    10781
  0
XRECORD
  5
11D
102
{ACAD_REACTORS
330
117
102
}
330
117
100
AcDbXrecord
340
27
  0
XRECORD
  5
11E
102
{ACAD_REACTORS
330
117
102
}
330
117
100
AcDbXrecord
340
6
  0
XRECORD
  5
124
102
{ACAD_REACTORS
330
117
102
}
330
117
100
AcDbXrecord
 40
0.0
  0
XRECORD
  5
128
102
{ACAD_REACTORS
330
117
102
}
330
117
100
AcDbXrecord
340
0
  0
XRECORD
  5
12E
102
{ACAD_REACTORS
330
117
102
}
330
117
100
AcDbXrecord
 10
0.0
 20
0.0
 30
0.0
  0
XRECORD
  5
12A
102
{ACAD_REACTORS
330
117
102
}
330
117
100
AcDbXrecord
 10
0.0
 20
0.0
 30
0.0
  0
XRECORD
  5
12D
102
{ACAD_REACTORS
330
117
102
}
330
117
100
AcDbXrecord
 10
0.0
 20
0.0
 30
0.0
  0
XRECORD
  5
12B
102
{ACAD_REACTORS
330
117
102
}
330
117
100
AcDbXrecord
 10
0.0
 20
0.0
 30
0.0
  0
XRECORD
  5
12C
102
{ACAD_REACTORS
330
117
102
}
330
117
100
AcDbXrecord
 10
0.0
 20
0.0
 30
0.0
  0
XRECORD
  5
129
102
{ACAD_REACTORS
330
117
102
}
330
117
100
AcDbXrecord
 10
0.0
 20
0.0
 30
0.0
  0
XRECORD
  5
126
102
{ACAD_REACTORS
330
117
102
}
330
117
100
AcDbXrecord
340
0
  0
XRECORD
  5
127
102
{ACAD_REACTORS
330
117
102
}
330
117
100
AcDbXrecord
 70
     0
  0
XRECORD
  5
11B
102
{ACAD_REACTORS
330
117
102
}
330
117
100
AcDbXrecord
  1

  0
XRECORD
  5
118
102
{ACAD_REACTORS
330
117
102
}
330
117
100
AcDbXrecord
 90
        1
  0
XRECORD
  5
119
102
{ACAD_REACTORS
330
117
102
}
330
117
100
AcDbXrecord
 90
       70
  0
XRECORD
  5
131
102
{ACAD_REACTORS
330
117
102
}
330
117
100
AcDbXrecord
340
0
  0
XRECORD
  5
137
102
{ACAD_REACTORS
330
117
102
}
330
117
100
AcDbXrecord
 10
0.0
 20
0.0
 30
0.0
  0
XRECORD
  5
133
102
{ACAD_REACTORS
330
117
102
}
330
117
100
AcDbXrecord
 10
0.0
 20
0.0
 30
0.0
  0
XRECORD
  5
136
102
{ACAD_REACTORS
330
117
102
}
330
117
100
AcDbXrecord
 10
0.0
 20
0.0
 30
0.0
  0
XRECORD
  5
134
102
{ACAD_REACTORS
330
117
102
}
330
117
100
AcDbXrecord
 10
0.0
 20
0.0
 30
0.0
  0
XRECORD
  5
135
102
{ACAD_REACTORS
330
117
102
}
330
117
100
AcDbXrecord
 10
0.0
 20
0.0
 30
0.0
  0
XRECORD
  5
132
102
{ACAD_REACTORS
330
117
102
}
330
117
100
AcDbXrecord
 10
-86.61529330307228
 20
17.01116759546271
 30
0.0
  0
XRECORD
  5
12F
102
{ACAD_REACTORS
330
117
102
}
330
117
100
AcDbXrecord
340
0
  0
XRECORD
  5
130
102
{ACAD_REACTORS
330
117
102
}
330
117
100
AcDbXrecord
 70
     1
  0
XRECORD
  5
123
102
{ACAD_REACTORS
330
117
102
}
330
117
100
AcDbXrecord
  1
{AD80DF3A-B842-4F13-B2C1-CE51497AC731}
  0
DICTIONARYVAR
  5
45
102
{ACAD_REACTORS
330
43
102
}
330
43
100
DictionaryVariables
280
     0
  1
1
  0
DICTIONARYVAR
  5
44
102
{ACAD_REACTORS
330
43
102
}
330
43
100
DictionaryVariables
280
     0
  1
1
  0
XRECORD
  5
13
102
{ACAD_REACTORS
330
12
102
}
330
12
100
AcDbXrecord
  1
DIM-1_12
  1
DIM-1_12
  1
*
  1
*
 70
     0
  1
*
  1
*
  0
XRECORD
  5
14
102
{ACAD_REACTORS
330
12
102
}
330
12
100
AcDbXrecord
  1
dim-1_16
  1
*
  1
*
  1
*
 70
     0
  1
*
  1
*
  0
ENDSEC
  0
EOF
