  0
SECTION
  2
HEADER
  9
$ACADVER
  1
AC1014
  9
$ACADMAINTVER
 70
     9
  9
$DWGCODEPAGE
  3
ANSI_1252
  9
$INSBASE
 10
-50.74036765085748
 20
-2.729896930174906
 30
0.0
  9
$EXTMIN
 10
-86.49607378236693
 20
-14.35691256755592
 30
-0.0015258207003583
  9
$EXTMAX
 10
-14.97852450229453
 20
25.52047624882064
 30
0.0000000349246037
  9
$LIMMIN
 10
0.0
 20
0.0
  9
$LIMMAX
 10
100.5024158491978
 20
51.69854817198938
  9
$ORTHOMODE
 70
     1
  9
$REGENMODE
 70
     1
  9
$FILLMODE
 70
     1
  9
$QTEXTMODE
 70
     0
  9
$MIRRTEXT
 70
     1
  9
$DRAGMODE
 70
     2
  9
$LTSCALE
 40
2.0
  9
$OSMODE
 70
    55
  9
$ATTMODE
 70
     1
  9
$TEXTSIZE
 40
0.1
  9
$TRACEWID
 40
1.0
  9
$TEXTSTYLE
  7
CARTOUCHE
  9
$CLAYER
  8
0
  9
$CELTYPE
  6
BYLAYER
  9
$CECOLOR
 62
   256
  9
$CELTSCALE
 40
1.0
  9
$DELOBJ
 70
     1
  9
$DISPSILH
 70
     0
  9
$DIMSCALE
 40
16.0
  9
$DIMASZ
 40
0.1
  9
$DIMEXO
 40
0.0625
  9
$DIMDLI
 40
0.25
  9
$DIMRND
 40
0.0
  9
$DIMDLE
 40
0.0
  9
$DIMEXE
 40
0.1
  9
$DIMTP
 40
0.0
  9
$DIMTM
 40
0.0
  9
$DIMTXT
 40
0.1
  9
$DIMCEN
 40
0.09
  9
$DIMTSZ
 40
0.0
  9
$DIMTOL
 70
     0
  9
$DIMLIM
 70
     0
  9
$DIMTIH
 70
     1
  9
$DIMTOH
 70
     1
  9
$DIMSE1
 70
     0
  9
$DIMSE2
 70
     0
  9
$DIMTAD
 70
     0
  9
$DIMZIN
 70
     4
  9
$DIMBLK
  1

  9
$DIMASO
 70
     1
  9
$DIMSHO
 70
     1
  9
$DIMPOST
  1
\X
  9
$DIMAPOST
  1
cm
  9
$DIMALT
 70
     1
  9
$DIMALTD
 70
     1
  9
$DIMALTF
 40
2.54
  9
$DIMLFAC
 40
1.0
  9
$DIMTOFL
 70
     0
  9
$DIMTVP
 40
0.0
  9
$DIMTIX
 70
     0
  9
$DIMSOXD
 70
     0
  9
$DIMSAH
 70
     0
  9
$DIMBLK1
  1

  9
$DIMBLK2
  1

  9
$DIMSTYLE
  2
STANDARD
  9
$DIMCLRD
 70
     0
  9
$DIMCLRE
 70
     0
  9
$DIMCLRT
 70
     0
  9
$DIMTFAC
 40
1.0
  9
$DIMGAP
 40
0.08
  9
$DIMJUST
 70
     0
  9
$DIMSD1
 70
     0
  9
$DIMSD2
 70
     0
  9
$DIMTOLJ
 70
     1
  9
$DIMTZIN
 70
     4
  9
$DIMALTZ
 70
     4
  9
$DIMALTTZ
 70
     4
  9
$DIMFIT
 70
     1
  9
$DIMUPT
 70
     0
  9
$DIMUNIT
 70
     5
  9
$DIMDEC
 70
     3
  9
$DIMTDEC
 70
     3
  9
$DIMALTU
 70
     2
  9
$DIMALTTD
 70
     1
  9
$DIMTXSTY
  7
ROMANS
  9
$DIMAUNIT
 70
     0
  9
$LUNITS
 70
     2
  9
$LUPREC
 70
     2
  9
$SKETCHINC
 40
1.0
  9
$FILLETRAD
 40
2.0
  9
$AUNITS
 70
     0
  9
$AUPREC
 70
     0
  9
$MENU
  1
.
  9
$ELEVATION
 40
0.0
  9
$PELEVATION
 40
0.0
  9
$THICKNESS
 40
0.0
  9
$LIMCHECK
 70
     0
  9
$BLIPMODE
 70
     0
  9
$CHAMFERA
 40
0.0
  9
$CHAMFERB
 40
0.0
  9
$CHAMFERC
 40
20.0
  9
$CHAMFERD
 40
0.0
  9
$SKPOLY
 70
     0
  9
$TDCREATE
 40
2452062.301426851
  9
$TDUPDATE
 40
2453686.479059791
  9
$TDINDWG
 40
2.2066630787
  9
$TDUSRTIMER
 40
2.2066630787
  9
$USRTIMER
 70
     1
  9
$ANGBASE
 50
0.0
  9
$ANGDIR
 70
     0
  9
$PDMODE
 70
    34
  9
$PDSIZE
 40
-5.0
  9
$PLINEWID
 40
0.0
  9
$COORDS
 70
     1
  9
$SPLFRAME
 70
     0
  9
$SPLINETYPE
 70
     6
  9
$SPLINESEGS
 70
     8
  9
$ATTDIA
 70
     0
  9
$ATTREQ
 70
     1
  9
$HANDLING
 70
 22529
  9
$HANDSEED
  5
C2
  9
$SURFTAB1
 70
     6
  9
$SURFTAB2
 70
     6
  9
$SURFTYPE
 70
     6
  9
$SURFU
 70
     6
  9
$SURFV
 70
     6
  9
$UCSNAME
  2

  9
$UCSORG
 10
0.0
 20
0.0
 30
0.0
  9
$UCSXDIR
 10
1.0
 20
0.0
 30
0.0
  9
$UCSYDIR
 10
0.0
 20
1.0
 30
0.0
  9
$PUCSNAME
  2

  9
$PUCSORG
 10
0.0
 20
0.0
 30
0.0
  9
$PUCSXDIR
 10
1.0
 20
0.0
 30
0.0
  9
$PUCSYDIR
 10
0.0
 20
1.0
 30
0.0
  9
$USERI1
 70
     0
  9
$USERI2
 70
     0
  9
$USERI3
 70
     0
  9
$USERI4
 70
     0
  9
$USERI5
 70
     0
  9
$USERR1
 40
0.0
  9
$USERR2
 40
0.0
  9
$USERR3
 40
0.0
  9
$USERR4
 40
0.0
  9
$USERR5
 40
0.0
  9
$WORLDVIEW
 70
     1
  9
$SHADEDGE
 70
     3
  9
$SHADEDIF
 70
    70
  9
$TILEMODE
 70
     1
  9
$MAXACTVP
 70
    64
  9
$PINSBASE
 10
0.0
 20
0.0
 30
0.0
  9
$PLIMCHECK
 70
     0
  9
$PEXTMIN
 10
0.0
 20
0.0
 30
0.0
  9
$PEXTMAX
 10
0.0
 20
0.0
 30
0.0
  9
$PLIMMIN
 10
0.0
 20
0.0
  9
$PLIMMAX
 10
12.0
 20
9.0
  9
$UNITMODE
 70
     0
  9
$VISRETAIN
 70
     1
  9
$PLINEGEN
 70
     0
  9
$PSLTSCALE
 70
     1
  9
$TREEDEPTH
 70
  3020
  9
$PICKSTYLE
 70
     1
  9
$CMLSTYLE
  2
STANDARD
  9
$CMLJUST
 70
     0
  9
$CMLSCALE
 40
20.0
  9
$PROXYGRAPHICS
 70
     1
  9
$MEASUREMENT
 70
     0
  0
ENDSEC
  0
SECTION
  2
CLASSES
  0
CLASS
  1
ACDBDICTIONARYWDFLT
  2
AcDbDictionaryWithDefault
  3
AutoCAD 2000
 90
        0
280
     0
281
     0
  0
CLASS
  1
ACDBPLACEHOLDER
  2
AcDbPlaceHolder
  3
AutoCAD 2000
 90
        0
280
     0
281
     0
  0
CLASS
  1
LAYOUT
  2
AcDbLayout
  3
AutoCAD 2000
 90
        0
280
     0
281
     0
  0
CLASS
  1
DICTIONARYVAR
  2
AcDbDictionaryVar
  3
AutoCAD 2000
 90
        0
280
     0
281
     0
  0
CLASS
  1
IMAGEDEF
  2
AcDbRasterImageDef
  3
ISM
 90
        0
280
     0
281
     0
  0
CLASS
  1
LONG_TRANSACTION
  2
AcDbLongTransaction
  3
AutoCAD 2000
 90
        0
280
     0
281
     0
  0
CLASS
  1
LWPOLYLINE
  2
AcDbPolyline
  3
AutoCAD 2000
 90
        0
280
     0
281
     1
  0
CLASS
  1
HATCH
  2
AcDbHatch
  3
AutoCAD 2000
 90
        0
280
     0
281
     1
  0
CLASS
  1
XRECORD
  2
AcDbXrecord
  3
AutoCAD 2000
 90
        0
280
     0
281
     0
  0
ENDSEC
  0
SECTION
  2
TABLES
  0
TABLE
  2
VPORT
  5
1D
330
0
100
AcDbSymbolTable
 70
     3
  0
VPORT
  5
9C
330
1D
100
AcDbSymbolTableRecord
100
AcDbViewportTableRecord
  2
*ACTIVE
 70
     0
 10
0.0
 20
0.0
 11
1.0
 21
1.0
 12
-50.73729919245488
 22
5.581781798901232
 13
0.0
 23
0.0
 14
10.0
 24
10.0
 15
10.0
 25
10.0
 16
0.0
 26
0.0
 36
1.0
 17
0.0
 27
0.0
 37
0.0
 40
47.58899415314902
 41
1.786792452830188
 42
50.0
 43
0.0
 44
0.0
 50
0.0
 51
0.0
 71
     0
 72
   100
 73
     1
 74
     3
 75
     0
 76
     0
 77
     0
 78
     2
  0
ENDTAB
  0
TABLE
  2
LTYPE
  5
18
330
0
100
AcDbSymbolTable
 70
     3
  0
LTYPE
  5
19
330
18
100
AcDbSymbolTableRecord
100
AcDbLinetypeTableRecord
  2
BYBLOCK
 70
     0
  3

 72
    65
 73
     0
 40
0.0
  0
LTYPE
  5
1A
330
18
100
AcDbSymbolTableRecord
100
AcDbLinetypeTableRecord
  2
BYLAYER
 70
     0
  3

 72
    65
 73
     0
 40
0.0
  0
LTYPE
  5
8
330
18
100
AcDbSymbolTableRecord
100
AcDbLinetypeTableRecord
  2
CONTINUOUS
 70
     0
  3
Solid line
 72
    65
 73
     0
 40
0.0
  0
LTYPE
  5
38
330
18
100
AcDbSymbolTableRecord
100
AcDbLinetypeTableRecord
  2
CENTER
 70
     0
  3
Center ____ _ ____ _ ____ _ ____ _ ____ _ ____
 72
    65
 73
     4
 40
50.8
 49
31.75
 74
     0
 49
-6.349999999999999
 74
     0
 49
6.349999999999999
 74
     0
 49
-6.349999999999999
 74
     0
  0
LTYPE
  5
2C
330
18
100
AcDbSymbolTableRecord
100
AcDbLinetypeTableRecord
  2
HIDDEN
 70
     0
  3
Hidden __ __ __ __ __ __ __ __ __ __ __ __ __ _
 72
    65
 73
     2
 40
9.524999999999998
 49
6.349999999999999
 74
     0
 49
-3.174999999999999
 74
     0
  0
ENDTAB
  0
TABLE
  2
LAYER
  5
10
102
{ACAD_XDICTIONARY
360
11
102
}
330
0
100
AcDbSymbolTable
 70
     3
  0
LAYER
  5
4
330
10
100
AcDbSymbolTableRecord
100
AcDbLayerTableRecord
  2
0
 70
     0
 62
     7
  6
CONTINUOUS
  0
LAYER
  5
37
330
10
100
AcDbSymbolTableRecord
100
AcDbLayerTableRecord
  2
CENTER
 70
     0
 62
     1
  6
CENTER
  0
ENDTAB
  0
TABLE
  2
STYLE
  5
15
330
0
100
AcDbSymbolTable
 70
     3
  0
STYLE
  5
16
330
15
100
AcDbSymbolTableRecord
100
AcDbTextStyleTableRecord
  2
STANDARD
 70
     0
 40
0.0
 41
1.0
 50
0.0
 71
     0
 42
0.125
  3
txt
  4

  0
STYLE
  5
29
330
15
100
AcDbSymbolTableRecord
100
AcDbTextStyleTableRecord
  2
CARTOUCHE
 70
     0
 40
0.0
 41
1.0
 50
0.0
 71
     0
 42
0.1
  3
romans.shx
  4

  0
STYLE
  5
23
330
15
100
AcDbSymbolTableRecord
100
AcDbTextStyleTableRecord
  2
ROMANS
 70
     0
 40
0.0
 41
1.0
 50
0.0
 71
     0
 42
1.0
  3
romans.shx
  4

  0
ENDTAB
  0
TABLE
  2
VIEW
  5
1B
330
0
100
AcDbSymbolTable
 70
     0
  0
ENDTAB
  0
TABLE
  2
UCS
  5
1C
330
0
100
AcDbSymbolTable
 70
     0
  0
ENDTAB
  0
TABLE
  2
APPID
  5
1F
330
0
100
AcDbSymbolTable
 70
     1
  0
APPID
  5
20
330
1F
100
AcDbSymbolTableRecord
100
AcDbRegAppTableRecord
  2
ACAD
 70
     0
  0
ENDTAB
  0
TABLE
  2
DIMSTYLE
  5
21
330
0
100
AcDbSymbolTable
 70
     2
  0
DIMSTYLE
105
22
330
21
100
AcDbSymbolTableRecord
100
AcDbDimStyleTableRecord
  2
STANDARD
 70
     0
  3
\X
  4
cm
  5

  6

  7

 40
16.0
 41
0.1
 42
0.0625
 43
0.25
 44
0.1
 45
0.0
 46
0.0
 47
0.0
 48
0.0
140
0.1
141
0.09
142
0.0
143
2.54
144
1.0
145
0.0
146
1.0
147
0.08
 71
     0
 72
     0
 73
     1
 74
     1
 75
     0
 76
     0
 77
     0
 78
     4
170
     1
171
     1
172
     0
173
     0
174
     0
175
     0
176
     0
177
     0
178
     0
270
     5
271
     3
272
     3
273
     2
274
     1
340
23
275
     0
280
     0
281
     0
282
     0
283
     1
284
     4
285
     4
286
     4
287
     1
288
     0
  0
ENDTAB
  0
TABLE
  2
BLOCK_RECORD
  5
1
330
0
100
AcDbSymbolTable
 70
     0
  0
BLOCK_RECORD
  5
2
102
{ACAD_XDICTIONARY
360
BE
102
}
330
1
100
AcDbSymbolTableRecord
100
AcDbBlockTableRecord
  2
*MODEL_SPACE
  0
BLOCK_RECORD
  5
C
102
{ACAD_XDICTIONARY
360
C0
102
}
330
1
100
AcDbSymbolTableRecord
100
AcDbBlockTableRecord
  2
*PAPER_SPACE
  0
ENDTAB
  0
ENDSEC
  0
SECTION
  2
BLOCKS
  0
BLOCK
  5
3
330
2
100
AcDbEntity
  8
0
100
AcDbBlockBegin
  2
*MODEL_SPACE
 70
     0
 10
0.0
 20
0.0
 30
0.0
  3
*MODEL_SPACE
  1

  0
ENDBLK
  5
9
330
2
100
AcDbEntity
  8
0
100
AcDbBlockEnd
  0
BLOCK
  5
D
330
C
100
AcDbEntity
 67
     1
  8
0
100
AcDbBlockBegin
  2
*PAPER_SPACE
 70
     0
 10
0.0
 20
0.0
 30
0.0
  3
*PAPER_SPACE
  1

  0
ENDBLK
  5
E
330
C
100
AcDbEntity
 67
     1
  8
0
100
AcDbBlockEnd
  0
ENDSEC
  0
SECTION
  2
ENTITIES
  0
SPLINE
  5
2B
330
2
100
AcDbEntity
  8
0
  6
HIDDEN
 48
0.05
100
AcDbSpline
210
0.0
220
0.0
230
1.0
 70
     8
 71
     3
 72
    11
 73
     7
 74
     5
 42
0.0000000001
 43
0.0000000001
 44
0.0000000001
 40
0.0
 40
0.0
 40
0.0
 40
0.0
 40
1.569490651265923
 40
6.177980153501603
 40
9.052856975016613
 40
16.32715278176777
 40
16.32715278176777
 40
16.32715278176777
 40
16.32715278176777
 10
-50.74036765085755
 20
-10.35307201024212
 30
0.0
 10
-51.26296762897815
 20
-10.34910069173955
 30
0.0
 10
-53.32007595927965
 20
-10.33346840563937
 30
0.0
 10
-56.37283137922747
 20
-10.58106387366766
 30
0.0
 10
-60.95713657700278
 20
-12.55607800633727
 30
0.0
 10
-64.41248588637233
 20
-12.11997194683942
 30
0.0
 10
-66.88906539808583
 20
-11.80739824294275
 30
0.0
 11
-50.74036765085755
 21
-10.35307201024212
 31
0.0
 11
-52.30985830212347
 21
-10.35307201024212
 31
0.0
 11
-56.88200795194223
 21
-10.93067314587008
 31
0.0
 11
-59.61478703649624
 21
-11.82332941449109
 31
0.0
 11
-66.88906539808583
 21
-11.80739824294275
 31
0.0
  0
SPLINE
  5
2D
330
2
100
AcDbEntity
  8
0
  6
HIDDEN
 48
0.05
100
AcDbSpline
210
0.0
220
0.0
230
1.0
 70
     8
 71
     3
 72
    34
 73
    30
 74
     0
 42
0.0000000001
 43
0.0000000001
 40
0.0
 40
0.0
 40
0.0
 40
0.0
 40
0.7202671860568805
 40
0.7202671860568805
 40
1.407304589324429
 40
1.407304589324429
 40
2.094341992591977
 40
2.094341992591977
 40
3.468416799127075
 40
3.468416799127075
 40
6.21656641219727
 40
6.21656641219727
 40
10.25029881379412
 40
10.25029881379412
 40
14.28403121539098
 40
14.28403121539098
 40
18.79136158017507
 40
18.79136158017507
 40
21.77264554717882
 40
21.77264554717882
 40
24.75392951418257
 40
24.75392951418257
 40
31.63684495707669
 40
31.63684495707669
 40
35.36782643122476
 40
35.36782643122476
 40
39.09880790537283
 40
39.09880790537283
 40
46.03594618862999
 40
46.03594618862999
 40
46.03594618862999
 40
46.03594618862999
 10
-84.74044500771169
 20
5.381703099763257
 30
0.0
 10
-84.7427017697259
 20
5.621711250612325
 30
0.0
 10
-84.74471730926293
 20
5.849525243500583
 30
0.0
 10
-84.73988151407654
 20
6.27129507356032
 30
0.0
 10
-84.7331105424225
 20
6.471009995458253
 30
0.0
 10
-84.7100532728624
 20
6.876882987346352
 30
0.0
 10
-84.69389202509642
 20
7.080158315018117
 30
0.0
 10
-84.63170765102979
 20
7.690314048417967
 30
0.0
 10
-84.57197815819792
 20
8.097527588212454
 30
0.0
 10
-84.33974564453583
 20
9.314838891448584
 30
0.0
 10
-84.11411008377561
 20
10.12061006582518
 30
0.0
 10
-83.39689161190344
 20
12.05668567408094
 30
0.0
 10
-82.83086859050326
 20
13.16090935072629
 30
0.0
 10
-81.46174962890199
 20
15.49913519688354
 30
0.0
 10
-80.65255504950254
 20
16.43344802424284
 30
0.0
 10
-78.73439825271653
 20
18.22826890615474
 30
0.0
 10
-77.60138703616906
 20
19.06683653408284
 30
0.0
 10
-75.59451925398817
 20
20.25795439206778
 30
0.0
 10
-74.76444492088671
 20
20.67802889711007
 30
0.0
 10
-73.06075038271038
 20
21.40938661966923
 30
0.0
 10
-72.1843599789219
 20
21.72281129804153
 30
0.0
 10
-69.21668473196098
 20
22.61397430993581
 30
0.0
 10
-67.03558645646277
 20
22.99987937891067
 30
0.0
 10
-63.60553417459692
 20
23.39065748097356
 30
0.0
 10
-62.51359087378936
 20
23.49062377456355
 30
0.0
 10
-60.07777462613401
 20
23.63871179840865
 30
0.0
 10
-58.85612150543185
 20
23.68619190472161
 30
0.0
 10
-55.35018615148224
 20
23.77296081043251
 30
0.0
 10
-53.05312679257788
 20
23.7704229889903
 30
0.0
 10
-50.74060973738832
 20
23.77010308656962
 30
0.0
  0
SPLINE
  5
2E
330
2
100
AcDbEntity
  8
0
 48
0.1
100
AcDbSpline
210
0.0
220
0.0
230
1.0
 70
     8
 71
     3
 72
    30
 73
    26
 74
     0
 42
0.0000000001
 43
0.0000000001
 40
0.0
 40
0.0
 40
0.0
 40
0.0
 40
0.65850966288644
 40
0.65850966288644
 40
1.686762086003359
 40
1.686762086003359
 40
2.715014509120279
 40
2.715014509120279
 40
4.771519355354119
 40
4.771519355354119
 40
8.884529047821798
 40
8.884529047821798
 40
12.99753874028947
 40
12.99753874028947
 40
17.07270938001616
 40
17.07270938001616
 40
20.3084671468072
 40
20.3084671468072
 40
23.54422491359824
 40
23.54422491359824
 40
28.25098257418556
 40
28.25098257418556
 40
36.78596721404064
 40
36.78596721404064
 40
38.53625931349068
 40
38.53625931349068
 40
38.53625931349068
 40
38.53625931349068
 10
-82.24052895999291
 20
5.325551846769673
 30
0.0
 10
-82.24359072744064
 20
5.106106274332024
 30
0.0
 10
-82.24676846514832
 20
4.88234116106194
 30
0.0
 10
-82.23979266072197
 20
4.297872698304761
 30
0.0
 10
-82.21810303325773
 20
3.935014469929077
 30
0.0
 10
-82.1385104461984
 20
3.217657420958657
 30
0.0
 10
-82.08117217384122
 20
2.860376064149303
 30
0.0
 10
-81.85982746073747
 20
1.796822630936661
 30
0.0
 10
-81.6465292106522
 20
1.098849597759132
 30
0.0
 10
-80.83444290365966
 20
-0.9299471459209502
 30
0.0
 10
-80.06266922485899
 20
-2.195396920681293
 30
0.0
 10
-78.18726361010881
 20
-4.383806837421808
 30
0.0
 10
-77.08672892102673
 20
-5.314159235733101
 30
0.0
 10
-74.69981209517309
 20
-6.876559734644826
 30
0.0
 10
-73.41503544973129
 20
-7.386624593027898
 30
0.0
 10
-71.0407785432212
 20
-8.303726791129085
 30
0.0
 10
-69.96770726192197
 20
-8.630511324008406
 30
0.0
 10
-67.81764372882029
 20
-9.150529843931575
 30
0.0
 10
-66.73709573463013
 20
-9.34530483557746
 30
0.0
 10
-64.07943961665876
 20
-9.710913477772228
 30
0.0
 10
-62.62481875656561
 20
-9.830695434494394
 30
0.0
 10
-58.19330138888524
 20
-10.06095028765291
 30
0.0
 10
-55.3406043130053
 20
-10.09579534403085
 30
0.0
 10
-51.90787690379166
 20
-10.10468010501345
 30
0.0
 10
-51.32376133804287
 20
-10.10493655901344
 30
0.0
 10
-50.74033368778454
 20
-10.10489692902141
 30
0.0
  0
SPLINE
  5
2F
330
2
100
AcDbEntity
  8
0
 48
0.1
100
AcDbSpline
210
0.0
220
0.0
230
1.0
 70
     8
 71
     3
 72
    30
 73
    26
 74
     0
 42
0.0000000001
 43
0.0000000001
 40
0.0
 40
0.0
 40
0.0
 40
0.0
 40
0.65850966288644
 40
0.65850966288644
 40
1.686762086004357
 40
1.686762086004357
 40
2.715014509122275
 40
2.715014509122275
 40
4.77151935535811
 40
4.77151935535811
 40
8.884529047829779
 40
8.884529047829779
 40
12.99753874030145
 40
12.99753874030145
 40
17.0727093799465
 40
17.0727093799465
 40
20.3084671467517
 40
20.3084671467517
 40
23.5442249135569
 40
23.5442249135569
 40
28.25098257416274
 40
28.25098257416274
 40
36.78596721397433
 40
36.78596721397433
 40
38.53625931349068
 40
38.53625931349068
 40
38.53625931349068
 40
38.53625931349068
 10
-82.24052895999291
 20
5.402934955770735
 30
0.0
 10
-82.24359072744064
 20
5.622380528208385
 30
0.0
 10
-82.24676846514832
 20
5.846145641478468
 30
0.0
 10
-82.23979266072197
 20
6.430614104235992
 30
0.0
 10
-82.21810303325769
 20
6.793472332612026
 30
0.0
 10
-82.1385104461982
 20
7.510829381583139
 30
0.0
 10
-82.08117217384092
 20
7.868110738392832
 30
0.0
 10
-81.85982746073676
 20
8.931664171606474
 30
0.0
 10
-81.64652921065112
 20
9.629637204784639
 30
0.0
 10
-80.8344429036571
 20
11.65843394846643
 30
0.0
 10
-80.06266922485506
 20
12.92388372322764
 30
0.0
 10
-78.18726361010181
 20
15.4240129770788
 30
0.0
 10
-77.08672892101801
 20
16.35436537539024
 30
0.0
 10
-74.69981209518585
 20
17.91676587428546
 30
0.0
 10
-73.41503544977133
 20
18.55183073265787
 30
0.0
 10
-71.04077854328552
 20
19.46893293075819
 30
0.0
 10
-69.96770726198178
 20
19.79571746364183
 30
0.0
 10
-67.81764372887107
 20
20.31573598357175
 30
0.0
 10
-66.73709573467633
 20
20.51051097522011
 30
0.0
 10
-64.07943961669417
 20
20.87611961741926
 30
0.0
 10
-62.62481875659476
 20
20.9959015741427
 30
0.0
 10
-58.19330138892262
 20
21.22615642730182
 30
0.0
 10
-55.34060431305725
 20
21.26100148368047
 30
0.0
 10
-51.9078769038359
 20
21.26988624466361
 30
0.0
 10
-51.32376133806498
 20
21.27014269866363
 30
0.0
 10
-50.74033368778454
 20
21.2701030686716
 30
0.0
  0
SPLINE
  5
30
330
2
100
AcDbEntity
  8
0
 48
0.1
100
AcDbSpline
210
0.0
220
0.0
230
1.0
 70
     8
 71
     3
 72
    13
 73
     9
 74
     7
 42
0.0000000001
 43
0.0000000001
 44
0.0000000001
 40
0.0
 40
0.0
 40
0.0
 40
0.0
 40
0.8372418225556401
 40
10.02712522826173
 40
21.08746664592456
 40
33.00629052347614
 40
44.7763671579071
 40
45.83153108547992
 40
45.83153108547992
 40
45.83153108547992
 40
45.83153108547992
 10
-86.49036765085748
 20
5.363237972912802
 30
0.0
 10
-86.49296463794703
 20
5.084281925493442
 30
0.0
 10
-86.52406713911412
 20
1.743398628339528
 30
0.0
 10
-84.23935687054594
 20
-5.395339189236106
 30
0.0
 10
-75.199088835236
 20
-12.23456863231374
 30
0.0
 10
-63.60445497084292
 20
-14.31470771621698
 30
0.0
 10
-55.36734168896493
 20
-14.35554284415431
 30
0.0
 10
-51.09210207635612
 20
-14.35494603141917
 30
0.0
 10
-50.74036765085772
 20
-14.3548969301749
 30
0.0
 11
-86.49036765085748
 21
5.363237972912802
 31
0.0
 11
-86.49036765085748
 21
4.525996150357162
 31
0.0
 11
-83.72184814220412
 21
-4.236951797718187
 31
0.0
 11
-75.16009947249468
 21
-11.23892380508842
 31
0.0
 11
-63.55946054246756
 21
-13.97452959526233
 31
0.0
 11
-51.79553157843054
 21
-14.3548969301749
 31
0.0
 11
-50.74036765085772
 21
-14.3548969301749
 31
0.0
  0
SPLINE
  5
31
330
2
100
AcDbEntity
  8
0
 48
0.1
100
AcDbSpline
210
0.0
220
0.0
230
1.0
 70
     8
 71
     3
 72
    13
 73
     9
 74
     7
 42
0.0000000001
 43
0.0000000001
 44
0.0000000001
 40
0.0
 40
0.0
 40
0.0
 40
0.0
 40
0.8372418225556401
 40
8.278554952227025
 40
18.93752995514782
 40
28.44933653829354
 40
38.00113425956782
 40
38.34671192729125
 40
38.34671192729125
 40
38.34671192729125
 40
38.34671192729125
 10
-81.74057761946182
 20
5.318576382544605
 30
0.0
 10
-81.7444425268005
 20
5.039612392366623
 30
0.0
 10
-81.78265830499801
 20
2.281247174380314
 30
0.0
 10
-79.27687625003473
 20
-4.106870739573274
 30
0.0
 10
-70.48908962898742
 20
-8.610165317698282
 30
0.0
 10
-60.63342844798531
 20
-9.584468019706108
 30
0.0
 10
-54.15462895740086
 20
-9.605024679654945
 30
0.0
 10
-50.85555830464474
 20
-9.604901240198307
 30
0.0
 10
-50.74036765085771
 20
-9.604896930174906
 30
0.0
 11
-81.74057761946182
 21
5.318576382544605
 31
0.0
 11
-81.74057761946182
 21
4.481334559988965
 31
0.0
 11
-79.13379572814609
 21
-2.488445154243628
 31
0.0
 11
-70.04891236725355
 21
-8.063267342606962
 31
0.0
 11
-60.63618918212264
 21
-9.432612702723677
 31
0.0
 11
-51.08594531858113
 21
-9.604896930174906
 31
0.0
 11
-50.74036765085771
 21
-9.604896930174906
 31
0.0
  0
SPLINE
  5
32
330
2
100
AcDbEntity
  8
0
 48
0.1
100
AcDbSpline
210
0.0
220
0.0
230
1.0
 70
     8
 71
     3
 72
    12
 73
     8
 74
     6
 42
0.0000000001
 43
0.0000000001
 44
0.0000000001
 40
0.0
 40
0.0
 40
0.0
 40
0.0
 40
0.0839939960667664
 40
5.489888622182054
 40
18.11660151054857
 40
27.28128075485674
 40
28.45166782151124
 40
28.45166782151124
 40
28.45166782151124
 40
28.45166782151124
 10
-73.24044199864268
 20
5.364243401270204
 30
0.0
 10
-73.24047016034272
 20
5.336253301775133
 30
0.0
 10
-73.24231082281686
 20
3.506806722884115
 30
0.0
 10
-72.05735170599533
 20
-2.864434620590194
 30
0.0
 10
-61.99822055156836
 20
-6.803776973661725
 30
0.0
 10
-54.58015495562012
 20
-6.759894016925819
 30
0.0
 10
-51.13096828628687
 20
-6.760668852984002
 30
0.0
 10
-50.74036765085769
 20
-6.760756598729795
 30
0.0
 11
-73.24044199864268
 21
5.364243401270204
 31
0.0
 11
-73.24044199864268
 21
5.280249405203438
 31
0.0
 11
-72.03625295819342
 21
0.0101805760965483
 31
0.0
 11
-61.06014017879875
 21
-6.231520043065653
 31
0.0
 11
-51.91075471751219
 21
-6.760756598729795
 31
0.0
 11
-50.74036765085769
 21
-6.760756598729795
 31
0.0
  0
SPLINE
  5
33
330
2
100
AcDbEntity
  8
0
 48
0.1
100
AcDbSpline
210
0.0
220
0.0
230
1.0
 70
     8
 71
     3
 72
    13
 73
     9
 74
     7
 42
0.0000000001
 43
0.0000000001
 44
0.0000000001
 40
0.0
 40
0.0
 40
0.0
 40
0.0
 40
0.8372418225556401
 40
10.32482774346321
 40
21.46472317731313
 40
33.38354705486472
 40
45.15362368929568
 40
46.20878761686848
 40
46.20878761686848
 40
46.20878761686848
 40
46.20878761686848
 10
-86.49036765085748
 20
5.365248829627606
 30
0.0
 10
-86.49274970928681
 20
5.644179939729905
 30
0.0
 10
-86.52212514454955
 20
9.08394559227268
 30
0.0
 10
-84.32386356226315
 20
16.37681568821149
 30
0.0
 10
-75.2386644443238
 20
23.42024045650837
 30
0.0
 10
-63.60072007683723
 20
25.47268321945551
 30
0.0
 10
-55.36740171552458
 20
25.52086519332138
 30
0.0
 10
-51.09210663946959
 20
25.52016100511237
 30
0.0
 10
-50.74036765085772
 20
25.52010306982509
 30
0.0
 11
-86.49036765085748
 21
5.365248829627606
 31
0.0
 11
-86.49036765085748
 21
6.202490652183247
 31
0.0
 11
-83.72184814220412
 21
15.27715793736839
 31
0.0
 11
-75.16009947249468
 21
22.40412994473861
 31
0.0
 11
-63.55946054246756
 21
25.13973573491252
 31
0.0
 11
-51.79553157843054
 21
25.52010306982509
 31
0.0
 11
-50.74036765085772
 21
25.52010306982509
 31
0.0
  0
SPLINE
  5
34
330
2
100
AcDbEntity
  8
0
 48
0.1
100
AcDbSpline
210
0.0
220
0.0
230
1.0
 70
     8
 71
     3
 72
    13
 73
     9
 74
     7
 42
0.0000000001
 43
0.0000000001
 44
0.0000000001
 40
0.0
 40
0.0
 40
0.0
 40
0.0
 40
0.8372418225556401
 40
8.278554952227025
 40
19.17230257155022
 40
28.68410915469594
 40
38.23590687597023
 40
38.58148454369365
 40
38.58148454369365
 40
38.58148454369365
 40
38.58148454369365
 10
-81.74057761946182
 20
5.409910419995803
 30
0.0
 10
-81.74453922468407
 20
5.689018931141339
 30
0.0
 10
-81.78371114090685
 20
8.448813156541536
 30
0.0
 10
-79.18339383979945
 20
14.82126530570032
 30
0.0
 10
-70.6316837637243
 20
19.86479446214464
 30
0.0
 10
-60.61602045937714
 20
20.72356233228962
 30
0.0
 10
-54.1547378159471
 20
20.77039410614986
 30
0.0
 10
-50.85556197732412
 20
20.77011288883468
 30
0.0
 10
-50.74036765085771
 20
20.77010306982509
 30
0.0
 11
-81.74057761946182
 21
5.409910419995803
 31
0.0
 11
-81.74057761946182
 21
6.247152242551443
 31
0.0
 11
-79.13379572814609
 21
13.21693195678403
 31
0.0
 11
-70.04891236725355
 21
19.22847348225715
 31
0.0
 11
-60.63618918212264
 21
20.59781884237386
 31
0.0
 11
-51.08594531858113
 21
20.77010306982509
 31
0.0
 11
-50.74036765085771
 21
20.77010306982509
 31
0.0
  0
SPLINE
  5
35
330
2
100
AcDbEntity
  8
0
 48
0.1
100
AcDbSpline
210
0.0
220
0.0
230
1.0
 70
     8
 71
     3
 72
    12
 73
     8
 74
     6
 42
0.0000000001
 43
0.0000000001
 44
0.0000000001
 40
0.0
 40
0.0
 40
0.0
 40
0.0
 40
0.0839939960667664
 40
5.489888622182054
 40
18.27356434042738
 40
27.43824358473556
 40
28.60863065139006
 40
28.60863065139006
 40
28.60863065139006
 40
28.60863065139006
 10
-73.24044199864268
 20
5.364243401270204
 30
0.0
 10
-73.24047088079975
 20
5.3922345795944
 30
0.0
 10
-73.24235863269766
 20
7.221751671284178
 30
0.0
 10
-72.01655569226914
 20
13.60240649994511
 30
0.0
 10
-62.09071186299418
 20
17.91030317034776
 30
0.0
 10
-54.57932299161348
 20
17.7987855845934
 30
0.0
 10
-51.13088365512274
 20
17.80074126839091
 30
0.0
 10
-50.74036765085769
 20
17.80096273837999
 30
0.0
 11
-73.24044199864268
 21
5.364243401270204
 31
0.0
 11
-73.24044199864268
 21
5.448237397336971
 31
0.0
 11
-72.03625295819342
 21
10.71830622644386
 31
0.0
 11
-61.06014017879875
 21
17.27172618271585
 31
0.0
 11
-51.91075471751219
 21
17.80096273837999
 31
0.0
 11
-50.74036765085769
 21
17.80096273837999
 31
0.0
  0
LINE
  5
36
330
2
100
AcDbEntity
  8
CENTER
 48
0.05
100
AcDbLine
 10
-46.54488735023187
 20
-2.729896930174891
 30
0.0
 11
-54.93584795148308
 21
-2.729896930174906
 31
0.0
  0
SPLINE
  5
39
330
2
100
AcDbEntity
  8
0
  6
HIDDEN
 48
0.05
100
AcDbSpline
210
0.0
220
0.0
230
1.0
 70
     8
 71
     3
 72
    28
 73
    24
 74
     0
 42
0.0000000001
 43
0.0000000001
 40
0.0
 40
0.0
 40
0.0
 40
0.0
 40
0.7202671860568805
 40
0.7202671860568805
 40
1.407304589324429
 40
1.407304589324429
 40
2.094341992591977
 40
2.094341992591977
 40
3.468416799127075
 40
3.468416799127075
 40
6.21656641219727
 40
6.21656641219727
 40
10.25029881379412
 40
10.25029881379412
 40
14.28403121539098
 40
14.28403121539098
 40
18.79136158017507
 40
18.79136158017507
 40
21.77264554717882
 40
21.77264554717882
 40
24.75392951418257
 40
24.75392951418257
 40
29.47838081446407
 40
29.47838081446407
 40
29.47838081446407
 40
29.47838081446407
 10
-84.74044500771169
 20
5.346783702777152
 30
0.0
 10
-84.7427017697259
 20
5.106775551928084
 30
0.0
 10
-84.74471730926293
 20
4.878961559039826
 30
0.0
 10
-84.73988151407654
 20
4.457191728980088
 30
0.0
 10
-84.7331105424225
 20
4.257476807082156
 30
0.0
 10
-84.7100532728624
 20
3.851603815194057
 30
0.0
 10
-84.69389202509642
 20
3.648328487522292
 30
0.0
 10
-84.63170765102979
 20
3.038172754122442
 30
0.0
 10
-84.57197815819792
 20
2.630959214327955
 30
0.0
 10
-84.33974564453583
 20
1.413647911091825
 30
0.0
 10
-84.11411008377561
 20
0.6078767367152267
 30
0.0
 10
-83.39689161190344
 20
-1.328198871540536
 30
0.0
 10
-82.83086859050326
 20
-2.43242254818589
 30
0.0
 10
-81.46174962890199
 20
-4.458929057233341
 30
0.0
 10
-80.65255504950254
 20
-5.39324188459264
 30
0.0
 10
-78.73439825271653
 20
-7.188062766504543
 30
0.0
 10
-77.60138703616906
 20
-7.901630394432654
 30
0.0
 10
-75.59451925398817
 20
-9.092748252417599
 30
0.0
 10
-74.76444492088671
 20
-9.512822757459883
 30
0.0
 10
-73.06075038271038
 20
-10.24418048001904
 30
0.0
 10
-72.1843599789219
 20
-10.55760515839134
 30
0.0
 10
-69.86606542078369
 20
-11.25376568438025
 30
0.0
 10
-68.39270745331909
 20
-11.5694345291709
 30
0.0
 10
-66.88906539808583
 20
-11.80739824294275
 30
0.0
  0
LINE
  5
3A
330
2
100
AcDbEntity
  8
CENTER
 48
0.05
100
AcDbLine
 10
-50.74036765085748
 20
1.465583370450698
 30
0.0
 11
-50.74036765085747
 21
-6.92537723080051
 31
0.0
  0
SPLINE
  5
3B
330
2
100
AcDbEntity
  8
0
  6
HIDDEN
 48
0.05
100
AcDbSpline
210
0.0
220
0.0
230
1.0
 70
     8
 71
     3
 72
    28
 73
    24
 74
     0
 42
0.0000000001
 43
0.0000000001
 40
0.0
 40
0.0
 40
0.0
 40
0.0
 40
0.7202671860568805
 40
0.7202671860568805
 40
1.407304589324429
 40
1.407304589324429
 40
2.094341992591977
 40
2.094341992591977
 40
3.468416799127075
 40
3.468416799127075
 40
6.21656641219727
 40
6.21656641219727
 40
10.25029881379412
 40
10.25029881379412
 40
14.28403121539098
 40
14.28403121539098
 40
18.79136158017507
 40
18.79136158017507
 40
21.77264554717882
 40
21.77264554717882
 40
24.75392951418257
 40
24.75392951418257
 40
29.48041808508541
 40
29.48041808508541
 40
29.48041808508541
 40
29.48041808508541
 10
-16.74061321219704
 20
5.346783702777152
 30
0.0
 10
-16.73835645018284
 20
5.106775551928084
 30
0.0
 10
-16.73634091064581
 20
4.878961559039826
 30
0.0
 10
-16.74117670583219
 20
4.457191728980088
 30
0.0
 10
-16.74794767748623
 20
4.257476807082156
 30
0.0
 10
-16.77100494704634
 20
3.851603815194057
 30
0.0
 10
-16.78716619481232
 20
3.648328487522292
 30
0.0
 10
-16.84935056887893
 20
3.038172754122442
 30
0.0
 10
-16.90908006171081
 20
2.630959214327955
 30
0.0
 10
-17.14131257537291
 20
1.413647911091825
 30
0.0
 10
-17.36694813613314
 20
0.6078767367152267
 30
0.0
 10
-18.08416660800529
 20
-1.328198871540536
 30
0.0
 10
-18.65018962940546
 20
-2.43242254818589
 30
0.0
 10
-20.01930859100674
 20
-4.458929057233341
 30
0.0
 10
-20.8285031704062
 20
-5.39324188459264
 30
0.0
 10
-22.74665996719221
 20
-7.188062766504543
 30
0.0
 10
-23.87967118373968
 20
-7.901630394432654
 30
0.0
 10
-25.88653896592057
 20
-9.092748252417599
 30
0.0
 10
-26.71661329902203
 20
-9.512822757459883
 30
0.0
 10
-28.42030783719835
 20
-10.24418048001904
 30
0.0
 10
-29.29669824098683
 20
-10.55760515839134
 30
0.0
 10
-31.61560571836389
 20
-11.25394973785965
 30
0.0
 10
-33.08962145456959
 20
-11.56970675296927
 30
0.0
 10
-34.59393803335638
 20
-11.80770604263744
 30
0.0
  0
SPLINE
  5
3C
330
2
100
AcDbEntity
  8
0
 48
0.1
100
AcDbSpline
210
0.0
220
0.0
230
1.0
 70
     8
 71
     3
 72
    30
 73
    26
 74
     0
 42
0.0000000001
 43
0.0000000001
 40
0.0
 40
0.0
 40
0.0
 40
0.0
 40
0.658509662886427
 40
0.658509662886427
 40
1.686762086004126
 40
1.686762086004126
 40
2.715014509121825
 40
2.715014509121825
 40
4.771519355357224
 40
4.771519355357224
 40
8.884529047828021
 40
8.884529047828021
 40
12.99753874029881
 40
12.99753874029881
 40
17.07270937995253
 40
17.07270937995253
 40
20.30846714683451
 40
20.30846714683451
 40
23.5442249137165
 40
23.5442249137165
 40
28.250982574081
 40
28.250982574081
 40
36.78596721345423
 40
36.78596721345423
 40
38.53625931349068
 40
38.53625931349068
 40
38.53625931349068
 40
38.53625931349068
 10
-19.24020634172203
 20
5.32555184676967
 30
0.0
 10
-19.2371445742743
 20
5.106106274332027
 30
0.0
 10
-19.23396683656663
 20
4.882341161061944
 30
0.0
 10
-19.24094264099298
 20
4.2978726983045
 30
0.0
 10
-19.26263226845726
 20
3.935014469928546
 30
0.0
 10
-19.34222485551672
 20
3.217657420957586
 30
0.0
 10
-19.39956312787397
 20
2.860376064147965
 30
0.0
 10
-19.62090784097804
 20
1.796822630934542
 30
0.0
 10
-19.8342060910636
 20
1.098849597756519
 30
0.0
 10
-20.64629239805729
 20
-0.9299471459249026
 30
0.0
 10
-21.41806607685902
 20
-2.195396920685922
 30
0.0
 10
-23.2934716916116
 20
-4.383806837427107
 30
0.0
 10
-24.39400638069502
 20
-5.31415923573851
 30
0.0
 10
-26.78092320652918
 20
-6.876559734635591
 30
0.0
 10
-28.06569985194657
 20
-7.386624593009234
 30
0.0
 10
-30.43995675846032
 20
-8.30372679111962
 30
0.0
 10
-31.51302803978991
 20
-8.630511324008784
 30
0.0
 10
-33.66309157295223
 20
-9.150529843944365
 30
0.0
 10
-34.74363956717295
 20
-9.345304835592955
 30
0.0
 10
-37.40129568510059
 20
-9.710913477773429
 30
0.0
 10
-38.98084219733355
 20
-9.830695434491124
 30
0.0
 10
-43.28759516743171
 20
-10.06095028764214
 30
0.0
 10
-46.14029224315038
 20
-10.09579534402588
 30
0.0
 10
-49.57301965239989
 20
-10.10468010501322
 30
0.0
 10
-50.15713521834456
 20
-10.10493655901345
 30
0.0
 10
-50.74056286879831
 20
-10.10489692902141
 30
0.0
  0
SPLINE
  5
3D
330
2
100
AcDbEntity
  8
0
 48
0.1
100
AcDbSpline
210
0.0
220
0.0
230
1.0
 70
     8
 71
     3
 72
    13
 73
     9
 74
     7
 42
0.0000000001
 43
0.0000000001
 44
0.0000000001
 40
0.0
 40
0.0
 40
0.0
 40
0.0
 40
0.8372418225556401
 40
10.02712522826173
 40
21.08746664592456
 40
33.00629052347614
 40
44.77652832855056
 40
45.83169225612338
 40
45.83169225612338
 40
45.83169225612338
 40
45.83169225612338
 10
-14.99036765085747
 20
5.363237972912802
 30
0.0
 10
-14.98777066377465
 20
5.084281925501348
 30
0.0
 10
-14.95666816268825
 20
1.743398628442115
 30
0.0
 10
-17.2413784253275
 20
-5.395339196088547
 30
0.0
 10
-26.28164649259441
 20
-12.23456860167874
 30
0.0
 10
-37.87633400373974
 20
-14.31471748643047
 30
0.0
 10
-46.11350114760973
 20
-14.35554268199614
 30
0.0
 10
-50.38879448064811
 20
-14.35494601852221
 30
0.0
 10
-50.74052890572513
 20
-14.3548969301749
 30
0.0
 11
-14.99036765085747
 21
5.363237972912802
 31
0.0
 11
-14.99036765085747
 21
4.525996150357162
 31
0.0
 11
-17.75888715951082
 21
-4.236951797718187
 31
0.0
 11
-26.32063582922027
 21
-11.23892380508842
 31
0.0
 11
-37.92127475924738
 21
-13.97452959526233
 31
0.0
 11
-49.68536497815232
 21
-14.3548969301749
 31
0.0
 11
-50.74052890572513
 21
-14.3548969301749
 31
0.0
  0
SPLINE
  5
3E
330
2
100
AcDbEntity
  8
0
 48
0.1
100
AcDbSpline
210
0.0
220
0.0
230
1.0
 70
     8
 71
     3
 72
    13
 73
     9
 74
     7
 42
0.0000000001
 43
0.0000000001
 44
0.0000000001
 40
0.0
 40
0.0
 40
0.0
 40
0.0
 40
0.8372418225556401
 40
8.278554952227025
 40
18.93752995514782
 40
28.44949611341631
 40
38.00129383469061
 40
38.34687150241403
 40
38.34687150241403
 40
38.34687150241403
 40
38.34687150241403
 10
-19.74015768225313
 20
5.318576382544605
 30
0.0
 10
-19.73629277465328
 20
5.039612391154351
 30
0.0
 10
-19.69807699387336
 20
2.281247161181223
 30
0.0
 10
-22.20385921816376
 20
-4.106869966805
 30
0.0
 10
-30.99169562927738
 20
-8.610195193812081
 30
0.0
 10
-40.8474163818464
 20
-9.584456127872918
 30
0.0
 10
-47.32626758955473
 20
-9.605024752961497
 30
0.0
 10
-50.62533825161332
 20
-9.604901242671529
 30
0.0
 10
-50.74052890572516
 20
-9.604896930174906
 30
0.0
 11
-19.74015768225313
 21
5.318576382544605
 31
0.0
 11
-19.74015768225313
 21
4.481334559988965
 31
0.0
 11
-22.34693957356885
 21
-2.488445154243628
 31
0.0
 11
-31.4318229344614
 21
-8.063267342606962
 31
0.0
 11
-40.84470737446022
 21
-9.432612702723677
 31
0.0
 11
-50.39495123800173
 21
-9.604896930174906
 31
0.0
 11
-50.74052890572516
 21
-9.604896930174906
 31
0.0
  0
SPLINE
  5
3F
330
2
100
AcDbEntity
  8
0
 48
0.1
100
AcDbSpline
210
0.0
220
0.0
230
1.0
 70
     8
 71
     3
 72
    12
 73
     8
 74
     6
 42
0.0000000001
 43
0.0000000001
 44
0.0000000001
 40
0.0
 40
0.0
 40
0.0
 40
0.0
 40
0.0839939960667664
 40
5.489888622182054
 40
18.22534624565678
 40
27.26547216732152
 40
28.43585923397602
 40
28.43585923397602
 40
28.43585923397602
 40
28.43585923397602
 10
-28.24029330307227
 20
5.364243401270204
 30
0.0
 10
-28.24026515347714
 20
5.336253426356729
 30
0.0
 10
-28.23842528218613
 20
3.506814990179702
 30
0.0
 10
-29.42998470963295
 20
-2.907943152991518
 30
0.0
 10
-39.53756453493223
 20
-6.765899174218699
 30
0.0
 10
-46.94208514222234
 20
-6.76065323377405
 30
0.0
 10
-50.3499051911908
 20
-6.760745968902033
 30
0.0
 10
-50.74052890572517
 20
-6.760756598729795
 30
0.0
 11
-28.24029330307227
 21
5.364243401270204
 31
0.0
 11
-28.24029330307227
 21
5.280249405203438
 31
0.0
 11
-29.44448234352152
 21
0.0101805760965483
 31
0.0
 11
-40.545520775131
 21
-6.231520043065653
 31
0.0
 11
-49.57014183907067
 21
-6.760756598729795
 31
0.0
 11
-50.74052890572517
 21
-6.760756598729795
 31
0.0
  0
CIRCLE
  5
40
330
2
100
AcDbEntity
  8
0
 48
0.1
100
AcDbCircle
 10
-50.74036765085748
 20
-2.729896930174906
 30
0.0
 40
1.89014635623478
  0
CIRCLE
  5
41
330
2
100
AcDbEntity
  8
0
 48
0.1
100
AcDbCircle
 10
-50.74036765085748
 20
-2.729896930174906
 30
0.0
 40
1.25
  0
SPLINE
  5
42
330
2
100
AcDbEntity
  8
0
  6
HIDDEN
 48
0.05
100
AcDbSpline
210
0.0
220
0.0
230
1.0
 70
     8
 71
     3
 72
    11
 73
     7
 74
     5
 42
0.0000000001
 43
0.0000000001
 44
0.0000000001
 40
0.0
 40
0.0
 40
0.0
 40
0.0
 40
1.569490651265923
 40
6.177980153501603
 40
9.052856975016613
 40
16.32731403624897
 40
16.32731403624897
 40
16.32731403624897
 40
16.32731403624897
 10
-50.74036765085755
 20
-10.35307201024212
 30
0.0
 10
-50.21776766953678
 20
-10.34910067259833
 30
0.0
 10
-48.1606593266385
 20
-10.33346831115263
 30
0.0
 10
-45.10790410620745
 20
-10.58106497255782
 30
0.0
 10
-40.52354798773518
 20
-12.55609572872978
 30
0.0
 10
-37.06814336021124
 20
-12.11998048923584
 30
0.0
 10
-34.59150864876135
 20
-11.80739824294275
 30
0.0
 11
-50.74036765085755
 21
-10.35307201024212
 31
0.0
 11
-49.17087699959163
 21
-10.35307201024212
 31
0.0
 11
-44.59872734977287
 21
-10.93067314587008
 31
0.0
 11
-41.86594826521885
 21
-11.82332941449109
 31
0.0
 11
-34.59150864876135
 21
-11.80739824294275
 31
0.0
  0
SPLINE
  5
43
330
2
100
AcDbEntity
  8
0
  6
HIDDEN
 48
0.05
100
AcDbSpline
210
0.0
220
0.0
230
1.0
 70
     8
 71
     3
 72
    34
 73
    30
 74
     0
 42
0.0000000001
 43
0.0000000001
 40
0.0
 40
0.0
 40
0.0
 40
0.0
 40
0.7202671860568805
 40
0.7202671860568805
 40
1.407304589324429
 40
1.407304589324429
 40
2.094341992591977
 40
2.094341992591977
 40
3.468416799127075
 40
3.468416799127075
 40
6.21656641219727
 40
6.21656641219727
 40
10.25029881379412
 40
10.25029881379412
 40
14.28403121539098
 40
14.28403121539098
 40
18.79136158017507
 40
18.79136158017507
 40
21.77264554717882
 40
21.77264554717882
 40
24.75392951418257
 40
24.75392951418257
 40
31.63684495707669
 40
31.63684495707669
 40
35.36782643122476
 40
35.36782643122476
 40
39.09880790537283
 40
39.09880790537283
 40
46.03594618862999
 40
46.03594618862999
 40
46.03594618862999
 40
46.03594618862999
 10
-16.74061321219704
 20
5.381703099763257
 30
0.0
 10
-16.73835645018284
 20
5.621711250612325
 30
0.0
 10
-16.73634091064581
 20
5.849525243500583
 30
0.0
 10
-16.74117670583219
 20
6.27129507356032
 30
0.0
 10
-16.74794767748623
 20
6.471009995458253
 30
0.0
 10
-16.77100494704634
 20
6.876882987346352
 30
0.0
 10
-16.78716619481232
 20
7.080158315018117
 30
0.0
 10
-16.84935056887893
 20
7.690314048417967
 30
0.0
 10
-16.90908006171081
 20
8.097527588212454
 30
0.0
 10
-17.14131257537291
 20
9.314838891448584
 30
0.0
 10
-17.36694813613314
 20
10.12061006582518
 30
0.0
 10
-18.08416660800529
 20
12.05668567408094
 30
0.0
 10
-18.65018962940546
 20
13.16090935072629
 30
0.0
 10
-20.01930859100674
 20
15.49913519688354
 30
0.0
 10
-20.8285031704062
 20
16.43344802424284
 30
0.0
 10
-22.74665996719221
 20
18.22826890615474
 30
0.0
 10
-23.87967118373968
 20
19.06683653408284
 30
0.0
 10
-25.88653896592057
 20
20.25795439206778
 30
0.0
 10
-26.71661329902203
 20
20.67802889711007
 30
0.0
 10
-28.42030783719835
 20
21.40938661966923
 30
0.0
 10
-29.29669824098683
 20
21.72281129804153
 30
0.0
 10
-32.26437348794775
 20
22.61397430993581
 30
0.0
 10
-34.44547176344597
 20
22.99987937891067
 30
0.0
 10
-37.87552404531182
 20
23.39065748097356
 30
0.0
 10
-39.09239299833417
 20
23.49062377456355
 30
0.0
 10
-41.40344484864264
 20
23.63871179840865
 30
0.0
 10
-42.6250979693448
 20
23.68619190472161
 30
0.0
 10
-46.13103332329441
 20
23.77296081043251
 30
0.0
 10
-48.42809268219877
 20
23.7704229889903
 30
0.0
 10
-50.74060973738832
 20
23.77010308656962
 30
0.0
  0
SPLINE
  5
44
330
2
100
AcDbEntity
  8
0
 48
0.1
100
AcDbSpline
210
0.0
220
0.0
230
1.0
 70
     8
 71
     3
 72
    30
 73
    26
 74
     0
 42
0.0000000001
 43
0.0000000001
 40
0.0
 40
0.0
 40
0.0
 40
0.0
 40
0.65850966288644
 40
0.65850966288644
 40
1.686762086004492
 40
1.686762086004492
 40
2.715014509122544
 40
2.715014509122544
 40
4.771519355358648
 40
4.771519355358648
 40
8.884529047830858
 40
8.884529047830858
 40
12.99753874030306
 40
12.99753874030306
 40
17.07270937996305
 40
17.07270937996305
 40
20.30846714683578
 40
20.30846714683578
 40
23.54422491370852
 40
23.54422491370852
 40
28.25098257408893
 40
28.25098257408893
 40
36.78596721372972
 40
36.78596721372972
 40
38.53625931349068
 40
38.53625931349068
 40
38.53625931349068
 40
38.53625931349068
 10
-19.24020634172203
 20
5.402934955770735
 30
0.0
 10
-19.23714457427429
 20
5.622380528208385
 30
0.0
 10
-19.23396683656662
 20
5.846145641478468
 30
0.0
 10
-19.24094264099297
 20
6.430614104236038
 30
0.0
 10
-19.26263226845727
 20
6.793472332612118
 30
0.0
 10
-19.34222485551678
 20
7.510829381583324
 30
0.0
 10
-19.39956312787406
 20
7.868110738393067
 30
0.0
 10
-19.62090784097828
 20
8.931664171606843
 30
0.0
 10
-19.83420609106397
 20
9.62963720478509
 30
0.0
 10
-20.64629239805819
 20
11.65843394846712
 30
0.0
 10
-21.4180660768604
 20
12.92388372322845
 30
0.0
 10
-23.29347169161409
 20
15.42401297707972
 30
0.0
 10
-24.39400638069812
 20
16.35436537539117
 30
0.0
 10
-26.78092320653495
 20
17.91676587428912
 30
0.0
 10
-28.06569985195459
 20
18.55183073266323
 30
0.0
 10
-30.43995675846773
 20
19.4689329307721
 30
0.0
 10
-31.51302803979424
 20
19.79571746366007
 30
0.0
 10
-33.66309157295041
 20
20.31573598359406
 30
0.0
 10
-34.74363956716802
 20
20.51051097524223
 30
0.0
 10
-37.40129568509786
 20
20.87611961742358
 30
0.0
 10
-38.98084219733618
 20
20.99590157414157
 30
0.0
 10
-43.28759516752922
 20
21.22615642729716
 30
0.0
 10
-46.14029224333738
 20
21.26100148367836
 30
0.0
 10
-49.57301965258374
 20
21.26988624466351
 30
0.0
 10
-50.15713521843635
 20
21.27014269866364
 30
0.0
 10
-50.74056286879831
 20
21.2701030686716
 30
0.0
  0
SPLINE
  5
45
330
2
100
AcDbEntity
  8
0
 48
0.1
100
AcDbSpline
210
0.0
220
0.0
230
1.0
 70
     8
 71
     3
 72
    13
 73
     9
 74
     7
 42
0.0000000001
 43
0.0000000001
 44
0.0000000001
 40
0.0
 40
0.0
 40
0.0
 40
0.0
 40
0.8372418225556401
 40
10.32482774346321
 40
21.46472317731313
 40
33.38354705486472
 40
45.15378485993914
 40
46.20894878751196
 40
46.20894878751196
 40
46.20894878751196
 40
46.20894878751196
 10
-14.99036765085747
 20
5.365248829627606
 30
0.0
 10
-14.98798559243631
 20
5.644179939719148
 30
0.0
 10
-14.95861015727445
 20
9.083945592129264
 30
0.0
 10
-17.15687173200919
 20
16.37681569799529
 30
0.0
 10
-26.24207088967146
 20
23.420240414074
 30
0.0
 10
-37.88006895163128
 20
25.4726928853741
 30
0.0
 10
-46.1134411206612
 20
25.52086503191569
 30
0.0
 10
-50.38878991755808
 20
25.52016099217004
 30
0.0
 10
-50.74052890572513
 20
25.52010306982509
 30
0.0
 11
-14.99036765085747
 21
5.365248829627606
 31
0.0
 11
-14.99036765085747
 21
6.202490652183247
 31
0.0
 11
-17.75888715951082
 21
15.27715793736839
 31
0.0
 11
-26.32063582922027
 21
22.40412994473861
 31
0.0
 11
-37.92127475924738
 21
25.13973573491252
 31
0.0
 11
-49.68536497815232
 21
25.52010306982509
 31
0.0
 11
-50.74052890572513
 21
25.52010306982509
 31
0.0
  0
SPLINE
  5
46
330
2
100
AcDbEntity
  8
0
 48
0.1
100
AcDbSpline
210
0.0
220
0.0
230
1.0
 70
     8
 71
     3
 72
    13
 73
     9
 74
     7
 42
0.0000000001
 43
0.0000000001
 44
0.0000000001
 40
0.0
 40
0.0
 40
0.0
 40
0.0
 40
0.8372418225556401
 40
8.278554952227025
 40
19.17230257155022
 40
28.68426872981872
 40
38.236066451093
 40
38.58164411881643
 40
38.58164411881643
 40
38.58164411881643
 40
38.58164411881643
 10
-19.74015768225313
 20
5.409910419995803
 30
0.0
 10
-19.73619607694073
 20
5.689018932094584
 30
0.0
 10
-19.69702415982649
 20
8.448813166920359
 30
0.0
 10
-22.29734152011121
 20
14.82126469038871
 30
0.0
 10
-30.84910024895419
 20
19.86482647442301
 30
0.0
 10
-40.86482451054379
 20
20.72355023692384
 30
0.0
 10
-47.32615873103305
 20
20.77039417937817
 30
0.0
 10
-50.62533457893477
 20
20.77011289130527
 30
0.0
 10
-50.74052890572516
 20
20.77010306982509
 30
0.0
 11
-19.74015768225313
 21
5.409910419995803
 31
0.0
 11
-19.74015768225313
 21
6.247152242551443
 31
0.0
 11
-22.34693957356885
 21
13.21693195678403
 31
0.0
 11
-31.4318229344614
 21
19.22847348225715
 31
0.0
 11
-40.84470737446022
 21
20.59781884237386
 31
0.0
 11
-50.39495123800173
 21
20.77010306982509
 31
0.0
 11
-50.74052890572516
 21
20.77010306982509
 31
0.0
  0
SPLINE
  5
47
330
2
100
AcDbEntity
  8
0
 48
0.1
100
AcDbSpline
210
0.0
220
0.0
230
1.0
 70
     8
 71
     3
 72
    12
 73
     8
 74
     6
 42
0.0000000001
 43
0.0000000001
 44
0.0000000001
 40
0.0
 40
0.0
 40
0.0
 40
0.0
 40
0.0839939960667664
 40
5.489888622182054
 40
18.38098506055124
 40
27.42111098221598
 40
28.59149804887048
 40
28.59149804887048
 40
28.59149804887048
 40
28.59149804887048
 10
-28.24029330307227
 20
5.364243401270204
 30
0.0
 10
-28.24026444501598
 20
5.392234447937999
 30
0.0
 10
-28.23837826835687
 20
7.221742934501117
 30
0.0
 10
-29.47035817553214
 20
13.64552683942562
 30
0.0
 10
-39.44661841126151
 20
17.87126232878576
 30
0.0
 10
-46.9428980326237
 20
17.79955943738897
 30
0.0
 10
-50.34998878707583
 20
17.80081842595105
 30
0.0
 10
-50.74052890572517
 20
17.80096273837999
 30
0.0
 11
-28.24029330307227
 21
5.364243401270204
 31
0.0
 11
-28.24029330307227
 21
5.448237397336971
 31
0.0
 11
-29.44448234352152
 21
10.71830622644386
 31
0.0
 11
-40.545520775131
 21
17.27172618271585
 31
0.0
 11
-49.57014183907067
 21
17.80096273837999
 31
0.0
 11
-50.74052890572517
 21
17.80096273837999
 31
0.0
  0
LINE
  5
48
330
2
100
AcDbEntity
  8
0
  6
HIDDEN
 48
0.05
100
AcDbLine
 10
-50.86796660560992
 20
1.213900649235267
 30
0.0
 11
-47.57093211147693
 21
1.213900649235284
 31
0.0
  0
LINE
  5
49
330
2
100
AcDbEntity
  8
0
  6
HIDDEN
 48
0.05
100
AcDbLine
 10
-50.86796660560992
 20
3.713900649235281
 30
0.0
 11
-47.57093211147694
 21
3.71390064923527
 31
0.0
  0
LINE
  5
4A
330
2
100
AcDbEntity
  8
CENTER
100
AcDbLine
 10
-50.74036765085761
 20
1.023900649235393
 30
0.0
 11
-50.74036765085761
 21
3.903900649235392
 31
0.0
  0
CIRCLE
  5
4C
330
2
100
AcDbEntity
  8
0
  6
HIDDEN
 48
0.05
100
AcDbCircle
 10
-50.74036765085761
 20
2.463900649235394
 30
0.0
 40
1.25
  0
LINE
  5
4D
330
2
100
AcDbEntity
  8
CENTER
 48
0.05
100
AcDbLine
 10
-52.1803676508576
 20
2.463900649235394
 30
0.0
 11
-49.30036765085761
 21
2.463900649235394
 31
0.0
  0
LINE
  5
4E
330
2
100
AcDbEntity
  8
0
  6
HIDDEN
 48
0.05
100
AcDbLine
 10
-47.57093211147694
 20
3.713900649235259
 30
0.0
 11
-47.57093211147694
 21
1.213900649235288
 31
0.0
  0
ENDSEC
  0
SECTION
  2
OBJECTS
  0
DICTIONARY
  5
7
330
0
100
AcDbDictionary
  3
ACAD_GROUP
350
26
  3
ACAD_LAYOUT
350
B
  3
ACAD_MLINESTYLE
350
27
  3
ACAD_PLOTSETTINGS
350
28
  3
ACAD_PLOTSTYLENAME
350
6
  3
ACDBHEADERROUNDTRIPXREC
350
9D
  3
ACDBVARIABLEDICTIONARY
350
4F
  0
DICTIONARY
  5
11
330
10
100
AcDbDictionary
280
     1
  3
ACAD_LAYERFILTERS
360
12
  0
DICTIONARY
  5
BE
330
2
100
AcDbDictionary
280
     1
  3
ACAD_LAYOUTSELFREF
360
BF
  0
DICTIONARY
  5
C0
330
C
100
AcDbDictionary
280
     1
  3
ACAD_LAYOUTSELFREF
360
C1
  0
DICTIONARY
  5
26
102
{ACAD_REACTORS
330
7
102
}
330
7
100
AcDbDictionary
  0
DICTIONARY
  5
B
102
{ACAD_REACTORS
330
7
102
}
330
7
100
AcDbDictionary
  0
DICTIONARY
  5
27
102
{ACAD_REACTORS
330
7
102
}
330
7
100
AcDbDictionary
  3
STANDARD
350
2A
  0
DICTIONARY
  5
28
102
{ACAD_REACTORS
330
7
102
}
330
7
100
AcDbDictionary
  0
ACDBDICTIONARYWDFLT
  5
6
102
{ACAD_REACTORS
330
7
102
}
330
7
100
AcDbDictionary
281
     1
  3
Normal
350
5
100
AcDbDictionaryWithDefault
340
5
  0
DICTIONARY
  5
9D
102
{ACAD_REACTORS
330
7
102
}
330
7
100
AcDbDictionary
  3
CEPSNTYPE
350
A7
  3
DIMSTYLEDATA
350
AB
  3
FINGERPRINTGUID
350
A8
  3
HYPERLINKBASE
350
A0
  3
INSUNITS
350
A6
  3
LAYOUTDICT
350
A2
  3
LWETCUNION
350
A5
  3
PLOTSETDICT
350
A3
  3
PLOTSTYLNAMDICT
350
A4
  3
PSVPSCALE
350
AA
  3
PUCSBASE
350
AE
  3
PUCSORGBACK
350
B4
  3
PUCSORGBOTTOM
350
B0
  3
PUCSORGFRONT
350
B3
  3
PUCSORGLEFT
350
B1
  3
PUCSORGRIGHT
350
B2
  3
PUCSORGTOP
350
AF
  3
PUCSORTHOREF
350
AC
  3
PUCSORTHOVIEW
350
AD
  3
STYLESHEET
350
A1
  3
TSTACKALIGN
350
9E
  3
TSTACKSIZE
350
9F
  3
UCSBASE
350
B7
  3
UCSORGBACK
350
BD
  3
UCSORGBOTTOM
350
B9
  3
UCSORGFRONT
350
BC
  3
UCSORGLEFT
350
BA
  3
UCSORGRIGHT
350
BB
  3
UCSORGTOP
350
B8
  3
UCSORTHOREF
350
B5
  3
UCSORTHOVIEW
350
B6
  3
VERSIONGUID
350
A9
  0
DICTIONARY
  5
4F
102
{ACAD_REACTORS
330
7
102
}
330
7
100
AcDbDictionary
  3
DIMASSOC
350
51
  3
HIDETEXT
350
50
  0
DICTIONARY
  5
12
102
{ACAD_REACTORS
330
11
102
}
330
11
100
AcDbDictionary
280
     1
  3
DIM-1_12
360
13
  3
DIM-1_16
360
14
  0
XRECORD
  5
BF
102
{ACAD_REACTORS
330
BE
102
}
330
BE
100
AcDbXrecord
340
2
  0
XRECORD
  5
C1
102
{ACAD_REACTORS
330
C0
102
}
330
C0
100
AcDbXrecord
340
C
  0
MLINESTYLE
  5
2A
102
{ACAD_REACTORS
330
27
102
}
330
27
100
AcDbMlineStyle
  2
STANDARD
 70
     0
  3

 62
   256
 51
90.0
 52
90.0
 71
     2
 49
0.5
 62
   256
  6
BYLAYER
 49
-0.5
 62
   256
  6
BYLAYER
  0
ACDBPLACEHOLDER
  5
5
102
{ACAD_REACTORS
330
6
102
}
330
6
100
AcDbPlaceHolder
280
     0
  0
XRECORD
  5
A7
102
{ACAD_REACTORS
330
9D
102
}
330
9D
100
AcDbXrecord
 90
        0
  0
XRECORD
  5
AB
102
{ACAD_REACTORS
330
9D
102
}
330
9D
100
AcDbXrecord
1000
DSTYLE
1002
{
1070
    79
 70
     1
1070
   276
 70
     1
1070
   277
 70
     5
1070
   289
 70
     1
1002
}
  0
XRECORD
  5
A8
102
{ACAD_REACTORS
330
9D
102
}
330
9D
100
AcDbXrecord
  1
{6A4AC8E0-4F58-11D5-8420-0003476D26AB}
  0
XRECORD
  5
A0
102
{ACAD_REACTORS
330
9D
102
}
330
9D
100
AcDbXrecord
  1

  0
XRECORD
  5
A6
102
{ACAD_REACTORS
330
9D
102
}
330
9D
100
AcDbXrecord
 90
        1
  0
XRECORD
  5
A2
102
{ACAD_REACTORS
330
9D
102
}
330
9D
100
AcDbXrecord
340
B
  0
XRECORD
  5
A5
102
{ACAD_REACTORS
330
9D
102
}
330
9D
100
AcDbXrecord
 90
    10781
  0
XRECORD
  5
A3
102
{ACAD_REACTORS
330
9D
102
}
330
9D
100
AcDbXrecord
340
28
  0
XRECORD
  5
A4
102
{ACAD_REACTORS
330
9D
102
}
330
9D
100
AcDbXrecord
340
6
  0
XRECORD
  5
AA
102
{ACAD_REACTORS
330
9D
102
}
330
9D
100
AcDbXrecord
 40
0.0
  0
XRECORD
  5
AE
102
{ACAD_REACTORS
330
9D
102
}
330
9D
100
AcDbXrecord
340
0
  0
XRECORD
  5
B4
102
{ACAD_REACTORS
330
9D
102
}
330
9D
100
AcDbXrecord
 10
0.0
 20
0.0
 30
0.0
  0
XRECORD
  5
B0
102
{ACAD_REACTORS
330
9D
102
}
330
9D
100
AcDbXrecord
 10
0.0
 20
0.0
 30
0.0
  0
XRECORD
  5
B3
102
{ACAD_REACTORS
330
9D
102
}
330
9D
100
AcDbXrecord
 10
0.0
 20
0.0
 30
0.0
  0
XRECORD
  5
B1
102
{ACAD_REACTORS
330
9D
102
}
330
9D
100
AcDbXrecord
 10
0.0
 20
0.0
 30
0.0
  0
XRECORD
  5
B2
102
{ACAD_REACTORS
330
9D
102
}
330
9D
100
AcDbXrecord
 10
0.0
 20
0.0
 30
0.0
  0
XRECORD
  5
AF
102
{ACAD_REACTORS
330
9D
102
}
330
9D
100
AcDbXrecord
 10
0.0
 20
0.0
 30
0.0
  0
XRECORD
  5
AC
102
{ACAD_REACTORS
330
9D
102
}
330
9D
100
AcDbXrecord
340
0
  0
XRECORD
  5
AD
102
{ACAD_REACTORS
330
9D
102
}
330
9D
100
AcDbXrecord
 70
     0
  0
XRECORD
  5
A1
102
{ACAD_REACTORS
330
9D
102
}
330
9D
100
AcDbXrecord
  1

  0
XRECORD
  5
9E
102
{ACAD_REACTORS
330
9D
102
}
330
9D
100
AcDbXrecord
 90
        1
  0
XRECORD
  5
9F
102
{ACAD_REACTORS
330
9D
102
}
330
9D
100
AcDbXrecord
 90
       70
  0
XRECORD
  5
B7
102
{ACAD_REACTORS
330
9D
102
}
330
9D
100
AcDbXrecord
340
0
  0
XRECORD
  5
BD
102
{ACAD_REACTORS
330
9D
102
}
330
9D
100
AcDbXrecord
 10
0.0
 20
0.0
 30
0.0
  0
XRECORD
  5
B9
102
{ACAD_REACTORS
330
9D
102
}
330
9D
100
AcDbXrecord
 10
0.0
 20
0.0
 30
0.0
  0
XRECORD
  5
BC
102
{ACAD_REACTORS
330
9D
102
}
330
9D
100
AcDbXrecord
 10
0.0
 20
0.0
 30
0.0
  0
XRECORD
  5
BA
102
{ACAD_REACTORS
330
9D
102
}
330
9D
100
AcDbXrecord
 10
0.0
 20
0.0
 30
0.0
  0
XRECORD
  5
BB
102
{ACAD_REACTORS
330
9D
102
}
330
9D
100
AcDbXrecord
 10
0.0
 20
0.0
 30
0.0
  0
XRECORD
  5
B8
102
{ACAD_REACTORS
330
9D
102
}
330
9D
100
AcDbXrecord
 10
0.0
 20
0.0
 30
0.0
  0
XRECORD
  5
B5
102
{ACAD_REACTORS
330
9D
102
}
330
9D
100
AcDbXrecord
340
0
  0
XRECORD
  5
B6
102
{ACAD_REACTORS
330
9D
102
}
330
9D
100
AcDbXrecord
 70
     1
  0
XRECORD
  5
A9
102
{ACAD_REACTORS
330
9D
102
}
330
9D
100
AcDbXrecord
  1
{EDEBE6E1-C0DE-49E1-AFB6-27684CBB110E}
  0
DICTIONARYVAR
  5
51
102
{ACAD_REACTORS
330
4F
102
}
330
4F
100
DictionaryVariables
280
     0
  1
1
  0
DICTIONARYVAR
  5
50
102
{ACAD_REACTORS
330
4F
102
}
330
4F
100
DictionaryVariables
280
     0
  1
1
  0
XRECORD
  5
13
102
{ACAD_REACTORS
330
12
102
}
330
12
100
AcDbXrecord
  1
DIM-1_12
  1
DIM-1_12
  1
*
  1
*
 70
     0
  1
*
  1
*
  0
XRECORD
  5
14
102
{ACAD_REACTORS
330
12
102
}
330
12
100
AcDbXrecord
  1
dim-1_16
  1
*
  1
*
  1
*
 70
     0
  1
*
  1
*
  0
ENDSEC
  0
EOF
