  0
SECTION
  2
HEADER
  9
$ACADVER
  1
AC1015
  9
$ACADMAINTVER
 70
    20
  9
$DWGCODEPAGE
  3
ANSI_1252
  9
$INSBASE
 10
0.0
 20
0.0
 30
0.0
  9
$EXTMIN
 10
102.0153120188
 20
19.79113069281661
 30
0.0
  9
$EXTMAX
 10
138.0153120188
 20
55.90513181470001
 30
0.0
  9
$LIMMIN
 10
0.0
 20
0.0
  9
$LIMMAX
 10
181.3333333333
 20
117.3333333333
  9
$ORTHOMODE
 70
     0
  9
$REGENMODE
 70
     1
  9
$FILLMODE
 70
     1
  9
$QTEXTMODE
 70
     0
  9
$MIRRTEXT
 70
     0
  9
$LTSCALE
 40
9.973333333300001
  9
$ATTMODE
 70
     1
  9
$TEXTSIZE
 40
0.2
  9
$TRACEWID
 40
0.05
  9
$TEXTSTYLE
  7
STANDARD
  9
$CLAYER
  8
0
  9
$CELTYPE
  6
BYLAYER
  9
$CECOLOR
 62
   256
  9
$CELTSCALE
 40
1.0
  9
$DISPSILH
 70
     0
  9
$DIMSCALE
 40
1.0
  9
$DIMASZ
 40
2.0
  9
$DIMEXO
 40
0.0625
  9
$DIMDLI
 40
6.890666666699999
  9
$DIMRND
 40
0.0
  9
$DIMDLE
 40
0.0
  9
$DIMEXE
 40
0.125
  9
$DIMTP
 40
0.0
  9
$DIMTM
 40
0.0
  9
$DIMTXT
 40
1.333333333299999
  9
$DIMCEN
 40
1.631999999999999
  9
$DIMTSZ
 40
0.0
  9
$DIMTOL
 70
     0
  9
$DIMLIM
 70
     0
  9
$DIMTIH
 70
     1
  9
$DIMTOH
 70
     1
  9
$DIMSE1
 70
     0
  9
$DIMSE2
 70
     0
  9
$DIMTAD
 70
     0
  9
$DIMZIN
 70
     0
  9
$DIMBLK
  1
_FILLED
  9
$DIMASO
 70
     1
  9
$DIMSHO
 70
     1
  9
$DIMPOST
  1

  9
$DIMAPOST
  1

  9
$DIMALT
 70
     0
  9
$DIMALTD
 70
     2
  9
$DIMALTF
 40
25.4
  9
$DIMLFAC
 40
1.0
  9
$DIMTOFL
 70
     0
  9
$DIMTVP
 40
0.0
  9
$DIMTIX
 70
     0
  9
$DIMSOXD
 70
     0
  9
$DIMSAH
 70
     0
  9
$DIMBLK1
  1

  9
$DIMBLK2
  1

  9
$DIMSTYLE
  2
STANDARD
  9
$DIMCLRD
 70
     0
  9
$DIMCLRE
 70
     0
  9
$DIMCLRT
 70
     0
  9
$DIMTFAC
 40
1.0
  9
$DIMGAP
 40
0.09
  9
$DIMJUST
 70
     0
  9
$DIMSD1
 70
     0
  9
$DIMSD2
 70
     0
  9
$DIMTOLJ
 70
     1
  9
$DIMTZIN
 70
     0
  9
$DIMALTZ
 70
     0
  9
$DIMALTTZ
 70
     0
  9
$DIMUPT
 70
     0
  9
$DIMDEC
 70
     4
  9
$DIMTDEC
 70
     4
  9
$DIMALTU
 70
     2
  9
$DIMALTTD
 70
     2
  9
$DIMTXSTY
  7
STANDARD
  9
$DIMAUNIT
 70
     0
  9
$DIMADEC
 70
     0
  9
$DIMALTRND
 40
0.0
  9
$DIMAZIN
 70
     0
  9
$DIMDSEP
 70
    46
  9
$DIMATFIT
 70
     3
  9
$DIMFRAC
 70
     0
  9
$DIMLDRBLK
  1

  9
$DIMLUNIT
 70
     2
  9
$DIMLWD
 70
    -2
  9
$DIMLWE
 70
    -2
  9
$DIMTMOVE
 70
     0
  9
$LUNITS
 70
     2
  9
$LUPREC
 70
     4
  9
$SKETCHINC
 40
0.1
  9
$FILLETRAD
 40
0.0
  9
$AUNITS
 70
     0
  9
$AUPREC
 70
     0
  9
$MENU
  1
.
  9
$ELEVATION
 40
0.0
  9
$PELEVATION
 40
0.0
  9
$THICKNESS
 40
0.0
  9
$LIMCHECK
 70
     0
  9
$CHAMFERA
 40
0.0
  9
$CHAMFERB
 40
0.0
  9
$CHAMFERC
 40
0.0
  9
$CHAMFERD
 40
0.0
  9
$SKPOLY
 70
     0
  9
$TDCREATE
 40
2456087.397824213
  9
$TDUCREATE
 40
2456087.564490879
  9
$TDUPDATE
 40
2456087.434444896
  9
$TDUUPDATE
 40
2456087.601111562
  9
$TDINDWG
 40
0.0035661690
  9
$TDUSRTIMER
 40
0.0035661690
  9
$USRTIMER
 70
     1
  9
$ANGBASE
 50
0.0
  9
$ANGDIR
 70
     0
  9
$PDMODE
 70
     3
  9
$PDSIZE
 40
0.03125
  9
$PLINEWID
 40
0.0
  9
$SPLFRAME
 70
     0
  9
$SPLINETYPE
 70
     6
  9
$SPLINESEGS
 70
     8
  9
$HANDSEED
  5
1A8C
  9
$SURFTAB1
 70
     6
  9
$SURFTAB2
 70
     6
  9
$SURFTYPE
 70
     6
  9
$SURFU
 70
     6
  9
$SURFV
 70
     6
  9
$UCSBASE
  2

  9
$UCSNAME
  2

  9
$UCSORG
 10
0.0
 20
0.0
 30
0.0
  9
$UCSXDIR
 10
1.0
 20
0.0
 30
0.0
  9
$UCSYDIR
 10
0.0
 20
1.0
 30
0.0
  9
$UCSORTHOREF
  2

  9
$UCSORTHOVIEW
 70
     0
  9
$UCSORGTOP
 10
0.0
 20
0.0
 30
0.0
  9
$UCSORGBOTTOM
 10
0.0
 20
0.0
 30
0.0
  9
$UCSORGLEFT
 10
0.0
 20
0.0
 30
0.0
  9
$UCSORGRIGHT
 10
0.0
 20
0.0
 30
0.0
  9
$UCSORGFRONT
 10
0.0
 20
0.0
 30
0.0
  9
$UCSORGBACK
 10
0.0
 20
0.0
 30
0.0
  9
$PUCSBASE
  2

  9
$PUCSNAME
  2

  9
$PUCSORG
 10
0.0
 20
0.0
 30
0.0
  9
$PUCSXDIR
 10
1.0
 20
0.0
 30
0.0
  9
$PUCSYDIR
 10
0.0
 20
1.0
 30
0.0
  9
$PUCSORTHOREF
  2

  9
$PUCSORTHOVIEW
 70
     0
  9
$PUCSORGTOP
 10
0.0
 20
0.0
 30
0.0
  9
$PUCSORGBOTTOM
 10
0.0
 20
0.0
 30
0.0
  9
$PUCSORGLEFT
 10
0.0
 20
0.0
 30
0.0
  9
$PUCSORGRIGHT
 10
0.0
 20
0.0
 30
0.0
  9
$PUCSORGFRONT
 10
0.0
 20
0.0
 30
0.0
  9
$PUCSORGBACK
 10
0.0
 20
0.0
 30
0.0
  9
$USERI1
 70
     0
  9
$USERI2
 70
     0
  9
$USERI3
 70
     0
  9
$USERI4
 70
     0
  9
$USERI5
 70
     0
  9
$USERR1
 40
0.0
  9
$USERR2
 40
0.0
  9
$USERR3
 40
0.0
  9
$USERR4
 40
0.0
  9
$USERR5
 40
0.0
  9
$WORLDVIEW
 70
     1
  9
$SHADEDGE
 70
     3
  9
$SHADEDIF
 70
    70
  9
$TILEMODE
 70
     1
  9
$MAXACTVP
 70
    64
  9
$PINSBASE
 10
0.0
 20
0.0
 30
0.0
  9
$PLIMCHECK
 70
     0
  9
$PEXTMIN
 10
1.000000000000000E+20
 20
1.000000000000000E+20
 30
1.000000000000000E+20
  9
$PEXTMAX
 10
-1.000000000000000E+20
 20
-1.000000000000000E+20
 30
-1.000000000000000E+20
  9
$PLIMMIN
 10
0.0
 20
0.0
  9
$PLIMMAX
 10
12.0
 20
9.0
  9
$UNITMODE
 70
     0
  9
$VISRETAIN
 70
     1
  9
$PLINEGEN
 70
     0
  9
$PSLTSCALE
 70
     1
  9
$TREEDEPTH
 70
  3020
  9
$CMLSTYLE
  2
Standard
  9
$CMLJUST
 70
     0
  9
$CMLSCALE
 40
1.0
  9
$PROXYGRAPHICS
 70
     1
  9
$MEASUREMENT
 70
     0
  9
$CELWEIGHT
370
    -1
  9
$ENDCAPS
280
     0
  9
$JOINSTYLE
280
     0
  9
$LWDISPLAY
290
     0
  9
$INSUNITS
 70
     1
  9
$HYPERLINKBASE
  1

  9
$STYLESHEET
  1

  9
$XEDIT
290
     1
  9
$CEPSNTYPE
380
     0
  9
$PSTYLEMODE
290
     1
  9
$FINGERPRINTGUID
  2
{3059AB01-15D9-4B2F-B15F-01058870EAD1}
  9
$VERSIONGUID
  2
{629CB101-115A-49B7-B1EC-AC81EB6A08EF}
  9
$EXTNAMES
290
     1
  9
$PSVPSCALE
 40
0.0
  9
$OLESTARTUP
290
     0
  0
ENDSEC
  0
SECTION
  2
CLASSES
  0
CLASS
  1
ACDBDICTIONARYWDFLT
  2
AcDbDictionaryWithDefault
  3
ObjectDBX Classes
 90
        0
280
     0
281
     0
  0
CLASS
  1
ACDBPLACEHOLDER
  2
AcDbPlaceHolder
  3
ObjectDBX Classes
 90
        0
280
     0
281
     0
  0
CLASS
  1
LAYOUT
  2
AcDbLayout
  3
ObjectDBX Classes
 90
        0
280
     0
281
     0
  0
CLASS
  1
MATERIAL
  2
AcDbMaterial
  3
ObjectDBX Classes
 90
     1153
280
     0
281
     0
  0
CLASS
  1
VISUALSTYLE
  2
AcDbVisualStyle
  3
ObjectDBX Classes
 90
     4095
280
     0
281
     0
  0
CLASS
  1
TABLESTYLE
  2
AcDbTableStyle
  3
ObjectDBX Classes
 90
     4095
280
     0
281
     0
  0
CLASS
  1
SCALE
  2
AcDbScale
  3
ObjectDBX Classes
 90
     1153
280
     0
281
     0
  0
CLASS
  1
MLEADERSTYLE
  2
AcDbMLeaderStyle
  3
ACDB_MLEADERSTYLE_CLASS
 90
     4095
280
     0
281
     0
  0
CLASS
  1
CELLSTYLEMAP
  2
AcDbCellStyleMap
  3
ObjectDBX Classes
 90
     1152
280
     0
281
     0
  0
CLASS
  1
DICTIONARYVAR
  2
AcDbDictionaryVar
  3
ObjectDBX Classes
 90
        0
280
     0
281
     0
  0
ENDSEC
  0
SECTION
  2
TABLES
  0
TABLE
  2
VPORT
  5
8
102
{ACAD_XDICTIONARY
360
19E8
102
}
330
0
100
AcDbSymbolTable
 70
     1
  0
VPORT
  5
1F4
330
8
100
AcDbSymbolTableRecord
100
AcDbViewportTableRecord
  2
*ACTIVE
 70
     0
 10
0.0
 20
0.0
 11
1.0
 21
1.0
 12
71.25141308311061
 22
63.00713947488097
 13
0.0
 23
0.0
 14
1.0
 24
1.0
 15
0.0
 25
0.0
 16
0.0
 26
0.0
 36
1.0
 17
0.0
 27
0.0
 37
0.0
 40
124.7296210307463
 41
2.280385078219013
 42
50.0
 43
0.0
 44
0.0
 50
0.0
 51
0.0
 71
     0
 72
   100
 73
     1
 74
     1
 75
     0
 76
     0
 77
     0
 78
     0
281
     0
 65
     1
110
0.0
120
0.0
130
0.0
111
1.0
121
0.0
131
0.0
112
0.0
122
1.0
132
0.0
 79
     0
146
0.0
  0
ENDTAB
  0
TABLE
  2
LTYPE
  5
5
330
0
100
AcDbSymbolTable
 70
     6
  0
LTYPE
  5
14
330
5
100
AcDbSymbolTableRecord
100
AcDbLinetypeTableRecord
  2
BYBLOCK
 70
     0
  3

 72
    65
 73
     0
 40
0.0
  0
LTYPE
  5
15
330
5
100
AcDbSymbolTableRecord
100
AcDbLinetypeTableRecord
  2
BYLAYER
 70
     0
  3

 72
    65
 73
     0
 40
0.0
  0
LTYPE
  5
16
330
5
100
AcDbSymbolTableRecord
100
AcDbLinetypeTableRecord
  2
CONTINUOUS
 70
     0
  3
Solid line
 72
    65
 73
     0
 40
0.0
  0
LTYPE
  5
1F5
330
5
100
AcDbSymbolTableRecord
100
AcDbLinetypeTableRecord
  2
CENTER
 70
     0
  3
____ _ ____ _ ____ _ ____ _ ____ _ ____ _ ____
 72
    65
 73
     4
 40
0.6
 49
0.375
 74
     0
 49
-0.075
 74
     0
 49
0.075
 74
     0
 49
-0.075
 74
     0
  0
LTYPE
  5
1F6
330
5
100
AcDbSymbolTableRecord
100
AcDbLinetypeTableRecord
  2
HIDDEN
 70
     0
  3
- - - - - - - - - - - - - - - - - - - -
 72
    65
 73
     2
 40
0.2
 49
0.1
 74
     0
 49
-0.1
 74
     0
  0
LTYPE
  5
1F7
330
5
100
AcDbSymbolTableRecord
100
AcDbLinetypeTableRecord
  2
PHANTOM
 70
     0
  3
_____ _ _ _____ _ _ _____ _ _ _____
 72
    65
 73
     6
 40
0.8
 49
0.45
 74
     0
 49
-0.05
 74
     0
 49
0.1
 74
     0
 49
-0.05
 74
     0
 49
0.1
 74
     0
 49
-0.05
 74
     0
  0
LTYPE
  5
1F8
330
5
100
AcDbSymbolTableRecord
100
AcDbLinetypeTableRecord
  2
DOT
 70
     0
  3
. . . . . . . . . . . . . . . . . . . .
 72
    65
 73
     2
 40
0.2
 49
0.1
 74
     0
 49
-0.1
 74
     0
  0
LTYPE
  5
1F9
330
5
100
AcDbSymbolTableRecord
100
AcDbLinetypeTableRecord
  2
DASHED
 70
     0
  3
- - - - - - - - - - - - - - - - - - - -
 72
    65
 73
     2
 40
0.2
 49
0.1
 74
     0
 49
-0.1
 74
     0
  0
ENDTAB
  0
TABLE
  2
LAYER
  5
2
330
0
100
AcDbSymbolTable
 70
    31
  0
LAYER
  5
10
102
{ACAD_XDICTIONARY
360
1A29
102
}
330
2
100
AcDbSymbolTableRecord
100
AcDbLayerTableRecord
  2
0
 70
     0
 62
     7
  6
CONTINUOUS
370
    -3
390
F
  0
LAYER
  5
1FA
102
{ACAD_XDICTIONARY
360
1A2B
102
}
330
2
100
AcDbSymbolTableRecord
100
AcDbLayerTableRecord
  2
DEFAULT_1
 70
     0
 62
     7
  6
CENTER
370
    -3
390
F
  0
LAYER
  5
1FB
102
{ACAD_XDICTIONARY
360
1A2D
102
}
330
2
100
AcDbSymbolTableRecord
100
AcDbLayerTableRecord
  2
DEFAULT_2
 70
     0
 62
     7
  6
HIDDEN
370
    -3
390
F
  0
LAYER
  5
1FC
102
{ACAD_XDICTIONARY
360
1A2F
102
}
330
2
100
AcDbSymbolTableRecord
100
AcDbLayerTableRecord
  2
DEFAULT_3
 70
     0
 62
     7
  6
PHANTOM
370
    -3
390
F
  0
LAYER
  5
1FD
102
{ACAD_XDICTIONARY
360
1A31
102
}
330
2
100
AcDbSymbolTableRecord
100
AcDbLayerTableRecord
  2
1_CURVES
 70
     0
 62
     7
  6
CONTINUOUS
370
    -3
390
F
  0
LAYER
  5
1FE
102
{ACAD_XDICTIONARY
360
1A33
102
}
330
2
100
AcDbSymbolTableRecord
100
AcDbLayerTableRecord
  2
1_CURVES-CONTOUR-REBORD
 70
     0
 62
     7
  6
CONTINUOUS
370
    -3
390
F
  0
LAYER
  5
1FF
102
{ACAD_XDICTIONARY
360
1A35
102
}
330
2
100
AcDbSymbolTableRecord
100
AcDbLayerTableRecord
  2
1_CURVES-JETS
 70
     0
 62
     7
  6
CONTINUOUS
370
    -3
390
F
  0
LAYER
  5
200
102
{ACAD_XDICTIONARY
360
1A37
102
}
330
2
100
AcDbSymbolTableRecord
100
AcDbLayerTableRecord
  2
1_CURVES-ROLL-EDGE
 70
     0
 62
     7
  6
CONTINUOUS
370
    -3
390
F
  0
LAYER
  5
201
102
{ACAD_XDICTIONARY
360
1A39
102
}
330
2
100
AcDbSymbolTableRecord
100
AcDbLayerTableRecord
  2
1_CURVES-SPEC-FRONT
 70
     0
 62
     7
  6
CONTINUOUS
370
    -3
390
F
  0
LAYER
  5
202
102
{ACAD_XDICTIONARY
360
1A3B
102
}
330
2
100
AcDbSymbolTableRecord
100
AcDbLayerTableRecord
  2
2_PLANES
 70
     0
 62
     7
  6
CONTINUOUS
370
    -3
390
F
  0
LAYER
  5
203
102
{ACAD_XDICTIONARY
360
1A3D
102
}
330
2
100
AcDbSymbolTableRecord
100
AcDbLayerTableRecord
  2
3_POINTS
 70
     0
 62
     7
  6
CONTINUOUS
370
    -3
390
F
  0
LAYER
  5
204
102
{ACAD_XDICTIONARY
360
1A3F
102
}
330
2
100
AcDbSymbolTableRecord
100
AcDbLayerTableRecord
  2
3_POINTS-JETS
 70
     0
 62
     7
  6
CONTINUOUS
370
    -3
390
F
  0
LAYER
  5
205
102
{ACAD_XDICTIONARY
360
1A41
102
}
330
2
100
AcDbSymbolTableRecord
100
AcDbLayerTableRecord
  2
4_CSYS
 70
     0
 62
     7
  6
CONTINUOUS
370
    -3
390
F
  0
LAYER
  5
206
102
{ACAD_XDICTIONARY
360
1A43
102
}
330
2
100
AcDbSymbolTableRecord
100
AcDbLayerTableRecord
  2
5-AXIS-JETS
 70
     0
 62
     7
  6
CONTINUOUS
370
    -3
390
F
  0
LAYER
  5
207
102
{ACAD_XDICTIONARY
360
1A45
102
}
330
2
100
AcDbSymbolTableRecord
100
AcDbLayerTableRecord
  2
5_AXIS
 70
     0
 62
     7
  6
CONTINUOUS
370
    -3
390
F
  0
LAYER
  5
208
102
{ACAD_XDICTIONARY
360
1A47
102
}
330
2
100
AcDbSymbolTableRecord
100
AcDbLayerTableRecord
  2
6_COPIE-TOOLING
 70
     0
 62
     7
  6
CONTINUOUS
370
    -3
390
F
  0
LAYER
  5
209
102
{ACAD_XDICTIONARY
360
1A49
102
}
330
2
100
AcDbSymbolTableRecord
100
AcDbLayerTableRecord
  2
6_SURFACE-OFFSET-FIBRE-ACRYLIQU
 70
     0
 62
     7
  6
CONTINUOUS
370
    -3
390
F
  0
LAYER
  5
20A
102
{ACAD_XDICTIONARY
360
1A4B
102
}
330
2
100
AcDbSymbolTableRecord
100
AcDbLayerTableRecord
  2
6_SURFACES
 70
     0
 62
     7
  6
CONTINUOUS
370
    -3
390
F
  0
LAYER
  5
20B
102
{ACAD_XDICTIONARY
360
1A4D
102
}
330
2
100
AcDbSymbolTableRecord
100
AcDbLayerTableRecord
  2
6_SURFACES-CELLA
 70
     0
 62
     7
  6
CONTINUOUS
370
    -3
390
F
  0
LAYER
  5
20C
102
{ACAD_XDICTIONARY
360
1A4F
102
}
330
2
100
AcDbSymbolTableRecord
100
AcDbLayerTableRecord
  2
6_SURFACES-PATINS-PR-CELLA
 70
     0
 62
     7
  6
CONTINUOUS
370
    -3
390
F
  0
LAYER
  5
20D
102
{ACAD_XDICTIONARY
360
1A51
102
}
330
2
100
AcDbSymbolTableRecord
100
AcDbLayerTableRecord
  2
6_SURFACES-POUR-NAOS
 70
     0
 62
     7
  6
CONTINUOUS
370
    -3
390
F
  0
LAYER
  5
20E
102
{ACAD_XDICTIONARY
360
1A53
102
}
330
2
100
AcDbSymbolTableRecord
100
AcDbLayerTableRecord
  2
6_SURFACES-TOOLING
 70
     0
 62
     7
  6
CONTINUOUS
370
    -3
390
F
  0
LAYER
  5
20F
102
{ACAD_XDICTIONARY
360
1A55
102
}
330
2
100
AcDbSymbolTableRecord
100
AcDbLayerTableRecord
  2
6_SURFACES_TOOLING
 70
     0
 62
     7
  6
CONTINUOUS
370
    -3
390
F
  0
LAYER
  5
210
102
{ACAD_XDICTIONARY
360
1A57
102
}
330
2
100
AcDbSymbolTableRecord
100
AcDbLayerTableRecord
  2
6_SURFACE_FLAT_EDGE
 70
     0
 62
     7
  6
CONTINUOUS
370
    -3
390
F
  0
LAYER
  5
211
102
{ACAD_XDICTIONARY
360
1A59
102
}
330
2
100
AcDbSymbolTableRecord
100
AcDbLayerTableRecord
  2
6_SURFACE_ROLL_EDGE
 70
     0
 62
     7
  6
CONTINUOUS
370
    -3
390
F
  0
LAYER
  5
212
102
{ACAD_XDICTIONARY
360
1A5B
102
}
330
2
100
AcDbSymbolTableRecord
100
AcDbLayerTableRecord
  2
7_NOTES
 70
     0
 62
     7
  6
CONTINUOUS
370
    -3
390
F
  0
LAYER
  5
213
102
{ACAD_XDICTIONARY
360
1A5D
102
}
330
2
100
AcDbSymbolTableRecord
100
AcDbLayerTableRecord
  2
8_COSMETIC
 70
     0
 62
     7
  6
CONTINUOUS
370
    -3
390
F
  0
LAYER
  5
214
102
{ACAD_XDICTIONARY
360
1A5F
102
}
330
2
100
AcDbSymbolTableRecord
100
AcDbLayerTableRecord
  2
8_ZONE-ROBINETERIE
 70
     0
 62
     7
  6
CONTINUOUS
370
    -3
390
F
  0
LAYER
  5
215
102
{ACAD_XDICTIONARY
360
1A61
102
}
330
2
100
AcDbSymbolTableRecord
100
AcDbLayerTableRecord
  2
8_ZONES_PLACAGE_FRONT
 70
     0
 62
     7
  6
CONTINUOUS
370
    -3
390
F
  0
LAYER
  5
216
102
{ACAD_XDICTIONARY
360
1A63
102
}
330
2
100
AcDbSymbolTableRecord
100
AcDbLayerTableRecord
  2
8_ZONE_PLACAGE_TOP
 70
     0
 62
     7
  6
CONTINUOUS
370
    -3
390
F
  0
LAYER
  5
217
102
{ACAD_XDICTIONARY
360
1A65
102
}
330
2
100
AcDbSymbolTableRecord
100
AcDbLayerTableRecord
  2
XSEC_DATUMS
 70
     0
 62
     7
  6
CONTINUOUS
370
    -3
390
F
  0
ENDTAB
  0
TABLE
  2
STYLE
  5
3
330
0
100
AcDbSymbolTable
 70
     8
  0
STYLE
  5
11
330
3
100
AcDbSymbolTableRecord
100
AcDbTextStyleTableRecord
  2
STANDARD
 70
     0
 40
0.0
 41
0.8
 50
0.0
 71
     0
 42
0.2
  3
txt
  4

  0
STYLE
  5
218
330
3
100
AcDbSymbolTableRecord
100
AcDbTextStyleTableRecord
  2
TEXTSTYLE_1
 70
     0
 40
0.0
 41
0.8
 50
0.0
 71
     0
 42
0.2
  3
gdt
  4

  0
STYLE
  5
219
330
3
100
AcDbSymbolTableRecord
100
AcDbTextStyleTableRecord
  2
TEXTSTYLE_2
 70
     0
 40
0.0
 41
1.0
 50
0.0
 71
     0
 42
0.2
  3
trium.ttf
  4

  0
STYLE
  5
21A
330
3
100
AcDbSymbolTableRecord
100
AcDbTextStyleTableRecord
  2
TEXTSTYLE_3
 70
     0
 40
0.0
 41
1.0
 50
0.0
 71
     0
 42
0.2
  3
trium.ttf
  4

  0
STYLE
  5
21B
330
3
100
AcDbSymbolTableRecord
100
AcDbTextStyleTableRecord
  2
TEXTSTYLE_4
 70
     0
 40
0.0
 41
1.0
 50
0.0
 71
     0
 42
0.2
  3
txt_____.ttf
  4

1001
ACAD
1000
txt
1071
        2
  0
STYLE
  5
21C
330
3
100
AcDbSymbolTableRecord
100
AcDbTextStyleTableRecord
  2
TEXTSTYLE_5
 70
     0
 40
0.0
 41
1.0
 50
0.0
 71
     0
 42
0.2
  3
txt_____.ttf
  4

1001
ACAD
1000
txt
1071
        2
  0
STYLE
  5
21D
330
3
100
AcDbSymbolTableRecord
100
AcDbTextStyleTableRecord
  2
TEXTSTYLE_6
 70
     0
 40
0.0
 41
1.0
 50
0.0
 71
     0
 42
0.2
  3
trium.ttf
  4

  0
STYLE
  5
21E
330
3
100
AcDbSymbolTableRecord
100
AcDbTextStyleTableRecord
  2
TEXTSTYLE_7
 70
     0
 40
0.0
 41
0.8
 50
0.0
 71
     0
 42
0.2
  3
txt_____.ttf
  4

1001
ACAD
1000
txt
1071
        2
  0
ENDTAB
  0
TABLE
  2
VIEW
  5
6
330
0
100
AcDbSymbolTable
 70
     0
  0
ENDTAB
  0
TABLE
  2
UCS
  5
7
330
0
100
AcDbSymbolTable
 70
     0
  0
ENDTAB
  0
TABLE
  2
APPID
  5
9
330
0
100
AcDbSymbolTable
 70
     2
  0
APPID
  5
21F
330
9
100
AcDbSymbolTableRecord
100
AcDbRegAppTableRecord
  2
ACAD
 70
     0
  0
APPID
  5
1A18
330
9
100
AcDbSymbolTableRecord
100
AcDbRegAppTableRecord
  2
ACAD_MLEADERVER
 70
     0
  0
ENDTAB
  0
TABLE
  2
DIMSTYLE
  5
A
330
0
100
AcDbSymbolTable
 70
     5
100
AcDbDimStyleTable
 71
     0
  0
DIMSTYLE
105
240
330
A
100
AcDbSymbolTableRecord
100
AcDbDimStyleTableRecord
  2
STANDARD
 70
     0
 41
2.0
 44
0.125
 47
0.00001
 48
0.00001
 78
     4
140
1.333333333299999
271
     5
272
     5
284
     4
340
11
341
222
342
222
343
222
344
222
  0
DIMSTYLE
105
241
330
A
100
AcDbSymbolTableRecord
100
AcDbDimStyleTableRecord
  2
DIMSTYLE_1
 70
     0
 41
2.0
 44
0.125
 78
     4
140
1.333333333299999
147
0.0625
271
     3
272
     3
284
     4
340
11
341
222
342
222
343
222
344
222
  0
DIMSTYLE
105
242
330
A
100
AcDbSymbolTableRecord
100
AcDbDimStyleTableRecord
  2
DIMSTYLE_2
 70
     0
 41
2.0
 44
0.125
 78
     4
140
1.333333333299999
271
     0
272
     0
284
     4
340
11
341
222
342
222
343
222
344
222
  0
DIMSTYLE
105
243
330
A
100
AcDbSymbolTableRecord
100
AcDbDimStyleTableRecord
  2
DIMSTYLE_3
 70
     0
 41
2.0
 44
0.125
 78
     4
140
1.333333333299999
147
0.0625
271
     6
272
     6
284
     4
340
11
341
222
342
222
343
222
344
222
  0
DIMSTYLE
105
244
330
A
100
AcDbSymbolTableRecord
100
AcDbDimStyleTableRecord
  2
DIMSTYLE_4
 70
     0
 41
2.0
 44
0.125
 78
     4
140
1.333333333299999
271
     3
272
     3
284
     4
340
11
341
222
342
222
343
222
344
222
  0
ENDTAB
  0
TABLE
  2
BLOCK_RECORD
  5
1
330
0
100
AcDbSymbolTable
 70
     5
  0
BLOCK_RECORD
  5
220
330
1
100
AcDbSymbolTableRecord
100
AcDbBlockTableRecord
  2
*Model_Space
340
198A
  0
BLOCK_RECORD
  5
221
330
1
100
AcDbSymbolTableRecord
100
AcDbBlockTableRecord
  2
*Paper_Space
340
198B
  0
BLOCK_RECORD
  5
222
330
1
100
AcDbSymbolTableRecord
100
AcDbBlockTableRecord
  2
_FILLED
340
0
  0
BLOCK_RECORD
  5
23C
330
1
100
AcDbSymbolTableRecord
100
AcDbBlockTableRecord
  2
SYMBOL_4_BL3
340
0
  0
BLOCK_RECORD
  5
23D
330
1
100
AcDbSymbolTableRecord
100
AcDbBlockTableRecord
  2
SYMBOL_3_BL2
340
0
  0
BLOCK_RECORD
  5
23E
330
1
100
AcDbSymbolTableRecord
100
AcDbBlockTableRecord
  2
SYMBOL_7_BL1
340
0
  0
BLOCK_RECORD
  5
23F
330
1
100
AcDbSymbolTableRecord
100
AcDbBlockTableRecord
  2
SYMBOL_0_BL0
340
0
  0
ENDTAB
  0
ENDSEC
  0
SECTION
  2
BLOCKS
  0
BLOCK
  5
20
330
220
100
AcDbEntity
  8
0
100
AcDbBlockBegin
  2
*Model_Space
 70
     0
 10
0.0
 20
0.0
 30
0.0
  3
*Model_Space
  1

  0
ENDBLK
  5
21
330
220
100
AcDbEntity
  8
0
100
AcDbBlockEnd
  0
BLOCK
  5
1C
330
221
100
AcDbEntity
 67
     1
  8
0
100
AcDbBlockBegin
  2
*Paper_Space
 70
     0
 10
0.0
 20
0.0
 30
0.0
  3
*Paper_Space
  1

  0
ENDBLK
  5
1D
330
221
100
AcDbEntity
 67
     1
  8
0
100
AcDbBlockEnd
  0
BLOCK
  5
31C
330
222
100
AcDbEntity
  8
0
100
AcDbBlockBegin
  2
_FILLED
 70
     0
 10
0.0
 20
0.0
 30
0.0
  3
_FILLED
  1

  0
SOLID
  5
31D
330
222
100
AcDbEntity
  8
0
  6
ByBlock
 62
     0
100
AcDbTrace
 10
0.0
 20
0.0
 30
0.0
 11
-1.0
 21
0.1666666667
 31
0.0
 12
-1.0
 22
-0.1666666667
 32
0.0
 13
-1.0
 23
-0.1666666667
 33
0.0
  0
ENDBLK
  5
31E
330
222
100
AcDbEntity
  8
0
  6
ByBlock
 62
     0
100
AcDbBlockEnd
  0
BLOCK
  5
245
330
23C
100
AcDbEntity
  8
0
  6
Continuous
 62
     7
100
AcDbBlockBegin
  2
SYMBOL_4_BL3
 70
     0
 10
67.6852712302
 20
73.0158827716
 30
0.0
  3
SYMBOL_4_BL3
  1

  0
TEXT
  5
246
330
23C
100
AcDbEntity
  8
0
  6
Continuous
 62
     7
100
AcDbText
 10
67.26206440760001
 20
72.2517063673
 30
0.0
 40
1.333333852099999
  1
L
 50
10.0
  7
TEXTSTYLE_2
100
AcDbText
  0
TEXT
  5
247
330
23C
100
AcDbEntity
  8
0
  6
Continuous
 62
     7
100
AcDbText
 10
63.1279537757
 20
71.5353534067
 30
0.0
 40
1.333333852099999
  1
16
 50
10.0
  7
TEXTSTYLE_2
100
AcDbText
  0
TEXT
  5
248
330
23C
100
AcDbEntity
  8
0
  6
Continuous
 62
     7
100
AcDbText
 10
70.46073415550001
 20
72.82832043129999
 30
0.0
 40
1.333333852099999
  1
15
 50
10.0
  7
TEXTSTYLE_2
100
AcDbText
  0
ELLIPSE
  5
249
330
23C
100
AcDbEntity
  8
0
  6
Continuous
 62
     7
100
AcDbEllipse
 10
67.66666666669999
 20
73.0
 30
0.0
 11
-1.913370740099999
 21
-0.3373788856
 31
0.0
210
0.0
220
0.0
230
1.0
 40
0.6606458385
 41
0.0
 42
6.283185307179586
  0
ENDBLK
  5
24A
330
23C
100
AcDbEntity
  8
0
  6
ByBlock
 62
     0
100
AcDbBlockEnd
  0
BLOCK
  5
24B
330
23D
100
AcDbEntity
  8
0
  6
Continuous
 62
     7
100
AcDbBlockBegin
  2
SYMBOL_3_BL2
 70
     0
 10
44.6852712302
 20
95.01588277160001
 30
0.0
  3
SYMBOL_3_BL2
  1

  0
TEXT
  5
24C
330
23D
100
AcDbEntity
  8
0
  6
Continuous
 62
     7
100
AcDbText
 10
44.2620644076
 20
94.25170636729999
 30
0.0
 40
1.333333852099999
  1
L
 50
10.0
  7
TEXTSTYLE_2
100
AcDbText
  0
TEXT
  5
24D
330
23D
100
AcDbEntity
  8
0
  6
Continuous
 62
     7
100
AcDbText
 10
40.6313001564
 20
93.6241069543
 30
0.0
 40
1.333333852099999
  1
5
 50
10.0
  7
TEXTSTYLE_2
100
AcDbText
  0
TEXT
  5
24E
330
23D
100
AcDbEntity
  8
0
  6
Continuous
 62
     7
100
AcDbText
 10
47.9640805362
 20
94.91707397889999
 30
0.0
 40
1.333333852099999
  1
4
 50
10.0
  7
TEXTSTYLE_2
100
AcDbText
  0
ELLIPSE
  5
24F
330
23D
100
AcDbEntity
  8
0
  6
Continuous
 62
     7
100
AcDbEllipse
 10
44.6666666667
 20
95.0
 30
0.0
 11
-1.913370740099999
 21
-0.3373788856
 31
0.0
210
0.0
220
0.0
230
1.0
 40
0.6606458385
 41
0.0
 42
6.283185307179586
  0
ENDBLK
  5
250
330
23D
100
AcDbEntity
  8
0
  6
ByBlock
 62
     0
100
AcDbBlockEnd
  0
BLOCK
  5
251
330
23E
100
AcDbEntity
  8
0
  6
Continuous
 62
     7
100
AcDbBlockBegin
  2
SYMBOL_7_BL1
 70
     0
 10
129.4781412034
 20
55.8631248321
 30
0.0
  3
SYMBOL_7_BL1
  1

  0
TEXT
  5
252
330
23E
100
AcDbEntity
  8
0
  6
Continuous
 62
     7
100
AcDbText
 10
122.7002863559
 20
57.90613537189999
 30
0.0
 40
1.1626666667
  1
INTERNAL USE 
 50
10.0
 41
0.9102564103
  7
TEXTSTYLE_4
100
AcDbText
  0
TEXT
  5
253
330
23E
100
AcDbEntity
  8
0
  6
Continuous
 62
     7
100
AcDbText
 10
122.1277847822
 20
56.05504226459999
 30
0.0
 40
1.1626666667
  1
DOCUMENT ONLY
 50
10.0
 41
0.9871794872
  7
TEXTSTYLE_4
100
AcDbText
  0
TEXT
  5
254
330
23E
100
AcDbEntity
  8
0
  6
Continuous
 62
     7
100
AcDbText
 10
128.2051242609
 20
55.8582095896
 30
0.0
 40
1.1626666667
  1
 
 50
10.0
  7
TEXTSTYLE_5
100
AcDbText
  0
TEXT
  5
255
330
23E
100
AcDbEntity
  8
0
  6
Continuous
 62
     7
100
AcDbText
 10
119.3491233953
 20
51.6085825539
 30
0.0
 40
1.1626666667
  1
DOCUMENT POUR USAGE
 50
10.0
 41
0.9736842104999999
  7
TEXTSTYLE_4
100
AcDbText
  0
TEXT
  5
256
330
23E
100
AcDbEntity
  8
0
  6
Continuous
 62
     7
100
AcDbText
 10
119.3776421464
 20
49.84270716800001
 30
0.0
 40
1.1626666667
  1
A L'INTERNE SEULEMENT
 50
10.0
 41
0.9037698412999999
  7
TEXTSTYLE_4
100
AcDbText
  0
LINE
  5
257
330
23E
100
AcDbEntity
  8
0
  6
Continuous
 62
     7
100
AcDbLine
 10
143.3346929267
 20
51.5195912141
 30
0.0
 11
143.3414518594
 21
51.5263501467
 31
0.0
  0
LINE
  5
258
330
23E
100
AcDbEntity
  8
0
  6
Continuous
 62
     7
100
AcDbLine
 10
142.6021233603
 20
51.3904194343
 30
0.0
 11
143.2510048054
 21
52.03930087939999
 31
0.0
  0
LINE
  5
259
330
23E
100
AcDbEntity
  8
0
  6
Continuous
 62
     7
100
AcDbLine
 10
141.8695537939
 20
51.2612476545
 30
0.0
 11
143.1605577515
 21
52.5522516121
 31
0.0
  0
LINE
  5
25A
330
23E
100
AcDbEntity
  8
0
  6
Continuous
 62
     7
100
AcDbLine
 10
141.1369842275
 20
51.1320758747
 30
0.0
 11
143.0701106976
 21
53.0652023447
 31
0.0
  0
LINE
  5
25B
330
23E
100
AcDbEntity
  8
0
  6
Continuous
 62
     7
100
AcDbLine
 10
140.4044146611
 20
51.0029040949
 30
0.0
 11
142.9796636436
 21
53.5781530774
 31
0.0
  0
LINE
  5
25C
330
23E
100
AcDbEntity
  8
0
  6
Continuous
 62
     7
100
AcDbLine
 10
139.6718450946
 20
50.87373231499999
 30
0.0
 11
141.2128489094
 21
52.4147361298
 31
0.0
  0
LINE
  5
25D
330
23E
100
AcDbEntity
  8
0
  6
Continuous
 62
     7
100
AcDbLine
 10
141.8101941022
 20
53.01208132260001
 30
0.0
 11
142.8892165897
 21
54.0911038101
 31
0.0
  0
LINE
  5
25E
330
23E
100
AcDbEntity
  8
0
  6
Continuous
 62
     7
100
AcDbLine
 10
138.9392755282
 20
50.7445605352
 30
0.0
 11
140.480279343
 21
52.28556435
 31
0.0
  0
LINE
  5
25F
330
23E
100
AcDbEntity
  8
0
  6
Continuous
 62
     7
100
AcDbLine
 10
141.7197470482
 20
53.52503205520001
 30
0.0
 11
142.7987695357
 21
54.6040545427
 31
0.0
  0
LINE
  5
260
330
23E
100
AcDbEntity
  8
0
  6
Continuous
 62
     7
100
AcDbLine
 10
138.2067059618
 20
50.6153887554
 30
0.0
 11
139.7477097766
 21
52.15639257020001
 31
0.0
  0
LINE
  5
261
330
23E
100
AcDbEntity
  8
0
  6
Continuous
 62
     7
100
AcDbLine
 10
141.6292999943
 20
54.0379827879
 30
0.0
 11
142.7083224818
 21
55.1170052754
 31
0.0
  0
LINE
  5
262
330
23E
100
AcDbEntity
  8
0
  6
Continuous
 62
     7
100
AcDbLine
 10
137.4741363954
 20
50.4862169756
 30
0.0
 11
139.0151402102
 21
52.0272207904
 31
0.0
  0
LINE
  5
263
330
23E
100
AcDbEntity
  8
0
  6
Continuous
 62
     7
100
AcDbLine
 10
141.5388529403
 20
54.5509335206
 30
0.0
 11
142.6178754278
 21
55.6299560081
 31
0.0
  0
LINE
  5
264
330
23E
100
AcDbEntity
  8
0
  6
Continuous
 62
     7
100
AcDbLine
 10
136.741566829
 20
50.3570451958
 30
0.0
 11
138.2825706438
 21
51.8980490106
 31
0.0
  0
LINE
  5
265
330
23E
100
AcDbEntity
  8
0
  6
Continuous
 62
     7
100
AcDbLine
 10
141.4484058864
 20
55.06388425319999
 30
0.0
 11
142.5274283739
 21
56.1429067407
 31
0.0
  0
LINE
  5
266
330
23E
100
AcDbEntity
  8
0
  6
Continuous
 62
     7
100
AcDbLine
 10
136.0089972626
 20
50.227873416
 30
0.0
 11
137.5500010772999
 21
51.7688772308
 31
0.0
  0
LINE
  5
267
330
23E
100
AcDbEntity
  8
0
  6
Continuous
 62
     7
100
AcDbLine
 10
141.3579588324
 20
55.5768349859
 30
0.0
 11
142.4369813199
 21
56.6558574734
 31
0.0
  0
LINE
  5
268
330
23E
100
AcDbEntity
  8
0
  6
Continuous
 62
     7
100
AcDbLine
 10
135.2764276961
 20
50.0987016362
 30
0.0
 11
136.8174315109
 21
51.639705451
 31
0.0
  0
LINE
  5
269
330
23E
100
AcDbEntity
  8
0
  6
Continuous
 62
     7
100
AcDbLine
 10
141.2675117785
 20
56.08978571859999
 30
0.0
 11
142.346534266
 21
57.1688082061
 31
0.0
  0
LINE
  5
26A
330
23E
100
AcDbEntity
  8
0
  6
Continuous
 62
     7
100
AcDbLine
 10
134.5438581297
 20
49.9695298564
 30
0.0
 11
136.0848619445
 21
51.5105336712
 31
0.0
  0
LINE
  5
26B
330
23E
100
AcDbEntity
  8
0
  6
Continuous
 62
     7
100
AcDbLine
 10
141.1770647245
 20
56.6027364512
 30
0.0
 11
142.2560872121
 21
57.6817589387
 31
0.0
  0
LINE
  5
26C
330
23E
100
AcDbEntity
  8
0
  6
Continuous
 62
     7
100
AcDbLine
 10
133.8112885633
 20
49.84035807659999
 30
0.0
 11
135.3522923781
 21
51.3813618914
 31
0.0
  0
LINE
  5
26D
330
23E
100
AcDbEntity
  8
0
  6
Continuous
 62
     7
100
AcDbLine
 10
141.0866176706
 20
57.1156871839
 30
0.0
 11
142.1656401581
 21
58.1947096714
 31
0.0
  0
LINE
  5
26E
330
23E
100
AcDbEntity
  8
0
  6
Continuous
 62
     7
100
AcDbLine
 10
133.0787189969
 20
49.7111862968
 30
0.0
 11
134.6197228117
 21
51.2521901116
 31
0.0
  0
LINE
  5
26F
330
23E
100
AcDbEntity
  8
0
  6
Continuous
 62
     7
100
AcDbLine
 10
140.7837380708
 20
57.4162053707
 30
0.0
 11
142.0751931042
 21
58.7076604041
 31
0.0
  0
LINE
  5
270
330
23E
100
AcDbEntity
  8
0
  6
Continuous
 62
     7
100
AcDbLine
 10
132.3461494305
 20
49.58201451699999
 30
0.0
 11
133.8871532452
 21
51.1230183318
 31
0.0
  0
LINE
  5
271
330
23E
100
AcDbEntity
  8
0
  6
Continuous
 62
     7
100
AcDbLine
 10
140.0511685044
 20
57.2870335909
 30
0.0
 11
141.9847460502
 21
59.2206111368
 31
0.0
  0
LINE
  5
272
330
23E
100
AcDbEntity
  8
0
  6
Continuous
 62
     7
100
AcDbLine
 10
131.6135798641
 20
49.4528427372
 30
0.0
 11
133.1545836787999
 21
50.993846552
 31
0.0
  0
LINE
  5
273
330
23E
100
AcDbEntity
  8
0
  6
Continuous
 62
     7
100
AcDbLine
 10
139.3185989379
 20
57.1578618111
 30
0.0
 11
140.3459412362
 21
58.1852041093
 31
0.0
  0
LINE
  5
274
330
23E
100
AcDbEntity
  8
0
  6
Continuous
 62
     7
100
AcDbLine
 10
140.8152765088
 20
58.65453938189999
 30
0.0
 11
141.8942989963
 21
59.7335618694
 31
0.0
  0
LINE
  5
275
330
23E
100
AcDbEntity
  8
0
  6
Continuous
 62
     7
100
AcDbLine
 10
130.8810102976
 20
49.3236709574
 30
0.0
 11
132.4220141124
 21
50.86467477220001
 31
0.0
  0
LINE
  5
276
330
23E
100
AcDbEntity
  8
0
  6
Continuous
 62
     7
100
AcDbLine
 10
138.5860293715
 20
57.0286900313
 30
0.0
 11
139.6133714602
 21
58.0560321199
 31
0.0
  0
LINE
  5
277
330
23E
100
AcDbEntity
  8
0
  6
Continuous
 62
     7
100
AcDbLine
 10
140.7248294548
 20
59.1674901146
 30
0.0
 11
141.8038519423
 21
60.24651260209999
 31
0.0
  0
LINE
  5
278
330
23E
100
AcDbEntity
  8
0
  6
Continuous
 62
     7
100
AcDbLine
 10
130.1484407312
 20
49.1944991776
 30
0.0
 11
131.689444546
 21
50.7355029924
 31
0.0
  0
LINE
  5
279
330
23E
100
AcDbEntity
  8
0
  6
Continuous
 62
     7
100
AcDbLine
 10
137.8534598051
 20
56.8995182515
 30
0.0
 11
138.8808016841
 21
57.9268601305
 31
0.0
  0
LINE
  5
27A
330
23E
100
AcDbEntity
  8
0
  6
Continuous
 62
     7
100
AcDbLine
 10
140.6343824009
 20
59.6804408472
 30
0.0
 11
141.7134048884
 21
60.7594633348
 31
0.0
  0
LINE
  5
27B
330
23E
100
AcDbEntity
  8
0
  6
Continuous
 62
     7
100
AcDbLine
 10
129.4158711648
 20
49.0653273978
 30
0.0
 11
130.9568749796
 21
50.6063312126
 31
0.0
  0
LINE
  5
27C
330
23E
100
AcDbEntity
  8
0
  6
Continuous
 62
     7
100
AcDbLine
 10
137.1208902387
 20
56.7703464717
 30
0.0
 11
138.1482319081
 21
57.79768814109999
 31
0.0
  0
LINE
  5
27D
330
23E
100
AcDbEntity
  8
0
  6
Continuous
 62
     7
100
AcDbLine
 10
140.5439353469
 20
60.1933915799
 30
0.0
 11
141.6229578345
 21
61.2724140674
 31
0.0
  0
LINE
  5
27E
330
23E
100
AcDbEntity
  8
0
  6
Continuous
 62
     7
100
AcDbLine
 10
128.6833015984
 20
48.936155618
 30
0.0
 11
130.2243054132
 21
50.4771594327
 31
0.0
  0
LINE
  5
27F
330
23E
100
AcDbEntity
  8
0
  6
Continuous
 62
     7
100
AcDbLine
 10
136.3883206723
 20
56.64117469189999
 30
0.0
 11
137.4156621321
 21
57.66851615170001
 31
0.0
  0
LINE
  5
280
330
23E
100
AcDbEntity
  8
0
  6
Continuous
 62
     7
100
AcDbLine
 10
140.453488293
 20
60.7063423126
 30
0.0
 11
141.5325107805
 21
61.7853648001
 31
0.0
  0
LINE
  5
281
330
23E
100
AcDbEntity
  8
0
  6
Continuous
 62
     7
100
AcDbLine
 10
127.950732032
 20
48.8069838382
 30
0.0
 11
129.4917358467
 21
50.3479876529
 31
0.0
  0
LINE
  5
282
330
23E
100
AcDbEntity
  8
0
  6
Continuous
 62
     7
100
AcDbLine
 10
135.6557511058
 20
56.512002912
 30
0.0
 11
136.6830923561
 21
57.53934416229999
 31
0.0
  0
LINE
  5
283
330
23E
100
AcDbEntity
  8
0
  6
Continuous
 62
     7
100
AcDbLine
 10
140.3630412391
 20
61.2192930453
 30
0.0
 11
141.4420637266
 21
62.2983155328
 31
0.0
  0
LINE
  5
284
330
23E
100
AcDbEntity
  8
0
  6
Continuous
 62
     7
100
AcDbLine
 10
127.2181624655
 20
48.6778120584
 30
0.0
 11
128.7591662803
 21
50.21881587310001
 31
0.0
  0
LINE
  5
285
330
23E
100
AcDbEntity
  8
0
  6
Continuous
 62
     7
100
AcDbLine
 10
134.9231815394
 20
56.3828311322
 30
0.0
 11
135.95052258
 21
57.41017217279999
 31
0.0
  0
LINE
  5
286
330
23E
100
AcDbEntity
  8
0
  6
Continuous
 62
     7
100
AcDbLine
 10
140.2725941851
 20
61.7322437779
 30
0.0
 11
141.3516166726
 21
62.8112662654
 31
0.0
  0
LINE
  5
287
330
23E
100
AcDbEntity
  8
0
  6
Continuous
 62
     7
100
AcDbLine
 10
126.4855928991
 20
48.54864027859999
 30
0.0
 11
128.0265967139
 21
50.0896440933
 31
0.0
  0
LINE
  5
288
330
23E
100
AcDbEntity
  8
0
  6
Continuous
 62
     7
100
AcDbLine
 10
134.190611973
 20
56.2536593524
 30
0.0
 11
135.217952804
 21
57.28100018340001
 31
0.0
  0
LINE
  5
289
330
23E
100
AcDbEntity
  8
0
  6
Continuous
 62
     7
100
AcDbLine
 10
140.1821471312
 20
62.2451945106
 30
0.0
 11
141.2611696187
 21
63.32421699810001
 31
0.0
  0
LINE
  5
28A
330
23E
100
AcDbEntity
  8
0
  6
Continuous
 62
     7
100
AcDbLine
 10
125.7530233327
 20
48.4194684987
 30
0.0
 11
127.2940271475
 21
49.96047231350001
 31
0.0
  0
LINE
  5
28B
330
23E
100
AcDbEntity
  8
0
  6
Continuous
 62
     7
100
AcDbLine
 10
133.4580424066
 20
56.12448757260001
 30
0.0
 11
134.485383028
 21
57.15182819399999
 31
0.0
  0
LINE
  5
28C
330
23E
100
AcDbEntity
  8
0
  6
Continuous
 62
     7
100
AcDbLine
 10
140.0917000772
 20
62.7581452433
 30
0.0
 11
141.1707225647
 21
63.83716773079999
 31
0.0
  0
LINE
  5
28D
330
23E
100
AcDbEntity
  8
0
  6
Continuous
 62
     7
100
AcDbLine
 10
125.0204537663
 20
48.2902967189
 30
0.0
 11
126.5614575811
 21
49.8313005337
 31
0.0
  0
LINE
  5
28E
330
23E
100
AcDbEntity
  8
0
  6
Continuous
 62
     7
100
AcDbLine
 10
132.7254728402
 20
55.9953157928
 30
0.0
 11
133.7528132519
 21
57.0226562046
 31
0.0
  0
LINE
  5
28F
330
23E
100
AcDbEntity
  8
0
  6
Continuous
 62
     7
100
AcDbLine
 10
139.9168239758
 20
63.1866669285
 30
0.0
 11
141.0802755108
 21
64.35011846340001
 31
0.0
  0
LINE
  5
290
330
23E
100
AcDbEntity
  8
0
  6
Continuous
 62
     7
100
AcDbLine
 10
124.2878841999
 20
48.1611249391
 30
0.0
 11
125.8288880147
 21
49.7021287539
 31
0.0
  0
LINE
  5
291
330
23E
100
AcDbEntity
  8
0
  6
Continuous
 62
     7
100
AcDbLine
 10
131.9929032737999
 20
55.866144013
 30
0.0
 11
133.0202434759
 21
56.8934842152
 31
0.0
  0
LINE
  5
292
330
23E
100
AcDbEntity
  8
0
  6
Continuous
 62
     7
100
AcDbLine
 10
139.1842544094
 20
63.0574951486
 30
0.0
 11
140.7252582242
 21
64.5984989634
 31
0.0
  0
LINE
  5
293
330
23E
100
AcDbEntity
  8
0
  6
Continuous
 62
     7
100
AcDbLine
 10
123.5553146335
 20
48.0319531593
 30
0.0
 11
125.0963184482
 21
49.5729569741
 31
0.0
  0
LINE
  5
294
330
23E
100
AcDbEntity
  8
0
  6
Continuous
 62
     7
100
AcDbLine
 10
131.2603337073
 20
55.73697223319999
 30
0.0
 11
132.2876736999
 21
56.76431222579999
 31
0.0
  0
LINE
  5
295
330
23E
100
AcDbEntity
  8
0
  6
Continuous
 62
     7
100
AcDbLine
 10
138.451684843
 20
62.9283233688
 30
0.0
 11
139.9926886577
 21
64.4693271836
 31
0.0
  0
LINE
  5
296
330
23E
100
AcDbEntity
  8
0
  6
Continuous
 62
     7
100
AcDbLine
 10
122.822745067
 20
47.90278137949999
 30
0.0
 11
124.3637488818
 21
49.4437851943
 31
0.0
  0
LINE
  5
297
330
23E
100
AcDbEntity
  8
0
  6
Continuous
 62
     7
100
AcDbLine
 10
130.5277641409
 20
55.6078004534
 30
0.0
 11
131.5551039239
 21
56.6351402363
 31
0.0
  0
LINE
  5
298
330
23E
100
AcDbEntity
  8
0
  6
Continuous
 62
     7
100
AcDbLine
 10
137.7191152765
 20
62.79915158899999
 30
0.0
 11
139.2601190913
 21
64.34015540379999
 31
0.0
  0
LINE
  5
299
330
23E
100
AcDbEntity
  8
0
  6
Continuous
 62
     7
100
AcDbLine
 10
122.0901755006
 20
47.7736095997
 30
0.0
 11
123.6311793154
 21
49.31461341449999
 31
0.0
  0
LINE
  5
29A
330
23E
100
AcDbEntity
  8
0
  6
Continuous
 62
     7
100
AcDbLine
 10
129.7951945745
 20
55.4786286736
 30
0.0
 11
130.8225341478
 21
56.5059682469
 31
0.0
  0
LINE
  5
29B
330
23E
100
AcDbEntity
  8
0
  6
Continuous
 62
     7
100
AcDbLine
 10
136.9865457101
 20
62.6699798092
 30
0.0
 11
138.5275495249
 21
64.21098362399999
 31
0.0
  0
LINE
  5
29C
330
23E
100
AcDbEntity
  8
0
  6
Continuous
 62
     7
100
AcDbLine
 10
121.3576059342
 20
47.64443781989999
 30
0.0
 11
122.898609749
 21
49.1854416347
 31
0.0
  0
LINE
  5
29D
330
23E
100
AcDbEntity
  8
0
  6
Continuous
 62
     7
100
AcDbLine
 10
129.0626250081
 20
55.3494568938
 30
0.0
 11
130.0899643718
 21
56.37679625749999
 31
0.0
  0
LINE
  5
29E
330
23E
100
AcDbEntity
  8
0
  6
Continuous
 62
     7
100
AcDbLine
 10
136.2539761437
 20
62.54080802939999
 30
0.0
 11
137.7949799585
 21
64.0818118442
 31
0.0
  0
LINE
  5
29F
330
23E
100
AcDbEntity
  8
0
  6
Continuous
 62
     7
100
AcDbLine
 10
120.6250363678
 20
47.5152660401
 30
0.0
 11
122.1660401826
 21
49.05626985489999
 31
0.0
  0
LINE
  5
2A0
330
23E
100
AcDbEntity
  8
0
  6
Continuous
 62
     7
100
AcDbLine
 10
128.3300554417
 20
55.220285114
 30
0.0
 11
129.3573945958
 21
56.24762426810001
 31
0.0
  0
LINE
  5
2A1
330
23E
100
AcDbEntity
  8
0
  6
Continuous
 62
     7
100
AcDbLine
 10
135.5214065773
 20
62.4116362496
 30
0.0
 11
137.0624103921
 21
63.95264006439999
 31
0.0
  0
LINE
  5
2A2
330
23E
100
AcDbEntity
  8
0
  6
Continuous
 62
     7
100
AcDbLine
 10
119.8924668014
 20
47.3860942603
 30
0.0
 11
121.4334706161
 21
48.92709807510001
 31
0.0
  0
LINE
  5
2A3
330
23E
100
AcDbEntity
  8
0
  6
Continuous
 62
     7
100
AcDbLine
 10
127.5974858753
 20
55.0911133342
 30
0.0
 11
128.6248248197
 21
56.11845227869999
 31
0.0
  0
LINE
  5
2A4
330
23E
100
AcDbEntity
  8
0
  6
Continuous
 62
     7
100
AcDbLine
 10
134.7888370109
 20
62.2824644698
 30
0.0
 11
136.3298408257
 21
63.8234682846
 31
0.0
  0
LINE
  5
2A5
330
23E
100
AcDbEntity
  8
0
  6
Continuous
 62
     7
100
AcDbLine
 10
119.1598972349
 20
47.2569224805
 30
0.0
 11
120.7009010497
 21
48.79792629529999
 31
0.0
  0
LINE
  5
2A6
330
23E
100
AcDbEntity
  8
0
  6
Continuous
 62
     7
100
AcDbLine
 10
126.8649163088
 20
54.9619415544
 30
0.0
 11
127.8922550437
 21
55.9892802893
 31
0.0
  0
LINE
  5
2A7
330
23E
100
AcDbEntity
  8
0
  6
Continuous
 62
     7
100
AcDbLine
 10
134.0562674445
 20
62.15329269
 30
0.0
 11
135.5972712592
 21
63.69429650479999
 31
0.0
  0
LINE
  5
2A8
330
23E
100
AcDbEntity
  8
0
  6
Continuous
 62
     7
100
AcDbLine
 10
118.4273276685
 20
47.1277507007
 30
0.0
 11
119.9683314833
 21
48.66875451550001
 31
0.0
  0
LINE
  5
2A9
330
23E
100
AcDbEntity
  8
0
  6
Continuous
 62
     7
100
AcDbLine
 10
126.1323467424
 20
54.8327697746
 30
0.0
 11
127.1596852677
 21
55.8601082998
 31
0.0
  0
LINE
  5
2AA
330
23E
100
AcDbEntity
  8
0
  6
Continuous
 62
     7
100
AcDbLine
 10
133.323697878
 20
62.02412091020001
 30
0.0
 11
134.8647016928
 21
63.565124725
 31
0.0
  0
LINE
  5
2AB
330
23E
100
AcDbEntity
  8
0
  6
Continuous
 62
     7
100
AcDbLine
 10
117.876006896
 20
47.1798277148
 30
0.0
 11
119.2357619169
 21
48.53958273569999
 31
0.0
  0
LINE
  5
2AC
330
23E
100
AcDbEntity
  8
0
  6
Continuous
 62
     7
100
AcDbLine
 10
125.399777176
 20
54.70359799479999
 30
0.0
 11
126.4271154917
 21
55.73093631039999
 31
0.0
  0
LINE
  5
2AD
330
23E
100
AcDbEntity
  8
0
  6
Continuous
 62
     7
100
AcDbLine
 10
132.5911283116
 20
61.8949491304
 30
0.0
 11
134.1321321264
 21
63.4359529452
 31
0.0
  0
LINE
  5
2AE
330
23E
100
AcDbEntity
  8
0
  6
Continuous
 62
     7
100
AcDbLine
 10
117.7855598421
 20
47.69277844749999
 30
0.0
 11
118.8645823296
 21
48.771800935
 31
0.0
  0
LINE
  5
2AF
330
23E
100
AcDbEntity
  8
0
  6
Continuous
 62
     7
100
AcDbLine
 10
124.6672076096
 20
54.574426215
 30
0.0
 11
125.6945457156
 21
55.601764321
 31
0.0
  0
LINE
  5
2B0
330
23E
100
AcDbEntity
  8
0
  6
Continuous
 62
     7
100
AcDbLine
 10
131.8585587452
 20
61.7657773506
 30
0.0
 11
133.39956256
 21
63.30678116539999
 31
0.0
  0
LINE
  5
2B1
330
23E
100
AcDbEntity
  8
0
  6
Continuous
 62
     7
100
AcDbLine
 10
117.6951127881
 20
48.2057291801
 30
0.0
 11
118.7741352756
 21
49.28475166760001
 31
0.0
  0
LINE
  5
2B2
330
23E
100
AcDbEntity
  8
0
  6
Continuous
 62
     7
100
AcDbLine
 10
123.9346380432
 20
54.4452544352
 30
0.0
 11
124.9619759396
 21
55.4725923316
 31
0.0
  0
LINE
  5
2B3
330
23E
100
AcDbEntity
  8
0
  6
Continuous
 62
     7
100
AcDbLine
 10
131.1259891788
 20
61.6366055708
 30
0.0
 11
132.6669929936
 21
63.17760938560001
 31
0.0
  0
LINE
  5
2B4
330
23E
100
AcDbEntity
  8
0
  6
Continuous
 62
     7
100
AcDbLine
 10
117.6046657342
 20
48.7186799128
 30
0.0
 11
118.6836882217
 21
49.79770240029999
 31
0.0
  0
LINE
  5
2B5
330
23E
100
AcDbEntity
  8
0
  6
Continuous
 62
     7
100
AcDbLine
 10
123.2020684767
 20
54.3160826554
 30
0.0
 11
124.2294061636
 21
55.3434203422
 31
0.0
  0
LINE
  5
2B6
330
23E
100
AcDbEntity
  8
0
  6
Continuous
 62
     7
100
AcDbLine
 10
130.3934196124
 20
61.507433791
 30
0.0
 11
131.9344234271
 21
63.04843760579999
 31
0.0
  0
LINE
  5
2B7
330
23E
100
AcDbEntity
  8
0
  6
Continuous
 62
     7
100
AcDbLine
 10
117.5142186802
 20
49.2316306455
 30
0.0
 11
118.5932411678
 21
50.310653133
 31
0.0
  0
LINE
  5
2B8
330
23E
100
AcDbEntity
  8
0
  6
Continuous
 62
     7
100
AcDbLine
 10
122.4694989103
 20
54.1869108756
 30
0.0
 11
123.4968363875
 21
55.2142483528
 31
0.0
  0
LINE
  5
2B9
330
23E
100
AcDbEntity
  8
0
  6
Continuous
 62
     7
100
AcDbLine
 10
129.660850046
 20
61.3782620112
 30
0.0
 11
131.2018538607
 21
62.91926582600001
 31
0.0
  0
LINE
  5
2BA
330
23E
100
AcDbEntity
  8
0
  6
Continuous
 62
     7
100
AcDbLine
 10
117.4237716263
 20
49.7445813781
 30
0.0
 11
118.5027941138
 21
50.82360386560001
 31
0.0
  0
LINE
  5
2BB
330
23E
100
AcDbEntity
  8
0
  6
Continuous
 62
     7
100
AcDbLine
 10
121.7369293439
 20
54.05773909569999
 30
0.0
 11
122.7642666115
 21
55.0850763634
 31
0.0
  0
LINE
  5
2BC
330
23E
100
AcDbEntity
  8
0
  6
Continuous
 62
     7
100
AcDbLine
 10
128.9282804795
 20
61.2490902314
 30
0.0
 11
130.4692842943
 21
62.7900940461
 31
0.0
  0
LINE
  5
2BD
330
23E
100
AcDbEntity
  8
0
  6
Continuous
 62
     7
100
AcDbLine
 10
117.3333245723
 20
50.2575321108
 30
0.0
 11
118.4123470599
 21
51.33655459829999
 31
0.0
  0
LINE
  5
2BE
330
23E
100
AcDbEntity
  8
0
  6
Continuous
 62
     7
100
AcDbLine
 10
121.0043597775
 20
53.92856731590001
 30
0.0
 11
122.0316968355
 21
54.9559043739
 31
0.0
  0
LINE
  5
2BF
330
23E
100
AcDbEntity
  8
0
  6
Continuous
 62
     7
100
AcDbLine
 10
128.1957109131
 20
61.1199184516
 30
0.0
 11
129.7367147279
 21
62.6609222663
 31
0.0
  0
LINE
  5
2C0
330
23E
100
AcDbEntity
  8
0
  6
Continuous
 62
     7
100
AcDbLine
 10
117.2428775184
 20
50.7704828435
 30
0.0
 11
118.3219000059
 21
51.849505331
 31
0.0
  0
LINE
  5
2C1
330
23E
100
AcDbEntity
  8
0
  6
Continuous
 62
     7
100
AcDbLine
 10
120.2717902111
 20
53.79939553609999
 30
0.0
 11
121.2991270595
 21
54.8267323845
 31
0.0
  0
LINE
  5
2C2
330
23E
100
AcDbEntity
  8
0
  6
Continuous
 62
     7
100
AcDbLine
 10
127.4631413467
 20
60.9907466718
 30
0.0
 11
129.0041451615
 21
62.5317504865
 31
0.0
  0
LINE
  5
2C3
330
23E
100
AcDbEntity
  8
0
  6
Continuous
 62
     7
100
AcDbLine
 10
117.1524304645
 20
51.28343357609999
 30
0.0
 11
118.231452952
 21
52.3624560637
 31
0.0
  0
LINE
  5
2C4
330
23E
100
AcDbEntity
  8
0
  6
Continuous
 62
     7
100
AcDbLine
 10
119.5392206447
 20
53.6702237563
 30
0.0
 11
120.5665572834
 21
54.6975603951
 31
0.0
  0
LINE
  5
2C5
330
23E
100
AcDbEntity
  8
0
  6
Continuous
 62
     7
100
AcDbLine
 10
126.7305717803
 20
60.861574892
 30
0.0
 11
128.2715755951
 21
62.40257870669999
 31
0.0
  0
LINE
  5
2C6
330
23E
100
AcDbEntity
  8
0
  6
Continuous
 62
     7
100
AcDbLine
 10
117.0619834105
 20
51.7963843088
 30
0.0
 11
118.141005898
 21
52.8754067963
 31
0.0
  0
LINE
  5
2C7
330
23E
100
AcDbEntity
  8
0
  6
Continuous
 62
     7
100
AcDbLine
 10
118.8066510782
 20
53.5410519765
 30
0.0
 11
119.8339875074
 21
54.5683884057
 31
0.0
  0
LINE
  5
2C8
330
23E
100
AcDbEntity
  8
0
  6
Continuous
 62
     7
100
AcDbLine
 10
125.9980022139
 20
60.73240311220001
 30
0.0
 11
127.5390060286
 21
62.27340692689999
 31
0.0
  0
LINE
  5
2C9
330
23E
100
AcDbEntity
  8
0
  6
Continuous
 62
     7
100
AcDbLine
 10
116.9715363566
 20
52.3093350415
 30
0.0
 11
118.0505588441
 21
53.38835752899999
 31
0.0
  0
LINE
  5
2CA
330
23E
100
AcDbEntity
  8
0
  6
Continuous
 62
     7
100
AcDbLine
 10
118.0740815118
 20
53.4118801967
 30
0.0
 11
119.1014177314
 21
54.4392164163
 31
0.0
  0
LINE
  5
2CB
330
23E
100
AcDbEntity
  8
0
  6
Continuous
 62
     7
100
AcDbLine
 10
125.2654326474
 20
60.60323133229999
 30
0.0
 11
126.8064364622
 21
62.14423514709999
 31
0.0
  0
LINE
  5
2CC
330
23E
100
AcDbEntity
  8
0
  6
Continuous
 62
     7
100
AcDbLine
 10
116.8810893026
 20
52.82228577409999
 30
0.0
 11
118.3688479553
 21
54.31004442689999
 31
0.0
  0
LINE
  5
2CD
330
23E
100
AcDbEntity
  8
0
  6
Continuous
 62
     7
100
AcDbLine
 10
124.532863081
 20
60.4740595525
 30
0.0
 11
126.0738668958
 21
62.01506336729999
 31
0.0
  0
LINE
  5
2CE
330
23E
100
AcDbEntity
  8
0
  6
Continuous
 62
     7
100
AcDbLine
 10
116.7906422487
 20
53.3352365068
 30
0.0
 11
117.8696647362
 21
54.41425899430001
 31
0.0
  0
LINE
  5
2CF
330
23E
100
AcDbEntity
  8
0
  6
Continuous
 62
     7
100
AcDbLine
 10
123.8002935146
 20
60.3448877727
 30
0.0
 11
125.3412973294
 21
61.8858915875
 31
0.0
  0
LINE
  5
2D0
330
23E
100
AcDbEntity
  8
0
  6
Continuous
 62
     7
100
AcDbLine
 10
116.7001951947
 20
53.8481872395
 30
0.0
 11
117.7792176823
 21
54.92720972699999
 31
0.0
  0
LINE
  5
2D1
330
23E
100
AcDbEntity
  8
0
  6
Continuous
 62
     7
100
AcDbLine
 10
123.0677239482
 20
60.2157159929
 30
0.0
 11
124.608727763
 21
61.7567198077
 31
0.0
  0
LINE
  5
2D2
330
23E
100
AcDbEntity
  8
0
  6
Continuous
 62
     7
100
AcDbLine
 10
116.6097481408
 20
54.3611379721
 30
0.0
 11
117.6887706283
 21
55.4401604597
 31
0.0
  0
LINE
  5
2D3
330
23E
100
AcDbEntity
  8
0
  6
Continuous
 62
     7
100
AcDbLine
 10
122.3351543818
 20
60.08654421310001
 30
0.0
 11
123.8761581966
 21
61.6275480279
 31
0.0
  0
LINE
  5
2D4
330
23E
100
AcDbEntity
  8
0
  6
Continuous
 62
     7
100
AcDbLine
 10
116.5193010869
 20
54.87408870479999
 30
0.0
 11
117.5983235744
 21
55.95311119229999
 31
0.0
  0
LINE
  5
2D5
330
23E
100
AcDbEntity
  8
0
  6
Continuous
 62
     7
100
AcDbLine
 10
121.6025848154
 20
59.9573724333
 30
0.0
 11
123.1435886301
 21
61.4983762481
 31
0.0
  0
LINE
  5
2D6
330
23E
100
AcDbEntity
  8
0
  6
Continuous
 62
     7
100
AcDbLine
 10
116.4288540329
 20
55.3870394375
 30
0.0
 11
117.5078765204
 21
56.466061925
 31
0.0
  0
LINE
  5
2D7
330
23E
100
AcDbEntity
  8
0
  6
Continuous
 62
     7
100
AcDbLine
 10
120.8700152489
 20
59.82820065350001
 30
0.0
 11
122.4110190637
 21
61.3692044683
 31
0.0
  0
LINE
  5
2D8
330
23E
100
AcDbEntity
  8
0
  6
Continuous
 62
     7
100
AcDbLine
 10
116.338406979
 20
55.89999017020001
 30
0.0
 11
117.4174294665
 21
56.9790126577
 31
0.0
  0
LINE
  5
2D9
330
23E
100
AcDbEntity
  8
0
  6
Continuous
 62
     7
100
AcDbLine
 10
120.1374456825
 20
59.6990288737
 30
0.0
 11
121.6784494973
 21
61.2400326885
 31
0.0
  0
LINE
  5
2DA
330
23E
100
AcDbEntity
  8
0
  6
Continuous
 62
     7
100
AcDbLine
 10
116.247959925
 20
56.41294090279999
 30
0.0
 11
117.3269824125
 21
57.4919633903
 31
0.0
  0
LINE
  5
2DB
330
23E
100
AcDbEntity
  8
0
  6
Continuous
 62
     7
100
AcDbLine
 10
119.4048761161
 20
59.5698570939
 30
0.0
 11
120.9458799309
 21
61.11086090869999
 31
0.0
  0
LINE
  5
2DC
330
23E
100
AcDbEntity
  8
0
  6
Continuous
 62
     7
100
AcDbLine
 10
116.1575128711
 20
56.9258916355
 30
0.0
 11
117.2365353586
 21
58.004914123
 31
0.0
  0
LINE
  5
2DD
330
23E
100
AcDbEntity
  8
0
  6
Continuous
 62
     7
100
AcDbLine
 10
118.6723065497
 20
59.4406853141
 30
0.0
 11
120.2133103645
 21
60.9816891289
 31
0.0
  0
LINE
  5
2DE
330
23E
100
AcDbEntity
  8
0
  6
Continuous
 62
     7
100
AcDbLine
 10
116.0670658171
 20
57.4388423682
 30
0.0
 11
117.1460883047
 21
58.51786485569999
 31
0.0
  0
LINE
  5
2DF
330
23E
100
AcDbEntity
  8
0
  6
Continuous
 62
     7
100
AcDbLine
 10
117.9397369833
 20
59.3115135343
 30
0.0
 11
119.480740798
 21
60.85251734909999
 31
0.0
  0
LINE
  5
2E0
330
23E
100
AcDbEntity
  8
0
  6
Continuous
 62
     7
100
AcDbLine
 10
115.9766187632
 20
57.95179310079999
 30
0.0
 11
117.0556412507
 21
59.0308155883
 31
0.0
  0
LINE
  5
2E1
330
23E
100
AcDbEntity
  8
0
  6
Continuous
 62
     7
100
AcDbLine
 10
117.2071674168
 20
59.1823417545
 30
0.0
 11
118.7481712316
 21
60.7233455693
 31
0.0
  0
LINE
  5
2E2
330
23E
100
AcDbEntity
  8
0
  6
Continuous
 62
     7
100
AcDbLine
 10
115.8861717092
 20
58.4647438335
 30
0.0
 11
118.0156016652
 21
60.5941737895
 31
0.0
  0
LINE
  5
2E3
330
23E
100
AcDbEntity
  8
0
  6
Continuous
 62
     7
100
AcDbLine
 10
115.7957246553
 20
58.9776945662
 30
0.0
 11
117.2830320988
 21
60.4650020097
 31
0.0
  0
LINE
  5
2E4
330
23E
100
AcDbEntity
  8
0
  6
Continuous
 62
     7
100
AcDbLine
 10
115.7052776014
 20
59.49064529880001
 30
0.0
 11
116.5504625324
 21
60.3358302298
 31
0.0
  0
LINE
  5
2E5
330
23E
100
AcDbEntity
  8
0
  6
Continuous
 62
     7
100
AcDbLine
 10
115.6148305474
 20
60.00359603149999
 30
0.0
 11
115.817892966
 21
60.20665844999999
 31
0.0
  0
ENDBLK
  5
2E6
330
23E
100
AcDbEntity
  8
0
  6
ByBlock
 62
     0
100
AcDbBlockEnd
  0
BLOCK
  5
2E7
330
23F
100
AcDbEntity
  8
0
  6
Continuous
 62
     7
100
AcDbBlockBegin
  2
SYMBOL_0_BL0
 70
     0
 10
160.6666666667
 20
55.33333333329999
 30
0.0
  3
SYMBOL_0_BL0
  1

  0
TEXT
  5
2E8
330
23F
100
AcDbEntity
  8
0
  6
Continuous
 62
     7
100
AcDbText
 10
144.4188815905
 20
63.10676672439999
 30
0.0
 40
0.5
  1
Infomations Techniques/Technical Infomations
  7
TEXTSTYLE_2
100
AcDbText
  0
TEXT
  5
2E9
330
23F
100
AcDbEntity
  8
0
  6
Continuous
 62
     7
100
AcDbText
 10
144.6666666667
 20
61.6666666667
 30
0.0
 40
0.6666666667
  1
NOMBRE DE JETS:     
  7
TEXTSTYLE_2
100
AcDbText
  0
TEXT
  5
2EA
330
23F
100
AcDbEntity
  8
0
  6
Continuous
 62
     7
100
AcDbText
 10
154.5111111111
 20
61.6666666667
 30
0.0
 40
0.6666666667
  1
38
  7
TEXTSTYLE_2
100
AcDbText
  0
TEXT
  5
2EB
330
23F
100
AcDbEntity
  8
0
  6
Continuous
 62
     7
100
AcDbText
 10
144.6666666667
 20
60.6666666667
 30
0.0
 40
0.6666666667
  1
 
  7
TEXTSTYLE_2
100
AcDbText
  0
TEXT
  5
2EC
330
23F
100
AcDbEntity
  8
0
  6
Continuous
 62
     7
100
AcDbText
 10
144.6666666667
 20
59.66666666670001
 30
0.0
 40
0.6666666667
  1
NIVEAU D'EAU              GALLONS(US)        LITRES        GALLONS(UK)
  7
TEXTSTYLE_2
100
AcDbText
  0
TEXT
  5
2ED
330
23F
100
AcDbEntity
  8
0
  6
Continuous
 62
     7
100
AcDbText
 10
144.6666666667
 20
58.6666666667
 30
0.0
 40
0.6666666667
  1
PLEIN
  7
TEXTSTYLE_2
100
AcDbText
  0
TEXT
  5
2EE
330
23F
100
AcDbEntity
  8
0
  6
Continuous
 62
     7
100
AcDbText
 10
144.6666666667
 20
57.6666666667
 30
0.0
 40
0.6666666667
  1
HAUT T.PLEIN
  7
TEXTSTYLE_2
100
AcDbText
  0
TEXT
  5
2EF
330
23F
100
AcDbEntity
  8
0
  6
Continuous
 62
     7
100
AcDbText
 10
144.6666666667
 20
56.6666666667
 30
0.0
 40
0.6666666667
  1
MILIEU T.PLEIN
  7
TEXTSTYLE_2
100
AcDbText
  0
TEXT
  5
2F0
330
23F
100
AcDbEntity
  8
0
  6
Continuous
 62
     7
100
AcDbText
 10
144.6666666667
 20
55.6666666667
 30
0.0
 40
0.6666666667
  1
BAS T.PLEIN
  7
TEXTSTYLE_2
100
AcDbText
  0
TEXT
  5
2F1
330
23F
100
AcDbEntity
  8
0
  6
Continuous
 62
     7
100
AcDbText
 10
144.6666666667
 20
54.66666666670001
 30
0.0
 40
0.6666666667
  1
3" EN BAS T.PLEIN
  7
TEXTSTYLE_2
100
AcDbText
  0
TEXT
  5
2F2
330
23F
100
AcDbEntity
  8
0
  6
Continuous
 62
     7
100
AcDbText
 10
144.6666666667
 20
53.6666666667
 30
0.0
 40
0.6666666667
  1
 
  7
TEXTSTYLE_2
100
AcDbText
  0
TEXT
  5
2F3
330
23F
100
AcDbEntity
  8
0
  6
Continuous
 62
     7
100
AcDbText
 10
144.4665051611
 20
53.1198797418
 30
0.0
 40
0.5
  1
Legende/Legend
  7
TEXTSTYLE_2
100
AcDbText
  0
TEXT
  5
2F4
330
23F
100
AcDbEntity
  8
0
  6
Continuous
 62
     7
100
AcDbText
 10
150.9953401051
 20
51.6086147641
 30
0.0
 40
0.6666666667
  1
ZONE DE ROBINETTERIE
  7
TEXTSTYLE_2
100
AcDbText
  0
TEXT
  5
2F5
330
23F
100
AcDbEntity
  8
0
  6
Continuous
 62
     7
100
AcDbText
 10
145.9156155382
 20
50.1133702497
 30
0.0
 40
0.6666666667
  1
L   :  SYSTEME LED       DC   :  DOUBLE DOSSIER CHAUFFANT
  7
TEXTSTYLE_2
100
AcDbText
  0
TEXT
  5
2F6
330
23F
100
AcDbEntity
  8
0
  6
Continuous
 62
     7
100
AcDbText
 10
145.9156155382
 20
48.7800369164
 30
0.0
 40
0.6666666667
  1
C   :  CONTROLE
  7
TEXTSTYLE_2
100
AcDbText
  0
TEXT
  5
2F7
330
23F
100
AcDbEntity
  8
0
  6
Continuous
 62
     7
100
AcDbText
 10
145.9156155382
 20
47.4467035831
 30
0.0
 40
0.6666666667
  1
T   :  MOTEUR
  7
TEXTSTYLE_2
100
AcDbText
  0
TEXT
  5
2F8
330
23F
100
AcDbEntity
  8
0
  6
Continuous
 62
     7
100
AcDbText
 10
157.499363366
 20
58.6666666667
 30
0.0
 40
0.6666666667
  1
82
  7
TEXTSTYLE_2
100
AcDbText
  0
TEXT
  5
2F9
330
23F
100
AcDbEntity
  8
0
  6
Continuous
 62
     7
100
AcDbText
 10
157.499363366
 20
57.6666666667
 30
0.0
 40
0.6666666667
  1
69
  7
TEXTSTYLE_2
100
AcDbText
  0
TEXT
  5
2FA
330
23F
100
AcDbEntity
  8
0
  6
Continuous
 62
     7
100
AcDbText
 10
157.499363366
 20
56.6666666667
 30
0.0
 40
0.6666666667
  1
63
  7
TEXTSTYLE_2
100
AcDbText
  0
TEXT
  5
2FB
330
23F
100
AcDbEntity
  8
0
  6
Continuous
 62
     7
100
AcDbText
 10
157.499363366
 20
55.6666666667
 30
0.0
 40
0.6666666667
  1
57
  7
TEXTSTYLE_2
100
AcDbText
  0
TEXT
  5
2FC
330
23F
100
AcDbEntity
  8
0
  6
Continuous
 62
     7
100
AcDbText
 10
157.499363366
 20
54.66666666670001
 30
0.0
 40
0.6666666667
  1
48
  7
TEXTSTYLE_2
100
AcDbText
  0
TEXT
  5
2FD
330
23F
100
AcDbEntity
  8
0
  6
Continuous
 62
     7
100
AcDbText
 10
164.4195693097
 20
58.68374606879999
 30
0.0
 40
0.6666666667
  1
309
  7
TEXTSTYLE_2
100
AcDbText
  0
TEXT
  5
2FE
330
23F
100
AcDbEntity
  8
0
  6
Continuous
 62
     7
100
AcDbText
 10
164.4195693097
 20
57.6837460688
 30
0.0
 40
0.6666666667
  1
262
  7
TEXTSTYLE_2
100
AcDbText
  0
TEXT
  5
2FF
330
23F
100
AcDbEntity
  8
0
  6
Continuous
 62
     7
100
AcDbText
 10
164.4195693097
 20
56.6837460688
 30
0.0
 40
0.6666666667
  1
238
  7
TEXTSTYLE_2
100
AcDbText
  0
TEXT
  5
300
330
23F
100
AcDbEntity
  8
0
  6
Continuous
 62
     7
100
AcDbText
 10
164.4195693097
 20
55.68374606879999
 30
0.0
 40
0.6666666667
  1
216
  7
TEXTSTYLE_2
100
AcDbText
  0
TEXT
  5
301
330
23F
100
AcDbEntity
  8
0
  6
Continuous
 62
     7
100
AcDbText
 10
164.4195693097
 20
54.6837460688
 30
0.0
 40
0.6666666667
  1
183
  7
TEXTSTYLE_2
100
AcDbText
  0
TEXT
  5
302
330
23F
100
AcDbEntity
  8
0
  6
Continuous
 62
     7
100
AcDbText
 10
171.3642082472
 20
58.6666666667
 30
0.0
 40
0.6666666667
  1
68
  7
TEXTSTYLE_2
100
AcDbText
  0
TEXT
  5
303
330
23F
100
AcDbEntity
  8
0
  6
Continuous
 62
     7
100
AcDbText
 10
171.3642082472
 20
57.6666666667
 30
0.0
 40
0.6666666667
  1
58
  7
TEXTSTYLE_2
100
AcDbText
  0
TEXT
  5
304
330
23F
100
AcDbEntity
  8
0
  6
Continuous
 62
     7
100
AcDbText
 10
171.3642082472
 20
56.6666666667
 30
0.0
 40
0.6666666667
  1
52
  7
TEXTSTYLE_2
100
AcDbText
  0
TEXT
  5
305
330
23F
100
AcDbEntity
  8
0
  6
Continuous
 62
     7
100
AcDbText
 10
171.3642082472
 20
55.6666666667
 30
0.0
 40
0.6666666667
  1
48
  7
TEXTSTYLE_2
100
AcDbText
  0
TEXT
  5
306
330
23F
100
AcDbEntity
  8
0
  6
Continuous
 62
     7
100
AcDbText
 10
171.3642082472
 20
54.66666666670001
 30
0.0
 40
0.6666666667
  1
40
  7
TEXTSTYLE_2
100
AcDbText
  0
LINE
  5
307
330
23F
100
AcDbEntity
  8
0
  6
Continuous
 62
     7
100
AcDbLine
 10
144.0
 20
64.0
 30
0.0
 11
144.0
 21
46.6666666667
 31
0.0
  0
LINE
  5
308
330
23F
100
AcDbEntity
  8
0
  6
Continuous
 62
     7
100
AcDbLine
 10
144.0
 20
64.0
 30
0.0
 11
177.3333333333
 21
64.0
 31
0.0
  0
LINE
  5
309
330
23F
100
AcDbEntity
  8
0
  6
Continuous
 62
     7
100
AcDbLine
 10
177.3333333333
 20
64.0
 30
0.0
 11
177.3333333333
 21
46.6666666667
 31
0.0
  0
LINE
  5
30A
330
23F
100
AcDbEntity
  8
0
  6
Continuous
 62
     7
100
AcDbLine
 10
144.0
 20
46.6666666667
 30
0.0
 11
177.3333333333
 21
46.6666666667
 31
0.0
  0
LINE
  5
30B
330
23F
100
AcDbEntity
  8
0
  6
Continuous
 62
     7
100
AcDbLine
 10
145.3333333333
 20
54.0
 30
0.0
 11
176.0
 21
54.0
 31
0.0
  0
LINE
  5
30C
330
23F
100
AcDbEntity
  8
0
  6
Continuous
 62
     7
100
AcDbLine
 10
145.3333333333
 20
61.0
 30
0.0
 11
176.0
 21
61.0
 31
0.0
  0
LINE
  5
30D
330
23F
100
AcDbEntity
  8
0
  6
Continuous
 62
     7
100
AcDbLine
 10
144.8089065593
 20
52.3781645044
 30
0.0
 11
144.4398858169
 21
52.009143762
 31
0.0
  0
LINE
  5
30E
330
23F
100
AcDbEntity
  8
0
  6
Continuous
 62
     7
100
AcDbLine
 10
145.4755732259
 20
52.3781645044
 30
0.0
 11
144.6775574355
 21
51.5801487139
 31
0.0
  0
LINE
  5
30F
330
23F
100
AcDbEntity
  8
0
  6
Continuous
 62
     7
100
AcDbLine
 10
146.1422398926
 20
52.3781645044
 30
0.0
 11
145.3442241022
 21
51.5801487139
 31
0.0
  0
LINE
  5
310
330
23F
100
AcDbEntity
  8
0
  6
Continuous
 62
     7
100
AcDbLine
 10
146.8089065593
 20
52.3781645044
 30
0.0
 11
146.0108907688
 21
51.5801487139
 31
0.0
  0
LINE
  5
311
330
23F
100
AcDbEntity
  8
0
  6
Continuous
 62
     7
100
AcDbLine
 10
147.4755732259
 20
52.3781645044
 30
0.0
 11
146.6775574355
 21
51.5801487139
 31
0.0
  0
LINE
  5
312
330
23F
100
AcDbEntity
  8
0
  6
Continuous
 62
     7
100
AcDbLine
 10
148.1422398926
 20
52.3781645044
 30
0.0
 11
147.3442241022
 21
51.5801487139
 31
0.0
  0
LINE
  5
313
330
23F
100
AcDbEntity
  8
0
  6
Continuous
 62
     7
100
AcDbLine
 10
148.8089065593
 20
52.3781645044
 30
0.0
 11
148.0108907688
 21
51.5801487139
 31
0.0
  0
LINE
  5
314
330
23F
100
AcDbEntity
  8
0
  6
Continuous
 62
     7
100
AcDbLine
 10
149.4755732259
 20
52.3781645044
 30
0.0
 11
148.6775574355
 21
51.5801487139
 31
0.0
  0
LINE
  5
315
330
23F
100
AcDbEntity
  8
0
  6
Continuous
 62
     7
100
AcDbLine
 10
150.1422398926
 20
52.3781645044
 30
0.0
 11
149.3442241022
 21
51.5801487139
 31
0.0
  0
LINE
  5
316
330
23F
100
AcDbEntity
  8
0
  6
Continuous
 62
     7
100
AcDbLine
 10
150.5857273268
 20
52.1549852718
 30
0.0
 11
150.0108907688
 21
51.5801487139
 31
0.0
  0
ELLIPSE
  5
317
330
23F
100
AcDbEntity
  8
0
  6
Continuous
 62
     7
100
AcDbEllipse
 10
146.1454024822
 20
50.43094770689999
 30
0.0
 11
1.0473539356
 21
0.0
 31
0.0
210
0.0
220
0.0
230
1.0
 40
0.4938647983
 41
0.0
 42
6.283185307179586
  0
ELLIPSE
  5
318
330
23F
100
AcDbEntity
  8
0
  6
Continuous
 62
     7
100
AcDbEllipse
 10
146.1454024822
 20
49.0976143736
 30
0.0
 11
1.0473539356
 21
0.0
 31
0.0
210
0.0
220
0.0
230
1.0
 40
0.4938647983
 41
0.0
 42
6.283185307179586
  0
ELLIPSE
  5
319
330
23F
100
AcDbEntity
  8
0
  6
Continuous
 62
     7
100
AcDbEllipse
 10
146.1454024822
 20
47.76428104029999
 30
0.0
 11
1.0473539356
 21
0.0
 31
0.0
210
0.0
220
0.0
230
1.0
 40
0.4938647983
 41
0.0
 42
6.283185307179586
  0
ELLIPSE
  5
31A
330
23F
100
AcDbEntity
  8
0
  6
Continuous
 62
     7
100
AcDbEllipse
 10
157.1640380633
 20
50.45046906399999
 30
0.0
 11
1.0473539356
 21
0.0
 31
0.0
210
0.0
220
0.0
230
1.0
 40
0.4938647983
 41
0.0
 42
6.283185307179586
  0
ENDBLK
  5
31B
330
23F
100
AcDbEntity
  8
0
  6
ByBlock
 62
     0
100
AcDbBlockEnd
  0
ENDSEC
  0
SECTION
  2
ENTITIES
  0
LINE
  5
59B
330
220
100
AcDbEntity
  8
DEFAULT_2
  6
HIDDEN
 62
     7
100
AcDbLine
 10
115.4878879235
 20
29.8424289429
 30
0.0
 11
128.7285788422
 21
30.3803013045
 31
0.0
  0
LINE
  5
5D5
330
220
100
AcDbEntity
  8
DEFAULT_2
  6
HIDDEN
 62
     7
100
AcDbLine
 10
112.2438654094
 20
29.3384651481
 30
0.0
 11
114.7867586282
 21
29.3384651481
 31
0.0
  0
LINE
  5
5F9
330
220
100
AcDbEntity
  8
DEFAULT_2
  6
HIDDEN
 62
     7
100
AcDbLine
 10
111.5526171987
 20
29.8478902414
 30
0.0
 11
111.2169187429
 21
29.883969787
 31
0.0
  0
LINE
  5
6E0
330
220
100
AcDbEntity
  8
DEFAULT_2
  6
HIDDEN
 62
     7
100
AcDbLine
 10
134.2382176099
 20
49.1803905017
 30
0.0
 11
137.2442920339
 21
49.3382501494
 31
0.0
  0
LINE
  5
6E2
330
220
100
AcDbEntity
  8
DEFAULT_2
  6
HIDDEN
 62
     7
100
AcDbLine
 10
105.7924064277
 20
49.1803905017
 30
0.0
 11
102.7863320037
 21
49.3382501494
 31
0.0
  0
LINE
  5
743
330
220
100
AcDbEntity
  8
DEFAULT_2
  6
HIDDEN
 62
     7
100
AcDbLine
 10
112.0670887141
 20
29.4116884528
 30
0.0
 11
111.7026787321
 21
29.7760984348
 31
0.0
  0
LWPOLYLINE
  5
870
330
220
100
AcDbEntity
  8
DEFAULT_2
  6
HIDDEN
 62
     7
100
AcDbPolyline
 90
        4
 70
     0
 43
0.0
 10
106.8058351355
 20
43.97060009039999
 10
106.7889812773
 20
44.165949816
 10
106.7694683487
 20
44.3972627946
 10
106.7480287618
 20
44.6556688251
  0
LWPOLYLINE
  5
871
330
220
100
AcDbEntity
  8
DEFAULT_2
  6
HIDDEN
 62
     7
100
AcDbPolyline
 90
       15
 70
     0
 43
0.0
 10
106.5552600974
 20
47.0228758664
 10
106.5398862415
 20
47.2063933872
 10
106.5258531681
 20
47.3714471346
 10
106.5136247193
 20
47.51266070919999
 10
106.5026090143
 20
47.6370132034
 10
106.4916008659
 20
47.7576192701
 10
106.4801383173
 20
47.87783236489999
 10
106.4741698273
 20
47.9377157017
 10
106.4679722889
 20
47.9975756329
 10
106.4615948105
 20
48.0564365992
 10
106.4548533162
 20
48.1152575923
 10
106.4479598639
 20
48.1714710658
 10
106.4404565247
 20
48.22760474529999
 10
106.4323207949
 20
48.28307136350001
 10
106.4236964591
 20
48.33846514810001
  0
LWPOLYLINE
  5
872
330
220
100
AcDbEntity
  8
DEFAULT_2
  6
HIDDEN
 62
     7
100
AcDbPolyline
 90
       27
 70
     0
 43
0.0
 10
106.7365710173
 20
44.8156905693
 10
106.7323469293
 20
44.8740926588
 10
106.7274916269
 20
44.94081263899999
 10
106.7220498353
 20
45.0150626327
 10
106.7160538103
 20
45.0962180056
 10
106.7095437086
 20
45.18354410999999
 10
106.7025553405
 20
45.2763687045
 10
106.6951300806
 20
45.3739549284
 10
106.6873250556
 20
45.4753785606
 10
106.679187172
 20
45.57987607229999
 10
106.6707965912
 20
45.6862925085
 10
106.6621953116
 20
45.79399930100001
 10
106.6534640696
 20
45.90192062899999
 10
106.6446441341
 20
46.0095125893
 10
106.635826757
 20
46.1156610125
 10
106.6270664974
 20
46.2197425417
 10
106.6184701484
 20
46.3205576929
 10
106.6101058607
 20
46.4174123822
 10
106.6020702453
 20
46.50932230229999
 10
106.5944327561
 20
46.5956527951
 10
106.5872712319
 20
46.6757007751
 10
106.5806619237
 20
46.74880453340001
 10
106.574695917
 20
46.8141579183
 10
106.569462803
 20
46.87098694329999
 10
106.5650278782
 20
46.91878455989999
 10
106.5614427614
 20
46.9571789638
 10
106.5552600974
 20
47.0228758664
  0
LWPOLYLINE
  5
873
330
220
100
AcDbEntity
  8
DEFAULT_2
  6
HIDDEN
 62
     7
100
AcDbPolyline
 90
        4
 70
     0
 43
0.0
 10
106.7480287618
 20
44.6556688251
 10
106.7477236943
 20
44.6599587321
 10
106.746798959
 20
44.6729531544
 10
106.7365710173
 20
44.8156905693
  0
LWPOLYLINE
  5
8D9
330
220
100
AcDbEntity
  8
DEFAULT_2
  6
HIDDEN
 62
     7
100
AcDbPolyline
 90
       51
 70
     0
 43
0.0
 10
107.2090375548
 20
43.3800166156
 10
107.2069978497
 20
43.3912802867
 10
107.204468988
 20
43.40245002069999
 10
107.2014656645
 20
43.41350307459999
 10
107.1977353886
 20
43.4252058097
 10
107.19350499
 20
43.4367362125
 10
107.1888033061
 20
43.44808235649999
 10
107.1844980446
 20
43.4574903601
 10
107.1798978673
 20
43.46675819439999
 10
107.1750218856
 20
43.47588493249999
 10
107.169889211
 20
43.4848696476
 10
107.1637214483
 20
43.494982153
 10
107.1572669013
 20
43.5049137156
 10
107.1505502175
 20
43.51467077729999
 10
107.1435960446
 20
43.52425978
 10
107.1354353348
 20
43.53496087879999
 10
107.1270264036
 20
43.54546739049999
 10
107.1183958533
 20
43.5557934102
 10
107.1095702866
 20
43.56595303279999
 10
107.09604889
 20
43.5808803226
 10
107.0822122151
 20
43.59551532829999
 10
107.0681223163
 20
43.6099069997
 10
107.0522458551
 20
43.62566725989999
 10
107.0361968637
 20
43.6412511951
 10
107.0200387019
 20
43.65672233749999
 10
106.994661464
 20
43.6808776206
 10
106.9693996768
 20
43.70515353899999
 10
106.9542459877
 20
43.7200256697
 10
106.9392814692
 20
43.7350877972
 10
106.9245692375
 20
43.75039694789999
 10
106.9118722855
 20
43.76413229949999
 10
106.899481848
 20
43.7781443956
 10
106.8874597204
 20
43.7924740701
 10
106.879722391
 20
43.80217100439999
 10
106.8721999442
 20
43.8120357834
 10
106.8649181407
 20
43.82207865389999
 10
106.8579027411
 20
43.8323098627
 10
106.8519911432
 20
43.841444256
 10
106.8463265059
 20
43.85073404399999
 10
106.8409311155
 20
43.86018190949999
 10
106.8358272581
 20
43.8697905352
 10
106.831609202
 20
43.87835007249999
 10
106.8276482351
 20
43.8870317271
 10
106.8239601217
 20
43.89583193009999
 10
106.8205606266
 20
43.90474711209999
 10
106.8168588364
 20
43.9156681583
 10
106.8136229134
 20
43.92673651119999
 10
106.8108741641
 20
43.9379367597
 10
106.8087198227
 20
43.94875044379999
 10
106.8070376369
 20
43.9596463072
 10
106.8058351354
 20
43.97060009109999
  0
LINE
  5
8DA
330
220
100
AcDbEntity
  8
DEFAULT_2
  6
HIDDEN
 62
     7
100
AcDbLine
 10
109.0148495108
 20
31.9785686431
 30
0.0
 11
107.2090375548
 21
43.3800166156
 31
0.0
  0
LINE
  5
8DB
330
220
100
AcDbEntity
  8
DEFAULT_2
  6
HIDDEN
 62
     7
100
AcDbLine
 10
106.4236964591
 20
48.33846514810001
 30
0.0
 11
106.3716011791
 21
48.6673818016
 31
0.0
  0
LINE
  5
9CA
330
220
100
AcDbEntity
  8
DEFAULT_2
  6
HIDDEN
 62
     7
100
AcDbLine
 10
114.9635353235
 20
29.4116884528
 30
0.0
 11
115.3212585293
 21
29.7694116585
 31
0.0
  0
LINE
  5
A44
330
220
100
AcDbEntity
  8
DEFAULT_2
  6
HIDDEN
 62
     7
100
AcDbLine
 10
131.0963266826
 20
32.4871549386
 30
0.0
 11
133.6590228586
 21
48.6673818016
 31
0.0
  0
LWPOLYLINE
  5
17D4
330
220
100
AcDbEntity
  8
0
  6
Continuous
 62
     7
100
AcDbPolyline
 90
        6
 70
     0
 43
0.0
 10
107.7532574758
 20
22.6817095464
 10
107.7535740657
 20
22.6814497794
 10
107.7540124618
 20
22.6811741291
 10
107.7545270057
 20
22.6809204923
 10
107.7551179979
 20
22.680689121
 10
107.7557861376
 20
22.6804798449
  0
LINE
  5
17D5
330
220
100
AcDbEntity
  8
0
  6
Continuous
 62
     7
100
AcDbLine
 10
107.7529677442
 20
22.6820111036
 30
0.0
 11
107.7532574758
 21
22.6817095464
 31
0.0
  0
LINE
  5
17D6
330
220
100
AcDbEntity
  8
0
  6
Continuous
 62
     7
100
AcDbLine
 10
107.7529245687
 20
22.6820665632
 30
0.0
 11
107.7529677307
 21
22.6820111204
 31
0.0
  0
LWPOLYLINE
  5
17D7
330
220
100
AcDbEntity
  8
0
  6
Continuous
 62
     7
100
AcDbPolyline
 90
        7
 70
     0
 43
0.0
 10
107.5528049956
 20
22.9388102385
 10
107.5770871134
 20
22.9066452451
 10
107.6110956118
 20
22.8621734294
 10
107.6471328538
 20
22.8156771923
 10
107.6851738135
 20
22.7671888602
 10
107.72517354
 20
22.716760745
 10
107.7529677101
 20
22.682011148
  0
LINE
  5
17D8
330
220
100
AcDbEntity
  8
0
  6
Continuous
 62
     7
100
AcDbLine
 10
107.5287429423
 20
22.971079771
 30
0.0
 11
107.5528052347
 21
22.9388099199
 31
0.0
  0
LINE
  5
17D9
330
220
100
AcDbEntity
  8
0
  6
Continuous
 62
     7
100
AcDbLine
 10
107.4950707179
 20
23.0170220401
 30
0.0
 11
107.5287429423
 21
22.971079771
 31
0.0
  0
LWPOLYLINE
  5
17DA
330
220
100
AcDbEntity
  8
0
  6
Continuous
 62
     7
100
AcDbPolyline
 90
        5
 70
     0
 43
0.0
 10
107.3869775175
 20
23.1735962787
 10
107.4058078587
 20
23.1449801372
 10
107.4335599738
 20
23.1040045797
 10
107.4633248866
 20
23.0613449839
 10
107.4950707179
 20
23.0170220401
  0
LINE
  5
17DB
330
220
100
AcDbEntity
  8
0
  6
Continuous
 62
     7
100
AcDbLine
 10
107.3590544222
 20
23.2175874641
 30
0.0
 11
107.3869726308
 21
23.1736038043
 31
0.0
  0
LINE
  5
17DC
330
220
100
AcDbEntity
  8
0
  6
Continuous
 62
     7
100
AcDbLine
 10
102.093868035
 20
48.73636452159999
 30
0.0
 11
102.0153120188
 21
47.8384651481
 31
0.0
  0
LINE
  5
17DD
330
220
100
AcDbEntity
  8
0
  6
Continuous
 62
     7
100
AcDbLine
 10
132.1561347869
 20
22.59950526
 30
0.0
 11
132.1198112181
 21
22.5912405855
 31
0.0
  0
LWPOLYLINE
  5
17DE
330
220
100
AcDbEntity
  8
0
  6
Continuous
 62
     7
100
AcDbPolyline
 90
        5
 70
     0
 43
0.0
 10
107.2303108956
 20
23.4800644732
 10
107.2529745697
 20
23.4190924049
 10
107.2828231868
 20
23.3534693622
 10
107.3184615767
 20
23.286155361
 10
107.3590544222
 20
23.2175874641
  0
LINE
  5
17DF
330
220
100
AcDbEntity
  8
0
  6
Continuous
 62
     7
100
AcDbLine
 10
132.1198112181
 20
22.5912405855
 30
0.0
 11
132.082662826
 21
22.5884651481
 31
0.0
  0
LINE
  5
17E0
330
220
100
AcDbEntity
  8
0
  6
Continuous
 62
     7
100
AcDbLine
 10
107.9479774664
 20
22.5884651481
 30
0.0
 11
108.4793623221
 21
22.5884651481
 31
0.0
  0
LINE
  5
17E1
330
220
100
AcDbEntity
  8
0
  6
Continuous
 62
     7
100
AcDbLine
 10
131.5512063748
 20
22.5884651481
 30
0.0
 11
132.0826640765
 21
22.5884651481
 31
0.0
  0
LINE
  5
17E2
330
220
100
AcDbEntity
  8
0
  6
Continuous
 62
     7
100
AcDbLine
 10
109.443589889
 20
27.100563871
 30
0.0
 11
109.5722572145
 21
26.9532026999
 31
0.0
  0
LWPOLYLINE
  5
17E3
330
220
100
AcDbEntity
  8
0
  6
Continuous
 62
     7
100
AcDbPolyline
 90
        9
 70
     0
 43
0.0
 10
109.5722572145
 20
26.9532026999
 10
109.6077727716
 20
26.9121245699
 10
109.6250924076
 20
26.8918560333
 10
109.6420381359
 20
26.871813942
 10
109.6585656978
 20
26.8520121223
 10
109.674564153
 20
26.8325450707
 10
109.6900162815
 20
26.8133946085
 10
109.7046089801
 20
26.7949171171
 10
109.7181895145
 20
26.7772909714
  0
LINE
  5
17E4
330
220
100
AcDbEntity
  8
0
  6
Continuous
 62
     7
100
AcDbLine
 10
109.4054854431
 20
27.1447382792
 30
0.0
 11
109.443589889
 21
27.100563871
 31
0.0
  0
LWPOLYLINE
  5
17E5
330
220
100
AcDbEntity
  8
0
  6
Continuous
 62
     7
100
AcDbPolyline
 90
        5
 70
     0
 43
0.0
 10
107.3828999879
 20
23.182156761
 10
107.383502872
 20
23.1803348468
 10
107.3842762078
 20
23.1784688586
 10
107.3852212344
 20
23.1765598588
 10
107.3863392735
 20
23.1746087656
  0
LWPOLYLINE
  5
17E6
330
220
100
AcDbEntity
  8
0
  6
Continuous
 62
     7
100
AcDbPolyline
 90
        7
 70
     0
 43
0.0
 10
107.5497469081
 20
22.9453187875
 10
107.5499777336
 20
22.9442263926
 10
107.5503454942
 20
22.9431001657
 10
107.5508521699
 20
22.941940496
 10
107.5514997429
 20
22.9407477888
 10
107.552290195
 20
22.9395224793
 10
107.5528049956
 20
22.9388102385
  0
LINE
  5
17E7
330
220
100
AcDbEntity
  8
0
  6
Continuous
 62
     7
100
AcDbLine
 10
106.8566819715
 20
32.36916047360001
 30
0.0
 11
106.8735330446
 21
32.213236681
 31
0.0
  0
LINE
  5
17E8
330
220
100
AcDbEntity
  8
0
  6
Continuous
 62
     7
100
AcDbLine
 10
106.8735330446
 20
32.213236681
 30
0.0
 11
106.8882543176
 21
32.0726380487
 31
0.0
  0
LINE
  5
17E9
330
220
100
AcDbEntity
  8
0
  6
Continuous
 62
     7
100
AcDbLine
 10
106.8882543176
 20
32.0726380487
 30
0.0
 11
106.9010325444
 21
31.9467177698
 31
0.0
  0
LINE
  5
17EA
330
220
100
AcDbEntity
  8
0
  6
Continuous
 62
     7
100
AcDbLine
 10
106.9010325444
 20
31.9467177698
 30
0.0
 11
106.9119935309
 21
31.835314566
 31
0.0
  0
LINE
  5
17EB
330
220
100
AcDbEntity
  8
0
  6
Continuous
 62
     7
100
AcDbLine
 10
106.9119935309
 20
31.835314566
 30
0.0
 11
106.921033854
 21
31.7406422017
 31
0.0
  0
LINE
  5
17EC
330
220
100
AcDbEntity
  8
0
  6
Continuous
 62
     7
100
AcDbLine
 10
106.921033854
 20
31.7406422017
 30
0.0
 11
106.9281575301
 21
31.6639199639
 31
0.0
  0
LWPOLYLINE
  5
17ED
330
220
100
AcDbEntity
  8
0
  6
Continuous
 62
     7
100
AcDbPolyline
 90
        5
 70
     0
 43
0.0
 10
131.5512234502
 20
22.5884651481
 10
131.5456306754
 20
22.5892650331
 10
131.5401171401
 20
22.5916982356
 10
131.5347056003
 20
22.5958070084
 10
131.5294190381
 20
22.6016218887
  0
LINE
  5
17EE
330
220
100
AcDbEntity
  8
0
  6
Continuous
 62
     7
100
AcDbLine
 10
108.4688187111
 20
28.9384373564
 30
0.0
 11
108.4540868827
 21
28.9464728343
 31
0.0
  0
LINE
  5
17EF
330
220
100
AcDbEntity
  8
0
  6
Continuous
 62
     7
100
AcDbLine
 10
108.4596324336
 20
28.9434301749
 30
0.0
 11
108.4425381489
 21
28.9528584712
 31
0.0
  0
LINE
  5
17F0
330
220
100
AcDbEntity
  8
0
  6
Continuous
 62
     7
100
AcDbLine
 10
108.4266855411
 20
28.9617352964
 30
0.0
 11
108.4470497839
 21
28.95035501300001
 31
0.0
  0
LINE
  5
17F1
330
220
100
AcDbEntity
  8
0
  6
Continuous
 62
     7
100
AcDbLine
 10
108.4324509485
 20
28.9584922552
 30
0.0
 11
108.4165853234
 21
28.9674603905
 31
0.0
  0
LINE
  5
17F2
330
220
100
AcDbEntity
  8
0
  6
Continuous
 62
     7
100
AcDbLine
 10
108.4188224925
 20
28.9661871719
 30
0.0
 11
108.4012619535
 21
28.9762474648
 31
0.0
  0
LINE
  5
17F3
330
220
100
AcDbEntity
  8
0
  6
Continuous
 62
     7
100
AcDbLine
 10
108.4012619535
 20
28.9762474648
 30
0.0
 11
108.4006686552
 21
28.9765901468
 31
0.0
  0
LWPOLYLINE
  5
17F4
330
220
100
AcDbEntity
  8
0
  6
Continuous
 62
     7
100
AcDbPolyline
 90
        9
 70
     0
 43
0.0
 10
108.8585155319
 20
29.5870182711
 10
109.0792373496
 20
29.4251576167
 10
109.3062453829
 20
29.2706652027
 10
109.5388905918
 20
29.123806027
 10
109.7766378086
 20
28.9847645857
 10
110.0189493299
 20
28.8537293146
 10
110.2652107582
 20
28.7309057019
 10
110.5148459804
 20
28.6164676631
 10
110.7672276695
 20
28.5105830057
  0
LWPOLYLINE
  5
17F5
330
220
100
AcDbEntity
  8
0
  6
Continuous
 62
     7
100
AcDbPolyline
 90
        7
 70
     0
 43
0.0
 10
108.7569027322
 20
29.5846162867
 10
108.7344861319
 20
29.6016919783
 10
108.712488604
 20
29.6191872929
 10
108.6909408457
 20
29.63708668780001
 10
108.6698494133
 20
29.6553951643
 10
108.6492233952
 20
29.6741183957
 10
108.6290971805
 20
29.6932406473
  0
LWPOLYLINE
  5
17F6
330
220
100
AcDbEntity
  8
0
  6
Continuous
 62
     7
100
AcDbPolyline
 90
        9
 70
     0
 43
0.0
 10
108.6290971805
 20
29.6932406473
 10
108.5907470889
 20
29.7290794899
 10
108.5552354298
 20
29.7594438518
 10
108.5226036952
 20
29.7845665253
 10
108.4929781286
 20
29.8046113021
 10
108.466449676
 20
29.8197813346
 10
108.4430450765
 20
29.8303213772
 10
108.4227979383
 20
29.8364681522
 10
108.4057074375
 20
29.8384651481
  0
LWPOLYLINE
  5
17F7
330
220
100
AcDbEntity
  8
0
  6
Continuous
 62
     7
100
AcDbPolyline
 90
        7
 70
     0
 43
0.0
 10
108.7512344591
 20
29.6944863662
 10
108.7681793007
 20
29.6754690671
 10
108.7855467005
 20
29.6568713706
 10
108.8033183746
 20
29.6386932257
 10
108.8214367966
 20
29.620974037
 10
108.839842133
 20
29.60375040340001
 10
108.8585155319
 20
29.5870182711
  0
LINE
  5
17F8
330
220
100
AcDbEntity
  8
0
  6
Continuous
 62
     7
100
AcDbLine
 10
109.7181895145
 20
26.7772909714
 30
0.0
 11
109.7303637912
 21
26.7610417558
 31
0.0
  0
LINE
  5
17F9
330
220
100
AcDbEntity
  8
0
  6
Continuous
 62
     7
100
AcDbLine
 10
109.7303637912
 20
26.7610417558
 30
0.0
 11
109.7407814409
 21
26.7467030684
 31
0.0
  0
LINE
  5
17FA
330
220
100
AcDbEntity
  8
0
  6
Continuous
 62
     7
100
AcDbLine
 10
109.7407814409
 20
26.7467030684
 30
0.0
 11
109.7460020779
 21
26.7392766713
 31
0.0
  0
LWPOLYLINE
  5
17FB
330
220
100
AcDbEntity
  8
0
  6
Continuous
 62
     7
100
AcDbPolyline
 90
        6
 70
     0
 43
0.0
 10
109.0175474183
 20
27.6542399698
 10
109.0977460379
 20
27.5366061562
 10
109.1776442979
 20
27.4268676361
 10
109.2574537886
 20
27.3235935064
 10
109.3372745769
 20
27.2254500281
 10
109.4054030024
 20
27.1448344409
  0
LINE
  5
17FC
330
220
100
AcDbEntity
  8
0
  6
Continuous
 62
     7
100
AcDbLine
 10
108.9522381394
 20
27.7561154732
 30
0.0
 11
109.0175474183
 21
27.6542399698
 31
0.0
  0
LINE
  5
17FD
330
220
100
AcDbEntity
  8
0
  6
Continuous
 62
     7
100
AcDbLine
 10
108.895193304
 20
27.8509692729
 30
0.0
 11
108.9543538519
 21
27.7527258371
 31
0.0
  0
LINE
  5
17FE
330
220
100
AcDbEntity
  8
0
  6
Continuous
 62
     7
100
AcDbLine
 10
108.7974806746
 20
28.0308848687
 30
0.0
 11
108.895193304
 21
27.8509692729
 31
0.0
  0
LINE
  5
17FF
330
220
100
AcDbEntity
  8
0
  6
Continuous
 62
     7
100
AcDbLine
 10
109.7211191362
 20
26.8070655418
 30
0.0
 11
109.7312329368
 21
26.7838300186
 31
0.0
  0
LINE
  5
1800
330
220
100
AcDbEntity
  8
0
  6
Continuous
 62
     7
100
AcDbLine
 10
109.7312044189
 20
26.7838176055
 30
0.0
 11
109.7333160433
 21
26.7785371075
 31
0.0
  0
LINE
  5
1801
330
220
100
AcDbEntity
  8
0
  6
Continuous
 62
     7
100
AcDbLine
 10
109.7333160433
 20
26.7785371075
 30
0.0
 11
109.7400739156
 21
26.7596771735
 31
0.0
  0
LWPOLYLINE
  5
1802
330
220
100
AcDbEntity
  8
0
  6
Continuous
 62
     7
100
AcDbPolyline
 90
        5
 70
     0
 43
0.0
 10
108.5162703819
 20
28.7515259033
 10
108.5495296493
 20
28.6401697758
 10
108.6222148783
 20
28.42941333
 10
108.7055967685
 20
28.2249153945
 10
108.7974806746
 20
28.0308848687
  0
LINE
  5
1803
330
220
100
AcDbEntity
  8
0
  6
Continuous
 62
     7
100
AcDbLine
 10
108.4874841277
 20
28.8584939104
 30
0.0
 11
108.5142507432
 21
28.7586866548
 31
0.0
  0
LINE
  5
1804
330
220
100
AcDbEntity
  8
0
  6
Continuous
 62
     7
100
AcDbLine
 10
106.0370620975
 20
37.4812590383
 30
0.0
 11
106.0781202311
 21
37.2667614406
 31
0.0
  0
LINE
  5
1805
330
220
100
AcDbEntity
  8
0
  6
Continuous
 62
     7
100
AcDbLine
 10
106.0781202311
 20
37.2667614406
 30
0.0
 11
106.1175322024
 21
37.0575073672
 31
0.0
  0
LINE
  5
1806
330
220
100
AcDbEntity
  8
0
  6
Continuous
 62
     7
100
AcDbLine
 10
106.1175322024
 20
37.0575073672
 30
0.0
 11
106.1553530662
 21
36.8535297654
 31
0.0
  0
LINE
  5
1807
330
220
100
AcDbEntity
  8
0
  6
Continuous
 62
     7
100
AcDbLine
 10
106.1553530662
 20
36.8535297654
 30
0.0
 11
106.1915879388
 21
36.6550682263
 31
0.0
  0
LINE
  5
1808
330
220
100
AcDbEntity
  8
0
  6
Continuous
 62
     7
100
AcDbLine
 10
106.1915879388
 20
36.6550682263
 30
0.0
 11
106.2262489795
 21
36.4622769954
 31
0.0
  0
LINE
  5
1809
330
220
100
AcDbEntity
  8
0
  6
Continuous
 62
     7
100
AcDbLine
 10
106.2262489795
 20
36.4622769954
 30
0.0
 11
106.2594348669
 21
36.2748236703
 31
0.0
  0
LINE
  5
180A
330
220
100
AcDbEntity
  8
0
  6
Continuous
 62
     7
100
AcDbLine
 10
106.2594348669
 20
36.2748236703
 30
0.0
 11
106.2912730737
 21
36.09223283369999
 31
0.0
  0
LINE
  5
180B
330
220
100
AcDbEntity
  8
0
  6
Continuous
 62
     7
100
AcDbLine
 10
106.2912730737
 20
36.09223283369999
 30
0.0
 11
106.3218302076
 21
35.9143699368
 31
0.0
  0
LINE
  5
180C
330
220
100
AcDbEntity
  8
0
  6
Continuous
 62
     7
100
AcDbLine
 10
106.3218302076
 20
35.9143699368
 30
0.0
 11
106.3511112839
 21
35.7414411707
 31
0.0
  0
LINE
  5
180D
330
220
100
AcDbEntity
  8
0
  6
Continuous
 62
     7
100
AcDbLine
 10
106.3511112839
 20
35.7414411707
 30
0.0
 11
106.3791153821
 21
35.5736677262
 31
0.0
  0
LINE
  5
180E
330
220
100
AcDbEntity
  8
0
  6
Continuous
 62
     7
100
AcDbLine
 10
106.3791153821
 20
35.5736677262
 30
0.0
 11
106.4058655743
 21
35.41112339650001
 31
0.0
  0
LINE
  5
180F
330
220
100
AcDbEntity
  8
0
  6
Continuous
 62
     7
100
AcDbLine
 10
106.4058655743
 20
35.41112339650001
 30
0.0
 11
106.43140128
 21
35.2537813368
 31
0.0
  0
LINE
  5
1810
330
220
100
AcDbEntity
  8
0
  6
Continuous
 62
     7
100
AcDbLine
 10
106.43140128
 20
35.2537813368
 30
0.0
 11
106.4557658132
 21
35.1015904347
 31
0.0
  0
LINE
  5
1811
330
220
100
AcDbEntity
  8
0
  6
Continuous
 62
     7
100
AcDbLine
 10
106.4557658132
 20
35.1015904347
 30
0.0
 11
106.4789858614
 21
34.9545967668
 31
0.0
  0
LINE
  5
1812
330
220
100
AcDbEntity
  8
0
  6
Continuous
 62
     7
100
AcDbLine
 10
106.4789858614
 20
34.9545967668
 30
0.0
 11
106.5010698281
 21
34.8129509712
 31
0.0
  0
LINE
  5
1813
330
220
100
AcDbEntity
  8
0
  6
Continuous
 62
     7
100
AcDbLine
 10
106.5010698281
 20
34.8129509712
 30
0.0
 11
106.5220213974
 21
34.6768236833
 31
0.0
  0
LINE
  5
1814
330
220
100
AcDbEntity
  8
0
  6
Continuous
 62
     7
100
AcDbLine
 10
106.5220213974
 20
34.6768236833
 30
0.0
 11
106.541852215
 21
34.5463369905
 31
0.0
  0
LINE
  5
1815
330
220
100
AcDbEntity
  8
0
  6
Continuous
 62
     7
100
AcDbLine
 10
106.541852215
 20
34.5463369905
 30
0.0
 11
106.5695521352
 21
34.3612598131
 31
0.0
  0
LINE
  5
1816
330
220
100
AcDbEntity
  8
0
  6
Continuous
 62
     7
100
AcDbLine
 10
106.5695521352
 20
34.3612598131
 30
0.0
 11
106.5949090534
 21
34.1888140372
 31
0.0
  0
LINE
  5
1817
330
220
100
AcDbEntity
  8
0
  6
Continuous
 62
     7
100
AcDbLine
 10
106.5949090534
 20
34.1888140372
 30
0.0
 11
106.6179932965
 21
34.02914754840001
 31
0.0
  0
LINE
  5
1818
330
220
100
AcDbEntity
  8
0
  6
Continuous
 62
     7
100
AcDbLine
 10
106.6179932965
 20
34.02914754840001
 30
0.0
 11
106.6389615933
 21
33.8817149527
 31
0.0
  0
LINE
  5
1819
330
220
100
AcDbEntity
  8
0
  6
Continuous
 62
     7
100
AcDbLine
 10
106.6389615933
 20
33.8817149527
 30
0.0
 11
106.6579539533
 21
33.74603038
 31
0.0
  0
LINE
  5
181A
330
220
100
AcDbEntity
  8
0
  6
Continuous
 62
     7
100
AcDbLine
 10
106.6579539533
 20
33.74603038
 30
0.0
 11
106.6803698955
 21
33.5829749817
 31
0.0
  0
LINE
  5
181B
330
220
100
AcDbEntity
  8
0
  6
Continuous
 62
     7
100
AcDbLine
 10
106.6803698955
 20
33.5829749817
 30
0.0
 11
106.6994487734
 21
33.4413969089
 31
0.0
  0
LINE
  5
181C
330
220
100
AcDbEntity
  8
0
  6
Continuous
 62
     7
100
AcDbLine
 10
106.6994487734
 20
33.4413969089
 30
0.0
 11
106.7152955099
 21
33.3215285777
 31
0.0
  0
LINE
  5
181D
330
220
100
AcDbEntity
  8
0
  6
Continuous
 62
     7
100
AcDbLine
 10
106.7152955099
 20
33.3215285777
 30
0.0
 11
106.7308109042
 21
33.2017882572
 31
0.0
  0
LWPOLYLINE
  5
181E
330
220
100
AcDbEntity
  8
0
  6
Continuous
 62
     7
100
AcDbPolyline
 90
        3
 70
     0
 43
0.0
 10
106.853021537
 20
32.2068500655
 10
106.9119943829
 20
31.7436787227
 10
106.9426195064
 20
31.4999484688
  0
LINE
  5
181F
330
220
100
AcDbEntity
  8
0
  6
Continuous
 62
     7
100
AcDbLine
 10
106.7308109042
 20
33.2017882572
 30
0.0
 11
106.7456997074
 21
33.08409166380001
 31
0.0
  0
LINE
  5
1820
330
220
100
AcDbEntity
  8
0
  6
Continuous
 62
     7
100
AcDbLine
 10
106.9657743623
 20
31.31167224
 30
0.0
 11
106.9426195064
 21
31.499948469
 31
0.0
  0
LINE
  5
1821
330
220
100
AcDbEntity
  8
0
  6
Continuous
 62
     7
100
AcDbLine
 10
106.7456997074
 20
33.08409166380001
 30
0.0
 11
106.7572922034
 21
32.9897323274
 31
0.0
  0
LINE
  5
1822
330
220
100
AcDbEntity
  8
0
  6
Continuous
 62
     7
100
AcDbLine
 10
106.9884507122
 20
31.1233574923
 30
0.0
 11
106.9657743623
 21
31.31167224
 31
0.0
  0
LWPOLYLINE
  5
1823
330
220
100
AcDbEntity
  8
0
  6
Continuous
 62
     7
100
AcDbPolyline
 90
        5
 70
     0
 43
0.0
 10
106.7572922034
 20
32.9897323274
 10
106.7723610998
 20
32.8603632016
 10
106.7981257831
 20
32.646381533
 10
106.825029812
 20
32.42886748530001
 10
106.853021537
 20
32.2068500655
  0
LWPOLYLINE
  5
1824
330
220
100
AcDbEntity
  8
0
  6
Continuous
 62
     7
100
AcDbPolyline
 90
        3
 70
     0
 43
0.0
 10
106.8268512414
 20
32.63412311320001
 10
106.8473817414
 20
32.45318370510001
 10
106.8566819715
 20
32.36916047360001
  0
LINE
  5
1825
330
220
100
AcDbEntity
  8
0
  6
Continuous
 62
     7
100
AcDbLine
 10
106.9281575301
 20
31.6639199639
 30
0.0
 11
106.9376724488
 21
31.5576761148
 31
0.0
  0
LINE
  5
1826
330
220
100
AcDbEntity
  8
0
  6
Continuous
 62
     7
100
AcDbLine
 10
106.9376724488
 20
31.5576761148
 30
0.0
 11
106.9426195064
 21
31.4999484688
 31
0.0
  0
LWPOLYLINE
  5
1827
330
220
100
AcDbEntity
  8
0
  6
Continuous
 62
     7
100
AcDbPolyline
 90
        4
 70
     0
 43
0.0
 10
107.3430997616
 20
24.3958103654
 10
107.3362275406
 20
24.3949432838
 10
107.3314452056
 20
24.392227404
 10
107.3296345826
 20
24.3896423216
  0
LINE
  5
1828
330
220
100
AcDbEntity
  8
0
  6
Continuous
 62
     7
100
AcDbLine
 10
115.6403120188
 20
26.0884651481
 30
0.0
 11
117.8903120188
 21
26.0884651481
 31
0.0
  0
LWPOLYLINE
  5
1829
330
220
100
AcDbEntity
  8
0
  6
Continuous
 62
     7
100
AcDbPolyline
 90
        4
 70
     0
 43
0.0
 10
132.687524276
 20
24.3958103654
 10
132.6943964971
 20
24.3949432838
 10
132.699178832
 20
24.392227404
 10
132.700989455
 20
24.3896423216
  0
LWPOLYLINE
  5
182A
330
220
100
AcDbEntity
  8
0
  6
Continuous
 62
     7
100
AcDbPolyline
 90
        9
 70
     0
 43
0.0
 10
110.7672276695
 20
28.5105830057
 10
110.8547444979
 20
28.4787088052
 10
110.9507666797
 20
28.4510362196
 10
111.0556647563
 20
28.4279654801
 10
111.1670700477
 20
28.4101332391
 10
111.2838682493
 20
28.3974451859
 10
111.4038638016
 20
28.3900008627
 10
111.5249821437
 20
28.38742121800001
 10
111.6504259718
 20
28.3889100991
  0
LWPOLYLINE
  5
182B
330
220
100
AcDbEntity
  8
0
  6
Continuous
 62
     7
100
AcDbPolyline
 90
        9
 70
     0
 43
0.0
 10
110.7109788609
 20
28.4836896488
 10
110.4503798652
 20
28.5958411648
 10
110.1939116455
 20
28.7154441496
 10
109.9424311886
 20
28.8420714936
 10
109.6954718381
 20
28.975965278
 10
109.4526629667
 20
29.1174661445
 10
109.2149063286
 20
29.2662191368
 10
108.9827779312
 20
29.4220163397
 10
108.7569027322
 20
29.5846162867
  0
LWPOLYLINE
  5
182C
330
220
100
AcDbEntity
  8
0
  6
Continuous
 62
     7
100
AcDbPolyline
 90
       68
 70
     0
 43
0.0
 10
103.2991152006
 20
47.7770763559
 10
103.3538721677
 20
47.61209059689999
 10
103.4156691495
 20
47.42470202209999
 10
103.4767722609
 20
47.2381442379
 10
103.537186743
 20
47.0524131968
 10
103.5969139961
 20
46.8675160988
 10
103.6559537916
 20
46.68346453159999
 10
103.7143074693
 20
46.5002655692
 10
103.771975055
 20
46.3179318402
 10
103.828957631
 20
46.1364722422
 10
103.8852554147
 20
45.95589775899999
 10
103.9408696408
 20
45.7762165251
 10
103.9958015215
 20
45.5974393333
 10
104.0500530767
 20
45.41957428529999
 10
104.103625406
 20
45.2426318087
 10
104.1565202662
 20
45.06662000729999
 10
104.2087393755
 20
44.8915494413
 10
104.2602852676
 20
44.7174283948
 10
104.3111593347
 20
44.5442683295
 10
104.3613637073
 20
44.37207769479999
 10
104.4108994078
 20
44.2008704231
 10
104.459768479
 20
44.0306584468
 10
104.507972767
 20
43.86145385939999
 10
104.5555126684
 20
43.6932733338
 10
104.6023946913
 20
43.5261124225
 10
104.6486250162
 20
43.35996998569999
 10
104.6942078394
 20
43.19485162289999
 10
104.7391475395
 20
43.0307614696
 10
104.7834489032
 20
42.8677015579
 10
104.8271174474
 20
42.70567332619999
 10
104.870157333
 20
42.5446845458
 10
104.9125734304
 20
42.3847395774
 10
104.9543688422
 20
42.2258486687
 10
104.9955478305
 20
42.068017338
 10
105.0361127985
 20
41.9112589088
 10
105.0760669176
 20
41.7555835343
 10
105.1154126576
 20
41.6010035803
 10
105.1541512234
 20
41.4475360585
 10
105.192288948
 20
41.2951803857
 10
105.2298319613
 20
41.14394048349999
 10
105.2667834528
 20
40.9938316343
 10
105.3031467398
 20
40.8448679945
 10
105.3389276811
 20
40.69705272
 10
105.3741293858
 20
40.5504017286
 10
105.4087658086
 20
40.4048862626
 10
105.4428576554
 20
40.26044677269999
 10
105.476385925
 20
40.1171909639
 10
105.5093558074
 20
39.9751203564
 10
105.5417183048
 20
39.8344414577
 10
105.5734406041
 20
39.6952841461
 10
105.6044824421
 20
39.557818204
 10
105.6347763432
 20
39.4223438517
 10
105.6643706843
 20
39.2886568394
 10
105.6932763924
 20
39.156762011
 10
105.7215232326
 20
39.0265901872
 10
105.7491516687
 20
38.8980166896
 10
105.7761425944
 20
38.7711909386
 10
105.8024723493
 20
38.6462905479
 10
105.82820805
 20
38.5230759366
 10
105.8533963028
 20
38.4014008184
 10
105.8780724928
 20
38.2811663815
 10
105.9023013296
 20
38.1621237021
 10
105.9260375137
 20
38.0445576346
 10
105.9492636454
 20
37.9285922706
 10
105.9719802997
 20
37.8142491041
 10
105.9941745226
 20
37.7016186631
 10
106.0158679624
 20
37.5906162785
 10
106.0370620975
 20
37.4812590383
  0
LWPOLYLINE
  5
182D
330
220
100
AcDbEntity
  8
0
  6
Continuous
 62
     7
100
AcDbPolyline
 90
       42
 70
     0
 43
0.0
 10
103.3203731576
 20
47.77780341209999
 10
103.5662281443
 20
47.03284146509999
 10
103.8164298964
 20
46.25210083649999
 10
104.0742374627
 20
45.4209107614
 10
104.3227958486
 20
44.5906040043
 10
104.5477798219
 20
43.8113618109
 10
104.7529279507
 20
43.0749392316
 10
104.937023953
 20
42.390452903
 10
105.1030542931
 20
41.751665449
 10
105.2528785807
 20
41.1557305334
 10
105.3883916644
 20
40.59899882639999
 10
105.5111602218
 20
40.0785112406
 10
105.6232910042
 20
39.5883211528
 10
105.7267052409
 20
39.12240961510001
 10
105.8223456528
 20
38.6785024635
 10
105.9113794671
 20
38.2528777405
 10
105.9943546403
 20
37.8443827891
 10
106.0721286287
 20
37.4500853321
 10
106.1445530894
 20
37.0719818102
 10
106.2121018641
 20
36.7088681222
 10
106.2739315634
 20
36.3667507371
 10
106.3292864626
 20
36.0517637707
 10
106.3792704492
 20
35.7595972328
 10
106.4243955253
 20
35.4889273496
 10
106.465335076
 20
35.2371873567
 10
106.5026634223
 20
35.0020829584
 10
106.5367744344
 20
34.7822047402
 10
106.5680658256
 20
34.5759202386
 10
106.5968269943
 20
34.3821361142
 10
106.6233453847
 20
34.1996354683
 10
106.6478373781
 20
34.0275621815
 10
106.6705155945
 20
33.8649869753
 10
106.6915448974
 20
33.7112310937
 10
106.7110858607
 20
33.5655707052
 10
106.7292651586
 20
33.4274697763
 10
106.7462058958
 20
33.2963631378
 10
106.7620065556
 20
33.1718238387
 10
106.7767617573
 20
33.053416599
 10
106.7905528663
 20
32.9407751337
 10
106.8034563348
 20
32.8335374169
 10
106.81553562
 20
32.7314168345
 10
106.8268512414
 20
32.63412311320001
  0
LWPOLYLINE
  5
182E
330
220
100
AcDbEntity
  8
0
  6
Continuous
 62
     7
100
AcDbPolyline
 90
        3
 70
     0
 43
0.0
 10
109.7400739156
 20
26.7596771735
 10
109.7456814926
 20
26.7406484834
 10
109.7503814061
 20
26.720537151
  0
LINE
  5
182F
330
220
100
AcDbEntity
  8
0
  6
Continuous
 62
     7
100
AcDbLine
 10
109.7503814061
 20
26.720537151
 30
0.0
 11
109.7542128174
 21
26.6983234691
 31
0.0
  0
LINE
  5
1830
330
220
100
AcDbEntity
  8
0
  6
Continuous
 62
     7
100
AcDbLine
 10
109.7549717406
 20
26.6923499237
 30
0.0
 11
109.7556573994
 21
26.6859858567
 31
0.0
  0
LWPOLYLINE
  5
1831
330
220
100
AcDbEntity
  8
0
  6
Continuous
 62
     7
100
AcDbPolyline
 90
        7
 70
     0
 43
0.0
 10
109.7556573994
 20
26.6859858567
 10
109.7566528708
 20
26.6732974919
 10
109.7573749025
 20
26.6582779059
 10
109.7576665275
 20
26.6413259949
 10
109.7574093168
 20
26.6227754905
 10
109.7565263878
 20
26.6030816411
 10
109.7561495261
 20
26.5972407428
  0
LWPOLYLINE
  5
1832
330
220
100
AcDbEntity
  8
0
  6
Continuous
 62
     7
100
AcDbPolyline
 90
        6
 70
     0
 43
0.0
 10
108.3661060435
 20
29.7845853613
 10
108.3718829211
 20
29.5928624447
 10
108.3888355158
 20
29.3932226955
 10
108.4150390502
 20
29.2036928906
 10
108.4485435703
 20
29.0252752057
 10
108.4874841277
 20
28.8584939104
  0
LWPOLYLINE
  5
1833
330
220
100
AcDbEntity
  8
0
  6
Continuous
 62
     7
100
AcDbPolyline
 90
        6
 70
     0
 43
0.0
 10
108.3661060435
 20
29.7845853613
 10
108.3677004282
 20
29.8046113021
 10
108.3725513429
 20
29.8197813346
 10
108.3805686203
 20
29.8303213772
 10
108.3916514652
 20
29.8364681522
 10
108.4057074375
 20
29.8384651481
  0
LWPOLYLINE
  5
1834
330
220
100
AcDbEntity
  8
0
  6
Continuous
 62
     7
100
AcDbPolyline
 90
        3
 70
     0
 43
0.0
 10
108.9432299432
 20
25.5933602132
 10
108.9322070863
 20
25.5914209935
 10
108.9297635563
 20
25.5902176415
  0
LWPOLYLINE
  5
1835
330
220
100
AcDbEntity
  8
0
  6
Continuous
 62
     7
100
AcDbPolyline
 90
        3
 70
     0
 43
0.0
 10
108.123233608
 20
25.1439666758
 10
108.1142259894
 20
25.1424885037
 10
108.1120146787
 20
25.1414196546
  0
LWPOLYLINE
  5
1836
330
220
100
AcDbEntity
  8
0
  6
Continuous
 62
     7
100
AcDbPolyline
 90
        3
 70
     0
 43
0.0
 10
107.9822714066
 20
25.0582281084
 10
107.9735916645
 20
25.0568344259
 10
107.9709663147
 20
25.0555222401
  0
LWPOLYLINE
  5
1837
330
220
100
AcDbEntity
  8
0
  6
Continuous
 62
     7
100
AcDbPolyline
 90
        9
 70
     0
 43
0.0
 10
131.466468596
 20
29.8384651481
 10
131.4525154063
 20
29.8365604938
 10
131.4357169646
 20
29.8305780861
 10
131.4158685056
 20
29.8200349886
 10
131.3931852874
 20
29.8046729869
 10
131.3679557945
 20
29.784420114
 10
131.340377097
 20
29.7592234277
 10
131.3108340965
 20
29.7292720149
 10
131.2793895785
 20
29.6944863662
  0
LWPOLYLINE
  5
1838
330
220
100
AcDbEntity
  8
0
  6
Continuous
 62
     7
100
AcDbPolyline
 90
        9
 70
     0
 43
0.0
 10
128.4006606429999
 20
28.3384651481
 10
128.5434945821
 20
28.3406928216
 10
128.6756380482
 20
28.3474989777
 10
128.8000371204
 20
28.3590345023
 10
128.9177307936
 20
28.3751848413
 10
129.0287309579
 20
28.3957119147
 10
129.1329748925
 20
28.4207372146
 10
129.2300285414
 20
28.4501614393
 10
129.3196451767
 20
28.4836896488
  0
LINE
  5
1839
330
220
100
AcDbEntity
  8
0
  6
Continuous
 62
     7
100
AcDbLine
 10
115.6403120188
 20
26.9009651481
 30
0.0
 11
117.8903120188
 21
26.9009651481
 31
0.0
  0
LINE
  5
183A
330
220
100
AcDbEntity
  8
0
  6
Continuous
 62
     7
100
AcDbLine
 10
115.8278120188
 20
27.0884651481
 30
0.0
 11
117.7028120188
 21
27.0884651481
 31
0.0
  0
LINE
  5
183B
330
220
100
AcDbEntity
  8
0
  6
Continuous
 62
     7
100
AcDbLine
 10
112.0363942901
 20
28.3384651481
 30
0.0
 11
111.6299633946
 21
28.3384651481
 31
0.0
  0
LINE
  5
183C
330
220
100
AcDbEntity
  8
0
  6
Continuous
 62
     7
100
AcDbLine
 10
127.9942297476
 20
28.3384651481
 30
0.0
 11
128.4006606429999
 21
28.3384651481
 31
0.0
  0
LWPOLYLINE
  5
183D
330
220
100
AcDbEntity
  8
0
  6
Continuous
 62
     7
100
AcDbPolyline
 90
        9
 70
     0
 43
0.0
 10
111.6299633946
 20
28.3384651481
 10
111.4871294555
 20
28.3406928216
 10
111.3549859895
 20
28.3474989777
 10
111.2305869172
 20
28.3590345023
 10
111.112893244
 20
28.3751848413
 10
111.0018930798
 20
28.3957119147
 10
110.8976491451
 20
28.4207372146
 10
110.8005954962
 20
28.4501614393
 10
110.7109788609
 20
28.4836896488
  0
LWPOLYLINE
  5
183E
330
220
100
AcDbEntity
  8
0
  6
Continuous
 62
     7
100
AcDbPolyline
 90
        9
 70
     0
 43
0.0
 10
108.5641554417
 20
29.8384651481
 10
108.5781086313
 20
29.8365604938
 10
108.5949070731
 20
29.8305780861
 10
108.614755532
 20
29.8200349886
 10
108.6374387502
 20
29.8046729869
 10
108.6626682431
 20
29.784420114
 10
108.6902469406
 20
29.7592234277
 10
108.7197899412
 20
29.7292720149
 10
108.7512344591
 20
29.6944863662
  0
LWPOLYLINE
  5
183F
330
220
100
AcDbEntity
  8
0
  6
Continuous
 62
     7
100
AcDbPolyline
 90
        3
 70
     0
 43
0.0
 10
132.048352631
 20
25.0582281084
 10
132.0570323731
 20
25.0568344259
 10
132.0596577229
 20
25.0555222401
  0
LWPOLYLINE
  5
1840
330
220
100
AcDbEntity
  8
0
  6
Continuous
 62
     7
100
AcDbPolyline
 90
        3
 70
     0
 43
0.0
 10
131.9073904297
 20
25.1439666758
 10
131.9163980482
 20
25.1424885037
 10
131.9186093589
 20
25.1414196546
  0
LWPOLYLINE
  5
1841
330
220
100
AcDbEntity
  8
0
  6
Continuous
 62
     7
100
AcDbPolyline
 90
        3
 70
     0
 43
0.0
 10
131.0873940944
 20
25.5933602132
 10
131.0984169514
 20
25.5914209935
 10
131.1008604814
 20
25.5902176415
  0
LINE
  5
1842
330
220
100
AcDbEntity
  8
0
  6
Continuous
 62
     7
100
AcDbLine
 10
109.7542128174
 20
26.6983234691
 30
0.0
 11
109.7549717406
 21
26.6923499237
 31
0.0
  0
LINE
  5
1843
330
220
100
AcDbEntity
  8
0
  6
Continuous
 62
     7
100
AcDbLine
 10
109.7544100045
 20
26.6973237595
 30
0.0
 11
109.7549717406
 21
26.6923499237
 31
0.0
  0
LWPOLYLINE
  5
1844
330
220
100
AcDbEntity
  8
0
  6
Continuous
 62
     7
100
AcDbPolyline
 90
       18
 70
     0
 43
0.0
 10
109.7561378741
 20
26.5970708165
 10
109.7519978821
 20
26.555420589
 10
109.7428740275
 20
26.5004038139
 10
109.7290836425
 20
26.4426401207
 10
109.7103813478
 20
26.3827570069
 10
109.6865019857
 20
26.3211771579
 10
109.6572425017
 20
26.2584316142
 10
109.6223471082
 20
26.1949074243
 10
109.581783009
 20
26.13134854070001
 10
109.5355491978
 20
26.0683943531
 10
109.483713573
 20
26.0066648934
 10
109.4264711933
 20
25.946812715
 10
109.3640317117
 20
25.8890881156
 10
109.2969460761
 20
25.8334149957
 10
109.2258130731
 20
25.7796509959
 10
109.15130576
 20
25.7276835585
 10
109.0738861452
 20
25.6772487952
 10
108.9940715832
 20
25.628141488
  0
LINE
  5
1845
330
220
100
AcDbEntity
  8
DEFAULT_1
  6
CENTER
 62
     7
100
AcDbLine
 10
116.6302973167
 20
29.8888366751
 30
0.0
 11
116.9630814888
 21
29.9023552603
 31
0.0
  0
LINE
  5
1846
330
220
100
AcDbEntity
  8
0
  6
Continuous
 62
     7
100
AcDbLine
 10
111.6504259718
 20
28.3889100991
 30
0.0
 11
112.045990574
 21
28.3989683982
 31
0.0
  0
LINE
  5
1847
330
220
100
AcDbEntity
  8
0
  6
Continuous
 62
     7
100
AcDbLine
 10
108.8585155319
 20
29.5870182711
 30
0.0
 11
108.7569027322
 21
29.5846162867
 31
0.0
  0
LINE
  5
1848
330
220
100
AcDbEntity
  8
0
  6
Continuous
 62
     7
100
AcDbLine
 10
108.7512344591
 20
29.6944863662
 30
0.0
 11
108.6290971805
 21
29.6932406473
 31
0.0
  0
LINE
  5
1849
330
220
100
AcDbEntity
  8
0
  6
Continuous
 62
     7
100
AcDbLine
 10
110.5815914581
 20
28.5884651481
 30
0.0
 11
129.4490325796
 21
28.5884651481
 31
0.0
  0
LINE
  5
184A
330
220
100
AcDbEntity
  8
0
  6
Continuous
 62
     7
100
AcDbLine
 10
108.5641554417
 20
29.8384651481
 30
0.0
 11
108.4057074375
 21
29.8384651481
 31
0.0
  0
LINE
  5
184B
330
220
100
AcDbEntity
  8
0
  6
Continuous
 62
     7
100
AcDbLine
 10
131.466468596
 20
29.8384651481
 30
0.0
 11
131.6249166001
 21
29.8384651481
 31
0.0
  0
LINE
  5
184C
330
220
100
AcDbEntity
  8
0
  6
Continuous
 62
     7
100
AcDbLine
 10
131.1721085057
 20
29.5870182711
 30
0.0
 11
131.2737213054
 21
29.5846162867
 31
0.0
  0
LINE
  5
184D
330
220
100
AcDbEntity
  8
0
  6
Continuous
 62
     7
100
AcDbLine
 10
128.3801980658
 20
28.3889100991
 30
0.0
 11
127.9846334636
 21
28.3989683982
 31
0.0
  0
LINE
  5
184E
330
220
100
AcDbEntity
  8
0
  6
Continuous
 62
     7
100
AcDbLine
 10
119.4233694694
 20
28.5650966783
 30
0.0
 11
119.4239350042
 21
28.5648866723
 31
0.0
  0
LWPOLYLINE
  5
184F
330
220
100
AcDbEntity
  8
0
  6
Continuous
 62
     7
100
AcDbPolyline
 90
        7
 70
     0
 43
0.0
 10
130.6800153228
 20
23.9141688356
 10
130.7737589288
 20
23.8678497588
 10
130.8588834386
 20
23.8166383352
 10
130.9356685846
 20
23.7616013153
 10
131.0053305406
 20
23.7032339064
 10
131.0679285925
 20
23.6429545693
 10
131.0827233777
 20
23.6273652236
  0
LINE
  5
1850
330
220
100
AcDbEntity
  8
0
  6
Continuous
 62
     7
100
AcDbLine
 10
117.8903120188
 20
26.9009651481
 30
0.0
 11
117.7028120188
 21
27.0884651481
 31
0.0
  0
LINE
  5
1851
330
220
100
AcDbEntity
  8
0
  6
Continuous
 62
     7
100
AcDbLine
 10
108.5159658382
 20
22.639652905
 30
0.0
 11
108.5367786387
 21
22.722502946
 31
0.0
  0
LWPOLYLINE
  5
1852
330
220
100
AcDbEntity
  8
0
  6
Continuous
 62
     7
100
AcDbPolyline
 90
        6
 70
     0
 43
0.0
 10
108.5367786387
 20
22.722502946
 10
108.5418763143
 20
22.7421901209
 10
108.547291189
 20
22.7619279251
 10
108.5530228369
 20
22.781712252
 10
108.5590698843
 20
22.8015358058
 10
108.5654308019
 20
22.8213912557
  0
LWPOLYLINE
  5
1853
330
220
100
AcDbEntity
  8
0
  6
Continuous
 62
     7
100
AcDbPolyline
 90
        5
 70
     0
 43
0.0
 10
108.5159708524
 20
22.6396719707
 10
108.5127571808
 20
22.6278662239
 10
108.5092124852
 20
22.61756910989999
 10
108.5053551847
 20
22.6088138398
 10
108.5012051133
 20
22.6016211014
  0
LWPOLYLINE
  5
1854
330
220
100
AcDbEntity
  8
0
  6
Continuous
 62
     7
100
AcDbPolyline
 90
        7
 70
     0
 43
0.0
 10
130.6676071966
 20
23.9885977805
 10
130.5429275385
 20
24.0562429585
 10
130.4204736141
 20
24.1232529203
 10
130.300443641
 20
24.1895207976
 10
130.1837121528
 20
24.2545637911
 10
130.0710817533
 20
24.3179254278
 10
129.9626559666
 20
24.3795355891
  0
LWPOLYLINE
  5
1855
330
220
100
AcDbEntity
  8
0
  6
Continuous
 62
     7
100
AcDbPolyline
 90
        7
 70
     0
 43
0.0
 10
129.9902027977
 20
24.2904540585
 10
130.0920725901
 20
24.2341265634
 10
130.1992874373
 20
24.1752812372
 10
130.3115012342
 20
24.1140189687
 10
130.4289567509
 20
24.0501222699
 10
130.5519257706
 20
23.9834302921
 10
130.6800153228
 20
23.9141688356
  0
LWPOLYLINE
  5
1856
330
220
100
AcDbEntity
  8
0
  6
Continuous
 62
     7
100
AcDbPolyline
 90
        7
 70
     0
 43
0.0
 10
129.9626559666
 20
24.3795355891
 10
129.9459233707
 20
24.389209287
 10
129.9294216816
 20
24.398981123
 10
129.9131341554
 20
24.4088581789
 10
129.897125415
 20
24.4187974309
 10
129.8814553148
 20
24.4287551706
 10
129.8661023414
 20
24.4387376308
  0
LWPOLYLINE
  5
1857
330
220
100
AcDbEntity
  8
0
  6
Continuous
 62
     7
100
AcDbPolyline
 90
        7
 70
     0
 43
0.0
 10
129.8956848319
 20
24.3477152952
 10
129.9106737368
 20
24.3381741935
 10
129.92596833
 20
24.3286248869
 10
129.9415691594
 20
24.319072461
 10
129.9574755023
 20
24.3095227587
 10
129.9736865589
 20
24.2999816095
 10
129.9902027977
 20
24.2904540585
  0
LINE
  5
1858
330
220
100
AcDbEntity
  8
DEFAULT_1
  6
CENTER
 62
     7
100
AcDbLine
 10
113.5153120188
 20
26.5315987421
 30
0.0
 11
113.5153120188
 21
36.1391885418
 31
0.0
  0
LINE
  5
1859
330
220
100
AcDbEntity
  8
0
  6
Continuous
 62
     7
100
AcDbLine
 10
112.045990574
 20
28.3989683982
 30
0.0
 11
112.0363942901
 21
28.3384651481
 31
0.0
  0
LINE
  5
185A
330
220
100
AcDbEntity
  8
0
  6
Continuous
 62
     7
100
AcDbLine
 10
108.5654308019
 20
22.8213912557
 30
0.0
 11
108.612274683
 21
22.9600112354
 31
0.0
  0
LWPOLYLINE
  5
185B
330
220
100
AcDbEntity
  8
0
  6
Continuous
 62
     7
100
AcDbPolyline
 90
       10
 70
     0
 43
0.0
 10
108.612274683
 20
22.9600112354
 10
108.6337874872
 20
23.0219148121
 10
108.6571272666
 20
23.0860390383
 10
108.6834519196
 20
23.1537995395
 10
108.7127209846
 20
23.2234765246
 10
108.7450923709
 20
23.2945818842
 10
108.7793302371
 20
23.3633223764
 10
108.8170960643
 20
23.4321306638
 10
108.8592338802
 20
23.5019379074
 10
108.9043353993
 20
23.569401442
  0
LWPOLYLINE
  5
185C
330
220
100
AcDbEntity
  8
0
  6
Continuous
 62
     7
100
AcDbPolyline
 90
       13
 70
     0
 43
0.0
 10
107.3296345826
 20
24.3896423216
 10
107.2948192782
 20
24.3095434244
 10
107.2610575141
 20
24.2142900674
 10
107.2357326903
 20
24.1230226468
 10
107.2172114862
 20
24.0349369875
 10
107.2043682127
 20
23.9495552814
 10
107.1964086762
 20
23.8669833276
 10
107.1926472416
 20
23.7866902444
 10
107.1925786039
 20
23.7106571746
 10
107.1969054698
 20
23.6376066371
 10
107.2074133227
 20
23.5667997679
 10
107.224470586
 20
23.4986302662
 10
107.2305306367
 20
23.4793958629
  0
LWPOLYLINE
  5
185D
330
220
100
AcDbEntity
  8
0
  6
Continuous
 62
     7
100
AcDbPolyline
 90
        7
 70
     0
 43
0.0
 10
131.918609846
 20
25.141419369
 10
131.7955722012
 20
25.2117373316
 10
131.6554051793
 20
25.2886026351
 10
131.5144556927
 20
25.3640798721
 10
131.3725472529
 20
25.4398035254
 10
131.2297185175
 20
25.517398096
 10
131.1008663276
 20
25.5902142496
  0
LWPOLYLINE
  5
185E
330
220
100
AcDbEntity
  8
0
  6
Continuous
 62
     7
100
AcDbPolyline
 90
       19
 70
     0
 43
0.0
 10
131.1008604814
 20
25.5902176415
 10
131.0365524544
 20
25.628141488
 10
130.9567378924
 20
25.6772487952
 10
130.8793182776
 20
25.7276835585
 10
130.8048109646
 20
25.7796509959
 10
130.7336779616
 20
25.8334149957
 10
130.6665923259
 20
25.8890881156
 10
130.6041528443
 20
25.946812715
 10
130.5469104646
 20
26.0066648934
 10
130.4950748398
 20
26.0683943531
 10
130.4488410286
 20
26.13134854070001
 10
130.4082769295
 20
26.1949074243
 10
130.3733815359
 20
26.2584316142
 10
130.344122052
 20
26.3211771579
 10
130.3202426898
 20
26.3827570069
 10
130.3015403951
 20
26.4426401207
 10
130.2877500101
 20
26.5004038139
 10
130.2786261555
 20
26.555420589
 10
130.2744861635
 20
26.5970708165
  0
LWPOLYLINE
  5
185F
330
220
100
AcDbEntity
  8
0
  6
Continuous
 62
     7
100
AcDbPolyline
 90
        7
 70
     0
 43
0.0
 10
132.059661551
 20
25.0555198086
 10
132.0486009113
 20
25.0625218685
 10
132.0228428215
 20
25.0786327677
 10
131.9956749891
 20
25.0953487014
 10
131.96709539
 20
25.1126524271
 10
131.9371060502
 20
25.130527385
 10
131.9186093589
 20
25.1414196546
  0
LWPOLYLINE
  5
1860
330
220
100
AcDbEntity
  8
0
  6
Continuous
 62
     7
100
AcDbPolyline
 90
        6
 70
     0
 43
0.0
 10
129.8661023414
 20
24.4387376308
 10
129.7839332661
 20
24.4958776754
 10
129.7045738441
 20
24.5574219261
 10
129.6282841636
 20
24.6232491197
 10
129.5550771032
 20
24.6934403895
 10
129.4850027764
 20
24.7681078205
  0
LINE
  5
1861
330
220
100
AcDbEntity
  8
0
  6
Continuous
 62
     7
100
AcDbLine
 10
115.6403120188
 20
26.0884651481
 30
0.0
 11
115.6403120188
 21
26.9009651481
 31
0.0
  0
LINE
  5
1862
330
220
100
AcDbEntity
  8
0
  6
Continuous
 62
     7
100
AcDbLine
 10
115.8278120188
 20
28.1151155907
 30
0.0
 11
115.8278120188
 21
27.0884651481
 31
0.0
  0
LINE
  5
1863
330
220
100
AcDbEntity
  8
DEFAULT_1
  6
CENTER
 62
     7
100
AcDbLine
 10
116.7653120188
 20
27.9676318147
 30
0.0
 11
116.7653120188
 21
25.0217984814
 31
0.0
  0
LWPOLYLINE
  5
1864
330
220
100
AcDbEntity
  8
0
  6
Continuous
 62
     7
100
AcDbPolyline
 90
        7
 70
     0
 43
0.0
 10
111.6257817938
 20
26.9471442777
 10
111.6992023636
 20
27.1619942302
 10
111.7708087476
 20
27.3842392387
 10
111.8404598579
 20
27.613440243
 10
111.9080250763
 20
27.8491767402
 10
111.9733799608
 20
28.0910096793
 10
112.0363942901
 20
28.3384651481
  0
LINE
  5
1865
330
220
100
AcDbEntity
  8
0
  6
Continuous
 62
     7
100
AcDbLine
 10
111.3988125315
 20
26.3023785411
 30
0.0
 11
111.6257817938
 21
26.9471442777
 31
0.0
  0
LINE
  5
1866
330
220
100
AcDbEntity
  8
0
  6
Continuous
 62
     7
100
AcDbLine
 10
117.7028120188
 20
28.1509651481
 30
0.0
 11
117.7028120188
 21
27.0884651481
 31
0.0
  0
LINE
  5
1867
330
220
100
AcDbEntity
  8
0
  6
Continuous
 62
     7
100
AcDbLine
 10
117.8903120188
 20
26.0884651481
 30
0.0
 11
117.8903120188
 21
26.9009651481
 31
0.0
  0
LWPOLYLINE
  5
1868
330
220
100
AcDbEntity
  8
0
  6
Continuous
 62
     7
100
AcDbPolyline
 90
        7
 70
     0
 43
0.0
 10
111.2597088846
 20
25.9701368767
 10
111.2856187376
 20
26.0246157839
 10
111.3104594804
 20
26.079481557
 10
111.3342108986
 20
26.1347015122
 10
111.3568629877
 20
26.1902673722
 10
111.378404064
 20
26.2461708618
 10
111.3988125315
 20
26.3023785411
  0
LINE
  5
1869
330
220
100
AcDbEntity
  8
0
  6
Continuous
 62
     7
100
AcDbLine
 10
111.2265812867
 20
25.9014037848
 30
0.0
 11
111.2597088846
 21
25.9701368767
 31
0.0
  0
LWPOLYLINE
  5
186A
330
220
100
AcDbEntity
  8
0
  6
Continuous
 62
     7
100
AcDbPolyline
 90
       11
 70
     0
 43
0.0
 10
137.0529585273
 20
47.8384651481
 10
137.0455555364
 20
47.8354112616
 10
137.0377830247
 20
47.83137609669999
 10
137.0303933606
 20
47.8266763776
 10
137.0234432188
 20
47.8213481486
 10
137.0169859032
 20
47.8154322743
 10
137.0110709377
 20
47.80897412619999
 10
137.0057436869
 20
47.8020232346
 10
137.0010450078
 20
47.7946329093
 10
136.9970109369
 20
47.78685982969999
 10
136.9936724131
 20
47.7787636113
  0
LINE
  5
186B
330
220
100
AcDbEntity
  8
0
  6
Continuous
 62
     7
100
AcDbLine
 10
129.4850027764
 20
24.7681078205
 30
0.0
 11
129.418351281
 21
24.8471312808
 31
0.0
  0
LINE
  5
186C
330
220
100
AcDbEntity
  8
DEFAULT_1
  6
CENTER
 62
     7
100
AcDbLine
 10
120.0153120188
 20
55.90513181470001
 30
0.0
 11
120.0154016655401
 21
19.79113069281661
 31
0.0
  0
LWPOLYLINE
  5
186F
330
220
100
AcDbEntity
  8
0
  6
Continuous
 62
     7
100
AcDbPolyline
 90
        5
 70
     0
 43
0.0
 10
116.145943341
 20
28.4556489528
 10
116.1459907322
 20
28.4558350519
 10
116.1458736297
 20
28.456017371
 10
116.1455934011
 20
28.4561958717
 10
116.1451514215
 20
28.4563704828
  0
LINE
  5
1870
330
220
100
AcDbEntity
  8
0
  6
Continuous
 62
     7
100
AcDbLine
 10
110.5690076633
 20
24.7699640121
 30
0.0
 11
110.6122727567
 21
24.8471312808
 31
0.0
  0
LWPOLYLINE
  5
1871
330
220
100
AcDbEntity
  8
0
  6
Continuous
 62
     7
100
AcDbPolyline
 90
        6
 70
     0
 43
0.0
 10
110.5690076633
 20
24.7699640121
 10
110.592949099
 20
24.8088707656
 10
110.6090015998
 20
24.8341497133
 10
110.6255903867
 20
24.8592453485
 10
110.6427328658
 20
24.8841274218
 10
110.6604468485
 20
24.90876210010001
  0
LINE
  5
1872
330
220
100
AcDbEntity
  8
0
  6
Continuous
 62
     7
100
AcDbLine
 10
108.9043353993
 20
23.569401442
 30
0.0
 11
108.9474145325
 21
23.6278265741
 31
0.0
  0
LWPOLYLINE
  5
1873
330
220
100
AcDbEntity
  8
0
  6
Continuous
 62
     7
100
AcDbPolyline
 90
        7
 70
     0
 43
0.0
 10
129.4616163743
 20
24.7699640121
 10
129.5236436994
 20
24.691629073
 10
129.5899861144
 20
24.6162518026
 10
129.6605666435
 20
24.5439492567
 10
129.7351781046
 20
24.4749620567
 10
129.8135887569
 20
24.4095149548
 10
129.8956848319
 20
24.3477152952
  0
LWPOLYLINE
  5
1874
330
220
100
AcDbEntity
  8
0
  6
Continuous
 62
     7
100
AcDbPolyline
 90
        8
 70
     0
 43
0.0
 10
131.0832095052
 20
23.6278265741
 10
131.0769070247
 20
23.6359221326
 10
131.0225474346
 20
23.7014759047
 10
130.9630661837
 20
23.7653547593
 10
130.8971859139
 20
23.8276583834
 10
130.8258261606
 20
23.8862841925
 10
130.7494575507
 20
23.9400507673
 10
130.6676071966
 20
23.9885977805
  0
LINE
  5
1875
330
220
100
AcDbEntity
  8
0
  6
Continuous
 62
     7
100
AcDbLine
 10
129.418351281
 20
24.8471312808
 30
0.0
 11
129.3606445662
 21
24.9215809169
 31
0.0
  0
LWPOLYLINE
  5
1876
330
220
100
AcDbEntity
  8
0
  6
Continuous
 62
     7
100
AcDbPolyline
 90
        6
 70
     0
 43
0.0
 10
129.3504353433
 20
24.9352198466
 10
129.3701771891
 20
24.90876210010001
 10
129.3878911719
 20
24.8841274218
 10
129.4050336509
 20
24.8592453485
 10
129.4216224378
 20
24.8341497133
 10
129.4376749386
 20
24.8088707656
  0
LINE
  5
1877
330
220
100
AcDbEntity
  8
0
  6
Continuous
 62
     7
100
AcDbLine
 10
131.1262886384
 20
23.569401442
 30
0.0
 11
131.0832095052
 21
23.6278265741
 31
0.0
  0
LWPOLYLINE
  5
1878
330
220
100
AcDbEntity
  8
0
  6
Continuous
 62
     7
100
AcDbPolyline
 90
       11
 70
     0
 43
0.0
 10
129.3504353433
 20
24.9352198466
 10
129.2862871797
 20
25.0242571555
 10
129.2268036693
 20
25.1123248092
 10
129.1728049633
 20
25.1971422812
 10
129.1242770268
 20
25.2775080715
 10
129.0789823273
 20
25.3561176547
 10
129.0366922774
 20
25.4328654697
 10
128.9954026657
 20
25.5110269514
 10
128.9544685541
 20
25.5910877228
 10
128.9146882509
 20
25.6709980941
 10
128.8760734907
 20
25.750444856
  0
LWPOLYLINE
  5
1879
330
220
100
AcDbEntity
  8
0
  6
Continuous
 62
     7
100
AcDbPolyline
 90
       13
 70
     0
 43
0.0
 10
110.6604468485
 20
24.90876210010001
 10
110.6801886943
 20
24.9352198466
 10
110.744336858
 20
25.0242571555
 10
110.8038203683
 20
25.1123248092
 10
110.8578190743
 20
25.1971422812
 10
110.9063470108
 20
25.2775080715
 10
110.9516417103
 20
25.3561176547
 10
110.9939317603
 20
25.4328654697
 10
111.0352213719
 20
25.5110269514
 10
111.0761554835
 20
25.5910877228
 10
111.1159357867
 20
25.6709980941
 10
111.1545505469
 20
25.750444856
 10
111.2265812867
 20
25.9014037848
  0
LINE
  5
187A
330
220
100
AcDbEntity
  8
0
  6
Continuous
 62
     7
100
AcDbLine
 10
110.6122727567
 20
24.8471312808
 30
0.0
 11
110.6699794715
 21
24.9215809169
 31
0.0
  0
LWPOLYLINE
  5
187B
330
220
100
AcDbEntity
  8
0
  6
Continuous
 62
     7
100
AcDbPolyline
 90
        8
 70
     0
 43
0.0
 10
108.9474145325
 20
23.6278265741
 10
108.953717013
 20
23.6359221326
 10
109.008076603
 20
23.7014759047
 10
109.0675578539
 20
23.7653547593
 10
109.1334381238
 20
23.8276583834
 10
109.204797877
 20
23.8862841925
 10
109.2811664869
 20
23.9400507673
 10
109.363016841
 20
23.9885977805
  0
LWPOLYLINE
  5
187C
330
220
100
AcDbEntity
  8
0
  6
Continuous
 62
     7
100
AcDbPolyline
 90
        7
 70
     0
 43
0.0
 10
110.5690076633
 20
24.7699640121
 10
110.5069803382
 20
24.691629073
 10
110.4406379233
 20
24.6162518026
 10
110.3700573941
 20
24.5439492567
 10
110.2954459331
 20
24.4749620567
 10
110.2170352807
 20
24.4095149548
 10
110.1349392057
 20
24.3477152952
  0
LINE
  5
187D
330
220
100
AcDbEntity
  8
0
  6
Continuous
 62
     7
100
AcDbLine
 10
110.5456212612
 20
24.7681078205
 30
0.0
 11
110.6122727567
 21
24.8471312808
 31
0.0
  0
LINE
  5
187E
330
220
100
AcDbEntity
  8
0
  6
Continuous
 62
     7
100
AcDbLine
 10
129.4376749386
 20
24.8088707656
 30
0.0
 11
129.4616163743
 21
24.7699640121
 31
0.0
  0
LWPOLYLINE
  5
187F
330
220
100
AcDbEntity
  8
0
  6
Continuous
 62
     7
100
AcDbPolyline
 90
        5
 70
     0
 43
0.0
 10
131.5294190381
 20
22.6016218887
 10
131.5252461861
 20
22.6088592709
 10
131.5213887737
 20
22.6176313152
 10
131.517859928
 20
22.627896444
 10
131.5146707988
 20
22.6396021349
  0
LINE
  5
1880
330
220
100
AcDbEntity
  8
0
  6
Continuous
 62
     7
100
AcDbLine
 10
129.4616163743
 20
24.7699640121
 30
0.0
 11
129.418351281
 21
24.8471312808
 31
0.0
  0
LWPOLYLINE
  5
1881
330
220
100
AcDbEntity
  8
0
  6
Continuous
 62
     7
100
AcDbPolyline
 90
        5
 70
     0
 43
0.0
 10
123.8846798104
 20
28.4556502464
 10
123.8846346742
 20
28.4558387664
 10
123.884755815
 20
28.4560226007
 10
123.8850371336
 20
28.4562003205
 10
123.885472616
 20
28.4563704827
  0
LWPOLYLINE
  5
1882
330
220
100
AcDbEntity
  8
0
  6
Continuous
 62
     7
100
AcDbPolyline
 90
        5
 70
     0
 43
0.0
 10
108.5012051133
 20
22.6016211014
 10
108.4959184174
 20
22.5958065243
 10
108.4905067552
 20
22.5916980098
 10
108.4849931951
 20
22.5892649814
 10
108.4794005621
 20
22.5884651481
  0
LWPOLYLINE
  5
1883
330
220
100
AcDbEntity
  8
0
  6
Continuous
 62
     7
100
AcDbPolyline
 90
       20
 70
     0
 43
0.0
 10
103.2410176871
 20
47.8384651481
 10
103.241334594
 20
47.8383456658
 10
103.2450511539
 20
47.83677460119999
 10
103.2488622298
 20
47.8349745718
 10
103.2527488774
 20
47.8329296282
 10
103.2566870226
 20
47.8306266355
 10
103.2606429724
 20
47.82805967829999
 10
103.2645849415
 20
47.8252246952
 10
103.2684807138
 20
47.82212112839999
 10
103.2722967904
 20
47.8187533564
 10
103.27600725
 20
47.8151228831
 10
103.2795844241
 20
47.8112357987
 10
103.2830026814
 20
47.80709953459999
 10
103.2862368673
 20
47.8027245959
 10
103.2892632716
 20
47.79812371729999
 10
103.2920595631
 20
47.7933121617
 10
103.2946051114
 20
47.7883075492
 10
103.2968812952
 20
47.783129598
 10
103.2988716744
 20
47.7778000749
 10
103.2991153784
 20
47.777077174
  0
LWPOLYLINE
  5
1884
330
220
100
AcDbEntity
  8
0
  6
Continuous
 62
     7
100
AcDbPolyline
 90
       13
 70
     0
 43
0.0
 10
103.261656133
 20
47.8384651481
 10
103.265542844
 20
47.83695984939999
 10
103.2723470062
 20
47.8337131354
 10
103.2788872665
 20
47.8299606147
 10
103.2851262906
 20
47.8257237081
 10
103.2910284642
 20
47.82102660119999
 10
103.2965600955
 20
47.8158961069
 10
103.3016896081
 20
47.8103615116
 10
103.306387721
 20
47.80445440899999
 10
103.3106276157
 20
47.7982085186
 10
103.3143850893
 20
47.79165949430001
 10
103.317638693
 20
47.78484472
 10
103.3203698541
 20
47.77780309709999
  0
LWPOLYLINE
  5
1885
330
220
100
AcDbEntity
  8
0
  6
Continuous
 62
     7
100
AcDbPolyline
 90
       13
 70
     0
 43
0.0
 10
103.262305125
 20
47.8384651481
 10
103.2661931309
 20
47.8369593783
 10
103.2729973507
 20
47.8337126851
 10
103.2795376687
 20
47.8299601733
 10
103.2857767497
 20
47.8257232638
 10
103.2916789785
 20
47.82102614279999
 10
103.2972106623
 20
47.8158956239
 10
103.3023402238
 20
47.8103609942
 10
103.3070383812
 20
47.804453848
 10
103.3112783153
 20
47.79820790609999
 10
103.3150358227
 20
47.7916588231
 10
103.3182894538
 20
47.7848439842
 10
103.3210206355
 20
47.7778022917
  0
LWPOLYLINE
  5
1886
330
220
100
AcDbEntity
  8
0
  6
Continuous
 62
     7
100
AcDbPolyline
 90
       13
 70
     0
 43
0.0
 10
103.2663434202
 20
47.8384651481
 10
103.2702332198
 20
47.8369581901
 10
103.2770378944
 20
47.8337102481
 10
103.2835785428
 20
47.82995636189999
 10
103.2898178166
 20
47.825717967
 10
103.2957200881
 20
47.82101926569999
 10
103.3012516541
 20
47.81588708850001
 10
103.3063809281
 20
47.8103507414
 10
103.3110786209
 20
47.804441838
 10
103.3153179077
 20
47.7981941196
 10
103.3190745812
 20
47.7916432619
 10
103.3223271899
 20
47.784826672
 10
103.3250571609
 20
47.7777832739
  0
LWPOLYLINE
  5
1887
330
220
100
AcDbEntity
  8
0
  6
Continuous
 62
     7
100
AcDbPolyline
 90
        3
 70
     0
 43
0.0
 10
128.8760734907
 20
25.750444856
 10
128.8040427509
 20
25.9014037848
 10
128.770915153
 20
25.9701368767
  0
LWPOLYLINE
  5
1888
330
220
100
AcDbEntity
  8
0
  6
Continuous
 62
     7
100
AcDbPolyline
 90
        7
 70
     0
 43
0.0
 10
128.770915153
 20
25.9701368767
 10
128.7450053001
 20
26.0246157839
 10
128.7201645573
 20
26.079481557
 10
128.6964131391
 20
26.1347015122
 10
128.67376105
 20
26.1902673722
 10
128.6522199736
 20
26.2461708618
 10
128.6318115061
 20
26.3023785411
  0
LINE
  5
1889
330
220
100
AcDbEntity
  8
0
  6
Continuous
 62
     7
100
AcDbLine
 10
115.6403120188
 20
26.9009651481
 30
0.0
 11
115.8278120188
 21
27.0884651481
 31
0.0
  0
LWPOLYLINE
  5
188A
330
220
100
AcDbEntity
  8
0
  6
Continuous
 62
     7
100
AcDbPolyline
 90
        9
 70
     0
 43
0.0
 10
107.9709663147
 20
25.0555222401
 10
107.873876932
 20
24.9915374648
 10
107.7675176553
 20
24.9147285947
 10
107.6689697846
 20
24.8342812289
 10
107.5798997348
 20
24.7495705864
 10
107.5005966759
 20
24.6602622923
 10
107.4315880586
 20
24.567662026
 10
107.3728970994
 20
24.4731157778
 10
107.3296340963
 20
24.3896412955
  0
LWPOLYLINE
  5
188B
330
220
100
AcDbEntity
  8
0
  6
Continuous
 62
     7
100
AcDbPolyline
 90
        9
 70
     0
 43
0.0
 10
132.7009899412999
 20
24.3896412955
 10
132.6577269382
 20
24.4731157778
 10
132.5990359791
 20
24.567662026
 10
132.5300273617
 20
24.6602622923
 10
132.4507243028
 20
24.7495705864
 10
132.3616542531
 20
24.8342812289
 10
132.2631063824
 20
24.9147285947
 10
132.1567471056
 20
24.9915374648
 10
132.0596577229
 20
25.0555222401
  0
LINE
  5
188C
330
220
100
AcDbEntity
  8
0
  6
Continuous
 62
     7
100
AcDbLine
 10
128.3801980658
 20
28.3889100991
 30
0.0
 11
128.4006606429999
 21
28.3384651481
 31
0.0
  0
LINE
  5
188D
330
220
100
AcDbEntity
  8
0
  6
Continuous
 62
     7
100
AcDbLine
 10
128.6318115061
 20
26.3023785411
 30
0.0
 11
128.4048422439
 21
26.9471442777
 31
0.0
  0
LWPOLYLINE
  5
188E
330
220
100
AcDbEntity
  8
0
  6
Continuous
 62
     7
100
AcDbPolyline
 90
        7
 70
     0
 43
0.0
 10
128.4048422439
 20
26.9471442777
 10
128.331421674
 20
27.1619942302
 10
128.25981529
 20
27.3842392387
 10
128.1901641797
 20
27.613440243
 10
128.1225989613
 20
27.8491767402
 10
128.0572440769
 20
28.0910096793
 10
127.9942297476
 20
28.3384651481
  0
LWPOLYLINE
  5
188F
330
220
100
AcDbEntity
  8
0
  6
Continuous
 62
     7
100
AcDbPolyline
 90
        6
 70
     0
 43
0.0
 10
110.1645216962
 20
24.4387376308
 10
110.2466907715
 20
24.4958776754
 10
110.3260501935
 20
24.5574219261
 10
110.402339874
 20
24.6232491197
 10
110.4755469345
 20
24.6934403895
 10
110.5456212612
 20
24.7681078205
  0
LWPOLYLINE
  5
1890
330
220
100
AcDbEntity
  8
0
  6
Continuous
 62
     7
100
AcDbPolyline
 90
        7
 70
     0
 43
0.0
 10
110.1349392057
 20
24.3477152952
 10
110.1199503009
 20
24.3381741935
 10
110.1046557077
 20
24.3286248869
 10
110.0890548782
 20
24.319072461
 10
110.0731485354
 20
24.3095227587
 10
110.0569374787
 20
24.2999816095
 10
110.0404212399
 20
24.2904540585
  0
LWPOLYLINE
  5
1891
330
220
100
AcDbEntity
  8
0
  6
Continuous
 62
     7
100
AcDbPolyline
 90
        6
 70
     0
 43
0.0
 10
108.0990056821
 20
25.1296971504
 10
108.0750611821
 20
25.1154231678
 10
108.0514122443
 20
25.1011445736
 10
108.0280612152
 20
25.0868554954
 10
108.0050104152
 20
25.0725500327
 10
107.9822714066
 20
25.0582281084
  0
LINE
  5
1892
330
220
100
AcDbEntity
  8
0
  6
Continuous
 62
     7
100
AcDbLine
 10
108.9940715832
 20
25.628141488
 30
0.0
 11
108.9297635563
 21
25.5902176415
 31
0.0
  0
LWPOLYLINE
  5
1893
330
220
100
AcDbEntity
  8
0
  6
Continuous
 62
     7
100
AcDbPolyline
 90
        7
 70
     0
 43
0.0
 10
108.1120146787
 20
25.1414196546
 10
108.0935179874
 20
25.130527385
 10
108.0635286476
 20
25.1126524271
 10
108.0349490485
 20
25.0953487014
 10
108.0077812161
 20
25.0786327677
 10
107.9820231263
 20
25.0625218685
 10
107.9709624866
 20
25.0555198086
  0
LINE
  5
1894
330
220
100
AcDbEntity
  8
0
  6
Continuous
 62
     7
100
AcDbLine
 10
108.123233608
 20
25.1439666758
 30
0.0
 11
108.0990056821
 21
25.1296971504
 31
0.0
  0
LINE
  5
1895
330
220
100
AcDbEntity
  8
0
  6
Continuous
 62
     7
100
AcDbLine
 10
108.2350518364
 20
25.2117373316
 30
0.0
 11
108.1120141917
 21
25.141419369
 31
0.0
  0
LWPOLYLINE
  5
1896
330
220
100
AcDbEntity
  8
0
  6
Continuous
 62
     7
100
AcDbPolyline
 90
        6
 70
     0
 43
0.0
 10
108.92975771
 20
25.5902142496
 10
108.8009055202
 20
25.517398096
 10
108.6580767847
 20
25.4398035254
 10
108.5161683449
 20
25.3640798721
 10
108.3752188584
 20
25.2886026351
 10
108.2350518364
 20
25.2117373316
  0
LWPOLYLINE
  5
1897
330
220
100
AcDbEntity
  8
0
  6
Continuous
 62
     7
100
AcDbPolyline
 90
        4
 70
     0
 43
0.0
 10
108.9432299432
 20
25.5933602132
 10
108.8201399346
 20
25.5238377042
 10
108.6899405268
 20
25.4530274372
 10
108.4135659669
 20
25.3055652727
  0
LWPOLYLINE
  5
1898
330
220
100
AcDbEntity
  8
0
  6
Continuous
 62
     7
100
AcDbPolyline
 90
        3
 70
     0
 43
0.0
 10
108.4135659669
 20
25.3055652727
 10
108.2689550782
 20
25.2268103986
 10
108.123233608
 20
25.1439666758
  0
LINE
  5
1899
330
220
100
AcDbEntity
  8
0
  6
Continuous
 62
     7
100
AcDbLine
 10
132.7358047594
 20
24.3095434244
 30
0.0
 11
132.700989455
 21
24.3896423216
 31
0.0
  0
LWPOLYLINE
  5
189A
330
220
100
AcDbEntity
  8
0
  6
Continuous
 62
     7
100
AcDbPolyline
 90
       10
 70
     0
 43
0.0
 10
131.4183493546
 20
22.9600112354
 10
131.3968365504
 20
23.0219148121
 10
131.373496771
 20
23.0860390383
 10
131.347172118
 20
23.1537995395
 10
131.3179030529999
 20
23.2234765246
 10
131.2855316667
 20
23.2945818842
 10
131.2512938005
 20
23.3633223764
 10
131.2135279733
 20
23.4321306638
 10
131.1713901575
 20
23.5019379074
 10
131.1262886384
 20
23.569401442
  0
LWPOLYLINE
  5
189B
330
220
100
AcDbEntity
  8
0
  6
Continuous
 62
     7
100
AcDbPolyline
 90
        7
 70
     0
 43
0.0
 10
131.4938453989
 20
22.722502946
 10
131.4887477234
 20
22.7421901209
 10
131.4833328486
 20
22.7619279251
 10
131.4776012007
 20
22.781712252
 10
131.4715541534
 20
22.8015358058
 10
131.4651932357
 20
22.8213912557
 10
131.4183493546
 20
22.9600112354
  0
LINE
  5
189C
330
220
100
AcDbEntity
  8
0
  6
Continuous
 62
     7
100
AcDbLine
 10
127.9846334636
 20
28.3989683982
 30
0.0
 11
127.9942297476
 21
28.3384651481
 31
0.0
  0
LWPOLYLINE
  5
189D
330
220
100
AcDbEntity
  8
0
  6
Continuous
 62
     7
100
AcDbPolyline
 90
        7
 70
     0
 43
0.0
 10
110.067968071
 20
24.3795355891
 10
110.0847006669
 20
24.389209287
 10
110.101202356
 20
24.398981123
 10
110.1174898823
 20
24.4088581789
 10
110.1334986227
 20
24.4187974309
 10
110.1491687228
 20
24.4287551706
 10
110.1645216962
 20
24.4387376308
  0
LWPOLYLINE
  5
189E
330
220
100
AcDbEntity
  8
0
  6
Continuous
 62
     7
100
AcDbPolyline
 90
        7
 70
     0
 43
0.0
 10
110.0404212399
 20
24.2904540585
 10
109.9385514475
 20
24.2341265634
 10
109.8313366003
 20
24.1752812372
 10
109.7191228035
 20
24.1140189687
 10
109.6016672867
 20
24.0501222699
 10
109.478698267
 20
23.9834302921
 10
109.3506087149
 20
23.9141688356
  0
LWPOLYLINE
  5
189F
330
220
100
AcDbEntity
  8
0
  6
Continuous
 62
     7
100
AcDbPolyline
 90
        7
 70
     0
 43
0.0
 10
109.363016841
 20
23.9885977805
 10
109.4876964991
 20
24.0562429585
 10
109.6101504236
 20
24.1232529203
 10
109.7301803966
 20
24.1895207976
 10
109.8469118848
 20
24.2545637911
 10
109.9595422843
 20
24.3179254278
 10
110.067968071
 20
24.3795355891
  0
LWPOLYLINE
  5
18A0
330
220
100
AcDbEntity
  8
0
  6
Continuous
 62
     7
100
AcDbPolyline
 90
        7
 70
     0
 43
0.0
 10
109.3506087149
 20
23.9141688356
 10
109.2568651088
 20
23.8678497588
 10
109.171740599
 20
23.8166383352
 10
109.094955453
 20
23.7616013153
 10
109.0252934971
 20
23.7032339064
 10
108.9626954451
 20
23.6429545693
 10
108.94790066
 20
23.6273652236
  0
LINE
  5
18A1
330
220
100
AcDbEntity
  8
DEFAULT_1
  6
CENTER
 62
     7
100
AcDbLine
 10
108.6463871386
 20
46.0137897194
 30
0.0
 11
104.5287823865
 21
45.6535459827
 31
0.0
  0
LINE
  5
18A2
330
220
100
AcDbEntity
  8
0
  6
Continuous
 62
     7
100
AcDbLine
 10
131.5146710316
 20
22.6396018236
 30
0.0
 11
131.4938453989
 21
22.722502946
 31
0.0
  0
LWPOLYLINE
  5
18A3
330
220
100
AcDbEntity
  8
0
  6
Continuous
 62
     7
100
AcDbPolyline
 90
        7
 70
     0
 43
0.0
 10
130.2744746923
 20
26.597238133
 10
130.2741009315
 20
26.6030270929
 10
130.273219106
 20
26.6226261595
 10
130.2729569872
 20
26.6410068356
 10
130.2732349426
 20
26.657842263
 10
130.2739481083
 20
26.6729338152
 10
130.2749452399
 20
26.6857574211
  0
LINE
  5
18A4
330
220
100
AcDbEntity
  8
0
  6
Continuous
 62
     7
100
AcDbLine
 10
120.606724859
 20
28.564899899
 30
0.0
 11
120.607273051
 21
28.5651035272
 31
0.0
  0
LWPOLYLINE
  5
18A5
330
220
100
AcDbEntity
  8
0
  6
Continuous
 62
     7
100
AcDbPolyline
 90
        4
 70
     0
 43
0.0
 10
103.3055249242
 20
47.77769169479999
 10
103.3010424622
 20
47.7774735287
 10
103.2991605625
 20
47.77716053579999
 10
103.2991109416
 20
47.77708915389999
  0
LINE
  5
18A6
330
220
100
AcDbEntity
  8
0
  6
Continuous
 62
     7
100
AcDbLine
 10
103.3203731576
 20
47.77780341209999
 30
0.0
 11
103.3055249242
 21
47.77769169479999
 31
0.0
  0
LINE
  5
18A7
330
220
100
AcDbEntity
  8
0
  6
Continuous
 62
     7
100
AcDbLine
 10
102.0153120188
 20
47.8384651481
 30
0.0
 11
138.0153120188
 21
47.8384651481
 31
0.0
  0
LINE
  5
18A8
330
220
100
AcDbEntity
  8
0
  6
Continuous
 62
     7
100
AcDbLine
 10
102.2257651112
 20
48.8771796053
 30
0.0
 11
137.8048589264
 21
48.8771796053
 31
0.0
  0
LINE
  5
18A9
330
220
100
AcDbEntity
  8
0
  6
Continuous
 62
     7
100
AcDbLine
 10
137.252486834
 20
49.3384651481
 30
0.0
 11
102.7935484797
 21
49.3384651481
 31
0.0
  0
LINE
  5
18AA
330
220
100
AcDbEntity
  8
0
  6
Continuous
 62
     7
100
AcDbLine
 10
137.2520502811
 20
49.33846454060001
 30
0.0
 11
137.2370755579
 21
49.3384651481
 31
0.0
  0
LINE
  5
18AB
330
220
100
AcDbEntity
  8
0
  6
Continuous
 62
     7
100
AcDbLine
 10
102.7935484797
 20
49.3384651481
 30
0.0
 11
102.7781372036
 21
49.3384651481
 31
0.0
  0
LINE
  5
18AC
330
220
100
AcDbEntity
  8
0
  6
Continuous
 62
     7
100
AcDbLine
 10
103.3250571609
 20
47.7777832739
 30
0.0
 11
103.3203735249
 21
47.7778031449
 31
0.0
  0
LWPOLYLINE
  5
18AD
330
220
100
AcDbEntity
  8
0
  6
Continuous
 62
     7
100
AcDbPolyline
 90
        6
 70
     0
 43
0.0
 10
131.6645179941
 20
29.7845853613
 10
131.6629236094
 20
29.8046113021
 10
131.6580726947
 20
29.8197813346
 10
131.6500554174
 20
29.8303213772
 10
131.6389725725
 20
29.8364681522
 10
131.6249166001
 20
29.8384651481
  0
LINE
  5
18AE
330
220
100
AcDbEntity
  8
0
  6
Continuous
 62
     7
100
AcDbLine
 10
130.2749452399
 20
26.6857574211
 30
0.0
 11
130.2760145901
 21
26.6957278785
 31
0.0
  0
LINE
  5
18AF
330
220
100
AcDbEntity
  8
0
  6
Continuous
 62
     7
100
AcDbLine
 10
130.275652304
 20
26.692349979
 30
0.0
 11
130.2764112203
 21
26.6983234691
 31
0.0
  0
LINE
  5
18B0
330
220
100
AcDbEntity
  8
0
  6
Continuous
 62
     7
100
AcDbLine
 10
130.2764112203
 20
26.6983234691
 30
0.0
 11
130.2802426316
 21
26.720537151
 31
0.0
  0
LWPOLYLINE
  5
18B1
330
220
100
AcDbEntity
  8
0
  6
Continuous
 62
     7
100
AcDbPolyline
 90
        6
 70
     0
 43
0.0
 10
131.5431399099
 20
28.8584939104
 10
131.5820804673
 20
29.0252752057
 10
131.6155849874
 20
29.2036928906
 10
131.6417885218
 20
29.3932226955
 10
131.6587411166
 20
29.5928624447
 10
131.6645179941
 20
29.7845853613
  0
LWPOLYLINE
  5
18B2
330
220
100
AcDbEntity
  8
0
  6
Continuous
 62
     7
100
AcDbPolyline
 90
        3
 70
     0
 43
0.0
 10
130.2802426316
 20
26.720537151
 10
130.284942545
 20
26.7406484834
 10
130.2905501221
 20
26.7596771735
  0
LINE
  5
18B3
330
220
100
AcDbEntity
  8
0
  6
Continuous
 62
     7
100
AcDbLine
 10
131.5163732945
 20
28.7586866548
 30
0.0
 11
131.5431399099
 21
28.8584939104
 31
0.0
  0
LWPOLYLINE
  5
18B4
330
220
100
AcDbEntity
  8
0
  6
Continuous
 62
     7
100
AcDbPolyline
 90
       19
 70
     0
 43
0.0
 10
136.9936724263
 20
47.7787636066
 10
136.6750052711
 20
46.8806363763
 10
136.3677613292
 20
45.97848889489999
 10
136.071984482
 20
45.0724497351
 10
135.7877405781
 20
44.1627162369
 10
135.5150955202
 20
43.2494957435
 10
135.2540814562
 20
42.3328905449
 10
135.0047290039
 20
41.41301378709999
 10
134.7670854204
 20
40.4900469914
 10
134.5411949852
 20
39.5641665463
 10
134.3270902358
 20
38.6355028891
 10
134.1248076802
 20
37.7042032812
 10
133.9343738747
 20
36.7703948026
 10
133.7558102916
 20
35.8341898027
 10
133.5891544809
 20
34.8957829895
 10
133.4344412034
 20
33.9553658596
 10
133.2916930236
 20
33.0130617816
 10
133.160930592
 20
32.0690062183
 10
133.0421733255
 20
31.1233574923
  0
LINE
  5
18B5
330
220
100
AcDbEntity
  8
0
  6
Continuous
 62
     7
100
AcDbLine
 10
130.2905501221
 20
26.7596771735
 30
0.0
 11
130.2973079943
 21
26.7785371075
 31
0.0
  0
LINE
  5
18B6
330
220
100
AcDbEntity
  8
0
  6
Continuous
 62
     7
100
AcDbLine
 10
130.2973079943
 20
26.7785371075
 30
0.0
 11
130.2994196187
 21
26.7838176055
 31
0.0
  0
LINE
  5
18B7
330
220
100
AcDbEntity
  8
0
  6
Continuous
 62
     7
100
AcDbLine
 10
130.3011836684
 20
26.7880904453
 30
0.0
 11
130.2994196187
 21
26.7838176055
 31
0.0
  0
LWPOLYLINE
  5
18B8
330
220
100
AcDbEntity
  8
0
  6
Continuous
 62
     7
100
AcDbPolyline
 90
        7
 70
     0
 43
0.0
 10
131.2737213054
 20
29.5846162867
 10
131.2961379057
 20
29.6016919783
 10
131.3181354336
 20
29.6191872929
 10
131.3396831919
 20
29.63708668780001
 10
131.3607746243
 20
29.6553951643
 10
131.3814006425
 20
29.6741183957
 10
131.4015268572
 20
29.6932406473
  0
LWPOLYLINE
  5
18B9
330
220
100
AcDbEntity
  8
0
  6
Continuous
 62
     7
100
AcDbPolyline
 90
        9
 70
     0
 43
0.0
 10
131.1721085057
 20
29.5870182711
 10
130.951386688
 20
29.4251576167
 10
130.7243786547
 20
29.2706652027
 10
130.4917334459
 20
29.123806027
 10
130.2539862291
 20
28.9847645857
 10
130.0116747077
 20
28.8537293146
 10
129.7654132794
 20
28.7309057019
 10
129.5157780573
 20
28.6164676631
 10
129.2633963681
 20
28.5105830057
  0
LWPOLYLINE
  5
18BA
330
220
100
AcDbEntity
  8
0
  6
Continuous
 62
     7
100
AcDbPolyline
 90
        9
 70
     0
 43
0.0
 10
129.3196451767
 20
28.4836896488
 10
129.5802441724
 20
28.5958411648
 10
129.8367123921
 20
28.7154441496
 10
130.088192849
 20
28.8420714936
 10
130.3351521996
 20
28.975965278
 10
130.5779610709
 20
29.1174661445
 10
130.815717709
 20
29.2662191368
 10
131.0478461064
 20
29.4220163397
 10
131.2737213054
 20
29.5846162867
  0
LWPOLYLINE
  5
18BB
330
220
100
AcDbEntity
  8
0
  6
Continuous
 62
     7
100
AcDbPolyline
 90
        9
 70
     0
 43
0.0
 10
129.2633963681
 20
28.5105830057
 10
129.1758795397
 20
28.4787088052
 10
129.0798573579
 20
28.4510362196
 10
128.9749592813
 20
28.4279654801
 10
128.86355399
 20
28.4101332391
 10
128.7467557883
 20
28.3974451859
 10
128.6267602361
 20
28.3900008627
 10
128.5056418939
 20
28.38742121800001
 10
128.3801980658
 20
28.3889100991
  0
LWPOLYLINE
  5
18BC
330
220
100
AcDbEntity
  8
0
  6
Continuous
 62
     7
100
AcDbPolyline
 90
        7
 70
     0
 43
0.0
 10
132.4808771295
 20
22.9453187875
 10
132.480646304
 20
22.9442263926
 10
132.4802785434
 20
22.9431001657
 10
132.4797718677
 20
22.941940496
 10
132.4791242947
 20
22.9407477888
 10
132.4783338427
 20
22.9395224793
 10
132.477819042
 20
22.9388102385
  0
LINE
  5
18BD
330
220
100
AcDbEntity
  8
0
  6
Continuous
 62
     7
100
AcDbLine
 10
130.3095049014
 20
26.8070655418
 30
0.0
 11
130.2993911009
 21
26.7838300186
 31
0.0
  0
LWPOLYLINE
  5
18BE
330
220
100
AcDbEntity
  8
0
  6
Continuous
 62
     7
100
AcDbPolyline
 90
        6
 70
     0
 43
0.0
 10
131.1354307336
 20
27.8509692729
 10
131.2331433631
 20
28.0308848687
 10
131.3250272691
 20
28.2249153945
 10
131.4084091594
 20
28.42941333
 10
131.4810943883
 20
28.6401697758
 10
131.5143536557
 20
28.7515259033
  0
LINE
  5
18BF
330
220
100
AcDbEntity
  8
0
  6
Continuous
 62
     7
100
AcDbLine
 10
131.0762701857
 20
27.7527258371
 30
0.0
 11
131.1354307336
 21
27.8509692729
 31
0.0
  0
LINE
  5
18C0
330
220
100
AcDbEntity
  8
0
  6
Continuous
 62
     7
100
AcDbLine
 10
131.0130766193
 20
27.6542399698
 30
0.0
 11
131.0783858982
 21
27.7561154732
 31
0.0
  0
LINE
  5
18C1
330
220
100
AcDbEntity
  8
0
  6
Continuous
 62
     7
100
AcDbLine
 10
130.2846346465
 20
26.7393309591
 30
0.0
 11
130.2923970152
 21
26.7502623551
 31
0.0
  0
LINE
  5
18C2
330
220
100
AcDbEntity
  8
0
  6
Continuous
 62
     7
100
AcDbLine
 10
130.2923970152
 20
26.7502623551
 30
0.0
 11
130.3024345976
 21
26.7639801328
 31
0.0
  0
LWPOLYLINE
  5
18C3
330
220
100
AcDbEntity
  8
0
  6
Continuous
 62
     7
100
AcDbPolyline
 90
        8
 70
     0
 43
0.0
 10
130.3024345976
 20
26.7639801328
 10
130.3140086469
 20
26.7793586817
 10
130.3267311498
 20
26.7958341364
 10
130.3401249869
 20
26.8127898979
 10
130.3541691906
 20
26.8302217725
 10
130.3686805062
 20
26.8479286888
 10
130.3836234569
 20
26.865897436
 10
130.3989190217
 20
26.8840628531
  0
LWPOLYLINE
  5
18C4
330
220
100
AcDbEntity
  8
0
  6
Continuous
 62
     7
100
AcDbPolyline
 90
        6
 70
     0
 43
0.0
 10
130.6252210353
 20
27.1448344409
 10
130.6933494607
 20
27.2254500281
 10
130.773170249
 20
27.3235935064
 10
130.8529797398
 20
27.4268676361
 10
130.9328779997
 20
27.5366061562
 10
131.0130766193
 20
27.6542399698
  0
LINE
  5
18C5
330
220
100
AcDbEntity
  8
0
  6
Continuous
 62
     7
100
AcDbLine
 10
130.3989190217
 20
26.8840628531
 30
0.0
 11
130.4303046389
 21
26.9207922477
 31
0.0
  0
LINE
  5
18C6
330
220
100
AcDbEntity
  8
0
  6
Continuous
 62
     7
100
AcDbLine
 10
130.5936068971
 20
27.1081489625
 30
0.0
 11
130.6251415982
 21
27.1447417822
 31
0.0
  0
LINE
  5
18C7
330
220
100
AcDbEntity
  8
0
  6
Continuous
 62
     7
100
AcDbLine
 10
130.4303046389
 20
26.9207922477
 30
0.0
 11
130.4624326509
 21
26.9578754583
 31
0.0
  0
LWPOLYLINE
  5
18C8
330
220
100
AcDbEntity
  8
0
  6
Continuous
 62
     7
100
AcDbPolyline
 90
        3
 70
     0
 43
0.0
 10
130.4624326509
 20
26.9578754583
 10
130.5278563367
 20
27.0327059278
 10
130.5936068971
 20
27.1081489625
  0
LWPOLYLINE
  5
18C9
330
220
100
AcDbEntity
  8
0
  6
Continuous
 62
     7
100
AcDbPolyline
 90
        7
 70
     0
 43
0.0
 10
131.2793895785
 20
29.6944863662
 10
131.2624447369
 20
29.6754690671
 10
131.2450773371
 20
29.6568713706
 10
131.2273056631
 20
29.6386932257
 10
131.209187241
 20
29.620974037
 10
131.1907819046
 20
29.60375040340001
 10
131.1721085057
 20
29.5870182711
  0
LWPOLYLINE
  5
18CA
330
220
100
AcDbEntity
  8
0
  6
Continuous
 62
     7
100
AcDbPolyline
 90
        9
 70
     0
 43
0.0
 10
131.4015268572
 20
29.6932406473
 10
131.4398769487
 20
29.7290794899
 10
131.4753886078
 20
29.7594438518
 10
131.5080203425
 20
29.7845665253
 10
131.537645909
 20
29.8046113021
 10
131.5641743616
 20
29.8197813346
 10
131.5875789611
 20
29.8303213772
 10
131.6078260994
 20
29.8364681522
 10
131.6249166001
 20
29.8384651481
  0
LWPOLYLINE
  5
18CB
330
220
100
AcDbEntity
  8
0
  6
Continuous
 62
     7
100
AcDbPolyline
 90
       12
 70
     0
 43
0.0
 10
132.8000934009
 20
23.4793958629
 10
132.8061534516
 20
23.4986302662
 10
132.8232107149
 20
23.5667997679
 10
132.8337185679
 20
23.6376066371
 10
132.8380454337
 20
23.7106571746
 10
132.837976796
 20
23.7866902444
 10
132.8342153615
 20
23.8669833276
 10
132.826255825
 20
23.9495552814
 10
132.8134125514
 20
24.0349369875
 10
132.7948913474
 20
24.1230226468
 10
132.7695665236
 20
24.2142900674
 10
132.7358047594
 20
24.3095434244
  0
LINE
  5
18CC
330
220
100
AcDbEntity
  8
0
  6
Continuous
 62
     7
100
AcDbLine
 10
132.800313142
 20
23.4800644732
 30
0.0
 11
132.8000934009
 21
23.4793958629
 31
0.0
  0
LWPOLYLINE
  5
18CD
330
220
100
AcDbEntity
  8
0
  6
Continuous
 62
     7
100
AcDbPolyline
 90
        5
 70
     0
 43
0.0
 10
132.6477240498
 20
23.182156761
 10
132.6471211656
 20
23.1803348468
 10
132.6463478298
 20
23.1784688586
 10
132.6454028032
 20
23.1765598588
 10
132.6442847641
 20
23.1746087656
  0
LINE
  5
18CE
330
220
100
AcDbEntity
  8
0
  6
Continuous
 62
     7
100
AcDbLine
 10
132.8000934009
 20
23.4793958629
 30
0.0
 11
132.7831749318
 21
23.4329629348
 31
0.0
  0
LINE
  5
18CF
330
220
100
AcDbEntity
  8
0
  6
Continuous
 62
     7
100
AcDbLine
 10
137.9367560026
 20
48.73636452159999
 30
0.0
 11
138.0153120188
 21
47.8384651481
 31
0.0
  0
LINE
  5
18D0
330
220
100
AcDbEntity
  8
0
  6
Continuous
 62
     7
100
AcDbLine
 10
132.7831749318
 20
23.4329629348
 30
0.0
 11
132.7560975448
 21
23.3714250404
 31
0.0
  0
LWPOLYLINE
  5
18D1
330
220
100
AcDbEntity
  8
0
  6
Continuous
 62
     7
100
AcDbPolyline
 90
        4
 70
     0
 43
0.0
 10
132.7560975448
 20
23.3714250404
 10
132.7240729965
 20
23.309164053
 10
132.6876224825
 20
23.2458829594
 10
132.6477240498
 20
23.182156761
  0
LWPOLYLINE
  5
18D2
330
220
100
AcDbEntity
  8
0
  6
Continuous
 62
     7
100
AcDbPolyline
 90
        6
 70
     0
 43
0.0
 10
132.6436514069
 20
23.1736038043
 10
132.6715696154
 20
23.2175874641
 10
132.7121624609
 20
23.286155361
 10
132.7478008508
 20
23.3534693622
 10
132.7776494679
 20
23.4190924049
 10
132.800313142
 20
23.4800644732
  0
LINE
  5
18D3
330
220
100
AcDbEntity
  8
0
  6
Continuous
 62
     7
100
AcDbLine
 10
132.6248161789
 20
23.1449801372
 30
0.0
 11
132.6436465202
 21
23.1735962787
 31
0.0
  0
LWPOLYLINE
  5
18D4
330
220
100
AcDbEntity
  8
0
  6
Continuous
 62
     7
100
AcDbPolyline
 90
        7
 70
     0
 43
0.0
 10
132.6477240498
 20
23.182156761
 10
132.6228650942
 20
23.1444234587
 10
132.5968135024
 20
23.1060776309
 10
132.5697941898
 20
23.0673515217
 10
132.541590803
 20
23.0278541574
 10
132.5119014321
 20
22.9871184036
 10
132.4808771295
 20
22.9453187875
  0
LWPOLYLINE
  5
18D5
330
220
100
AcDbEntity
  8
0
  6
Continuous
 62
     7
100
AcDbPolyline
 90
        6
 70
     0
 43
0.0
 10
132.2748377139
 20
22.6804797883
 10
132.275505979
 20
22.6806890998
 10
132.276097032
 20
22.6809204923
 10
132.2766115783
 20
22.6811741299
 10
132.2770499719
 20
22.6814497794
 10
132.2773682685
 20
22.6817109487
  0
LWPOLYLINE
  5
18D6
330
220
100
AcDbEntity
  8
0
  6
Continuous
 62
     7
100
AcDbPolyline
 90
        5
 70
     0
 43
0.0
 10
132.5018810954
 20
22.971079771
 10
132.5355533197
 20
23.0170220401
 10
132.567299151
 20
23.0613449839
 10
132.5970640638
 20
23.1040045797
 10
132.6248161789
 20
23.1449801372
  0
LINE
  5
18D7
330
220
100
AcDbEntity
  8
0
  6
Continuous
 62
     7
100
AcDbLine
 10
132.4778188029
 20
22.9388099199
 30
0.0
 11
132.5018810954
 21
22.971079771
 31
0.0
  0
LINE
  5
18D8
330
220
100
AcDbEntity
  8
0
  6
Continuous
 62
     7
100
AcDbLine
 10
132.2776563051
 20
22.682011118
 30
0.0
 11
132.2776995023
 21
22.6820666076
 31
0.0
  0
LWPOLYLINE
  5
18D9
330
220
100
AcDbEntity
  8
0
  6
Continuous
 62
     7
100
AcDbPolyline
 90
        7
 70
     0
 43
0.0
 10
132.2776563276
 20
22.682011148
 10
132.3054504976
 20
22.716760745
 10
132.3454502242
 20
22.7671888602
 10
132.3834911838
 20
22.8156771923
 10
132.4195284259
 20
22.8621734294
 10
132.4535369243
 20
22.9066452451
 10
132.477819042
 20
22.9388102385
  0
LINE
  5
18DA
330
220
100
AcDbEntity
  8
0
  6
Continuous
 62
     7
100
AcDbLine
 10
132.277695412
 20
22.6820617688
 30
0.0
 11
132.2522896777
 21
22.6548173261
 31
0.0
  0
LINE
  5
18DB
330
220
100
AcDbEntity
  8
0
  6
Continuous
 62
     7
100
AcDbLine
 10
132.2773682685
 20
22.6817109487
 30
0.0
 11
132.2776562916
 21
22.6820111013
 31
0.0
  0
LINE
  5
18DC
330
220
100
AcDbEntity
  8
0
  6
Continuous
 62
     7
100
AcDbLine
 10
132.2522896777
 20
22.6548173261
 30
0.0
 11
132.2231176417
 21
22.6316504978
 31
0.0
  0
LINE
  5
18DD
330
220
100
AcDbEntity
  8
0
  6
Continuous
 62
     7
100
AcDbLine
 10
132.2231176417
 20
22.6316504978
 30
0.0
 11
132.1908270238
 21
22.6130756674
 31
0.0
  0
LINE
  5
18DE
330
220
100
AcDbEntity
  8
0
  6
Continuous
 62
     7
100
AcDbLine
 10
132.1908270238
 20
22.6130756674
 30
0.0
 11
132.1561347869
 21
22.59950526
 31
0.0
  0
ARC
  5
1951
330
220
100
AcDbEntity
  8
DEFAULT_2
  6
HIDDEN
 62
     7
100
AcDbCircle
 10
128.6271058311
 20
32.8782411012
 30
0.0
 40
2.5
100
AcDbArc
 50
272.3262291444
 51
350.9999999998
  0
ARC
  5
1952
330
220
100
AcDbEntity
  8
DEFAULT_2
  6
HIDDEN
 62
     7
100
AcDbCircle
 10
111.4840703636
 20
32.36965480030001
 30
0.0
 40
2.4999999905
100
AcDbArc
 50
188.9999998729
 51
263.8656229031
  0
ARC
  5
1954
330
220
100
AcDbEntity
  8
0
  6
Continuous
 62
     7
100
AcDbCircle
 10
116.7653120188
 20
28.1509651481
 30
0.0
 40
1.125
100
AcDbArc
 50
157.3494311819
 51
214.5228419157
  0
ARC
  5
1957
330
220
100
AcDbEntity
  8
0
  6
Continuous
 62
     7
100
AcDbCircle
 10
116.7653120188
 20
28.1509651481
 30
0.0
 40
0.9375
100
AcDbArc
 50
152.3501334843
 51
184.4246372745
  0
ARC
  5
1959
330
220
100
AcDbEntity
  8
DEFAULT_2
  6
HIDDEN
 62
     7
100
AcDbCircle
 10
133.6403120188
 20
49.27596514810001
 30
0.0
 40
0.5
100
AcDbArc
 50
285.2882743664
 51
337.4552326553
  0
ARC
  5
195A
330
220
100
AcDbEntity
  8
DEFAULT_2
  6
HIDDEN
 62
     7
100
AcDbCircle
 10
106.3903120188
 20
49.27596514810001
 30
0.0
 40
0.5
100
AcDbArc
 50
202.5447673447
 51
254.7117256336
  0
ARC
  5
195D
330
220
100
AcDbEntity
  8
DEFAULT_2
  6
HIDDEN
 62
     7
100
AcDbCircle
 10
114.7867586282
 20
29.5884651481
 30
0.0
 40
0.25
100
AcDbArc
 50
270.0
 51
315.0
  0
ARC
  5
195E
330
220
100
AcDbEntity
  8
DEFAULT_2
  6
HIDDEN
 62
     7
100
AcDbCircle
 10
112.2438654094
 20
29.5884651481
 30
0.0
 40
0.25
100
AcDbArc
 50
225.0
 51
270.0
  0
ARC
  5
1961
330
220
100
AcDbEntity
  8
DEFAULT_2
  6
HIDDEN
 62
     7
100
AcDbCircle
 10
115.4980352147
 20
29.5926349632
 30
0.0
 40
0.2499999994
100
AcDbArc
 50
92.32622689180001
 51
134.999998401
  0
ARC
  5
1962
330
220
100
AcDbEntity
  8
DEFAULT_2
  6
HIDDEN
 62
     7
100
AcDbCircle
 10
111.5259020513
 20
29.599321738
 30
0.0
 40
0.2499999992
100
AcDbArc
 50
45.0000025869
 51
83.86562629149999
  0
ARC
  5
1967
330
220
100
AcDbEntity
  8
DEFAULT_2
  6
HIDDEN
 62
     7
100
AcDbCircle
 10
134.2464115551
 20
49.02435549919999
 30
0.0
 40
0.15625
100
AcDbArc
 50
93.00604112370001
 51
157.4552322508
  0
ARC
  5
1968
330
220
100
AcDbEntity
  8
DEFAULT_2
  6
HIDDEN
 62
     7
100
AcDbCircle
 10
133.8133491601
 20
48.6429389164
 30
0.0
 40
0.15625
100
AcDbArc
 50
105.2882736459
 51
170.9999998858
  0
ARC
  5
1969
330
220
100
AcDbEntity
  8
DEFAULT_2
  6
HIDDEN
 62
     7
100
AcDbCircle
 10
106.2172748775
 20
48.6429389164
 30
0.0
 40
0.15625
100
AcDbArc
 50
9.000000114199998
 51
74.71172635409999
  0
ARC
  5
196A
330
220
100
AcDbEntity
  8
DEFAULT_2
  6
HIDDEN
 62
     7
100
AcDbCircle
 10
105.7842124825
 20
49.02435549919999
 30
0.0
 40
0.15625
100
AcDbArc
 50
22.5447677492
 51
86.99395887629998
  0
ARC
  5
197B
330
220
100
AcDbEntity
  8
0
  6
Continuous
 62
     7
100
AcDbCircle
 10
109.8432627519
 20
31.4634651481
 30
0.0
 40
2.875
100
AcDbArc
 50
186.7939036686
 51
239.8827053040001
  0
ARC
  5
197C
330
220
100
AcDbEntity
  8
0
  6
Continuous
 62
     7
100
AcDbCircle
 10
116.7653120188
 20
28.1509651481
 30
0.0
 40
1.125
100
AcDbArc
 50
326.5083808757
 51
22.8916099117
  0
ARC
  5
197D
330
220
100
AcDbEntity
  8
0
  6
Continuous
 62
     7
100
AcDbCircle
 10
116.7653120188
 20
28.1509651481
 30
0.0
 40
1.125
100
AcDbArc
 50
188.1920332006
 51
213.4916191243
  0
ARC
  5
197E
330
220
100
AcDbEntity
  8
0
  6
Continuous
 62
     7
100
AcDbCircle
 10
116.7653120188
 20
28.1509651481
 30
0.0
 40
0.9375
100
AcDbArc
 50
0.0
 51
27.8326428602
  0
ARC
  5
197F
330
220
100
AcDbEntity
  8
0
  6
Continuous
 62
     7
100
AcDbCircle
 10
107.9479603967
 20
22.8384651481
 30
0.0
 40
0.25
100
AcDbArc
 50
218.7421069953
 51
270.0
  0
ARC
  5
1980
330
220
100
AcDbEntity
  8
0
  6
Continuous
 62
     7
100
AcDbCircle
 10
102.149738406
 20
49.3713657444
 30
0.0
 40
0.5
100
AcDbArc
 50
278.7459434942
 51
343.2480127681
  0
ARC
  5
1981
330
220
100
AcDbEntity
  8
0
  6
Continuous
 62
     7
100
AcDbCircle
 10
102.2495234566
 20
48.7227464368
 30
0.0
 40
0.15625
100
AcDbArc
 50
98.7459434942
 51
175.0
  0
ARC
  5
1982
330
220
100
AcDbEntity
  8
0
  6
Continuous
 62
     7
100
AcDbCircle
 10
102.7781380514
 20
49.1822151481
 30
0.0
 40
0.15625
100
AcDbArc
 50
90.00031087729999
 51
163.2480127681
  0
ARC
  5
1983
330
220
100
AcDbEntity
  8
0
  6
Continuous
 62
     7
100
AcDbCircle
 10
130.1873612857
 20
31.4634651481
 30
0.0
 40
2.875
100
AcDbArc
 50
298.5657921157
 51
353.2060963314
  0
ARC
  5
1984
330
220
100
AcDbEntity
  8
0
  6
Continuous
 62
     7
100
AcDbCircle
 10
132.0826636409
 20
22.8384651481
 30
0.0
 40
0.25
100
AcDbArc
 50
270.0
 51
321.257893005
  0
ARC
  5
1985
330
220
100
AcDbEntity
  8
0
  6
Continuous
 62
     7
100
AcDbCircle
 10
137.8808856317
 20
49.3713657444
 30
0.0
 40
0.5
100
AcDbArc
 50
196.7519872319
 51
261.2540565058
  0
ARC
  5
1986
330
220
100
AcDbEntity
  8
0
  6
Continuous
 62
     7
100
AcDbCircle
 10
137.7811005811
 20
48.7227464368
 30
0.0
 40
0.15625
100
AcDbArc
 50
5.0
 51
81.25405650579999
  0
ARC
  5
1987
330
220
100
AcDbEntity
  8
0
  6
Continuous
 62
     7
100
AcDbCircle
 10
137.2524859862
 20
49.1822151481
 30
0.0
 40
0.15625
100
AcDbArc
 50
16.7519872319
 51
89.9996891227
  0
ENDSEC
  0
SECTION
  2
OBJECTS
  0
DICTIONARY
  5
C
330
0
100
AcDbDictionary
281
     1
  3
ACAD_COLOR
350
19BC
  3
ACAD_GROUP
350
D
  3
ACAD_LAYOUT
350
1A
  3
ACAD_MATERIAL
350
198F
  3
ACAD_MLEADERSTYLE
350
19E1
  3
ACAD_MLINESTYLE
350
17
  3
ACAD_PLOTSETTINGS
350
19
  3
ACAD_PLOTSTYLENAME
350
E
  3
ACAD_SCALELIST
350
19BF
  3
ACAD_TABLESTYLE
350
19BD
  3
ACAD_VISUALSTYLE
350
19A8
  3
ACDB_RECOMPOSE_DATA
350
19E7
  3
AcDbVariableDictionary
350
1A19
  3
DWGPROPS
350
1A83
  0
DICTIONARY
  5
19E8
330
8
100
AcDbDictionary
280
     1
281
     1
  0
DICTIONARY
  5
1A29
330
10
100
AcDbDictionary
280
     1
281
     1
  3
ADSK_XREC_LAYER_RECONCILED
360
1A2A
  0
DICTIONARY
  5
1A2B
330
1FA
100
AcDbDictionary
280
     1
281
     1
  3
ADSK_XREC_LAYER_RECONCILED
360
1A2C
  0
DICTIONARY
  5
1A2D
330
1FB
100
AcDbDictionary
280
     1
281
     1
  3
ADSK_XREC_LAYER_RECONCILED
360
1A2E
  0
DICTIONARY
  5
1A2F
330
1FC
100
AcDbDictionary
280
     1
281
     1
  3
ADSK_XREC_LAYER_RECONCILED
360
1A30
  0
DICTIONARY
  5
1A31
330
1FD
100
AcDbDictionary
280
     1
281
     1
  3
ADSK_XREC_LAYER_RECONCILED
360
1A32
  0
DICTIONARY
  5
1A33
330
1FE
100
AcDbDictionary
280
     1
281
     1
  3
ADSK_XREC_LAYER_RECONCILED
360
1A34
  0
DICTIONARY
  5
1A35
330
1FF
100
AcDbDictionary
280
     1
281
     1
  3
ADSK_XREC_LAYER_RECONCILED
360
1A36
  0
DICTIONARY
  5
1A37
330
200
100
AcDbDictionary
280
     1
281
     1
  3
ADSK_XREC_LAYER_RECONCILED
360
1A38
  0
DICTIONARY
  5
1A39
330
201
100
AcDbDictionary
280
     1
281
     1
  3
ADSK_XREC_LAYER_RECONCILED
360
1A3A
  0
DICTIONARY
  5
1A3B
330
202
100
AcDbDictionary
280
     1
281
     1
  3
ADSK_XREC_LAYER_RECONCILED
360
1A3C
  0
DICTIONARY
  5
1A3D
330
203
100
AcDbDictionary
280
     1
281
     1
  3
ADSK_XREC_LAYER_RECONCILED
360
1A3E
  0
DICTIONARY
  5
1A3F
330
204
100
AcDbDictionary
280
     1
281
     1
  3
ADSK_XREC_LAYER_RECONCILED
360
1A40
  0
DICTIONARY
  5
1A41
330
205
100
AcDbDictionary
280
     1
281
     1
  3
ADSK_XREC_LAYER_RECONCILED
360
1A42
  0
DICTIONARY
  5
1A43
330
206
100
AcDbDictionary
280
     1
281
     1
  3
ADSK_XREC_LAYER_RECONCILED
360
1A44
  0
DICTIONARY
  5
1A45
330
207
100
AcDbDictionary
280
     1
281
     1
  3
ADSK_XREC_LAYER_RECONCILED
360
1A46
  0
DICTIONARY
  5
1A47
330
208
100
AcDbDictionary
280
     1
281
     1
  3
ADSK_XREC_LAYER_RECONCILED
360
1A48
  0
DICTIONARY
  5
1A49
330
209
100
AcDbDictionary
280
     1
281
     1
  3
ADSK_XREC_LAYER_RECONCILED
360
1A4A
  0
DICTIONARY
  5
1A4B
330
20A
100
AcDbDictionary
280
     1
281
     1
  3
ADSK_XREC_LAYER_RECONCILED
360
1A4C
  0
DICTIONARY
  5
1A4D
330
20B
100
AcDbDictionary
280
     1
281
     1
  3
ADSK_XREC_LAYER_RECONCILED
360
1A4E
  0
DICTIONARY
  5
1A4F
330
20C
100
AcDbDictionary
280
     1
281
     1
  3
ADSK_XREC_LAYER_RECONCILED
360
1A50
  0
DICTIONARY
  5
1A51
330
20D
100
AcDbDictionary
280
     1
281
     1
  3
ADSK_XREC_LAYER_RECONCILED
360
1A52
  0
DICTIONARY
  5
1A53
330
20E
100
AcDbDictionary
280
     1
281
     1
  3
ADSK_XREC_LAYER_RECONCILED
360
1A54
  0
DICTIONARY
  5
1A55
330
20F
100
AcDbDictionary
280
     1
281
     1
  3
ADSK_XREC_LAYER_RECONCILED
360
1A56
  0
DICTIONARY
  5
1A57
330
210
100
AcDbDictionary
280
     1
281
     1
  3
ADSK_XREC_LAYER_RECONCILED
360
1A58
  0
DICTIONARY
  5
1A59
330
211
100
AcDbDictionary
280
     1
281
     1
  3
ADSK_XREC_LAYER_RECONCILED
360
1A5A
  0
DICTIONARY
  5
1A5B
330
212
100
AcDbDictionary
280
     1
281
     1
  3
ADSK_XREC_LAYER_RECONCILED
360
1A5C
  0
DICTIONARY
  5
1A5D
330
213
100
AcDbDictionary
280
     1
281
     1
  3
ADSK_XREC_LAYER_RECONCILED
360
1A5E
  0
DICTIONARY
  5
1A5F
330
214
100
AcDbDictionary
280
     1
281
     1
  3
ADSK_XREC_LAYER_RECONCILED
360
1A60
  0
DICTIONARY
  5
1A61
330
215
100
AcDbDictionary
280
     1
281
     1
  3
ADSK_XREC_LAYER_RECONCILED
360
1A62
  0
DICTIONARY
  5
1A63
330
216
100
AcDbDictionary
280
     1
281
     1
  3
ADSK_XREC_LAYER_RECONCILED
360
1A64
  0
DICTIONARY
  5
1A65
330
217
100
AcDbDictionary
280
     1
281
     1
  3
ADSK_XREC_LAYER_RECONCILED
360
1A66
  0
DICTIONARY
  5
19BC
102
{ACAD_REACTORS
330
C
102
}
330
C
100
AcDbDictionary
281
     1
  0
DICTIONARY
  5
D
102
{ACAD_REACTORS
330
C
102
}
330
C
100
AcDbDictionary
281
     1
  0
DICTIONARY
  5
1A
102
{ACAD_REACTORS
330
C
102
}
330
C
100
AcDbDictionary
281
     1
  3
Layout1
350
198B
  3
Model
350
198A
  0
DICTIONARY
  5
198F
102
{ACAD_REACTORS
330
C
102
}
330
C
100
AcDbDictionary
281
     1
  3
ByBlock
350
1998
  3
ByLayer
350
1990
  3
Global
350
19A0
  0
DICTIONARY
  5
19E1
102
{ACAD_REACTORS
330
C
102
}
330
C
100
AcDbDictionary
281
     1
  3
Standard
350
19E2
  0
DICTIONARY
  5
17
102
{ACAD_REACTORS
330
C
102
}
330
C
100
AcDbDictionary
281
     1
  3
Standard
350
18
  0
DICTIONARY
  5
19
102
{ACAD_REACTORS
330
C
102
}
330
C
100
AcDbDictionary
281
     1
  0
ACDBDICTIONARYWDFLT
  5
E
102
{ACAD_REACTORS
330
C
102
}
330
C
100
AcDbDictionary
281
     1
  3
Normal
350
F
100
AcDbDictionaryWithDefault
340
F
  0
DICTIONARY
  5
19BF
102
{ACAD_REACTORS
330
C
102
}
330
C
100
AcDbDictionary
281
     1
  3
A0
350
19C0
  3
A1
350
19C1
  3
A2
350
19C2
  3
A3
350
19C3
  3
A4
350
19C4
  3
A5
350
19C5
  3
A6
350
19C6
  3
A7
350
19C7
  3
A8
350
19C8
  3
A9
350
19C9
  3
B0
350
19CA
  3
B1
350
19CB
  3
B2
350
19CC
  3
B3
350
19CD
  3
B4
350
19CE
  3
B5
350
19CF
  3
B6
350
19D0
  3
B7
350
19D1
  3
B8
350
19D2
  3
B9
350
19D3
  3
C0
350
19D4
  3
C1
350
19D5
  3
C2
350
19D6
  3
C3
350
19D7
  3
C4
350
19D8
  3
C5
350
19D9
  3
C6
350
19DA
  3
C7
350
19DB
  3
C8
350
19DC
  3
C9
350
19DD
  3
D0
350
19DE
  3
D1
350
19DF
  3
D2
350
19E0
  0
DICTIONARY
  5
19BD
102
{ACAD_REACTORS
330
C
102
}
330
C
100
AcDbDictionary
281
     1
  3
Standard
350
19BE
  0
DICTIONARY
  5
19A8
102
{ACAD_REACTORS
330
C
102
}
330
C
100
AcDbDictionary
281
     1
  3
2dWireframe
350
19AE
  3
3D Hidden
350
19B0
  3
3dWireframe
350
19AF
  3
Basic
350
19AD
  3
Brighten
350
19B4
  3
ColorChange
350
19B8
  3
Conceptual
350
19B1
  3
Dim
350
19B3
  3
EdgeColorOff
350
19BB
  3
Facepattern
350
19B7
  3
Flat
350
19A9
  3
FlatWithEdges
350
19AA
  3
Gouraud
350
19AB
  3
GouraudWithEdges
350
19AC
  3
JitterOff
350
19B9
  3
Linepattern
350
19B6
  3
OverhangOff
350
19BA
  3
Realistic
350
19B2
  3
Thicken
350
19B5
  0
XRECORD
  5
19E7
102
{ACAD_REACTORS
330
C
102
}
330
C
100
AcDbXrecord
280
     1
 90
        1
330
19BE
  0
DICTIONARY
  5
1A19
102
{ACAD_REACTORS
330
C
102
}
330
C
100
AcDbDictionary
281
     1
  3
CANNOSCALE
350
1A1C
  3
CMLEADERSTYLE
350
1A1B
  3
CTABLESTYLE
350
1A1A
  3
DIMASSOC
350
1A1F
  3
INDEXCTL
350
1A1E
  3
LAYEREVAL
350
1A6A
  3
LAYERNOTIFY
350
1A6B
  3
LIGHTINGUNITS
350
1A69
  3
MSLTSCALE
350
1A68
  3
SORTENTS
350
1A1D
  3
XCLIPFRAME
350
1A20
  0
XRECORD
  5
1A83
102
{ACAD_REACTORS
330
C
102
}
330
C
100
AcDbXrecord
280
     1
  1
DWGPROPS COOKIE
  2

  3

  4

  6

  7

  8
francoisbu
  9

300
=
301
=
302
=
303
=
304
=
305
=
306
=
307
=
308
=
309
=
 40
0.0035661458333333
 41
2456087.397824213
 42
2456087.434444896
  1

 90
        0
  0
XRECORD
  5
1A2A
102
{ACAD_REACTORS
330
1A29
102
}
330
1A29
100
AcDbXrecord
280
     1
290
     1
  0
XRECORD
  5
1A2C
102
{ACAD_REACTORS
330
1A2B
102
}
330
1A2B
100
AcDbXrecord
280
     1
290
     1
  0
XRECORD
  5
1A2E
102
{ACAD_REACTORS
330
1A2D
102
}
330
1A2D
100
AcDbXrecord
280
     1
290
     1
  0
XRECORD
  5
1A30
102
{ACAD_REACTORS
330
1A2F
102
}
330
1A2F
100
AcDbXrecord
280
     1
290
     1
  0
XRECORD
  5
1A32
102
{ACAD_REACTORS
330
1A31
102
}
330
1A31
100
AcDbXrecord
280
     1
290
     1
  0
XRECORD
  5
1A34
102
{ACAD_REACTORS
330
1A33
102
}
330
1A33
100
AcDbXrecord
280
     1
290
     1
  0
XRECORD
  5
1A36
102
{ACAD_REACTORS
330
1A35
102
}
330
1A35
100
AcDbXrecord
280
     1
290
     1
  0
XRECORD
  5
1A38
102
{ACAD_REACTORS
330
1A37
102
}
330
1A37
100
AcDbXrecord
280
     1
290
     1
  0
XRECORD
  5
1A3A
102
{ACAD_REACTORS
330
1A39
102
}
330
1A39
100
AcDbXrecord
280
     1
290
     1
  0
XRECORD
  5
1A3C
102
{ACAD_REACTORS
330
1A3B
102
}
330
1A3B
100
AcDbXrecord
280
     1
290
     1
  0
XRECORD
  5
1A3E
102
{ACAD_REACTORS
330
1A3D
102
}
330
1A3D
100
AcDbXrecord
280
     1
290
     1
  0
XRECORD
  5
1A40
102
{ACAD_REACTORS
330
1A3F
102
}
330
1A3F
100
AcDbXrecord
280
     1
290
     1
  0
XRECORD
  5
1A42
102
{ACAD_REACTORS
330
1A41
102
}
330
1A41
100
AcDbXrecord
280
     1
290
     1
  0
XRECORD
  5
1A44
102
{ACAD_REACTORS
330
1A43
102
}
330
1A43
100
AcDbXrecord
280
     1
290
     1
  0
XRECORD
  5
1A46
102
{ACAD_REACTORS
330
1A45
102
}
330
1A45
100
AcDbXrecord
280
     1
290
     1
  0
XRECORD
  5
1A48
102
{ACAD_REACTORS
330
1A47
102
}
330
1A47
100
AcDbXrecord
280
     1
290
     1
  0
XRECORD
  5
1A4A
102
{ACAD_REACTORS
330
1A49
102
}
330
1A49
100
AcDbXrecord
280
     1
290
     1
  0
XRECORD
  5
1A4C
102
{ACAD_REACTORS
330
1A4B
102
}
330
1A4B
100
AcDbXrecord
280
     1
290
     1
  0
XRECORD
  5
1A4E
102
{ACAD_REACTORS
330
1A4D
102
}
330
1A4D
100
AcDbXrecord
280
     1
290
     1
  0
XRECORD
  5
1A50
102
{ACAD_REACTORS
330
1A4F
102
}
330
1A4F
100
AcDbXrecord
280
     1
290
     1
  0
XRECORD
  5
1A52
102
{ACAD_REACTORS
330
1A51
102
}
330
1A51
100
AcDbXrecord
280
     1
290
     1
  0
XRECORD
  5
1A54
102
{ACAD_REACTORS
330
1A53
102
}
330
1A53
100
AcDbXrecord
280
     1
290
     1
  0
XRECORD
  5
1A56
102
{ACAD_REACTORS
330
1A55
102
}
330
1A55
100
AcDbXrecord
280
     1
290
     1
  0
XRECORD
  5
1A58
102
{ACAD_REACTORS
330
1A57
102
}
330
1A57
100
AcDbXrecord
280
     1
290
     1
  0
XRECORD
  5
1A5A
102
{ACAD_REACTORS
330
1A59
102
}
330
1A59
100
AcDbXrecord
280
     1
290
     1
  0
XRECORD
  5
1A5C
102
{ACAD_REACTORS
330
1A5B
102
}
330
1A5B
100
AcDbXrecord
280
     1
290
     1
  0
XRECORD
  5
1A5E
102
{ACAD_REACTORS
330
1A5D
102
}
330
1A5D
100
AcDbXrecord
280
     1
290
     1
  0
XRECORD
  5
1A60
102
{ACAD_REACTORS
330
1A5F
102
}
330
1A5F
100
AcDbXrecord
280
     1
290
     1
  0
XRECORD
  5
1A62
102
{ACAD_REACTORS
330
1A61
102
}
330
1A61
100
AcDbXrecord
280
     1
290
     1
  0
XRECORD
  5
1A64
102
{ACAD_REACTORS
330
1A63
102
}
330
1A63
100
AcDbXrecord
280
     1
290
     1
  0
XRECORD
  5
1A66
102
{ACAD_REACTORS
330
1A65
102
}
330
1A65
100
AcDbXrecord
280
     1
290
     1
  0
LAYOUT
  5
198B
102
{ACAD_XDICTIONARY
360
1A86
102
}
102
{ACAD_REACTORS
330
1A
102
}
330
1A
100
AcDbPlotSettings
  1

  2
none_device
  4
ANSI_B_(17.00_x_11.00_Inches)
  6

 40
0.0
 41
0.0
 42
0.0
 43
0.0
 44
431.8
 45
279.4
 46
0.0
 47
0.0
 48
0.0
 49
0.0
140
0.0
141
0.0
142
1.0
143
1.0
 70
     0
 72
     0
 73
     0
 74
     0
  7

 75
     0
147
1.0
148
0.0
149
0.0
100
AcDbLayout
  1
Layout1
 70
     1
 71
     1
 10
0.0
 20
0.0
 11
12.0
 21
9.0
 12
0.0
 22
0.0
 32
0.0
 14
1.000000000000000E+20
 24
1.000000000000000E+20
 34
1.000000000000000E+20
 15
-1.000000000000000E+20
 25
-1.000000000000000E+20
 35
-1.000000000000000E+20
146
0.0
 13
0.0
 23
0.0
 33
0.0
 16
1.0
 26
0.0
 36
0.0
 17
0.0
 27
1.0
 37
0.0
 76
     0
330
221
  0
LAYOUT
  5
198A
102
{ACAD_XDICTIONARY
360
1A84
102
}
102
{ACAD_REACTORS
330
1A
102
}
330
1A
100
AcDbPlotSettings
  1

  2
none_device
  4
ANSI_B_(17.00_x_11.00_Inches)
  6

 40
0.0
 41
0.0
 42
0.0
 43
0.0
 44
431.8
 45
279.4
 46
0.0
 47
0.0
 48
0.0
 49
0.0
140
0.0
141
0.0
142
1.0
143
1.0
 70
  1024
 72
     0
 73
     0
 74
     0
  7

 75
     0
147
1.0
148
0.0
149
0.0
100
AcDbLayout
  1
Model
 70
     0
 71
     0
 10
0.0
 20
0.0
 11
17.0
 21
11.0
 12
0.0
 22
0.0
 32
0.0
 14
0.0
 24
0.0
 34
0.0
 15
0.0
 25
0.0
 35
0.0
146
0.0
 13
0.0
 23
0.0
 33
0.0
 16
1.0
 26
0.0
 36
0.0
 17
0.0
 27
1.0
 37
0.0
 76
     0
330
220
331
1F4
  0
MATERIAL
  5
1998
102
{ACAD_XDICTIONARY
360
1999
102
}
102
{ACAD_REACTORS
330
198F
102
}
330
198F
100
AcDbMaterial
  1
ByBlock
 72
     0
 43
0.0208333333333333
 43
0.0
 43
0.0
 43
0.0
 43
0.0
 43
0.0208333333333333
 43
0.0
 43
0.0
 43
0.0
 43
0.0
 43
1.0
 43
0.0
 43
0.0
 43
0.0
 43
0.0
 43
1.0
 77
     0
 47
0.0208333333333333
 47
0.0
 47
0.0
 47
0.0
 47
0.0
 47
0.0208333333333333
 47
0.0
 47
0.0
 47
0.0
 47
0.0
 47
1.0
 47
0.0
 47
0.0
 47
0.0
 47
0.0
 47
1.0
171
     0
 49
0.0208333333333333
 49
0.0
 49
0.0
 49
0.0
 49
0.0
 49
0.0208333333333333
 49
0.0
 49
0.0
 49
0.0
 49
0.0
 49
1.0
 49
0.0
 49
0.0
 49
0.0
 49
0.0
 49
1.0
175
     0
142
0.0208333333333333
142
0.0
142
0.0
142
0.0
142
0.0
142
0.0208333333333333
142
0.0
142
0.0
142
0.0
142
0.0
142
1.0
142
0.0
142
0.0
142
0.0
142
0.0
142
1.0
179
     0
144
0.0208333333333333
144
0.0
144
0.0
144
0.0
144
0.0
144
0.0208333333333333
144
0.0
144
0.0
144
0.0
144
0.0
144
1.0
144
0.0
144
0.0
144
0.0
144
0.0
144
1.0
147
0.0208333333333333
147
0.0
147
0.0
147
0.0
147
0.0
147
0.0208333333333333
147
0.0
147
0.0
147
0.0
147
0.0
147
1.0
147
0.0
147
0.0
147
0.0
147
0.0
147
1.0
  0
MATERIAL
  5
1990
102
{ACAD_XDICTIONARY
360
1991
102
}
102
{ACAD_REACTORS
330
198F
102
}
330
198F
100
AcDbMaterial
  1
ByLayer
 72
     0
 43
0.0208333333333333
 43
0.0
 43
0.0
 43
0.0
 43
0.0
 43
0.0208333333333333
 43
0.0
 43
0.0
 43
0.0
 43
0.0
 43
1.0
 43
0.0
 43
0.0
 43
0.0
 43
0.0
 43
1.0
 77
     0
 47
0.0208333333333333
 47
0.0
 47
0.0
 47
0.0
 47
0.0
 47
0.0208333333333333
 47
0.0
 47
0.0
 47
0.0
 47
0.0
 47
1.0
 47
0.0
 47
0.0
 47
0.0
 47
0.0
 47
1.0
171
     0
 49
0.0208333333333333
 49
0.0
 49
0.0
 49
0.0
 49
0.0
 49
0.0208333333333333
 49
0.0
 49
0.0
 49
0.0
 49
0.0
 49
1.0
 49
0.0
 49
0.0
 49
0.0
 49
0.0
 49
1.0
175
     0
142
0.0208333333333333
142
0.0
142
0.0
142
0.0
142
0.0
142
0.0208333333333333
142
0.0
142
0.0
142
0.0
142
0.0
142
1.0
142
0.0
142
0.0
142
0.0
142
0.0
142
1.0
179
     0
144
0.0208333333333333
144
0.0
144
0.0
144
0.0
144
0.0
144
0.0208333333333333
144
0.0
144
0.0
144
0.0
144
0.0
144
1.0
144
0.0
144
0.0
144
0.0
144
0.0
144
1.0
147
0.0208333333333333
147
0.0
147
0.0
147
0.0
147
0.0
147
0.0208333333333333
147
0.0
147
0.0
147
0.0
147
0.0
147
1.0
147
0.0
147
0.0
147
0.0
147
0.0
147
1.0
  0
MATERIAL
  5
19A0
102
{ACAD_XDICTIONARY
360
19A1
102
}
102
{ACAD_REACTORS
330
198F
102
}
330
198F
100
AcDbMaterial
  1
Global
 72
     0
 43
0.0208333333333333
 43
0.0
 43
0.0
 43
0.0
 43
0.0
 43
0.0208333333333333
 43
0.0
 43
0.0
 43
0.0
 43
0.0
 43
1.0
 43
0.0
 43
0.0
 43
0.0
 43
0.0
 43
1.0
 77
     0
 47
0.0208333333333333
 47
0.0
 47
0.0
 47
0.0
 47
0.0
 47
0.0208333333333333
 47
0.0
 47
0.0
 47
0.0
 47
0.0
 47
1.0
 47
0.0
 47
0.0
 47
0.0
 47
0.0
 47
1.0
171
     0
 49
0.0208333333333333
 49
0.0
 49
0.0
 49
0.0
 49
0.0
 49
0.0208333333333333
 49
0.0
 49
0.0
 49
0.0
 49
0.0
 49
1.0
 49
0.0
 49
0.0
 49
0.0
 49
0.0
 49
1.0
175
     0
142
0.0208333333333333
142
0.0
142
0.0
142
0.0
142
0.0
142
0.0208333333333333
142
0.0
142
0.0
142
0.0
142
0.0
142
1.0
142
0.0
142
0.0
142
0.0
142
0.0
142
1.0
179
     0
144
0.0208333333333333
144
0.0
144
0.0
144
0.0
144
0.0
144
0.0208333333333333
144
0.0
144
0.0
144
0.0
144
0.0
144
1.0
144
0.0
144
0.0
144
0.0
144
0.0
144
1.0
147
0.0208333333333333
147
0.0
147
0.0
147
0.0
147
0.0
147
0.0208333333333333
147
0.0
147
0.0
147
0.0
147
0.0
147
1.0
147
0.0
147
0.0
147
0.0
147
0.0
147
1.0
  0
MLEADERSTYLE
  5
19E2
102
{ACAD_REACTORS
330
19E1
102
}
330
19E1
100
AcDbMLeaderStyle
170
     2
171
     1
172
     0
 90
        2
 40
0.0
 41
0.0
173
     1
 91
-1056964608
340
14
 92
       -2
290
     1
 42
0.09
291
     1
 43
0.36
  3
Standard
 44
0.18
300

342
11
174
     1
178
     6
175
     1
176
     0
 93
-1056964608
 45
0.18
292
     0
297
     0
 46
0.18
 94
-1056964608
 47
1.0
 49
1.0
140
1.0
293
     1
141
0.0
294
     1
177
     0
142
1.0
295
     0
296
     0
143
0.125
1001
ACAD_MLEADERVER
1070
     2
  0
MLINESTYLE
  5
18
102
{ACAD_REACTORS
330
17
102
}
330
17
100
AcDbMlineStyle
  2
STANDARD
 70
     0
  3

 62
   256
 51
90.0
 52
90.0
 71
     2
 49
0.5
 62
   256
  6
BYLAYER
 49
-0.5
 62
   256
  6
BYLAYER
  0
ACDBPLACEHOLDER
  5
F
102
{ACAD_REACTORS
330
E
102
}
330
E
  0
SCALE
  5
19C0
102
{ACAD_REACTORS
330
19BF
102
}
330
19BF
100
AcDbScale
 70
     0
300
1:1
140
1.0
141
1.0
290
     1
  0
SCALE
  5
19C1
102
{ACAD_REACTORS
330
19BF
102
}
330
19BF
100
AcDbScale
 70
     0
300
1:2
140
1.0
141
2.0
290
     0
  0
SCALE
  5
19C2
102
{ACAD_REACTORS
330
19BF
102
}
330
19BF
100
AcDbScale
 70
     0
300
1:4
140
1.0
141
4.0
290
     0
  0
SCALE
  5
19C3
102
{ACAD_REACTORS
330
19BF
102
}
330
19BF
100
AcDbScale
 70
     0
300
1:5
140
1.0
141
5.0
290
     0
  0
SCALE
  5
19C4
102
{ACAD_REACTORS
330
19BF
102
}
330
19BF
100
AcDbScale
 70
     0
300
1:8
140
1.0
141
8.0
290
     0
  0
SCALE
  5
19C5
102
{ACAD_REACTORS
330
19BF
102
}
330
19BF
100
AcDbScale
 70
     0
300
1:10
140
1.0
141
10.0
290
     0
  0
SCALE
  5
19C6
102
{ACAD_REACTORS
330
19BF
102
}
330
19BF
100
AcDbScale
 70
     0
300
1:16
140
1.0
141
16.0
290
     0
  0
SCALE
  5
19C7
102
{ACAD_REACTORS
330
19BF
102
}
330
19BF
100
AcDbScale
 70
     0
300
1:20
140
1.0
141
20.0
290
     0
  0
SCALE
  5
19C8
102
{ACAD_REACTORS
330
19BF
102
}
330
19BF
100
AcDbScale
 70
     0
300
1:30
140
1.0
141
30.0
290
     0
  0
SCALE
  5
19C9
102
{ACAD_REACTORS
330
19BF
102
}
330
19BF
100
AcDbScale
 70
     0
300
1:40
140
1.0
141
40.0
290
     0
  0
SCALE
  5
19CA
102
{ACAD_REACTORS
330
19BF
102
}
330
19BF
100
AcDbScale
 70
     0
300
1:50
140
1.0
141
50.0
290
     0
  0
SCALE
  5
19CB
102
{ACAD_REACTORS
330
19BF
102
}
330
19BF
100
AcDbScale
 70
     0
300
1:100
140
1.0
141
100.0
290
     0
  0
SCALE
  5
19CC
102
{ACAD_REACTORS
330
19BF
102
}
330
19BF
100
AcDbScale
 70
     0
300
2:1
140
2.0
141
1.0
290
     0
  0
SCALE
  5
19CD
102
{ACAD_REACTORS
330
19BF
102
}
330
19BF
100
AcDbScale
 70
     0
300
4:1
140
4.0
141
1.0
290
     0
  0
SCALE
  5
19CE
102
{ACAD_REACTORS
330
19BF
102
}
330
19BF
100
AcDbScale
 70
     0
300
8:1
140
8.0
141
1.0
290
     0
  0
SCALE
  5
19CF
102
{ACAD_REACTORS
330
19BF
102
}
330
19BF
100
AcDbScale
 70
     0
300
10:1
140
10.0
141
1.0
290
     0
  0
SCALE
  5
19D0
102
{ACAD_REACTORS
330
19BF
102
}
330
19BF
100
AcDbScale
 70
     0
300
100:1
140
100.0
141
1.0
290
     0
  0
SCALE
  5
19D1
102
{ACAD_REACTORS
330
19BF
102
}
330
19BF
100
AcDbScale
 70
     0
300
1/128" = 1'-0"
140
0.0078125
141
12.0
290
     0
  0
SCALE
  5
19D2
102
{ACAD_REACTORS
330
19BF
102
}
330
19BF
100
AcDbScale
 70
     0
300
1/64" = 1'-0"
140
0.015625
141
12.0
290
     0
  0
SCALE
  5
19D3
102
{ACAD_REACTORS
330
19BF
102
}
330
19BF
100
AcDbScale
 70
     0
300
1/32" = 1'-0"
140
0.03125
141
12.0
290
     0
  0
SCALE
  5
19D4
102
{ACAD_REACTORS
330
19BF
102
}
330
19BF
100
AcDbScale
 70
     0
300
1/16" = 1'-0"
140
0.0625
141
12.0
290
     0
  0
SCALE
  5
19D5
102
{ACAD_REACTORS
330
19BF
102
}
330
19BF
100
AcDbScale
 70
     0
300
3/32" = 1'-0"
140
0.09375
141
12.0
290
     0
  0
SCALE
  5
19D6
102
{ACAD_REACTORS
330
19BF
102
}
330
19BF
100
AcDbScale
 70
     0
300
1/8" = 1'-0"
140
0.125
141
12.0
290
     0
  0
SCALE
  5
19D7
102
{ACAD_REACTORS
330
19BF
102
}
330
19BF
100
AcDbScale
 70
     0
300
3/16" = 1'-0"
140
0.1875
141
12.0
290
     0
  0
SCALE
  5
19D8
102
{ACAD_REACTORS
330
19BF
102
}
330
19BF
100
AcDbScale
 70
     0
300
1/4" = 1'-0"
140
0.25
141
12.0
290
     0
  0
SCALE
  5
19D9
102
{ACAD_REACTORS
330
19BF
102
}
330
19BF
100
AcDbScale
 70
     0
300
3/8" = 1'-0"
140
0.375
141
12.0
290
     0
  0
SCALE
  5
19DA
102
{ACAD_REACTORS
330
19BF
102
}
330
19BF
100
AcDbScale
 70
     0
300
1/2" = 1'-0"
140
0.5
141
12.0
290
     0
  0
SCALE
  5
19DB
102
{ACAD_REACTORS
330
19BF
102
}
330
19BF
100
AcDbScale
 70
     0
300
3/4" = 1'-0"
140
0.75
141
12.0
290
     0
  0
SCALE
  5
19DC
102
{ACAD_REACTORS
330
19BF
102
}
330
19BF
100
AcDbScale
 70
     0
300
1" = 1'-0"
140
1.0
141
12.0
290
     0
  0
SCALE
  5
19DD
102
{ACAD_REACTORS
330
19BF
102
}
330
19BF
100
AcDbScale
 70
     0
300
1-1/2" = 1'-0"
140
1.5
141
12.0
290
     0
  0
SCALE
  5
19DE
102
{ACAD_REACTORS
330
19BF
102
}
330
19BF
100
AcDbScale
 70
     0
300
3" = 1'-0"
140
3.0
141
12.0
290
     0
  0
SCALE
  5
19DF
102
{ACAD_REACTORS
330
19BF
102
}
330
19BF
100
AcDbScale
 70
     0
300
6" = 1'-0"
140
6.0
141
12.0
290
     0
  0
SCALE
  5
19E0
102
{ACAD_REACTORS
330
19BF
102
}
330
19BF
100
AcDbScale
 70
     0
300
1'-0" = 1'-0"
140
12.0
141
12.0
290
     0
  0
TABLESTYLE
  5
19BE
102
{ACAD_XDICTIONARY
360
19E5
102
}
102
{ACAD_REACTORS
330
19BD
102
}
330
19BD
100
AcDbTableStyle
  3
Standard
 70
     0
 71
     0
 40
0.06
 41
0.06
280
     0
281
     0
  7
STANDARD
140
0.18
170
     2
 62
     0
 63
     7
283
     0
274
    -2
284
     1
 64
     0
275
    -2
285
     1
 65
     0
276
    -2
286
     1
 66
     0
277
    -2
287
     1
 67
     0
278
    -2
288
     1
 68
     0
279
    -2
289
     1
 69
     0
  7
STANDARD
140
0.25
170
     5
 62
     0
 63
     7
283
     0
274
    -2
284
     1
 64
     0
275
    -2
285
     1
 65
     0
276
    -2
286
     1
 66
     0
277
    -2
287
     1
 67
     0
278
    -2
288
     1
 68
     0
279
    -2
289
     1
 69
     0
  7
STANDARD
140
0.18
170
     5
 62
     0
 63
     7
283
     0
274
    -2
284
     1
 64
     0
275
    -2
285
     1
 65
     0
276
    -2
286
     1
 66
     0
277
    -2
287
     1
 67
     0
278
    -2
288
     1
 68
     0
279
    -2
289
     1
 69
     0
  0
VISUALSTYLE
  5
19AE
102
{ACAD_XDICTIONARY
360
19FB
102
}
102
{ACAD_REACTORS
330
19A8
102
}
330
19A8
100
AcDbVisualStyle
  2
2dWireframe
 70
     4
 71
     0
 72
     2
 73
     0
 90
        0
 40
-0.6
 41
-30.0
 62
     5
 63
     7
 74
     1
 91
        4
 64
     7
 65
   257
 75
     1
175
     1
 42
1.0
 92
        0
 66
   257
 43
1.0
 76
     1
 77
     6
 78
     2
 67
     7
 79
     5
170
     0
171
     0
290
     0
174
     0
 93
        1
 44
0.0
173
     0
291
     0
 45
0.0
1001
ACAD
1000
AcDbSavedByObjectVersion
1070
     0
  0
VISUALSTYLE
  5
19B0
102
{ACAD_XDICTIONARY
360
19FF
102
}
102
{ACAD_REACTORS
330
19A8
102
}
330
19A8
100
AcDbVisualStyle
  2
3D Hidden
 70
     6
 71
     1
 72
     2
 73
     2
 90
        0
 40
-0.6
 41
-30.0
 62
     5
 63
     7
 74
     2
 91
        2
 64
     7
 65
   257
 75
     2
175
     1
 42
179.0
 92
        0
 66
   257
 43
1.0
 76
     1
 77
     6
 78
     2
 67
     7
 79
     3
170
     0
171
     0
290
     0
174
     0
 93
        1
 44
0.0
173
     0
291
     0
 45
0.0
1001
ACAD
1000
AcDbSavedByObjectVersion
1070
     0
  0
VISUALSTYLE
  5
19AF
102
{ACAD_XDICTIONARY
360
19FD
102
}
102
{ACAD_REACTORS
330
19A8
102
}
330
19A8
100
AcDbVisualStyle
  2
3dWireframe
 70
     5
 71
     0
 72
     2
 73
     0
 90
        0
 40
-0.6
 41
-30.0
 62
     5
 63
     7
 74
     1
 91
        4
 64
     7
 65
   257
 75
     1
175
     1
 42
1.0
 92
        0
 66
   257
 43
1.0
 76
     1
 77
     6
 78
     2
 67
     7
 79
     5
170
     0
171
     0
290
     0
174
     0
 93
        1
 44
0.0
173
     0
291
     0
 45
0.0
1001
ACAD
1000
AcDbSavedByObjectVersion
1070
     0
  0
VISUALSTYLE
  5
19AD
102
{ACAD_XDICTIONARY
360
19F9
102
}
102
{ACAD_REACTORS
330
19A8
102
}
330
19A8
100
AcDbVisualStyle
  2
Basic
 70
     7
 71
     1
 72
     0
 73
     1
 90
        0
 40
-0.6
 41
-30.0
 62
     5
 63
     7
 74
     0
 91
        4
 64
     7
 65
   257
 75
     1
175
     1
 42
1.0
 92
        8
 66
     7
 43
1.0
 76
     1
 77
     6
 78
     2
 67
     7
 79
     5
170
     0
171
     0
290
     0
174
     0
 93
        1
 44
0.0
173
     0
291
     1
 45
0.0
1001
ACAD
1000
AcDbSavedByObjectVersion
1070
     0
  0
VISUALSTYLE
  5
19B4
102
{ACAD_XDICTIONARY
360
1A07
102
}
102
{ACAD_REACTORS
330
19A8
102
}
330
19A8
100
AcDbVisualStyle
  2
Brighten
 70
    12
 71
     2
 72
     2
 73
     0
 90
        0
 40
-0.6
 41
-30.0
 62
     5
 63
     7
 74
     1
 91
        4
 64
     7
 65
   257
 75
     1
175
     1
 42
1.0
 92
        8
 66
     7
 43
1.0
 76
     1
 77
     6
 78
     2
 67
     7
 79
     5
170
     0
171
     0
290
     0
174
     0
 93
        1
 44
50.0
173
     0
291
     1
 45
0.0
1001
ACAD
1000
AcDbSavedByObjectVersion
1070
     0
  0
VISUALSTYLE
  5
19B8
102
{ACAD_XDICTIONARY
360
1A0F
102
}
102
{ACAD_REACTORS
330
19A8
102
}
330
19A8
100
AcDbVisualStyle
  2
ColorChange
 70
    16
 71
     2
 72
     2
 73
     3
 90
        0
 40
-0.6
 41
-30.0
 62
     5
 63
     8
 74
     1
 91
        4
 64
     7
 65
   257
 75
     1
175
     1
 42
1.0
 92
        8
 66
     8
 43
1.0
 76
     1
 77
     6
 78
     2
 67
     7
 79
     5
170
     0
171
     0
290
     0
174
     0
 93
        1
 44
0.0
173
     0
291
     1
 45
0.0
1001
ACAD
1000
AcDbSavedByObjectVersion
1070
     0
  0
VISUALSTYLE
  5
19B1
102
{ACAD_XDICTIONARY
360
1A01
102
}
102
{ACAD_REACTORS
330
19A8
102
}
330
19A8
100
AcDbVisualStyle
  2
Conceptual
 70
     9
 71
     3
 72
     2
 73
     0
 90
        0
 40
-0.6
 41
-30.0
 62
     5
 63
     7
 74
     2
 91
        2
 64
     7
 65
   257
 75
     1
175
     1
 42
179.0
 92
        8
 66
     7
 43
1.0
 76
     1
 77
     6
 78
     2
 67
     7
 79
     3
170
     0
171
     0
290
     0
174
     0
 93
        1
 44
0.0
173
     0
291
     0
 45
0.0
1001
ACAD
1000
AcDbSavedByObjectVersion
1070
     0
  0
VISUALSTYLE
  5
19B3
102
{ACAD_XDICTIONARY
360
1A05
102
}
102
{ACAD_REACTORS
330
19A8
102
}
330
19A8
100
AcDbVisualStyle
  2
Dim
 70
    11
 71
     2
 72
     2
 73
     0
 90
        0
 40
-0.6
 41
-30.0
 62
     5
 63
     7
 74
     1
 91
        4
 64
     7
 65
   257
 75
     1
175
     1
 42
1.0
 92
        8
 66
     7
 43
1.0
 76
     1
 77
     6
 78
     2
 67
     7
 79
     5
170
     0
171
     0
290
     0
174
     0
 93
        1
 44
-50.0
173
     0
291
     1
 45
0.0
1001
ACAD
1000
AcDbSavedByObjectVersion
1070
     0
  0
VISUALSTYLE
  5
19BB
102
{ACAD_XDICTIONARY
360
1A15
102
}
102
{ACAD_REACTORS
330
19A8
102
}
330
19A8
100
AcDbVisualStyle
  2
EdgeColorOff
 70
    22
 71
     2
 72
     2
 73
     0
 90
        0
 40
-0.6
 41
-30.0
 62
     5
 63
     7
 74
     1
 91
        4
 64
     7
 65
   257
 75
     1
175
     1
 42
1.0
 92
        8
 66
     7
 43
1.0
 76
     1
 77
     6
 78
     2
 67
     7
 79
     5
170
     0
171
     0
290
     0
174
     0
 93
        1
 44
0.0
173
     0
291
     1
 45
0.0
1001
ACAD
1000
AcDbSavedByObjectVersion
1070
     0
  0
VISUALSTYLE
  5
19B7
102
{ACAD_XDICTIONARY
360
1A0D
102
}
102
{ACAD_REACTORS
330
19A8
102
}
330
19A8
100
AcDbVisualStyle
  2
Facepattern
 70
    15
 71
     2
 72
     2
 73
     0
 90
        0
 40
-0.6
 41
-30.0
 62
     5
 63
     7
 74
     1
 91
        4
 64
     7
 65
   257
 75
     1
175
     1
 42
1.0
 92
        8
 66
     7
 43
1.0
 76
     1
 77
     6
 78
     2
 67
     7
 79
     5
170
     0
171
     0
290
     0
174
     0
 93
        1
 44
0.0
173
     0
291
     1
 45
0.0
1001
ACAD
1000
AcDbSavedByObjectVersion
1070
     0
  0
VISUALSTYLE
  5
19A9
102
{ACAD_XDICTIONARY
360
19F1
102
}
102
{ACAD_REACTORS
330
19A8
102
}
330
19A8
100
AcDbVisualStyle
  2
Flat
 70
     0
 71
     2
 72
     1
 73
     1
 90
        2
 40
-0.6
 41
30.0
 62
     5
 63
     7
 74
     0
 91
        4
 64
     7
 65
   257
 75
     1
175
     1
 42
1.0
 92
        8
 66
     7
 43
1.0
 76
     1
 77
     6
 78
     2
 67
     7
 79
     5
170
     0
171
     0
290
     0
174
     0
 93
       13
 44
0.0
173
     0
291
     1
 45
0.0
1001
ACAD
1000
AcDbSavedByObjectVersion
1070
     0
  0
VISUALSTYLE
  5
19AA
102
{ACAD_XDICTIONARY
360
19F3
102
}
102
{ACAD_REACTORS
330
19A8
102
}
330
19A8
100
AcDbVisualStyle
  2
FlatWithEdges
 70
     1
 71
     2
 72
     1
 73
     1
 90
        2
 40
-0.6
 41
30.0
 62
     5
 63
     7
 74
     1
 91
        4
 64
     7
 65
   257
 75
     1
175
     1
 42
1.0
 92
        0
 66
   257
 43
1.0
 76
     1
 77
     6
 78
     2
 67
     7
 79
     5
170
     0
171
     0
290
     0
174
     0
 93
       13
 44
0.0
173
     0
291
     1
 45
0.0
1001
ACAD
1000
AcDbSavedByObjectVersion
1070
     0
  0
VISUALSTYLE
  5
19AB
102
{ACAD_XDICTIONARY
360
19F5
102
}
102
{ACAD_REACTORS
330
19A8
102
}
330
19A8
100
AcDbVisualStyle
  2
Gouraud
 70
     2
 71
     2
 72
     2
 73
     1
 90
        2
 40
-0.6
 41
30.0
 62
     5
 63
     7
 74
     0
 91
        4
 64
     7
 65
   257
 75
     1
175
     1
 42
1.0
 92
        0
 66
     7
 43
1.0
 76
     1
 77
     6
 78
     2
 67
     7
 79
     5
170
     0
171
     0
290
     0
174
     0
 93
       13
 44
0.0
173
     0
291
     1
 45
0.0
1001
ACAD
1000
AcDbSavedByObjectVersion
1070
     0
  0
VISUALSTYLE
  5
19AC
102
{ACAD_XDICTIONARY
360
19F7
102
}
102
{ACAD_REACTORS
330
19A8
102
}
330
19A8
100
AcDbVisualStyle
  2
GouraudWithEdges
 70
     3
 71
     2
 72
     2
 73
     1
 90
        2
 40
-0.6
 41
30.0
 62
     5
 63
     7
 74
     1
 91
        4
 64
     7
 65
   257
 75
     1
175
     1
 42
1.0
 92
        0
 66
   257
 43
1.0
 76
     1
 77
     6
 78
     2
 67
     7
 79
     5
170
     0
171
     0
290
     0
174
     0
 93
       13
 44
0.0
173
     0
291
     1
 45
0.0
1001
ACAD
1000
AcDbSavedByObjectVersion
1070
     0
  0
VISUALSTYLE
  5
19B9
102
{ACAD_XDICTIONARY
360
1A11
102
}
102
{ACAD_REACTORS
330
19A8
102
}
330
19A8
100
AcDbVisualStyle
  2
JitterOff
 70
    20
 71
     2
 72
     2
 73
     0
 90
        0
 40
-0.6
 41
-30.0
 62
     5
 63
     7
 74
     1
 91
        4
 64
     7
 65
   257
 75
     1
175
     1
 42
1.0
 92
       10
 66
     7
 43
1.0
 76
     1
 77
     6
 78
     2
 67
     7
 79
     5
170
     0
171
     0
290
     0
174
     0
 93
        1
 44
0.0
173
     0
291
     1
 45
0.0
1001
ACAD
1000
AcDbSavedByObjectVersion
1070
     0
  0
VISUALSTYLE
  5
19B6
102
{ACAD_XDICTIONARY
360
1A0B
102
}
102
{ACAD_REACTORS
330
19A8
102
}
330
19A8
100
AcDbVisualStyle
  2
Linepattern
 70
    14
 71
     2
 72
     2
 73
     0
 90
        0
 40
-0.6
 41
-30.0
 62
     5
 63
     7
 74
     1
 91
        4
 64
     7
 65
   257
 75
     7
175
     7
 42
1.0
 92
        8
 66
     7
 43
1.0
 76
     1
 77
     6
 78
     2
 67
     7
 79
     5
170
     0
171
     0
290
     0
174
     0
 93
        1
 44
0.0
173
     0
291
     1
 45
0.0
1001
ACAD
1000
AcDbSavedByObjectVersion
1070
     0
  0
VISUALSTYLE
  5
19BA
102
{ACAD_XDICTIONARY
360
1A13
102
}
102
{ACAD_REACTORS
330
19A8
102
}
330
19A8
100
AcDbVisualStyle
  2
OverhangOff
 70
    21
 71
     2
 72
     2
 73
     0
 90
        0
 40
-0.6
 41
-30.0
 62
     5
 63
     7
 74
     1
 91
        4
 64
     7
 65
   257
 75
     1
175
     1
 42
1.0
 92
        9
 66
     7
 43
1.0
 76
     1
 77
     6
 78
     2
 67
     7
 79
     5
170
     0
171
     0
290
     0
174
     0
 93
        1
 44
0.0
173
     0
291
     1
 45
0.0
1001
ACAD
1000
AcDbSavedByObjectVersion
1070
     0
  0
VISUALSTYLE
  5
19B2
102
{ACAD_XDICTIONARY
360
1A03
102
}
102
{ACAD_REACTORS
330
19A8
102
}
330
19A8
100
AcDbVisualStyle
  2
Realistic
 70
     8
 71
     2
 72
     2
 73
     0
 90
        0
 40
-0.6
 41
-30.0
 62
     5
 63
     7
 74
     1
 91
        0
 64
     7
 65
   257
 75
     1
175
     1
 42
1.0
 92
        8
 66
     8
 43
1.0
 76
     1
 77
     6
 78
     2
 67
     7
 79
     5
170
     0
171
     0
290
     0
174
     0
 93
       13
 44
0.0
173
     0
291
     0
 45
0.0
1001
ACAD
1000
AcDbSavedByObjectVersion
1070
     0
  0
VISUALSTYLE
  5
19B5
102
{ACAD_XDICTIONARY
360
1A09
102
}
102
{ACAD_REACTORS
330
19A8
102
}
330
19A8
100
AcDbVisualStyle
  2
Thicken
 70
    13
 71
     2
 72
     2
 73
     0
 90
        0
 40
-0.6
 41
-30.0
 62
     5
 63
     7
 74
     1
 91
        4
 64
     7
 65
   257
 75
     1
175
     1
 42
1.0
 92
       12
 66
     7
 43
1.0
 76
     1
 77
     6
 78
     2
 67
     7
 79
     5
170
     0
171
     0
290
     0
174
     0
 93
        1
 44
0.0
173
     0
291
     1
 45
0.0
1001
ACAD
1000
AcDbSavedByObjectVersion
1070
     0
  0
DICTIONARYVAR
  5
1A1C
102
{ACAD_REACTORS
330
1A19
102
}
330
1A19
100
DictionaryVariables
280
     0
  1
1:1
  0
DICTIONARYVAR
  5
1A1B
102
{ACAD_REACTORS
330
1A19
102
}
330
1A19
100
DictionaryVariables
280
     0
  1
STANDARD
  0
DICTIONARYVAR
  5
1A1A
102
{ACAD_REACTORS
330
1A19
102
}
330
1A19
100
DictionaryVariables
280
     0
  1
STANDARD
  0
DICTIONARYVAR
  5
1A1F
102
{ACAD_REACTORS
330
1A19
102
}
330
1A19
100
DictionaryVariables
280
     0
  1
1
  0
DICTIONARYVAR
  5
1A1E
102
{ACAD_REACTORS
330
1A19
102
}
330
1A19
100
DictionaryVariables
280
     0
  1
0
  0
DICTIONARYVAR
  5
1A6A
102
{ACAD_REACTORS
330
1A19
102
}
330
1A19
100
DictionaryVariables
280
     0
  1
1
  0
DICTIONARYVAR
  5
1A6B
102
{ACAD_REACTORS
330
1A19
102
}
330
1A19
100
DictionaryVariables
280
     0
  1
15
  0
DICTIONARYVAR
  5
1A69
102
{ACAD_REACTORS
330
1A19
102
}
330
1A19
100
DictionaryVariables
280
     0
  1
0
  0
DICTIONARYVAR
  5
1A68
102
{ACAD_REACTORS
330
1A19
102
}
330
1A19
100
DictionaryVariables
280
     0
  1
0
  0
DICTIONARYVAR
  5
1A1D
102
{ACAD_REACTORS
330
1A19
102
}
330
1A19
100
DictionaryVariables
280
     0
  1
127
  0
DICTIONARYVAR
  5
1A20
102
{ACAD_REACTORS
330
1A19
102
}
330
1A19
100
DictionaryVariables
280
     0
  1
0
  0
DICTIONARY
  5
1A86
330
198B
100
AcDbDictionary
280
     1
281
     1
  3
ACAD_XREC_ROUNDTRIP
360
1A87
  0
DICTIONARY
  5
1A84
330
198A
100
AcDbDictionary
280
     1
281
     1
  3
ACAD_XREC_ROUNDTRIP
360
1A85
  0
DICTIONARY
  5
1999
330
1998
100
AcDbDictionary
280
     1
281
     1
  3
ACAD_XREC_ROUNDTRIP
360
1A89
  3
BUMPTILE
360
199B
  3
DIFFUSETILE
360
199A
  3
OPACITYTILE
360
199E
  3
REFLECTIONTILE
360
199D
  3
REFRACTIONTILE
360
199F
  3
SPECULARTILE
360
199C
  0
DICTIONARY
  5
1991
330
1990
100
AcDbDictionary
280
     1
281
     1
  3
ACAD_XREC_ROUNDTRIP
360
1A88
  3
BUMPTILE
360
1993
  3
DIFFUSETILE
360
1992
  3
OPACITYTILE
360
1996
  3
REFLECTIONTILE
360
1995
  3
REFRACTIONTILE
360
1997
  3
SPECULARTILE
360
1994
  0
DICTIONARY
  5
19A1
330
19A0
100
AcDbDictionary
280
     1
281
     1
  3
ACAD_XREC_ROUNDTRIP
360
1A8A
  3
BUMPTILE
360
19A3
  3
DIFFUSETILE
360
19A2
  3
OPACITYTILE
360
19A6
  3
REFLECTIONTILE
360
19A5
  3
REFRACTIONTILE
360
19A7
  3
SPECULARTILE
360
19A4
  0
DICTIONARY
  5
19E5
330
19BE
100
AcDbDictionary
280
     1
281
     1
  3
ACAD_ROUNDTRIP_2008_TABLESTYLE_CELLSTYLEMAP
360
1A82
  3
ACAD_XREC_ROUNDTRIP
360
1A8B
  0
DICTIONARY
  5
19FB
330
19AE
100
AcDbDictionary
280
     1
281
     1
  3
ACAD_XREC_ROUNDTRIP
360
19FC
  0
DICTIONARY
  5
19FF
330
19B0
100
AcDbDictionary
280
     1
281
     1
  3
ACAD_XREC_ROUNDTRIP
360
1A00
  0
DICTIONARY
  5
19FD
330
19AF
100
AcDbDictionary
280
     1
281
     1
  3
ACAD_XREC_ROUNDTRIP
360
19FE
  0
DICTIONARY
  5
19F9
330
19AD
100
AcDbDictionary
280
     1
281
     1
  3
ACAD_XREC_ROUNDTRIP
360
19FA
  0
DICTIONARY
  5
1A07
330
19B4
100
AcDbDictionary
280
     1
281
     1
  3
ACAD_XREC_ROUNDTRIP
360
1A08
  0
DICTIONARY
  5
1A0F
330
19B8
100
AcDbDictionary
280
     1
281
     1
  3
ACAD_XREC_ROUNDTRIP
360
1A10
  0
DICTIONARY
  5
1A01
330
19B1
100
AcDbDictionary
280
     1
281
     1
  3
ACAD_XREC_ROUNDTRIP
360
1A02
  0
DICTIONARY
  5
1A05
330
19B3
100
AcDbDictionary
280
     1
281
     1
  3
ACAD_XREC_ROUNDTRIP
360
1A06
  0
DICTIONARY
  5
1A15
330
19BB
100
AcDbDictionary
280
     1
281
     1
  3
ACAD_XREC_ROUNDTRIP
360
1A16
  0
DICTIONARY
  5
1A0D
330
19B7
100
AcDbDictionary
280
     1
281
     1
  3
ACAD_XREC_ROUNDTRIP
360
1A0E
  0
DICTIONARY
  5
19F1
330
19A9
100
AcDbDictionary
280
     1
281
     1
  3
ACAD_XREC_ROUNDTRIP
360
19F2
  0
DICTIONARY
  5
19F3
330
19AA
100
AcDbDictionary
280
     1
281
     1
  3
ACAD_XREC_ROUNDTRIP
360
19F4
  0
DICTIONARY
  5
19F5
330
19AB
100
AcDbDictionary
280
     1
281
     1
  3
ACAD_XREC_ROUNDTRIP
360
19F6
  0
DICTIONARY
  5
19F7
330
19AC
100
AcDbDictionary
280
     1
281
     1
  3
ACAD_XREC_ROUNDTRIP
360
19F8
  0
DICTIONARY
  5
1A11
330
19B9
100
AcDbDictionary
280
     1
281
     1
  3
ACAD_XREC_ROUNDTRIP
360
1A12
  0
DICTIONARY
  5
1A0B
330
19B6
100
AcDbDictionary
280
     1
281
     1
  3
ACAD_XREC_ROUNDTRIP
360
1A0C
  0
DICTIONARY
  5
1A13
330
19BA
100
AcDbDictionary
280
     1
281
     1
  3
ACAD_XREC_ROUNDTRIP
360
1A14
  0
DICTIONARY
  5
1A03
330
19B2
100
AcDbDictionary
280
     1
281
     1
  3
ACAD_XREC_ROUNDTRIP
360
1A04
  0
DICTIONARY
  5
1A09
330
19B5
100
AcDbDictionary
280
     1
281
     1
  3
ACAD_XREC_ROUNDTRIP
360
1A0A
  0
XRECORD
  5
1A87
102
{ACAD_REACTORS
330
1A86
102
}
330
1A86
100
AcDbXrecord
280
     1
102
SHADEPLOT
 70
     0
102
SHADEPLOTRESLEVEL
 70
     2
102
SHADEPLOTCUSTOMDPI
 70
   300
  0
XRECORD
  5
1A85
102
{ACAD_REACTORS
330
1A84
102
}
330
1A84
100
AcDbXrecord
280
     1
102
SHADEPLOT
 70
     0
102
SHADEPLOTRESLEVEL
 70
     2
102
SHADEPLOTCUSTOMDPI
 70
   300
  0
XRECORD
  5
1A89
102
{ACAD_REACTORS
330
1999
102
}
330
1999
100
AcDbXrecord
280
     1
102
MATERIAL
148
0.0
149
0.0
149
0.0
 93
        0
 94
      127
282
     0
 72
     0
 77
     0
171
     0
175
     0
179
     0
273
     0
  0
XRECORD
  5
199B
102
{ACAD_REACTORS
330
1999
102
}
330
1999
100
AcDbXrecord
280
     1
270
     1
271
     1
  0
XRECORD
  5
199A
102
{ACAD_REACTORS
330
1999
102
}
330
1999
100
AcDbXrecord
280
     1
270
     1
271
     1
  0
XRECORD
  5
199E
102
{ACAD_REACTORS
330
1999
102
}
330
1999
100
AcDbXrecord
280
     1
270
     1
271
     1
  0
XRECORD
  5
199D
102
{ACAD_REACTORS
330
1999
102
}
330
1999
100
AcDbXrecord
280
     1
270
     1
271
     1
  0
XRECORD
  5
199F
102
{ACAD_REACTORS
330
1999
102
}
330
1999
100
AcDbXrecord
280
     1
270
     1
271
     1
  0
XRECORD
  5
199C
102
{ACAD_REACTORS
330
1999
102
}
330
1999
100
AcDbXrecord
280
     1
270
     1
271
     1
  0
XRECORD
  5
1A88
102
{ACAD_REACTORS
330
1991
102
}
330
1991
100
AcDbXrecord
280
     1
102
MATERIAL
148
0.0
149
0.0
149
0.0
 93
        0
 94
      127
282
     0
 72
     0
 77
     0
171
     0
175
     0
179
     0
273
     0
  0
XRECORD
  5
1993
102
{ACAD_REACTORS
330
1991
102
}
330
1991
100
AcDbXrecord
280
     1
270
     1
271
     1
  0
XRECORD
  5
1992
102
{ACAD_REACTORS
330
1991
102
}
330
1991
100
AcDbXrecord
280
     1
270
     1
271
     1
  0
XRECORD
  5
1996
102
{ACAD_REACTORS
330
1991
102
}
330
1991
100
AcDbXrecord
280
     1
270
     1
271
     1
  0
XRECORD
  5
1995
102
{ACAD_REACTORS
330
1991
102
}
330
1991
100
AcDbXrecord
280
     1
270
     1
271
     1
  0
XRECORD
  5
1997
102
{ACAD_REACTORS
330
1991
102
}
330
1991
100
AcDbXrecord
280
     1
270
     1
271
     1
  0
XRECORD
  5
1994
102
{ACAD_REACTORS
330
1991
102
}
330
1991
100
AcDbXrecord
280
     1
270
     1
271
     1
  0
XRECORD
  5
1A8A
102
{ACAD_REACTORS
330
19A1
102
}
330
19A1
100
AcDbXrecord
280
     1
102
MATERIAL
148
0.0
149
0.0
149
0.0
 93
        0
 94
      127
282
     0
 72
     0
 77
     0
171
     0
175
     0
179
     0
273
     0
  0
XRECORD
  5
19A3
102
{ACAD_REACTORS
330
19A1
102
}
330
19A1
100
AcDbXrecord
280
     1
270
     1
271
     1
  0
XRECORD
  5
19A2
102
{ACAD_REACTORS
330
19A1
102
}
330
19A1
100
AcDbXrecord
280
     1
270
     1
271
     1
  0
XRECORD
  5
19A6
102
{ACAD_REACTORS
330
19A1
102
}
330
19A1
100
AcDbXrecord
280
     1
270
     1
271
     1
  0
XRECORD
  5
19A5
102
{ACAD_REACTORS
330
19A1
102
}
330
19A1
100
AcDbXrecord
280
     1
270
     1
271
     1
  0
XRECORD
  5
19A7
102
{ACAD_REACTORS
330
19A1
102
}
330
19A1
100
AcDbXrecord
280
     1
270
     1
271
     1
  0
XRECORD
  5
19A4
102
{ACAD_REACTORS
330
19A1
102
}
330
19A1
100
AcDbXrecord
280
     1
270
     1
271
     1
  0
CELLSTYLEMAP
  5
1A82
102
{ACAD_REACTORS
330
19E5
102
}
330
19E5
100
AcDbCellStyleMap
 90
        3
300
CELLSTYLE
  1
TABLEFORMAT_BEGIN
 90
        5
170
     1
 91
        0
 92
    32768
 62
   257
 93
        1
300
CONTENTFORMAT
  1
CONTENTFORMAT_BEGIN
 90
        0
 91
        0
 92
      512
 93
        0
300

 40
0.0
140
1.0
 94
        5
 62
     0
340
11
144
0.25
309
CONTENTFORMAT_END
171
     0
 94
        0
309
TABLEFORMAT_END
  1
CELLSTYLE_BEGIN
 90
        1
 91
        1
300
_TITLE
309
CELLSTYLE_END
300
CELLSTYLE
  1
TABLEFORMAT_BEGIN
 90
        5
170
     1
 91
        0
 92
        0
 62
   257
 93
        1
300
CONTENTFORMAT
  1
CONTENTFORMAT_BEGIN
 90
        0
 91
        0
 92
      512
 93
        0
300

 40
0.0
140
1.0
 94
        5
 62
     0
340
11
144
0.18
309
CONTENTFORMAT_END
171
     0
 94
        0
309
TABLEFORMAT_END
  1
CELLSTYLE_BEGIN
 90
        2
 91
        1
300
_HEADER
309
CELLSTYLE_END
300
CELLSTYLE
  1
TABLEFORMAT_BEGIN
 90
        5
170
     1
 91
        0
 92
        0
 62
   257
 93
        1
300
CONTENTFORMAT
  1
CONTENTFORMAT_BEGIN
 90
        0
 91
        0
 92
      512
 93
        0
300

 40
0.0
140
1.0
 94
        2
 62
     0
340
11
144
0.18
309
CONTENTFORMAT_END
171
     0
 94
        0
309
TABLEFORMAT_END
  1
CELLSTYLE_BEGIN
 90
        3
 91
        2
300
_DATA
309
CELLSTYLE_END
  0
XRECORD
  5
1A8B
102
{ACAD_REACTORS
330
19E5
102
}
330
19E5
100
AcDbXrecord
280
     1
102
ACAD_ROUNDTRIP_PRE2007_TABLESTYLE
 90
      512
 91
        0
  1

 92
      512
 93
        0
  2

 94
      512
 95
        0
  3

  0
XRECORD
  5
19FC
102
{ACAD_REACTORS
330
19FB
102
}
330
19FB
100
AcDbXrecord
280
     1
102
RTVSPropertyOp0
 70
     1
102
RTVSPropertyOp1
 70
     1
102
RTVSPropertyOp2
 70
     1
102
RTVSPropertyOp3
 70
     1
102
RTVSPropertyOp4
 70
     1
102
RTVSPropertyOp5
 70
     1
102
RTVSPropertyOp6
 70
     1
102
RTVSPropertyOp7
 70
     1
102
RTVSPropertyOp8
 70
     1
102
RTVSPropertyOp9
 70
     1
102
RTVSPropertyOp10
 70
     1
102
RTVSPropertyOp11
 70
     1
102
RTVSPropertyOp12
 70
     1
102
RTVSPropertyOp13
 70
     1
102
RTVSPropertyOp14
 70
     1
102
RTVSPropertyOp15
 70
     1
102
RTVSPropertyOp16
 70
     1
102
RTVSPropertyOp17
 70
     1
102
RTVSPropertyOp18
 70
     1
102
RTVSPropertyOp19
 70
     1
102
RTVSPropertyOp20
 70
     1
102
RTVSPropertyOp21
 70
     1
102
RTVSPropertyOp22
 70
     1
102
RTVSPropertyOp23
 70
     1
102
RTVSPropertyOp24
 70
     1
102
RTVSPropertyOp25
 70
     1
102
RTVSPropertyOp26
 70
     1
102
RTVSPropertyOp27
 70
     1
  0
XRECORD
  5
1A00
102
{ACAD_REACTORS
330
19FF
102
}
330
19FF
100
AcDbXrecord
280
     1
102
RTVSPropertyOp0
 70
     1
102
RTVSPropertyOp1
 70
     1
102
RTVSPropertyOp2
 70
     1
102
RTVSPropertyOp3
 70
     1
102
RTVSPropertyOp4
 70
     1
102
RTVSPropertyOp5
 70
     1
102
RTVSPropertyOp6
 70
     1
102
RTVSPropertyOp7
 70
     1
102
RTVSPropertyOp8
 70
     1
102
RTVSPropertyOp9
 70
     1
102
RTVSPropertyOp10
 70
     1
102
RTVSPropertyOp11
 70
     1
102
RTVSPropertyOp12
 70
     1
102
RTVSPropertyOp13
 70
     1
102
RTVSPropertyOp14
 70
     1
102
RTVSPropertyOp15
 70
     1
102
RTVSPropertyOp16
 70
     1
102
RTVSPropertyOp17
 70
     1
102
RTVSPropertyOp18
 70
     1
102
RTVSPropertyOp19
 70
     1
102
RTVSPropertyOp20
 70
     1
102
RTVSPropertyOp21
 70
     1
102
RTVSPropertyOp22
 70
     1
102
RTVSPropertyOp23
 70
     1
102
RTVSPropertyOp24
 70
     1
102
RTVSPropertyOp25
 70
     1
102
RTVSPropertyOp26
 70
     1
102
RTVSPropertyOp27
 70
     1
  0
XRECORD
  5
19FE
102
{ACAD_REACTORS
330
19FD
102
}
330
19FD
100
AcDbXrecord
280
     1
102
RTVSPropertyOp0
 70
     1
102
RTVSPropertyOp1
 70
     1
102
RTVSPropertyOp2
 70
     1
102
RTVSPropertyOp3
 70
     1
102
RTVSPropertyOp4
 70
     1
102
RTVSPropertyOp5
 70
     1
102
RTVSPropertyOp6
 70
     1
102
RTVSPropertyOp7
 70
     1
102
RTVSPropertyOp8
 70
     1
102
RTVSPropertyOp9
 70
     1
102
RTVSPropertyOp10
 70
     1
102
RTVSPropertyOp11
 70
     1
102
RTVSPropertyOp12
 70
     1
102
RTVSPropertyOp13
 70
     1
102
RTVSPropertyOp14
 70
     1
102
RTVSPropertyOp15
 70
     1
102
RTVSPropertyOp16
 70
     1
102
RTVSPropertyOp17
 70
     1
102
RTVSPropertyOp18
 70
     1
102
RTVSPropertyOp19
 70
     1
102
RTVSPropertyOp20
 70
     1
102
RTVSPropertyOp21
 70
     1
102
RTVSPropertyOp22
 70
     1
102
RTVSPropertyOp23
 70
     1
102
RTVSPropertyOp24
 70
     1
102
RTVSPropertyOp25
 70
     1
102
RTVSPropertyOp26
 70
     1
102
RTVSPropertyOp27
 70
     1
  0
XRECORD
  5
19FA
102
{ACAD_REACTORS
330
19F9
102
}
330
19F9
100
AcDbXrecord
280
     1
102
RTVSPropertyOp0
 70
     1
102
RTVSPropertyOp1
 70
     1
102
RTVSPropertyOp2
 70
     1
102
RTVSPropertyOp3
 70
     1
102
RTVSPropertyOp4
 70
     1
102
RTVSPropertyOp5
 70
     1
102
RTVSPropertyOp6
 70
     1
102
RTVSPropertyOp7
 70
     1
102
RTVSPropertyOp8
 70
     1
102
RTVSPropertyOp9
 70
     1
102
RTVSPropertyOp10
 70
     1
102
RTVSPropertyOp11
 70
     1
102
RTVSPropertyOp12
 70
     1
102
RTVSPropertyOp13
 70
     1
102
RTVSPropertyOp14
 70
     1
102
RTVSPropertyOp15
 70
     1
102
RTVSPropertyOp16
 70
     1
102
RTVSPropertyOp17
 70
     1
102
RTVSPropertyOp18
 70
     1
102
RTVSPropertyOp19
 70
     1
102
RTVSPropertyOp20
 70
     1
102
RTVSPropertyOp21
 70
     1
102
RTVSPropertyOp22
 70
     1
102
RTVSPropertyOp23
 70
     1
102
RTVSPropertyOp24
 70
     1
102
RTVSPropertyOp25
 70
     1
102
RTVSPropertyOp26
 70
     1
102
RTVSPropertyOp27
 70
     1
  0
XRECORD
  5
1A08
102
{ACAD_REACTORS
330
1A07
102
}
330
1A07
100
AcDbXrecord
280
     1
102
RTVSPropertyOp0
 70
     1
102
RTVSPropertyOp1
 70
     1
102
RTVSPropertyOp2
 70
     1
102
RTVSPropertyOp3
 70
     1
102
RTVSPropertyOp4
 70
     1
102
RTVSPropertyOp5
 70
     1
102
RTVSPropertyOp6
 70
     1
102
RTVSPropertyOp7
 70
     1
102
RTVSPropertyOp8
 70
     1
102
RTVSPropertyOp9
 70
     1
102
RTVSPropertyOp10
 70
     1
102
RTVSPropertyOp11
 70
     1
102
RTVSPropertyOp12
 70
     1
102
RTVSPropertyOp13
 70
     1
102
RTVSPropertyOp14
 70
     1
102
RTVSPropertyOp15
 70
     1
102
RTVSPropertyOp16
 70
     1
102
RTVSPropertyOp17
 70
     1
102
RTVSPropertyOp18
 70
     1
102
RTVSPropertyOp19
 70
     1
102
RTVSPropertyOp20
 70
     1
102
RTVSPropertyOp21
 70
     1
102
RTVSPropertyOp22
 70
     1
102
RTVSPropertyOp23
 70
     1
102
RTVSPropertyOp24
 70
     1
102
RTVSPropertyOp25
 70
     1
102
RTVSPropertyOp26
 70
     1
102
RTVSPropertyOp27
 70
     1
  0
XRECORD
  5
1A10
102
{ACAD_REACTORS
330
1A0F
102
}
330
1A0F
100
AcDbXrecord
280
     1
102
RTVSPropertyOp0
 70
     1
102
RTVSPropertyOp1
 70
     1
102
RTVSPropertyOp2
 70
     1
102
RTVSPropertyOp3
 70
     1
102
RTVSPropertyOp4
 70
     1
102
RTVSPropertyOp5
 70
     1
102
RTVSPropertyOp6
 70
     1
102
RTVSPropertyOp7
 70
     1
102
RTVSPropertyOp8
 70
     1
102
RTVSPropertyOp9
 70
     1
102
RTVSPropertyOp10
 70
     1
102
RTVSPropertyOp11
 70
     1
102
RTVSPropertyOp12
 70
     1
102
RTVSPropertyOp13
 70
     1
102
RTVSPropertyOp14
 70
     1
102
RTVSPropertyOp15
 70
     1
102
RTVSPropertyOp16
 70
     1
102
RTVSPropertyOp17
 70
     1
102
RTVSPropertyOp18
 70
     1
102
RTVSPropertyOp19
 70
     1
102
RTVSPropertyOp20
 70
     1
102
RTVSPropertyOp21
 70
     1
102
RTVSPropertyOp22
 70
     1
102
RTVSPropertyOp23
 70
     1
102
RTVSPropertyOp24
 70
     1
102
RTVSPropertyOp25
 70
     1
102
RTVSPropertyOp26
 70
     1
102
RTVSPropertyOp27
 70
     1
  0
XRECORD
  5
1A02
102
{ACAD_REACTORS
330
1A01
102
}
330
1A01
100
AcDbXrecord
280
     1
102
RTVSPropertyOp0
 70
     1
102
RTVSPropertyOp1
 70
     1
102
RTVSPropertyOp2
 70
     1
102
RTVSPropertyOp3
 70
     1
102
RTVSPropertyOp4
 70
     1
102
RTVSPropertyOp5
 70
     1
102
RTVSPropertyOp6
 70
     1
102
RTVSPropertyOp7
 70
     1
102
RTVSPropertyOp8
 70
     1
102
RTVSPropertyOp9
 70
     1
102
RTVSPropertyOp10
 70
     1
102
RTVSPropertyOp11
 70
     1
102
RTVSPropertyOp12
 70
     1
102
RTVSPropertyOp13
 70
     1
102
RTVSPropertyOp14
 70
     1
102
RTVSPropertyOp15
 70
     1
102
RTVSPropertyOp16
 70
     1
102
RTVSPropertyOp17
 70
     1
102
RTVSPropertyOp18
 70
     1
102
RTVSPropertyOp19
 70
     1
102
RTVSPropertyOp20
 70
     1
102
RTVSPropertyOp21
 70
     1
102
RTVSPropertyOp22
 70
     1
102
RTVSPropertyOp23
 70
     1
102
RTVSPropertyOp24
 70
     1
102
RTVSPropertyOp25
 70
     1
102
RTVSPropertyOp26
 70
     1
102
RTVSPropertyOp27
 70
     1
  0
XRECORD
  5
1A06
102
{ACAD_REACTORS
330
1A05
102
}
330
1A05
100
AcDbXrecord
280
     1
102
RTVSPropertyOp0
 70
     1
102
RTVSPropertyOp1
 70
     1
102
RTVSPropertyOp2
 70
     1
102
RTVSPropertyOp3
 70
     1
102
RTVSPropertyOp4
 70
     1
102
RTVSPropertyOp5
 70
     1
102
RTVSPropertyOp6
 70
     1
102
RTVSPropertyOp7
 70
     1
102
RTVSPropertyOp8
 70
     1
102
RTVSPropertyOp9
 70
     1
102
RTVSPropertyOp10
 70
     1
102
RTVSPropertyOp11
 70
     1
102
RTVSPropertyOp12
 70
     1
102
RTVSPropertyOp13
 70
     1
102
RTVSPropertyOp14
 70
     1
102
RTVSPropertyOp15
 70
     1
102
RTVSPropertyOp16
 70
     1
102
RTVSPropertyOp17
 70
     1
102
RTVSPropertyOp18
 70
     1
102
RTVSPropertyOp19
 70
     1
102
RTVSPropertyOp20
 70
     1
102
RTVSPropertyOp21
 70
     1
102
RTVSPropertyOp22
 70
     1
102
RTVSPropertyOp23
 70
     1
102
RTVSPropertyOp24
 70
     1
102
RTVSPropertyOp25
 70
     1
102
RTVSPropertyOp26
 70
     1
102
RTVSPropertyOp27
 70
     1
  0
XRECORD
  5
1A16
102
{ACAD_REACTORS
330
1A15
102
}
330
1A15
100
AcDbXrecord
280
     1
102
RTVSPropertyOp0
 70
     0
102
RTVSPropertyOp1
 70
     0
102
RTVSPropertyOp2
 70
     0
102
RTVSPropertyOp3
 70
     0
102
RTVSPropertyOp4
 70
     0
102
RTVSPropertyOp5
 70
     0
102
RTVSPropertyOp6
 70
     0
102
RTVSPropertyOp7
 70
     0
102
RTVSPropertyOp8
 70
     0
102
RTVSPropertyOp9
 70
     0
102
RTVSPropertyOp10
 70
     0
102
RTVSPropertyOp11
 70
     0
102
RTVSPropertyOp12
 70
     0
102
RTVSPropertyOp13
 70
     0
102
RTVSPropertyOp14
 70
     2
102
RTVSPropertyOp15
 70
     0
102
RTVSPropertyOp16
 70
     0
102
RTVSPropertyOp17
 70
     0
102
RTVSPropertyOp18
 70
     0
102
RTVSPropertyOp19
 70
     0
102
RTVSPropertyOp20
 70
     0
102
RTVSPropertyOp21
 70
     0
102
RTVSPropertyOp22
 70
     0
102
RTVSPropertyOp23
 70
     0
102
RTVSPropertyOp24
 70
     0
102
RTVSPropertyOp25
 70
     0
102
RTVSPropertyOp26
 70
     0
102
RTVSPropertyOp27
 70
     0
  0
XRECORD
  5
1A0E
102
{ACAD_REACTORS
330
1A0D
102
}
330
1A0D
100
AcDbXrecord
280
     1
102
RTVSPropertyOp0
 70
     1
102
RTVSPropertyOp1
 70
     1
102
RTVSPropertyOp2
 70
     1
102
RTVSPropertyOp3
 70
     1
102
RTVSPropertyOp4
 70
     1
102
RTVSPropertyOp5
 70
     1
102
RTVSPropertyOp6
 70
     1
102
RTVSPropertyOp7
 70
     1
102
RTVSPropertyOp8
 70
     1
102
RTVSPropertyOp9
 70
     1
102
RTVSPropertyOp10
 70
     1
102
RTVSPropertyOp11
 70
     1
102
RTVSPropertyOp12
 70
     1
102
RTVSPropertyOp13
 70
     1
102
RTVSPropertyOp14
 70
     1
102
RTVSPropertyOp15
 70
     1
102
RTVSPropertyOp16
 70
     1
102
RTVSPropertyOp17
 70
     1
102
RTVSPropertyOp18
 70
     1
102
RTVSPropertyOp19
 70
     1
102
RTVSPropertyOp20
 70
     1
102
RTVSPropertyOp21
 70
     1
102
RTVSPropertyOp22
 70
     1
102
RTVSPropertyOp23
 70
     1
102
RTVSPropertyOp24
 70
     1
102
RTVSPropertyOp25
 70
     1
102
RTVSPropertyOp26
 70
     1
102
RTVSPropertyOp27
 70
     1
  0
XRECORD
  5
19F2
102
{ACAD_REACTORS
330
19F1
102
}
330
19F1
100
AcDbXrecord
280
     1
102
RTVSPropertyOp0
 70
     1
102
RTVSPropertyOp1
 70
     1
102
RTVSPropertyOp2
 70
     1
102
RTVSPropertyOp3
 70
     1
102
RTVSPropertyOp4
 70
     1
102
RTVSPropertyOp5
 70
     1
102
RTVSPropertyOp6
 70
     1
102
RTVSPropertyOp7
 70
     1
102
RTVSPropertyOp8
 70
     1
102
RTVSPropertyOp9
 70
     1
102
RTVSPropertyOp10
 70
     1
102
RTVSPropertyOp11
 70
     1
102
RTVSPropertyOp12
 70
     1
102
RTVSPropertyOp13
 70
     1
102
RTVSPropertyOp14
 70
     1
102
RTVSPropertyOp15
 70
     1
102
RTVSPropertyOp16
 70
     1
102
RTVSPropertyOp17
 70
     1
102
RTVSPropertyOp18
 70
     1
102
RTVSPropertyOp19
 70
     1
102
RTVSPropertyOp20
 70
     1
102
RTVSPropertyOp21
 70
     1
102
RTVSPropertyOp22
 70
     1
102
RTVSPropertyOp23
 70
     1
102
RTVSPropertyOp24
 70
     1
102
RTVSPropertyOp25
 70
     1
102
RTVSPropertyOp26
 70
     1
102
RTVSPropertyOp27
 70
     1
  0
XRECORD
  5
19F4
102
{ACAD_REACTORS
330
19F3
102
}
330
19F3
100
AcDbXrecord
280
     1
102
RTVSPropertyOp0
 70
     1
102
RTVSPropertyOp1
 70
     1
102
RTVSPropertyOp2
 70
     1
102
RTVSPropertyOp3
 70
     1
102
RTVSPropertyOp4
 70
     1
102
RTVSPropertyOp5
 70
     1
102
RTVSPropertyOp6
 70
     1
102
RTVSPropertyOp7
 70
     1
102
RTVSPropertyOp8
 70
     1
102
RTVSPropertyOp9
 70
     1
102
RTVSPropertyOp10
 70
     1
102
RTVSPropertyOp11
 70
     1
102
RTVSPropertyOp12
 70
     1
102
RTVSPropertyOp13
 70
     1
102
RTVSPropertyOp14
 70
     1
102
RTVSPropertyOp15
 70
     1
102
RTVSPropertyOp16
 70
     1
102
RTVSPropertyOp17
 70
     1
102
RTVSPropertyOp18
 70
     1
102
RTVSPropertyOp19
 70
     1
102
RTVSPropertyOp20
 70
     1
102
RTVSPropertyOp21
 70
     1
102
RTVSPropertyOp22
 70
     1
102
RTVSPropertyOp23
 70
     1
102
RTVSPropertyOp24
 70
     1
102
RTVSPropertyOp25
 70
     1
102
RTVSPropertyOp26
 70
     1
102
RTVSPropertyOp27
 70
     1
  0
XRECORD
  5
19F6
102
{ACAD_REACTORS
330
19F5
102
}
330
19F5
100
AcDbXrecord
280
     1
102
RTVSPropertyOp0
 70
     1
102
RTVSPropertyOp1
 70
     1
102
RTVSPropertyOp2
 70
     1
102
RTVSPropertyOp3
 70
     1
102
RTVSPropertyOp4
 70
     1
102
RTVSPropertyOp5
 70
     1
102
RTVSPropertyOp6
 70
     1
102
RTVSPropertyOp7
 70
     1
102
RTVSPropertyOp8
 70
     1
102
RTVSPropertyOp9
 70
     1
102
RTVSPropertyOp10
 70
     1
102
RTVSPropertyOp11
 70
     1
102
RTVSPropertyOp12
 70
     1
102
RTVSPropertyOp13
 70
     1
102
RTVSPropertyOp14
 70
     1
102
RTVSPropertyOp15
 70
     1
102
RTVSPropertyOp16
 70
     1
102
RTVSPropertyOp17
 70
     1
102
RTVSPropertyOp18
 70
     1
102
RTVSPropertyOp19
 70
     1
102
RTVSPropertyOp20
 70
     1
102
RTVSPropertyOp21
 70
     1
102
RTVSPropertyOp22
 70
     1
102
RTVSPropertyOp23
 70
     1
102
RTVSPropertyOp24
 70
     1
102
RTVSPropertyOp25
 70
     1
102
RTVSPropertyOp26
 70
     1
102
RTVSPropertyOp27
 70
     1
  0
XRECORD
  5
19F8
102
{ACAD_REACTORS
330
19F7
102
}
330
19F7
100
AcDbXrecord
280
     1
102
RTVSPropertyOp0
 70
     1
102
RTVSPropertyOp1
 70
     1
102
RTVSPropertyOp2
 70
     1
102
RTVSPropertyOp3
 70
     1
102
RTVSPropertyOp4
 70
     1
102
RTVSPropertyOp5
 70
     1
102
RTVSPropertyOp6
 70
     1
102
RTVSPropertyOp7
 70
     1
102
RTVSPropertyOp8
 70
     1
102
RTVSPropertyOp9
 70
     1
102
RTVSPropertyOp10
 70
     1
102
RTVSPropertyOp11
 70
     1
102
RTVSPropertyOp12
 70
     1
102
RTVSPropertyOp13
 70
     1
102
RTVSPropertyOp14
 70
     1
102
RTVSPropertyOp15
 70
     1
102
RTVSPropertyOp16
 70
     1
102
RTVSPropertyOp17
 70
     1
102
RTVSPropertyOp18
 70
     1
102
RTVSPropertyOp19
 70
     1
102
RTVSPropertyOp20
 70
     1
102
RTVSPropertyOp21
 70
     1
102
RTVSPropertyOp22
 70
     1
102
RTVSPropertyOp23
 70
     1
102
RTVSPropertyOp24
 70
     1
102
RTVSPropertyOp25
 70
     1
102
RTVSPropertyOp26
 70
     1
102
RTVSPropertyOp27
 70
     1
  0
XRECORD
  5
1A12
102
{ACAD_REACTORS
330
1A11
102
}
330
1A11
100
AcDbXrecord
280
     1
102
RTVSPropertyOp0
 70
     0
102
RTVSPropertyOp1
 70
     0
102
RTVSPropertyOp2
 70
     0
102
RTVSPropertyOp3
 70
     0
102
RTVSPropertyOp4
 70
     0
102
RTVSPropertyOp5
 70
     0
102
RTVSPropertyOp6
 70
     0
102
RTVSPropertyOp7
 70
     0
102
RTVSPropertyOp8
 70
     0
102
RTVSPropertyOp9
 70
     0
102
RTVSPropertyOp10
 70
     0
102
RTVSPropertyOp11
 70
     0
102
RTVSPropertyOp12
 70
     0
102
RTVSPropertyOp13
 70
     0
102
RTVSPropertyOp14
 70
     2
102
RTVSPropertyOp15
 70
     0
102
RTVSPropertyOp16
 70
     0
102
RTVSPropertyOp17
 70
     0
102
RTVSPropertyOp18
 70
     0
102
RTVSPropertyOp19
 70
     0
102
RTVSPropertyOp20
 70
     0
102
RTVSPropertyOp21
 70
     0
102
RTVSPropertyOp22
 70
     0
102
RTVSPropertyOp23
 70
     0
102
RTVSPropertyOp24
 70
     0
102
RTVSPropertyOp25
 70
     0
102
RTVSPropertyOp26
 70
     0
102
RTVSPropertyOp27
 70
     0
  0
XRECORD
  5
1A0C
102
{ACAD_REACTORS
330
1A0B
102
}
330
1A0B
100
AcDbXrecord
280
     1
102
RTVSPropertyOp0
 70
     1
102
RTVSPropertyOp1
 70
     1
102
RTVSPropertyOp2
 70
     1
102
RTVSPropertyOp3
 70
     1
102
RTVSPropertyOp4
 70
     1
102
RTVSPropertyOp5
 70
     1
102
RTVSPropertyOp6
 70
     1
102
RTVSPropertyOp7
 70
     1
102
RTVSPropertyOp8
 70
     1
102
RTVSPropertyOp9
 70
     1
102
RTVSPropertyOp10
 70
     1
102
RTVSPropertyOp11
 70
     1
102
RTVSPropertyOp12
 70
     1
102
RTVSPropertyOp13
 70
     1
102
RTVSPropertyOp14
 70
     1
102
RTVSPropertyOp15
 70
     1
102
RTVSPropertyOp16
 70
     1
102
RTVSPropertyOp17
 70
     1
102
RTVSPropertyOp18
 70
     1
102
RTVSPropertyOp19
 70
     1
102
RTVSPropertyOp20
 70
     1
102
RTVSPropertyOp21
 70
     1
102
RTVSPropertyOp22
 70
     1
102
RTVSPropertyOp23
 70
     1
102
RTVSPropertyOp24
 70
     1
102
RTVSPropertyOp25
 70
     1
102
RTVSPropertyOp26
 70
     1
102
RTVSPropertyOp27
 70
     1
  0
XRECORD
  5
1A14
102
{ACAD_REACTORS
330
1A13
102
}
330
1A13
100
AcDbXrecord
280
     1
102
RTVSPropertyOp0
 70
     0
102
RTVSPropertyOp1
 70
     0
102
RTVSPropertyOp2
 70
     0
102
RTVSPropertyOp3
 70
     0
102
RTVSPropertyOp4
 70
     0
102
RTVSPropertyOp5
 70
     0
102
RTVSPropertyOp6
 70
     0
102
RTVSPropertyOp7
 70
     0
102
RTVSPropertyOp8
 70
     0
102
RTVSPropertyOp9
 70
     0
102
RTVSPropertyOp10
 70
     0
102
RTVSPropertyOp11
 70
     0
102
RTVSPropertyOp12
 70
     0
102
RTVSPropertyOp13
 70
     0
102
RTVSPropertyOp14
 70
     2
102
RTVSPropertyOp15
 70
     0
102
RTVSPropertyOp16
 70
     0
102
RTVSPropertyOp17
 70
     0
102
RTVSPropertyOp18
 70
     0
102
RTVSPropertyOp19
 70
     0
102
RTVSPropertyOp20
 70
     0
102
RTVSPropertyOp21
 70
     0
102
RTVSPropertyOp22
 70
     0
102
RTVSPropertyOp23
 70
     0
102
RTVSPropertyOp24
 70
     0
102
RTVSPropertyOp25
 70
     0
102
RTVSPropertyOp26
 70
     0
102
RTVSPropertyOp27
 70
     0
  0
XRECORD
  5
1A04
102
{ACAD_REACTORS
330
1A03
102
}
330
1A03
100
AcDbXrecord
280
     1
102
RTVSPropertyOp0
 70
     1
102
RTVSPropertyOp1
 70
     1
102
RTVSPropertyOp2
 70
     1
102
RTVSPropertyOp3
 70
     1
102
RTVSPropertyOp4
 70
     1
102
RTVSPropertyOp5
 70
     1
102
RTVSPropertyOp6
 70
     1
102
RTVSPropertyOp7
 70
     1
102
RTVSPropertyOp8
 70
     1
102
RTVSPropertyOp9
 70
     1
102
RTVSPropertyOp10
 70
     1
102
RTVSPropertyOp11
 70
     1
102
RTVSPropertyOp12
 70
     1
102
RTVSPropertyOp13
 70
     1
102
RTVSPropertyOp14
 70
     1
102
RTVSPropertyOp15
 70
     1
102
RTVSPropertyOp16
 70
     1
102
RTVSPropertyOp17
 70
     1
102
RTVSPropertyOp18
 70
     1
102
RTVSPropertyOp19
 70
     1
102
RTVSPropertyOp20
 70
     1
102
RTVSPropertyOp21
 70
     1
102
RTVSPropertyOp22
 70
     1
102
RTVSPropertyOp23
 70
     1
102
RTVSPropertyOp24
 70
     1
102
RTVSPropertyOp25
 70
     1
102
RTVSPropertyOp26
 70
     1
102
RTVSPropertyOp27
 70
     1
  0
XRECORD
  5
1A0A
102
{ACAD_REACTORS
330
1A09
102
}
330
1A09
100
AcDbXrecord
280
     1
102
RTVSPropertyOp0
 70
     1
102
RTVSPropertyOp1
 70
     1
102
RTVSPropertyOp2
 70
     1
102
RTVSPropertyOp3
 70
     1
102
RTVSPropertyOp4
 70
     1
102
RTVSPropertyOp5
 70
     1
102
RTVSPropertyOp6
 70
     1
102
RTVSPropertyOp7
 70
     1
102
RTVSPropertyOp8
 70
     1
102
RTVSPropertyOp9
 70
     1
102
RTVSPropertyOp10
 70
     1
102
RTVSPropertyOp11
 70
     1
102
RTVSPropertyOp12
 70
     1
102
RTVSPropertyOp13
 70
     1
102
RTVSPropertyOp14
 70
     1
102
RTVSPropertyOp15
 70
     1
102
RTVSPropertyOp16
 70
     1
102
RTVSPropertyOp17
 70
     1
102
RTVSPropertyOp18
 70
     1
102
RTVSPropertyOp19
 70
     1
102
RTVSPropertyOp20
 70
     1
102
RTVSPropertyOp21
 70
     1
102
RTVSPropertyOp22
 70
     1
102
RTVSPropertyOp23
 70
     1
102
RTVSPropertyOp24
 70
     1
102
RTVSPropertyOp25
 70
     1
102
RTVSPropertyOp26
 70
     1
102
RTVSPropertyOp27
 70
     1
  0
ENDSEC
  0
EOF
