  0
SECTION
  2
HEADER
  9
$ACADVER
  1
AC1015
  9
$ACADMAINTVER
 70
    20
  9
$DWGCODEPAGE
  3
ANSI_1252
  9
$INSBASE
 10
0.0
 20
0.0
 30
0.0
  9
$EXTMIN
 10
20.7523259669
 20
22.5884651481
 30
0.0
  9
$EXTMAX
 10
138.0153120188
 20
105.1714096095
 30
0.0
  9
$LIMMIN
 10
0.0
 20
0.0
  9
$LIMMAX
 10
181.3333333333
 20
117.3333333333
  9
$ORTHOMODE
 70
     0
  9
$REGENMODE
 70
     1
  9
$FILLMODE
 70
     1
  9
$QTEXTMODE
 70
     0
  9
$MIRRTEXT
 70
     0
  9
$LTSCALE
 40
9.973333333300001
  9
$ATTMODE
 70
     1
  9
$TEXTSIZE
 40
0.2
  9
$TRACEWID
 40
0.05
  9
$TEXTSTYLE
  7
STANDARD
  9
$CLAYER
  8
0
  9
$CELTYPE
  6
BYLAYER
  9
$CECOLOR
 62
   256
  9
$CELTSCALE
 40
1.0
  9
$DISPSILH
 70
     0
  9
$DIMSCALE
 40
1.0
  9
$DIMASZ
 40
2.0
  9
$DIMEXO
 40
0.0625
  9
$DIMDLI
 40
6.890666666699999
  9
$DIMRND
 40
0.0
  9
$DIMDLE
 40
0.0
  9
$DIMEXE
 40
0.125
  9
$DIMTP
 40
0.0
  9
$DIMTM
 40
0.0
  9
$DIMTXT
 40
1.333333333299999
  9
$DIMCEN
 40
1.631999999999999
  9
$DIMTSZ
 40
0.0
  9
$DIMTOL
 70
     0
  9
$DIMLIM
 70
     0
  9
$DIMTIH
 70
     1
  9
$DIMTOH
 70
     1
  9
$DIMSE1
 70
     0
  9
$DIMSE2
 70
     0
  9
$DIMTAD
 70
     0
  9
$DIMZIN
 70
     0
  9
$DIMBLK
  1
_FILLED
  9
$DIMASO
 70
     1
  9
$DIMSHO
 70
     1
  9
$DIMPOST
  1

  9
$DIMAPOST
  1

  9
$DIMALT
 70
     0
  9
$DIMALTD
 70
     2
  9
$DIMALTF
 40
25.4
  9
$DIMLFAC
 40
1.0
  9
$DIMTOFL
 70
     0
  9
$DIMTVP
 40
0.0
  9
$DIMTIX
 70
     0
  9
$DIMSOXD
 70
     0
  9
$DIMSAH
 70
     0
  9
$DIMBLK1
  1

  9
$DIMBLK2
  1

  9
$DIMSTYLE
  2
STANDARD
  9
$DIMCLRD
 70
     0
  9
$DIMCLRE
 70
     0
  9
$DIMCLRT
 70
     0
  9
$DIMTFAC
 40
1.0
  9
$DIMGAP
 40
0.09
  9
$DIMJUST
 70
     0
  9
$DIMSD1
 70
     0
  9
$DIMSD2
 70
     0
  9
$DIMTOLJ
 70
     1
  9
$DIMTZIN
 70
     0
  9
$DIMALTZ
 70
     0
  9
$DIMALTTZ
 70
     0
  9
$DIMUPT
 70
     0
  9
$DIMDEC
 70
     4
  9
$DIMTDEC
 70
     4
  9
$DIMALTU
 70
     2
  9
$DIMALTTD
 70
     2
  9
$DIMTXSTY
  7
STANDARD
  9
$DIMAUNIT
 70
     0
  9
$DIMADEC
 70
     0
  9
$DIMALTRND
 40
0.0
  9
$DIMAZIN
 70
     0
  9
$DIMDSEP
 70
    46
  9
$DIMATFIT
 70
     3
  9
$DIMFRAC
 70
     0
  9
$DIMLDRBLK
  1

  9
$DIMLUNIT
 70
     2
  9
$DIMLWD
 70
    -2
  9
$DIMLWE
 70
    -2
  9
$DIMTMOVE
 70
     0
  9
$LUNITS
 70
     2
  9
$LUPREC
 70
     4
  9
$SKETCHINC
 40
0.1
  9
$FILLETRAD
 40
0.0
  9
$AUNITS
 70
     0
  9
$AUPREC
 70
     0
  9
$MENU
  1
.
  9
$ELEVATION
 40
0.0
  9
$PELEVATION
 40
0.0
  9
$THICKNESS
 40
0.0
  9
$LIMCHECK
 70
     0
  9
$CHAMFERA
 40
0.0
  9
$CHAMFERB
 40
0.0
  9
$CHAMFERC
 40
0.0
  9
$CHAMFERD
 40
0.0
  9
$SKPOLY
 70
     0
  9
$TDCREATE
 40
2456087.409246690
  9
$TDUCREATE
 40
2456087.575913357
  9
$TDUPDATE
 40
2456087.436627523
  9
$TDUUPDATE
 40
2456087.603294190
  9
$TDINDWG
 40
0.0127682870
  9
$TDUSRTIMER
 40
0.0127682870
  9
$USRTIMER
 70
     1
  9
$ANGBASE
 50
0.0
  9
$ANGDIR
 70
     0
  9
$PDMODE
 70
     3
  9
$PDSIZE
 40
0.03125
  9
$PLINEWID
 40
0.0
  9
$SPLFRAME
 70
     0
  9
$SPLINETYPE
 70
     6
  9
$SPLINESEGS
 70
     8
  9
$HANDSEED
  5
1BF5
  9
$SURFTAB1
 70
     6
  9
$SURFTAB2
 70
     6
  9
$SURFTYPE
 70
     6
  9
$SURFU
 70
     6
  9
$SURFV
 70
     6
  9
$UCSBASE
  2

  9
$UCSNAME
  2

  9
$UCSORG
 10
0.0
 20
0.0
 30
0.0
  9
$UCSXDIR
 10
1.0
 20
0.0
 30
0.0
  9
$UCSYDIR
 10
0.0
 20
1.0
 30
0.0
  9
$UCSORTHOREF
  2

  9
$UCSORTHOVIEW
 70
     0
  9
$UCSORGTOP
 10
0.0
 20
0.0
 30
0.0
  9
$UCSORGBOTTOM
 10
0.0
 20
0.0
 30
0.0
  9
$UCSORGLEFT
 10
0.0
 20
0.0
 30
0.0
  9
$UCSORGRIGHT
 10
0.0
 20
0.0
 30
0.0
  9
$UCSORGFRONT
 10
0.0
 20
0.0
 30
0.0
  9
$UCSORGBACK
 10
0.0
 20
0.0
 30
0.0
  9
$PUCSBASE
  2

  9
$PUCSNAME
  2

  9
$PUCSORG
 10
0.0
 20
0.0
 30
0.0
  9
$PUCSXDIR
 10
1.0
 20
0.0
 30
0.0
  9
$PUCSYDIR
 10
0.0
 20
1.0
 30
0.0
  9
$PUCSORTHOREF
  2

  9
$PUCSORTHOVIEW
 70
     0
  9
$PUCSORGTOP
 10
0.0
 20
0.0
 30
0.0
  9
$PUCSORGBOTTOM
 10
0.0
 20
0.0
 30
0.0
  9
$PUCSORGLEFT
 10
0.0
 20
0.0
 30
0.0
  9
$PUCSORGRIGHT
 10
0.0
 20
0.0
 30
0.0
  9
$PUCSORGFRONT
 10
0.0
 20
0.0
 30
0.0
  9
$PUCSORGBACK
 10
0.0
 20
0.0
 30
0.0
  9
$USERI1
 70
     0
  9
$USERI2
 70
     0
  9
$USERI3
 70
     0
  9
$USERI4
 70
     0
  9
$USERI5
 70
     0
  9
$USERR1
 40
0.0
  9
$USERR2
 40
0.0
  9
$USERR3
 40
0.0
  9
$USERR4
 40
0.0
  9
$USERR5
 40
0.0
  9
$WORLDVIEW
 70
     1
  9
$SHADEDGE
 70
     3
  9
$SHADEDIF
 70
    70
  9
$TILEMODE
 70
     1
  9
$MAXACTVP
 70
    64
  9
$PINSBASE
 10
0.0
 20
0.0
 30
0.0
  9
$PLIMCHECK
 70
     0
  9
$PEXTMIN
 10
1.000000000000000E+20
 20
1.000000000000000E+20
 30
1.000000000000000E+20
  9
$PEXTMAX
 10
-1.000000000000000E+20
 20
-1.000000000000000E+20
 30
-1.000000000000000E+20
  9
$PLIMMIN
 10
0.0
 20
0.0
  9
$PLIMMAX
 10
12.0
 20
9.0
  9
$UNITMODE
 70
     0
  9
$VISRETAIN
 70
     1
  9
$PLINEGEN
 70
     0
  9
$PSLTSCALE
 70
     1
  9
$TREEDEPTH
 70
  3020
  9
$CMLSTYLE
  2
Standard
  9
$CMLJUST
 70
     0
  9
$CMLSCALE
 40
1.0
  9
$PROXYGRAPHICS
 70
     1
  9
$MEASUREMENT
 70
     0
  9
$CELWEIGHT
370
    -1
  9
$ENDCAPS
280
     0
  9
$JOINSTYLE
280
     0
  9
$LWDISPLAY
290
     0
  9
$INSUNITS
 70
     1
  9
$HYPERLINKBASE
  1

  9
$STYLESHEET
  1

  9
$XEDIT
290
     1
  9
$CEPSNTYPE
380
     0
  9
$PSTYLEMODE
290
     1
  9
$FINGERPRINTGUID
  2
{E66D4ACA-8F18-47AF-A613-FD0A6C90439C}
  9
$VERSIONGUID
  2
{CFE98078-1B2E-4D78-A89F-EDEB2272ED9E}
  9
$EXTNAMES
290
     1
  9
$PSVPSCALE
 40
0.0
  9
$OLESTARTUP
290
     0
  0
ENDSEC
  0
SECTION
  2
CLASSES
  0
CLASS
  1
ACDBDICTIONARYWDFLT
  2
AcDbDictionaryWithDefault
  3
ObjectDBX Classes
 90
        0
280
     0
281
     0
  0
CLASS
  1
ACDBPLACEHOLDER
  2
AcDbPlaceHolder
  3
ObjectDBX Classes
 90
        0
280
     0
281
     0
  0
CLASS
  1
LAYOUT
  2
AcDbLayout
  3
ObjectDBX Classes
 90
        0
280
     0
281
     0
  0
CLASS
  1
MATERIAL
  2
AcDbMaterial
  3
ObjectDBX Classes
 90
     1153
280
     0
281
     0
  0
CLASS
  1
VISUALSTYLE
  2
AcDbVisualStyle
  3
ObjectDBX Classes
 90
     4095
280
     0
281
     0
  0
CLASS
  1
TABLESTYLE
  2
AcDbTableStyle
  3
ObjectDBX Classes
 90
     4095
280
     0
281
     0
  0
CLASS
  1
SCALE
  2
AcDbScale
  3
ObjectDBX Classes
 90
     1153
280
     0
281
     0
  0
CLASS
  1
MLEADERSTYLE
  2
AcDbMLeaderStyle
  3
ACDB_MLEADERSTYLE_CLASS
 90
     4095
280
     0
281
     0
  0
CLASS
  1
CELLSTYLEMAP
  2
AcDbCellStyleMap
  3
ObjectDBX Classes
 90
     1152
280
     0
281
     0
  0
CLASS
  1
DICTIONARYVAR
  2
AcDbDictionaryVar
  3
ObjectDBX Classes
 90
        0
280
     0
281
     0
  0
ENDSEC
  0
SECTION
  2
TABLES
  0
TABLE
  2
VPORT
  5
8
102
{ACAD_XDICTIONARY
360
1B52
102
}
330
0
100
AcDbSymbolTable
 70
     1
  0
VPORT
  5
1F4
330
8
100
AcDbSymbolTableRecord
100
AcDbViewportTableRecord
  2
*ACTIVE
 70
     0
 10
0.0
 20
0.0
 11
1.0
 21
1.0
 12
79.43751882877812
 22
65.83317685341653
 13
0.0
 23
0.0
 14
1.0
 24
1.0
 15
0.0
 25
0.0
 16
0.0
 26
0.0
 36
1.0
 17
0.0
 27
0.0
 37
0.0
 40
92.766914285663
 41
2.280385078219013
 42
50.0
 43
0.0
 44
0.0
 50
0.0
 51
0.0
 71
     0
 72
   100
 73
     1
 74
     1
 75
     0
 76
     0
 77
     0
 78
     0
281
     0
 65
     1
110
0.0
120
0.0
130
0.0
111
1.0
121
0.0
131
0.0
112
0.0
122
1.0
132
0.0
 79
     0
146
0.0
  0
ENDTAB
  0
TABLE
  2
LTYPE
  5
5
330
0
100
AcDbSymbolTable
 70
     6
  0
LTYPE
  5
14
330
5
100
AcDbSymbolTableRecord
100
AcDbLinetypeTableRecord
  2
BYBLOCK
 70
     0
  3

 72
    65
 73
     0
 40
0.0
  0
LTYPE
  5
15
330
5
100
AcDbSymbolTableRecord
100
AcDbLinetypeTableRecord
  2
BYLAYER
 70
     0
  3

 72
    65
 73
     0
 40
0.0
  0
LTYPE
  5
16
330
5
100
AcDbSymbolTableRecord
100
AcDbLinetypeTableRecord
  2
CONTINUOUS
 70
     0
  3
Solid line
 72
    65
 73
     0
 40
0.0
  0
LTYPE
  5
1F5
330
5
100
AcDbSymbolTableRecord
100
AcDbLinetypeTableRecord
  2
CENTER
 70
     0
  3
____ _ ____ _ ____ _ ____ _ ____ _ ____ _ ____
 72
    65
 73
     4
 40
0.6
 49
0.375
 74
     0
 49
-0.075
 74
     0
 49
0.075
 74
     0
 49
-0.075
 74
     0
  0
LTYPE
  5
1F6
330
5
100
AcDbSymbolTableRecord
100
AcDbLinetypeTableRecord
  2
HIDDEN
 70
     0
  3
- - - - - - - - - - - - - - - - - - - -
 72
    65
 73
     2
 40
0.2
 49
0.1
 74
     0
 49
-0.1
 74
     0
  0
LTYPE
  5
1F7
330
5
100
AcDbSymbolTableRecord
100
AcDbLinetypeTableRecord
  2
PHANTOM
 70
     0
  3
_____ _ _ _____ _ _ _____ _ _ _____
 72
    65
 73
     6
 40
0.8
 49
0.45
 74
     0
 49
-0.05
 74
     0
 49
0.1
 74
     0
 49
-0.05
 74
     0
 49
0.1
 74
     0
 49
-0.05
 74
     0
  0
LTYPE
  5
1F8
330
5
100
AcDbSymbolTableRecord
100
AcDbLinetypeTableRecord
  2
DOT
 70
     0
  3
. . . . . . . . . . . . . . . . . . . .
 72
    65
 73
     2
 40
0.2
 49
0.1
 74
     0
 49
-0.1
 74
     0
  0
LTYPE
  5
1F9
330
5
100
AcDbSymbolTableRecord
100
AcDbLinetypeTableRecord
  2
DASHED
 70
     0
  3
- - - - - - - - - - - - - - - - - - - -
 72
    65
 73
     2
 40
0.2
 49
0.1
 74
     0
 49
-0.1
 74
     0
  0
ENDTAB
  0
TABLE
  2
LAYER
  5
2
330
0
100
AcDbSymbolTable
 70
    31
  0
LAYER
  5
10
102
{ACAD_XDICTIONARY
360
1B97
102
}
330
2
100
AcDbSymbolTableRecord
100
AcDbLayerTableRecord
  2
0
 70
     0
 62
     7
  6
CONTINUOUS
370
    -3
390
F
  0
LAYER
  5
1FA
102
{ACAD_XDICTIONARY
360
1B99
102
}
330
2
100
AcDbSymbolTableRecord
100
AcDbLayerTableRecord
  2
DEFAULT_1
 70
     0
 62
     7
  6
CENTER
370
    -3
390
F
  0
LAYER
  5
1FB
102
{ACAD_XDICTIONARY
360
1B9B
102
}
330
2
100
AcDbSymbolTableRecord
100
AcDbLayerTableRecord
  2
DEFAULT_2
 70
     0
 62
     7
  6
HIDDEN
370
    -3
390
F
  0
LAYER
  5
1FC
102
{ACAD_XDICTIONARY
360
1B9D
102
}
330
2
100
AcDbSymbolTableRecord
100
AcDbLayerTableRecord
  2
DEFAULT_3
 70
     0
 62
     7
  6
PHANTOM
370
    -3
390
F
  0
LAYER
  5
1FD
102
{ACAD_XDICTIONARY
360
1B9F
102
}
330
2
100
AcDbSymbolTableRecord
100
AcDbLayerTableRecord
  2
1_CURVES
 70
     0
 62
     7
  6
CONTINUOUS
370
    -3
390
F
  0
LAYER
  5
1FE
102
{ACAD_XDICTIONARY
360
1BA1
102
}
330
2
100
AcDbSymbolTableRecord
100
AcDbLayerTableRecord
  2
1_CURVES-CONTOUR-REBORD
 70
     0
 62
     7
  6
CONTINUOUS
370
    -3
390
F
  0
LAYER
  5
1FF
102
{ACAD_XDICTIONARY
360
1BA3
102
}
330
2
100
AcDbSymbolTableRecord
100
AcDbLayerTableRecord
  2
1_CURVES-JETS
 70
     0
 62
     7
  6
CONTINUOUS
370
    -3
390
F
  0
LAYER
  5
200
102
{ACAD_XDICTIONARY
360
1BA5
102
}
330
2
100
AcDbSymbolTableRecord
100
AcDbLayerTableRecord
  2
1_CURVES-ROLL-EDGE
 70
     0
 62
     7
  6
CONTINUOUS
370
    -3
390
F
  0
LAYER
  5
201
102
{ACAD_XDICTIONARY
360
1BA7
102
}
330
2
100
AcDbSymbolTableRecord
100
AcDbLayerTableRecord
  2
1_CURVES-SPEC-FRONT
 70
     0
 62
     7
  6
CONTINUOUS
370
    -3
390
F
  0
LAYER
  5
202
102
{ACAD_XDICTIONARY
360
1BA9
102
}
330
2
100
AcDbSymbolTableRecord
100
AcDbLayerTableRecord
  2
2_PLANES
 70
     0
 62
     7
  6
CONTINUOUS
370
    -3
390
F
  0
LAYER
  5
203
102
{ACAD_XDICTIONARY
360
1BAB
102
}
330
2
100
AcDbSymbolTableRecord
100
AcDbLayerTableRecord
  2
3_POINTS
 70
     0
 62
     7
  6
CONTINUOUS
370
    -3
390
F
  0
LAYER
  5
204
102
{ACAD_XDICTIONARY
360
1BAD
102
}
330
2
100
AcDbSymbolTableRecord
100
AcDbLayerTableRecord
  2
3_POINTS-JETS
 70
     0
 62
     7
  6
CONTINUOUS
370
    -3
390
F
  0
LAYER
  5
205
102
{ACAD_XDICTIONARY
360
1BAF
102
}
330
2
100
AcDbSymbolTableRecord
100
AcDbLayerTableRecord
  2
4_CSYS
 70
     0
 62
     7
  6
CONTINUOUS
370
    -3
390
F
  0
LAYER
  5
206
102
{ACAD_XDICTIONARY
360
1BB1
102
}
330
2
100
AcDbSymbolTableRecord
100
AcDbLayerTableRecord
  2
5-AXIS-JETS
 70
     0
 62
     7
  6
CONTINUOUS
370
    -3
390
F
  0
LAYER
  5
207
102
{ACAD_XDICTIONARY
360
1BB3
102
}
330
2
100
AcDbSymbolTableRecord
100
AcDbLayerTableRecord
  2
5_AXIS
 70
     0
 62
     7
  6
CONTINUOUS
370
    -3
390
F
  0
LAYER
  5
208
102
{ACAD_XDICTIONARY
360
1BB5
102
}
330
2
100
AcDbSymbolTableRecord
100
AcDbLayerTableRecord
  2
6_COPIE-TOOLING
 70
     0
 62
     7
  6
CONTINUOUS
370
    -3
390
F
  0
LAYER
  5
209
102
{ACAD_XDICTIONARY
360
1BB7
102
}
330
2
100
AcDbSymbolTableRecord
100
AcDbLayerTableRecord
  2
6_SURFACE-OFFSET-FIBRE-ACRYLIQU
 70
     0
 62
     7
  6
CONTINUOUS
370
    -3
390
F
  0
LAYER
  5
20A
102
{ACAD_XDICTIONARY
360
1BB9
102
}
330
2
100
AcDbSymbolTableRecord
100
AcDbLayerTableRecord
  2
6_SURFACES
 70
     0
 62
     7
  6
CONTINUOUS
370
    -3
390
F
  0
LAYER
  5
20B
102
{ACAD_XDICTIONARY
360
1BBB
102
}
330
2
100
AcDbSymbolTableRecord
100
AcDbLayerTableRecord
  2
6_SURFACES-CELLA
 70
     0
 62
     7
  6
CONTINUOUS
370
    -3
390
F
  0
LAYER
  5
20C
102
{ACAD_XDICTIONARY
360
1BBD
102
}
330
2
100
AcDbSymbolTableRecord
100
AcDbLayerTableRecord
  2
6_SURFACES-PATINS-PR-CELLA
 70
     0
 62
     7
  6
CONTINUOUS
370
    -3
390
F
  0
LAYER
  5
20D
102
{ACAD_XDICTIONARY
360
1BBF
102
}
330
2
100
AcDbSymbolTableRecord
100
AcDbLayerTableRecord
  2
6_SURFACES-POUR-NAOS
 70
     0
 62
     7
  6
CONTINUOUS
370
    -3
390
F
  0
LAYER
  5
20E
102
{ACAD_XDICTIONARY
360
1BC1
102
}
330
2
100
AcDbSymbolTableRecord
100
AcDbLayerTableRecord
  2
6_SURFACES-TOOLING
 70
     0
 62
     7
  6
CONTINUOUS
370
    -3
390
F
  0
LAYER
  5
20F
102
{ACAD_XDICTIONARY
360
1BC3
102
}
330
2
100
AcDbSymbolTableRecord
100
AcDbLayerTableRecord
  2
6_SURFACES_TOOLING
 70
     0
 62
     7
  6
CONTINUOUS
370
    -3
390
F
  0
LAYER
  5
210
102
{ACAD_XDICTIONARY
360
1BC5
102
}
330
2
100
AcDbSymbolTableRecord
100
AcDbLayerTableRecord
  2
6_SURFACE_FLAT_EDGE
 70
     0
 62
     7
  6
CONTINUOUS
370
    -3
390
F
  0
LAYER
  5
211
102
{ACAD_XDICTIONARY
360
1BC7
102
}
330
2
100
AcDbSymbolTableRecord
100
AcDbLayerTableRecord
  2
6_SURFACE_ROLL_EDGE
 70
     0
 62
     7
  6
CONTINUOUS
370
    -3
390
F
  0
LAYER
  5
212
102
{ACAD_XDICTIONARY
360
1BC9
102
}
330
2
100
AcDbSymbolTableRecord
100
AcDbLayerTableRecord
  2
7_NOTES
 70
     0
 62
     7
  6
CONTINUOUS
370
    -3
390
F
  0
LAYER
  5
213
102
{ACAD_XDICTIONARY
360
1BCB
102
}
330
2
100
AcDbSymbolTableRecord
100
AcDbLayerTableRecord
  2
8_COSMETIC
 70
     0
 62
     7
  6
CONTINUOUS
370
    -3
390
F
  0
LAYER
  5
214
102
{ACAD_XDICTIONARY
360
1BCD
102
}
330
2
100
AcDbSymbolTableRecord
100
AcDbLayerTableRecord
  2
8_ZONE-ROBINETERIE
 70
     0
 62
     7
  6
CONTINUOUS
370
    -3
390
F
  0
LAYER
  5
215
102
{ACAD_XDICTIONARY
360
1BCF
102
}
330
2
100
AcDbSymbolTableRecord
100
AcDbLayerTableRecord
  2
8_ZONES_PLACAGE_FRONT
 70
     0
 62
     7
  6
CONTINUOUS
370
    -3
390
F
  0
LAYER
  5
216
102
{ACAD_XDICTIONARY
360
1BD1
102
}
330
2
100
AcDbSymbolTableRecord
100
AcDbLayerTableRecord
  2
8_ZONE_PLACAGE_TOP
 70
     0
 62
     7
  6
CONTINUOUS
370
    -3
390
F
  0
LAYER
  5
217
102
{ACAD_XDICTIONARY
360
1BD3
102
}
330
2
100
AcDbSymbolTableRecord
100
AcDbLayerTableRecord
  2
XSEC_DATUMS
 70
     0
 62
     7
  6
CONTINUOUS
370
    -3
390
F
  0
ENDTAB
  0
TABLE
  2
STYLE
  5
3
330
0
100
AcDbSymbolTable
 70
     8
  0
STYLE
  5
11
330
3
100
AcDbSymbolTableRecord
100
AcDbTextStyleTableRecord
  2
STANDARD
 70
     0
 40
0.0
 41
0.8
 50
0.0
 71
     0
 42
0.2
  3
txt
  4

  0
STYLE
  5
218
330
3
100
AcDbSymbolTableRecord
100
AcDbTextStyleTableRecord
  2
TEXTSTYLE_1
 70
     0
 40
0.0
 41
0.8
 50
0.0
 71
     0
 42
0.2
  3
gdt
  4

  0
STYLE
  5
219
330
3
100
AcDbSymbolTableRecord
100
AcDbTextStyleTableRecord
  2
TEXTSTYLE_2
 70
     0
 40
0.0
 41
1.0
 50
0.0
 71
     0
 42
0.2
  3
trium.ttf
  4

  0
STYLE
  5
21A
330
3
100
AcDbSymbolTableRecord
100
AcDbTextStyleTableRecord
  2
TEXTSTYLE_3
 70
     0
 40
0.0
 41
1.0
 50
0.0
 71
     0
 42
0.2
  3
trium.ttf
  4

  0
STYLE
  5
21B
330
3
100
AcDbSymbolTableRecord
100
AcDbTextStyleTableRecord
  2
TEXTSTYLE_4
 70
     0
 40
0.0
 41
1.0
 50
0.0
 71
     0
 42
0.2
  3
txt_____.ttf
  4

1001
ACAD
1000
txt
1071
        2
  0
STYLE
  5
21C
330
3
100
AcDbSymbolTableRecord
100
AcDbTextStyleTableRecord
  2
TEXTSTYLE_5
 70
     0
 40
0.0
 41
1.0
 50
0.0
 71
     0
 42
0.2
  3
txt_____.ttf
  4

1001
ACAD
1000
txt
1071
        2
  0
STYLE
  5
21D
330
3
100
AcDbSymbolTableRecord
100
AcDbTextStyleTableRecord
  2
TEXTSTYLE_6
 70
     0
 40
0.0
 41
1.0
 50
0.0
 71
     0
 42
0.2
  3
trium.ttf
  4

  0
STYLE
  5
21E
330
3
100
AcDbSymbolTableRecord
100
AcDbTextStyleTableRecord
  2
TEXTSTYLE_7
 70
     0
 40
0.0
 41
0.8
 50
0.0
 71
     0
 42
0.2
  3
txt_____.ttf
  4

1001
ACAD
1000
txt
1071
        2
  0
ENDTAB
  0
TABLE
  2
VIEW
  5
6
330
0
100
AcDbSymbolTable
 70
     0
  0
ENDTAB
  0
TABLE
  2
UCS
  5
7
330
0
100
AcDbSymbolTable
 70
     0
  0
ENDTAB
  0
TABLE
  2
APPID
  5
9
330
0
100
AcDbSymbolTable
 70
     2
  0
APPID
  5
21F
330
9
100
AcDbSymbolTableRecord
100
AcDbRegAppTableRecord
  2
ACAD
 70
     0
  0
APPID
  5
1B82
330
9
100
AcDbSymbolTableRecord
100
AcDbRegAppTableRecord
  2
ACAD_MLEADERVER
 70
     0
  0
ENDTAB
  0
TABLE
  2
DIMSTYLE
  5
A
330
0
100
AcDbSymbolTable
 70
     4
100
AcDbDimStyleTable
 71
     0
  0
DIMSTYLE
105
23D
330
A
100
AcDbSymbolTableRecord
100
AcDbDimStyleTableRecord
  2
STANDARD
 70
     0
 41
2.0
 44
0.125
 47
0.00001
 48
0.00001
 78
     4
140
1.333333333299999
271
     5
272
     5
284
     4
340
11
341
222
342
222
343
222
344
222
  0
DIMSTYLE
105
23E
330
A
100
AcDbSymbolTableRecord
100
AcDbDimStyleTableRecord
  2
DIMSTYLE_1
 70
     0
 41
2.0
 44
0.125
 78
     4
140
1.333333333299999
147
0.0625
271
     3
272
     3
284
     4
340
11
341
222
342
222
343
222
344
222
  0
DIMSTYLE
105
23F
330
A
100
AcDbSymbolTableRecord
100
AcDbDimStyleTableRecord
  2
DIMSTYLE_2
 70
     0
 41
2.0
 44
0.125
 78
     4
140
1.333333333299999
271
     0
272
     0
284
     4
340
11
341
222
342
222
343
222
344
222
  0
DIMSTYLE
105
240
330
A
100
AcDbSymbolTableRecord
100
AcDbDimStyleTableRecord
  2
DIMSTYLE_3
 70
     0
 41
2.0
 44
0.125
 78
     4
140
1.333333333299999
147
0.0625
271
     6
272
     6
284
     4
340
11
341
222
342
222
343
222
344
222
  0
ENDTAB
  0
TABLE
  2
BLOCK_RECORD
  5
1
330
0
100
AcDbSymbolTable
 70
    27
  0
BLOCK_RECORD
  5
220
330
1
100
AcDbSymbolTableRecord
100
AcDbBlockTableRecord
  2
*Model_Space
340
1AF4
  0
BLOCK_RECORD
  5
221
330
1
100
AcDbSymbolTableRecord
100
AcDbBlockTableRecord
  2
*Paper_Space
340
1AF5
  0
BLOCK_RECORD
  5
222
330
1
100
AcDbSymbolTableRecord
100
AcDbBlockTableRecord
  2
_FILLED
340
0
102
{BLKREFS
331
321
331
322
331
32A
331
32B
331
333
331
334
331
34E
331
34F
331
358
331
359
331
361
331
362
331
36A
331
36B
331
373
331
374
331
37C
331
37D
331
385
331
386
331
38E
331
38F
331
398
331
399
331
3A2
331
3A3
331
3AC
331
3AD
331
3B5
331
3B6
331
3BE
331
3BF
331
3C8
331
3C9
331
3D2
331
3D3
331
3DB
331
3DC
331
3E4
331
3E5
102
}
  0
BLOCK_RECORD
  5
239
330
1
100
AcDbSymbolTableRecord
100
AcDbBlockTableRecord
  2
SYMBOL_4_BL3
340
0
  0
BLOCK_RECORD
  5
23A
330
1
100
AcDbSymbolTableRecord
100
AcDbBlockTableRecord
  2
SYMBOL_3_BL2
340
0
  0
BLOCK_RECORD
  5
23B
330
1
100
AcDbSymbolTableRecord
100
AcDbBlockTableRecord
  2
SYMBOL_7_BL1
340
0
  0
BLOCK_RECORD
  5
23C
330
1
100
AcDbSymbolTableRecord
100
AcDbBlockTableRecord
  2
SYMBOL_0_BL0
340
0
  0
ENDTAB
  0
ENDSEC
  0
SECTION
  2
BLOCKS
  0
BLOCK
  5
20
330
220
100
AcDbEntity
  8
0
100
AcDbBlockBegin
  2
*Model_Space
 70
     0
 10
0.0
 20
0.0
 30
0.0
  3
*Model_Space
  1

  0
ENDBLK
  5
21
330
220
100
AcDbEntity
  8
0
100
AcDbBlockEnd
  0
BLOCK
  5
1C
330
221
100
AcDbEntity
 67
     1
  8
0
100
AcDbBlockBegin
  2
*Paper_Space
 70
     0
 10
0.0
 20
0.0
 30
0.0
  3
*Paper_Space
  1

  0
ENDBLK
  5
1D
330
221
100
AcDbEntity
 67
     1
  8
0
100
AcDbBlockEnd
  0
BLOCK
  5
318
330
222
100
AcDbEntity
  8
0
100
AcDbBlockBegin
  2
_FILLED
 70
     0
 10
0.0
 20
0.0
 30
0.0
  3
_FILLED
  1

  0
SOLID
  5
319
330
222
100
AcDbEntity
  8
0
  6
ByBlock
 62
     0
100
AcDbTrace
 10
0.0
 20
0.0
 30
0.0
 11
-1.0
 21
0.1666666667
 31
0.0
 12
-1.0
 22
-0.1666666667
 32
0.0
 13
-1.0
 23
-0.1666666667
 33
0.0
  0
ENDBLK
  5
31A
330
222
100
AcDbEntity
  8
0
  6
ByBlock
 62
     0
100
AcDbBlockEnd
  0
BLOCK
  5
241
330
239
100
AcDbEntity
  8
0
  6
Continuous
 62
     7
100
AcDbBlockBegin
  2
SYMBOL_4_BL3
 70
     0
 10
67.6852712302
 20
73.0158827716
 30
0.0
  3
SYMBOL_4_BL3
  1

  0
TEXT
  5
242
330
239
100
AcDbEntity
  8
0
  6
Continuous
 62
     7
100
AcDbText
 10
67.26206440760001
 20
72.2517063673
 30
0.0
 40
1.333333852099999
  1
L
 50
10.0
  7
TEXTSTYLE_2
100
AcDbText
  0
TEXT
  5
243
330
239
100
AcDbEntity
  8
0
  6
Continuous
 62
     7
100
AcDbText
 10
63.1279537757
 20
71.5353534067
 30
0.0
 40
1.333333852099999
  1
16
 50
10.0
  7
TEXTSTYLE_2
100
AcDbText
  0
TEXT
  5
244
330
239
100
AcDbEntity
  8
0
  6
Continuous
 62
     7
100
AcDbText
 10
70.46073415550001
 20
72.82832043129999
 30
0.0
 40
1.333333852099999
  1
15
 50
10.0
  7
TEXTSTYLE_2
100
AcDbText
  0
ELLIPSE
  5
245
330
239
100
AcDbEntity
  8
0
  6
Continuous
 62
     7
100
AcDbEllipse
 10
67.66666666669999
 20
73.0
 30
0.0
 11
-1.913370740099999
 21
-0.3373788856
 31
0.0
210
0.0
220
0.0
230
1.0
 40
0.6606458385
 41
0.0
 42
6.283185307179586
  0
ENDBLK
  5
246
330
239
100
AcDbEntity
  8
0
  6
ByBlock
 62
     0
100
AcDbBlockEnd
  0
BLOCK
  5
247
330
23A
100
AcDbEntity
  8
0
  6
Continuous
 62
     7
100
AcDbBlockBegin
  2
SYMBOL_3_BL2
 70
     0
 10
44.6852712302
 20
95.01588277160001
 30
0.0
  3
SYMBOL_3_BL2
  1

  0
TEXT
  5
248
330
23A
100
AcDbEntity
  8
0
  6
Continuous
 62
     7
100
AcDbText
 10
44.2620644076
 20
94.25170636729999
 30
0.0
 40
1.333333852099999
  1
L
 50
10.0
  7
TEXTSTYLE_2
100
AcDbText
  0
TEXT
  5
249
330
23A
100
AcDbEntity
  8
0
  6
Continuous
 62
     7
100
AcDbText
 10
40.6313001564
 20
93.6241069543
 30
0.0
 40
1.333333852099999
  1
5
 50
10.0
  7
TEXTSTYLE_2
100
AcDbText
  0
TEXT
  5
24A
330
23A
100
AcDbEntity
  8
0
  6
Continuous
 62
     7
100
AcDbText
 10
47.9640805362
 20
94.91707397889999
 30
0.0
 40
1.333333852099999
  1
4
 50
10.0
  7
TEXTSTYLE_2
100
AcDbText
  0
ELLIPSE
  5
24B
330
23A
100
AcDbEntity
  8
0
  6
Continuous
 62
     7
100
AcDbEllipse
 10
44.6666666667
 20
95.0
 30
0.0
 11
-1.913370740099999
 21
-0.3373788856
 31
0.0
210
0.0
220
0.0
230
1.0
 40
0.6606458385
 41
0.0
 42
6.283185307179586
  0
ENDBLK
  5
24C
330
23A
100
AcDbEntity
  8
0
  6
ByBlock
 62
     0
100
AcDbBlockEnd
  0
BLOCK
  5
24D
330
23B
100
AcDbEntity
  8
0
  6
Continuous
 62
     7
100
AcDbBlockBegin
  2
SYMBOL_7_BL1
 70
     0
 10
129.4781412034
 20
55.8631248321
 30
0.0
  3
SYMBOL_7_BL1
  1

  0
TEXT
  5
24E
330
23B
100
AcDbEntity
  8
0
  6
Continuous
 62
     7
100
AcDbText
 10
122.7002863559
 20
57.90613537189999
 30
0.0
 40
1.1626666667
  1
INTERNAL USE 
 50
10.0
 41
0.9102564103
  7
TEXTSTYLE_4
100
AcDbText
  0
TEXT
  5
24F
330
23B
100
AcDbEntity
  8
0
  6
Continuous
 62
     7
100
AcDbText
 10
122.1277847822
 20
56.05504226459999
 30
0.0
 40
1.1626666667
  1
DOCUMENT ONLY
 50
10.0
 41
0.9871794872
  7
TEXTSTYLE_4
100
AcDbText
  0
TEXT
  5
250
330
23B
100
AcDbEntity
  8
0
  6
Continuous
 62
     7
100
AcDbText
 10
128.2051242609
 20
55.8582095896
 30
0.0
 40
1.1626666667
  1
 
 50
10.0
  7
TEXTSTYLE_5
100
AcDbText
  0
TEXT
  5
251
330
23B
100
AcDbEntity
  8
0
  6
Continuous
 62
     7
100
AcDbText
 10
119.3491233953
 20
51.6085825539
 30
0.0
 40
1.1626666667
  1
DOCUMENT POUR USAGE
 50
10.0
 41
0.9736842104999999
  7
TEXTSTYLE_4
100
AcDbText
  0
TEXT
  5
252
330
23B
100
AcDbEntity
  8
0
  6
Continuous
 62
     7
100
AcDbText
 10
119.3776421464
 20
49.84270716800001
 30
0.0
 40
1.1626666667
  1
A L'INTERNE SEULEMENT
 50
10.0
 41
0.9037698412999999
  7
TEXTSTYLE_4
100
AcDbText
  0
LINE
  5
253
330
23B
100
AcDbEntity
  8
0
  6
Continuous
 62
     7
100
AcDbLine
 10
143.3346929267
 20
51.5195912141
 30
0.0
 11
143.3414518594
 21
51.5263501467
 31
0.0
  0
LINE
  5
254
330
23B
100
AcDbEntity
  8
0
  6
Continuous
 62
     7
100
AcDbLine
 10
142.6021233603
 20
51.3904194343
 30
0.0
 11
143.2510048054
 21
52.03930087939999
 31
0.0
  0
LINE
  5
255
330
23B
100
AcDbEntity
  8
0
  6
Continuous
 62
     7
100
AcDbLine
 10
141.8695537939
 20
51.2612476545
 30
0.0
 11
143.1605577515
 21
52.5522516121
 31
0.0
  0
LINE
  5
256
330
23B
100
AcDbEntity
  8
0
  6
Continuous
 62
     7
100
AcDbLine
 10
141.1369842275
 20
51.1320758747
 30
0.0
 11
143.0701106976
 21
53.0652023447
 31
0.0
  0
LINE
  5
257
330
23B
100
AcDbEntity
  8
0
  6
Continuous
 62
     7
100
AcDbLine
 10
140.4044146611
 20
51.0029040949
 30
0.0
 11
142.9796636436
 21
53.5781530774
 31
0.0
  0
LINE
  5
258
330
23B
100
AcDbEntity
  8
0
  6
Continuous
 62
     7
100
AcDbLine
 10
139.6718450946
 20
50.87373231499999
 30
0.0
 11
141.2128489094
 21
52.4147361298
 31
0.0
  0
LINE
  5
259
330
23B
100
AcDbEntity
  8
0
  6
Continuous
 62
     7
100
AcDbLine
 10
141.8101941022
 20
53.01208132260001
 30
0.0
 11
142.8892165897
 21
54.0911038101
 31
0.0
  0
LINE
  5
25A
330
23B
100
AcDbEntity
  8
0
  6
Continuous
 62
     7
100
AcDbLine
 10
138.9392755282
 20
50.7445605352
 30
0.0
 11
140.480279343
 21
52.28556435
 31
0.0
  0
LINE
  5
25B
330
23B
100
AcDbEntity
  8
0
  6
Continuous
 62
     7
100
AcDbLine
 10
141.7197470482
 20
53.52503205520001
 30
0.0
 11
142.7987695357
 21
54.6040545427
 31
0.0
  0
LINE
  5
25C
330
23B
100
AcDbEntity
  8
0
  6
Continuous
 62
     7
100
AcDbLine
 10
138.2067059618
 20
50.6153887554
 30
0.0
 11
139.7477097766
 21
52.15639257020001
 31
0.0
  0
LINE
  5
25D
330
23B
100
AcDbEntity
  8
0
  6
Continuous
 62
     7
100
AcDbLine
 10
141.6292999943
 20
54.0379827879
 30
0.0
 11
142.7083224818
 21
55.1170052754
 31
0.0
  0
LINE
  5
25E
330
23B
100
AcDbEntity
  8
0
  6
Continuous
 62
     7
100
AcDbLine
 10
137.4741363954
 20
50.4862169756
 30
0.0
 11
139.0151402102
 21
52.0272207904
 31
0.0
  0
LINE
  5
25F
330
23B
100
AcDbEntity
  8
0
  6
Continuous
 62
     7
100
AcDbLine
 10
141.5388529403
 20
54.5509335206
 30
0.0
 11
142.6178754278
 21
55.6299560081
 31
0.0
  0
LINE
  5
260
330
23B
100
AcDbEntity
  8
0
  6
Continuous
 62
     7
100
AcDbLine
 10
136.741566829
 20
50.3570451958
 30
0.0
 11
138.2825706438
 21
51.8980490106
 31
0.0
  0
LINE
  5
261
330
23B
100
AcDbEntity
  8
0
  6
Continuous
 62
     7
100
AcDbLine
 10
141.4484058864
 20
55.06388425319999
 30
0.0
 11
142.5274283739
 21
56.1429067407
 31
0.0
  0
LINE
  5
262
330
23B
100
AcDbEntity
  8
0
  6
Continuous
 62
     7
100
AcDbLine
 10
136.0089972626
 20
50.227873416
 30
0.0
 11
137.5500010772999
 21
51.7688772308
 31
0.0
  0
LINE
  5
263
330
23B
100
AcDbEntity
  8
0
  6
Continuous
 62
     7
100
AcDbLine
 10
141.3579588324
 20
55.5768349859
 30
0.0
 11
142.4369813199
 21
56.6558574734
 31
0.0
  0
LINE
  5
264
330
23B
100
AcDbEntity
  8
0
  6
Continuous
 62
     7
100
AcDbLine
 10
135.2764276961
 20
50.0987016362
 30
0.0
 11
136.8174315109
 21
51.639705451
 31
0.0
  0
LINE
  5
265
330
23B
100
AcDbEntity
  8
0
  6
Continuous
 62
     7
100
AcDbLine
 10
141.2675117785
 20
56.08978571859999
 30
0.0
 11
142.346534266
 21
57.1688082061
 31
0.0
  0
LINE
  5
266
330
23B
100
AcDbEntity
  8
0
  6
Continuous
 62
     7
100
AcDbLine
 10
134.5438581297
 20
49.9695298564
 30
0.0
 11
136.0848619445
 21
51.5105336712
 31
0.0
  0
LINE
  5
267
330
23B
100
AcDbEntity
  8
0
  6
Continuous
 62
     7
100
AcDbLine
 10
141.1770647245
 20
56.6027364512
 30
0.0
 11
142.2560872121
 21
57.6817589387
 31
0.0
  0
LINE
  5
268
330
23B
100
AcDbEntity
  8
0
  6
Continuous
 62
     7
100
AcDbLine
 10
133.8112885633
 20
49.84035807659999
 30
0.0
 11
135.3522923781
 21
51.3813618914
 31
0.0
  0
LINE
  5
269
330
23B
100
AcDbEntity
  8
0
  6
Continuous
 62
     7
100
AcDbLine
 10
141.0866176706
 20
57.1156871839
 30
0.0
 11
142.1656401581
 21
58.1947096714
 31
0.0
  0
LINE
  5
26A
330
23B
100
AcDbEntity
  8
0
  6
Continuous
 62
     7
100
AcDbLine
 10
133.0787189969
 20
49.7111862968
 30
0.0
 11
134.6197228117
 21
51.2521901116
 31
0.0
  0
LINE
  5
26B
330
23B
100
AcDbEntity
  8
0
  6
Continuous
 62
     7
100
AcDbLine
 10
140.7837380708
 20
57.4162053707
 30
0.0
 11
142.0751931042
 21
58.7076604041
 31
0.0
  0
LINE
  5
26C
330
23B
100
AcDbEntity
  8
0
  6
Continuous
 62
     7
100
AcDbLine
 10
132.3461494305
 20
49.58201451699999
 30
0.0
 11
133.8871532452
 21
51.1230183318
 31
0.0
  0
LINE
  5
26D
330
23B
100
AcDbEntity
  8
0
  6
Continuous
 62
     7
100
AcDbLine
 10
140.0511685044
 20
57.2870335909
 30
0.0
 11
141.9847460502
 21
59.2206111368
 31
0.0
  0
LINE
  5
26E
330
23B
100
AcDbEntity
  8
0
  6
Continuous
 62
     7
100
AcDbLine
 10
131.6135798641
 20
49.4528427372
 30
0.0
 11
133.1545836787999
 21
50.993846552
 31
0.0
  0
LINE
  5
26F
330
23B
100
AcDbEntity
  8
0
  6
Continuous
 62
     7
100
AcDbLine
 10
139.3185989379
 20
57.1578618111
 30
0.0
 11
140.3459412362
 21
58.1852041093
 31
0.0
  0
LINE
  5
270
330
23B
100
AcDbEntity
  8
0
  6
Continuous
 62
     7
100
AcDbLine
 10
140.8152765088
 20
58.65453938189999
 30
0.0
 11
141.8942989963
 21
59.7335618694
 31
0.0
  0
LINE
  5
271
330
23B
100
AcDbEntity
  8
0
  6
Continuous
 62
     7
100
AcDbLine
 10
130.8810102976
 20
49.3236709574
 30
0.0
 11
132.4220141124
 21
50.86467477220001
 31
0.0
  0
LINE
  5
272
330
23B
100
AcDbEntity
  8
0
  6
Continuous
 62
     7
100
AcDbLine
 10
138.5860293715
 20
57.0286900313
 30
0.0
 11
139.6133714602
 21
58.0560321199
 31
0.0
  0
LINE
  5
273
330
23B
100
AcDbEntity
  8
0
  6
Continuous
 62
     7
100
AcDbLine
 10
140.7248294548
 20
59.1674901146
 30
0.0
 11
141.8038519423
 21
60.24651260209999
 31
0.0
  0
LINE
  5
274
330
23B
100
AcDbEntity
  8
0
  6
Continuous
 62
     7
100
AcDbLine
 10
130.1484407312
 20
49.1944991776
 30
0.0
 11
131.689444546
 21
50.7355029924
 31
0.0
  0
LINE
  5
275
330
23B
100
AcDbEntity
  8
0
  6
Continuous
 62
     7
100
AcDbLine
 10
137.8534598051
 20
56.8995182515
 30
0.0
 11
138.8808016841
 21
57.9268601305
 31
0.0
  0
LINE
  5
276
330
23B
100
AcDbEntity
  8
0
  6
Continuous
 62
     7
100
AcDbLine
 10
140.6343824009
 20
59.6804408472
 30
0.0
 11
141.7134048884
 21
60.7594633348
 31
0.0
  0
LINE
  5
277
330
23B
100
AcDbEntity
  8
0
  6
Continuous
 62
     7
100
AcDbLine
 10
129.4158711648
 20
49.0653273978
 30
0.0
 11
130.9568749796
 21
50.6063312126
 31
0.0
  0
LINE
  5
278
330
23B
100
AcDbEntity
  8
0
  6
Continuous
 62
     7
100
AcDbLine
 10
137.1208902387
 20
56.7703464717
 30
0.0
 11
138.1482319081
 21
57.79768814109999
 31
0.0
  0
LINE
  5
279
330
23B
100
AcDbEntity
  8
0
  6
Continuous
 62
     7
100
AcDbLine
 10
140.5439353469
 20
60.1933915799
 30
0.0
 11
141.6229578345
 21
61.2724140674
 31
0.0
  0
LINE
  5
27A
330
23B
100
AcDbEntity
  8
0
  6
Continuous
 62
     7
100
AcDbLine
 10
128.6833015984
 20
48.936155618
 30
0.0
 11
130.2243054132
 21
50.4771594327
 31
0.0
  0
LINE
  5
27B
330
23B
100
AcDbEntity
  8
0
  6
Continuous
 62
     7
100
AcDbLine
 10
136.3883206723
 20
56.64117469189999
 30
0.0
 11
137.4156621321
 21
57.66851615170001
 31
0.0
  0
LINE
  5
27C
330
23B
100
AcDbEntity
  8
0
  6
Continuous
 62
     7
100
AcDbLine
 10
140.453488293
 20
60.7063423126
 30
0.0
 11
141.5325107805
 21
61.7853648001
 31
0.0
  0
LINE
  5
27D
330
23B
100
AcDbEntity
  8
0
  6
Continuous
 62
     7
100
AcDbLine
 10
127.950732032
 20
48.8069838382
 30
0.0
 11
129.4917358467
 21
50.3479876529
 31
0.0
  0
LINE
  5
27E
330
23B
100
AcDbEntity
  8
0
  6
Continuous
 62
     7
100
AcDbLine
 10
135.6557511058
 20
56.512002912
 30
0.0
 11
136.6830923561
 21
57.53934416229999
 31
0.0
  0
LINE
  5
27F
330
23B
100
AcDbEntity
  8
0
  6
Continuous
 62
     7
100
AcDbLine
 10
140.3630412391
 20
61.2192930453
 30
0.0
 11
141.4420637266
 21
62.2983155328
 31
0.0
  0
LINE
  5
280
330
23B
100
AcDbEntity
  8
0
  6
Continuous
 62
     7
100
AcDbLine
 10
127.2181624655
 20
48.6778120584
 30
0.0
 11
128.7591662803
 21
50.21881587310001
 31
0.0
  0
LINE
  5
281
330
23B
100
AcDbEntity
  8
0
  6
Continuous
 62
     7
100
AcDbLine
 10
134.9231815394
 20
56.3828311322
 30
0.0
 11
135.95052258
 21
57.41017217279999
 31
0.0
  0
LINE
  5
282
330
23B
100
AcDbEntity
  8
0
  6
Continuous
 62
     7
100
AcDbLine
 10
140.2725941851
 20
61.7322437779
 30
0.0
 11
141.3516166726
 21
62.8112662654
 31
0.0
  0
LINE
  5
283
330
23B
100
AcDbEntity
  8
0
  6
Continuous
 62
     7
100
AcDbLine
 10
126.4855928991
 20
48.54864027859999
 30
0.0
 11
128.0265967139
 21
50.0896440933
 31
0.0
  0
LINE
  5
284
330
23B
100
AcDbEntity
  8
0
  6
Continuous
 62
     7
100
AcDbLine
 10
134.190611973
 20
56.2536593524
 30
0.0
 11
135.217952804
 21
57.28100018340001
 31
0.0
  0
LINE
  5
285
330
23B
100
AcDbEntity
  8
0
  6
Continuous
 62
     7
100
AcDbLine
 10
140.1821471312
 20
62.2451945106
 30
0.0
 11
141.2611696187
 21
63.32421699810001
 31
0.0
  0
LINE
  5
286
330
23B
100
AcDbEntity
  8
0
  6
Continuous
 62
     7
100
AcDbLine
 10
125.7530233327
 20
48.4194684987
 30
0.0
 11
127.2940271475
 21
49.96047231350001
 31
0.0
  0
LINE
  5
287
330
23B
100
AcDbEntity
  8
0
  6
Continuous
 62
     7
100
AcDbLine
 10
133.4580424066
 20
56.12448757260001
 30
0.0
 11
134.485383028
 21
57.15182819399999
 31
0.0
  0
LINE
  5
288
330
23B
100
AcDbEntity
  8
0
  6
Continuous
 62
     7
100
AcDbLine
 10
140.0917000772
 20
62.7581452433
 30
0.0
 11
141.1707225647
 21
63.83716773079999
 31
0.0
  0
LINE
  5
289
330
23B
100
AcDbEntity
  8
0
  6
Continuous
 62
     7
100
AcDbLine
 10
125.0204537663
 20
48.2902967189
 30
0.0
 11
126.5614575811
 21
49.8313005337
 31
0.0
  0
LINE
  5
28A
330
23B
100
AcDbEntity
  8
0
  6
Continuous
 62
     7
100
AcDbLine
 10
132.7254728402
 20
55.9953157928
 30
0.0
 11
133.7528132519
 21
57.0226562046
 31
0.0
  0
LINE
  5
28B
330
23B
100
AcDbEntity
  8
0
  6
Continuous
 62
     7
100
AcDbLine
 10
139.9168239758
 20
63.1866669285
 30
0.0
 11
141.0802755108
 21
64.35011846340001
 31
0.0
  0
LINE
  5
28C
330
23B
100
AcDbEntity
  8
0
  6
Continuous
 62
     7
100
AcDbLine
 10
124.2878841999
 20
48.1611249391
 30
0.0
 11
125.8288880147
 21
49.7021287539
 31
0.0
  0
LINE
  5
28D
330
23B
100
AcDbEntity
  8
0
  6
Continuous
 62
     7
100
AcDbLine
 10
131.9929032737999
 20
55.866144013
 30
0.0
 11
133.0202434759
 21
56.8934842152
 31
0.0
  0
LINE
  5
28E
330
23B
100
AcDbEntity
  8
0
  6
Continuous
 62
     7
100
AcDbLine
 10
139.1842544094
 20
63.0574951486
 30
0.0
 11
140.7252582242
 21
64.5984989634
 31
0.0
  0
LINE
  5
28F
330
23B
100
AcDbEntity
  8
0
  6
Continuous
 62
     7
100
AcDbLine
 10
123.5553146335
 20
48.0319531593
 30
0.0
 11
125.0963184482
 21
49.5729569741
 31
0.0
  0
LINE
  5
290
330
23B
100
AcDbEntity
  8
0
  6
Continuous
 62
     7
100
AcDbLine
 10
131.2603337073
 20
55.73697223319999
 30
0.0
 11
132.2876736999
 21
56.76431222579999
 31
0.0
  0
LINE
  5
291
330
23B
100
AcDbEntity
  8
0
  6
Continuous
 62
     7
100
AcDbLine
 10
138.451684843
 20
62.9283233688
 30
0.0
 11
139.9926886577
 21
64.4693271836
 31
0.0
  0
LINE
  5
292
330
23B
100
AcDbEntity
  8
0
  6
Continuous
 62
     7
100
AcDbLine
 10
122.822745067
 20
47.90278137949999
 30
0.0
 11
124.3637488818
 21
49.4437851943
 31
0.0
  0
LINE
  5
293
330
23B
100
AcDbEntity
  8
0
  6
Continuous
 62
     7
100
AcDbLine
 10
130.5277641409
 20
55.6078004534
 30
0.0
 11
131.5551039239
 21
56.6351402363
 31
0.0
  0
LINE
  5
294
330
23B
100
AcDbEntity
  8
0
  6
Continuous
 62
     7
100
AcDbLine
 10
137.7191152765
 20
62.79915158899999
 30
0.0
 11
139.2601190913
 21
64.34015540379999
 31
0.0
  0
LINE
  5
295
330
23B
100
AcDbEntity
  8
0
  6
Continuous
 62
     7
100
AcDbLine
 10
122.0901755006
 20
47.7736095997
 30
0.0
 11
123.6311793154
 21
49.31461341449999
 31
0.0
  0
LINE
  5
296
330
23B
100
AcDbEntity
  8
0
  6
Continuous
 62
     7
100
AcDbLine
 10
129.7951945745
 20
55.4786286736
 30
0.0
 11
130.8225341478
 21
56.5059682469
 31
0.0
  0
LINE
  5
297
330
23B
100
AcDbEntity
  8
0
  6
Continuous
 62
     7
100
AcDbLine
 10
136.9865457101
 20
62.6699798092
 30
0.0
 11
138.5275495249
 21
64.21098362399999
 31
0.0
  0
LINE
  5
298
330
23B
100
AcDbEntity
  8
0
  6
Continuous
 62
     7
100
AcDbLine
 10
121.3576059342
 20
47.64443781989999
 30
0.0
 11
122.898609749
 21
49.1854416347
 31
0.0
  0
LINE
  5
299
330
23B
100
AcDbEntity
  8
0
  6
Continuous
 62
     7
100
AcDbLine
 10
129.0626250081
 20
55.3494568938
 30
0.0
 11
130.0899643718
 21
56.37679625749999
 31
0.0
  0
LINE
  5
29A
330
23B
100
AcDbEntity
  8
0
  6
Continuous
 62
     7
100
AcDbLine
 10
136.2539761437
 20
62.54080802939999
 30
0.0
 11
137.7949799585
 21
64.0818118442
 31
0.0
  0
LINE
  5
29B
330
23B
100
AcDbEntity
  8
0
  6
Continuous
 62
     7
100
AcDbLine
 10
120.6250363678
 20
47.5152660401
 30
0.0
 11
122.1660401826
 21
49.05626985489999
 31
0.0
  0
LINE
  5
29C
330
23B
100
AcDbEntity
  8
0
  6
Continuous
 62
     7
100
AcDbLine
 10
128.3300554417
 20
55.220285114
 30
0.0
 11
129.3573945958
 21
56.24762426810001
 31
0.0
  0
LINE
  5
29D
330
23B
100
AcDbEntity
  8
0
  6
Continuous
 62
     7
100
AcDbLine
 10
135.5214065773
 20
62.4116362496
 30
0.0
 11
137.0624103921
 21
63.95264006439999
 31
0.0
  0
LINE
  5
29E
330
23B
100
AcDbEntity
  8
0
  6
Continuous
 62
     7
100
AcDbLine
 10
119.8924668014
 20
47.3860942603
 30
0.0
 11
121.4334706161
 21
48.92709807510001
 31
0.0
  0
LINE
  5
29F
330
23B
100
AcDbEntity
  8
0
  6
Continuous
 62
     7
100
AcDbLine
 10
127.5974858753
 20
55.0911133342
 30
0.0
 11
128.6248248197
 21
56.11845227869999
 31
0.0
  0
LINE
  5
2A0
330
23B
100
AcDbEntity
  8
0
  6
Continuous
 62
     7
100
AcDbLine
 10
134.7888370109
 20
62.2824644698
 30
0.0
 11
136.3298408257
 21
63.8234682846
 31
0.0
  0
LINE
  5
2A1
330
23B
100
AcDbEntity
  8
0
  6
Continuous
 62
     7
100
AcDbLine
 10
119.1598972349
 20
47.2569224805
 30
0.0
 11
120.7009010497
 21
48.79792629529999
 31
0.0
  0
LINE
  5
2A2
330
23B
100
AcDbEntity
  8
0
  6
Continuous
 62
     7
100
AcDbLine
 10
126.8649163088
 20
54.9619415544
 30
0.0
 11
127.8922550437
 21
55.9892802893
 31
0.0
  0
LINE
  5
2A3
330
23B
100
AcDbEntity
  8
0
  6
Continuous
 62
     7
100
AcDbLine
 10
134.0562674445
 20
62.15329269
 30
0.0
 11
135.5972712592
 21
63.69429650479999
 31
0.0
  0
LINE
  5
2A4
330
23B
100
AcDbEntity
  8
0
  6
Continuous
 62
     7
100
AcDbLine
 10
118.4273276685
 20
47.1277507007
 30
0.0
 11
119.9683314833
 21
48.66875451550001
 31
0.0
  0
LINE
  5
2A5
330
23B
100
AcDbEntity
  8
0
  6
Continuous
 62
     7
100
AcDbLine
 10
126.1323467424
 20
54.8327697746
 30
0.0
 11
127.1596852677
 21
55.8601082998
 31
0.0
  0
LINE
  5
2A6
330
23B
100
AcDbEntity
  8
0
  6
Continuous
 62
     7
100
AcDbLine
 10
133.323697878
 20
62.02412091020001
 30
0.0
 11
134.8647016928
 21
63.565124725
 31
0.0
  0
LINE
  5
2A7
330
23B
100
AcDbEntity
  8
0
  6
Continuous
 62
     7
100
AcDbLine
 10
117.876006896
 20
47.1798277148
 30
0.0
 11
119.2357619169
 21
48.53958273569999
 31
0.0
  0
LINE
  5
2A8
330
23B
100
AcDbEntity
  8
0
  6
Continuous
 62
     7
100
AcDbLine
 10
125.399777176
 20
54.70359799479999
 30
0.0
 11
126.4271154917
 21
55.73093631039999
 31
0.0
  0
LINE
  5
2A9
330
23B
100
AcDbEntity
  8
0
  6
Continuous
 62
     7
100
AcDbLine
 10
132.5911283116
 20
61.8949491304
 30
0.0
 11
134.1321321264
 21
63.4359529452
 31
0.0
  0
LINE
  5
2AA
330
23B
100
AcDbEntity
  8
0
  6
Continuous
 62
     7
100
AcDbLine
 10
117.7855598421
 20
47.69277844749999
 30
0.0
 11
118.8645823296
 21
48.771800935
 31
0.0
  0
LINE
  5
2AB
330
23B
100
AcDbEntity
  8
0
  6
Continuous
 62
     7
100
AcDbLine
 10
124.6672076096
 20
54.574426215
 30
0.0
 11
125.6945457156
 21
55.601764321
 31
0.0
  0
LINE
  5
2AC
330
23B
100
AcDbEntity
  8
0
  6
Continuous
 62
     7
100
AcDbLine
 10
131.8585587452
 20
61.7657773506
 30
0.0
 11
133.39956256
 21
63.30678116539999
 31
0.0
  0
LINE
  5
2AD
330
23B
100
AcDbEntity
  8
0
  6
Continuous
 62
     7
100
AcDbLine
 10
117.6951127881
 20
48.2057291801
 30
0.0
 11
118.7741352756
 21
49.28475166760001
 31
0.0
  0
LINE
  5
2AE
330
23B
100
AcDbEntity
  8
0
  6
Continuous
 62
     7
100
AcDbLine
 10
123.9346380432
 20
54.4452544352
 30
0.0
 11
124.9619759396
 21
55.4725923316
 31
0.0
  0
LINE
  5
2AF
330
23B
100
AcDbEntity
  8
0
  6
Continuous
 62
     7
100
AcDbLine
 10
131.1259891788
 20
61.6366055708
 30
0.0
 11
132.6669929936
 21
63.17760938560001
 31
0.0
  0
LINE
  5
2B0
330
23B
100
AcDbEntity
  8
0
  6
Continuous
 62
     7
100
AcDbLine
 10
117.6046657342
 20
48.7186799128
 30
0.0
 11
118.6836882217
 21
49.79770240029999
 31
0.0
  0
LINE
  5
2B1
330
23B
100
AcDbEntity
  8
0
  6
Continuous
 62
     7
100
AcDbLine
 10
123.2020684767
 20
54.3160826554
 30
0.0
 11
124.2294061636
 21
55.3434203422
 31
0.0
  0
LINE
  5
2B2
330
23B
100
AcDbEntity
  8
0
  6
Continuous
 62
     7
100
AcDbLine
 10
130.3934196124
 20
61.507433791
 30
0.0
 11
131.9344234271
 21
63.04843760579999
 31
0.0
  0
LINE
  5
2B3
330
23B
100
AcDbEntity
  8
0
  6
Continuous
 62
     7
100
AcDbLine
 10
117.5142186802
 20
49.2316306455
 30
0.0
 11
118.5932411678
 21
50.310653133
 31
0.0
  0
LINE
  5
2B4
330
23B
100
AcDbEntity
  8
0
  6
Continuous
 62
     7
100
AcDbLine
 10
122.4694989103
 20
54.1869108756
 30
0.0
 11
123.4968363875
 21
55.2142483528
 31
0.0
  0
LINE
  5
2B5
330
23B
100
AcDbEntity
  8
0
  6
Continuous
 62
     7
100
AcDbLine
 10
129.660850046
 20
61.3782620112
 30
0.0
 11
131.2018538607
 21
62.91926582600001
 31
0.0
  0
LINE
  5
2B6
330
23B
100
AcDbEntity
  8
0
  6
Continuous
 62
     7
100
AcDbLine
 10
117.4237716263
 20
49.7445813781
 30
0.0
 11
118.5027941138
 21
50.82360386560001
 31
0.0
  0
LINE
  5
2B7
330
23B
100
AcDbEntity
  8
0
  6
Continuous
 62
     7
100
AcDbLine
 10
121.7369293439
 20
54.05773909569999
 30
0.0
 11
122.7642666115
 21
55.0850763634
 31
0.0
  0
LINE
  5
2B8
330
23B
100
AcDbEntity
  8
0
  6
Continuous
 62
     7
100
AcDbLine
 10
128.9282804795
 20
61.2490902314
 30
0.0
 11
130.4692842943
 21
62.7900940461
 31
0.0
  0
LINE
  5
2B9
330
23B
100
AcDbEntity
  8
0
  6
Continuous
 62
     7
100
AcDbLine
 10
117.3333245723
 20
50.2575321108
 30
0.0
 11
118.4123470599
 21
51.33655459829999
 31
0.0
  0
LINE
  5
2BA
330
23B
100
AcDbEntity
  8
0
  6
Continuous
 62
     7
100
AcDbLine
 10
121.0043597775
 20
53.92856731590001
 30
0.0
 11
122.0316968355
 21
54.9559043739
 31
0.0
  0
LINE
  5
2BB
330
23B
100
AcDbEntity
  8
0
  6
Continuous
 62
     7
100
AcDbLine
 10
128.1957109131
 20
61.1199184516
 30
0.0
 11
129.7367147279
 21
62.6609222663
 31
0.0
  0
LINE
  5
2BC
330
23B
100
AcDbEntity
  8
0
  6
Continuous
 62
     7
100
AcDbLine
 10
117.2428775184
 20
50.7704828435
 30
0.0
 11
118.3219000059
 21
51.849505331
 31
0.0
  0
LINE
  5
2BD
330
23B
100
AcDbEntity
  8
0
  6
Continuous
 62
     7
100
AcDbLine
 10
120.2717902111
 20
53.79939553609999
 30
0.0
 11
121.2991270595
 21
54.8267323845
 31
0.0
  0
LINE
  5
2BE
330
23B
100
AcDbEntity
  8
0
  6
Continuous
 62
     7
100
AcDbLine
 10
127.4631413467
 20
60.9907466718
 30
0.0
 11
129.0041451615
 21
62.5317504865
 31
0.0
  0
LINE
  5
2BF
330
23B
100
AcDbEntity
  8
0
  6
Continuous
 62
     7
100
AcDbLine
 10
117.1524304645
 20
51.28343357609999
 30
0.0
 11
118.231452952
 21
52.3624560637
 31
0.0
  0
LINE
  5
2C0
330
23B
100
AcDbEntity
  8
0
  6
Continuous
 62
     7
100
AcDbLine
 10
119.5392206447
 20
53.6702237563
 30
0.0
 11
120.5665572834
 21
54.6975603951
 31
0.0
  0
LINE
  5
2C1
330
23B
100
AcDbEntity
  8
0
  6
Continuous
 62
     7
100
AcDbLine
 10
126.7305717803
 20
60.861574892
 30
0.0
 11
128.2715755951
 21
62.40257870669999
 31
0.0
  0
LINE
  5
2C2
330
23B
100
AcDbEntity
  8
0
  6
Continuous
 62
     7
100
AcDbLine
 10
117.0619834105
 20
51.7963843088
 30
0.0
 11
118.141005898
 21
52.8754067963
 31
0.0
  0
LINE
  5
2C3
330
23B
100
AcDbEntity
  8
0
  6
Continuous
 62
     7
100
AcDbLine
 10
118.8066510782
 20
53.5410519765
 30
0.0
 11
119.8339875074
 21
54.5683884057
 31
0.0
  0
LINE
  5
2C4
330
23B
100
AcDbEntity
  8
0
  6
Continuous
 62
     7
100
AcDbLine
 10
125.9980022139
 20
60.73240311220001
 30
0.0
 11
127.5390060286
 21
62.27340692689999
 31
0.0
  0
LINE
  5
2C5
330
23B
100
AcDbEntity
  8
0
  6
Continuous
 62
     7
100
AcDbLine
 10
116.9715363566
 20
52.3093350415
 30
0.0
 11
118.0505588441
 21
53.38835752899999
 31
0.0
  0
LINE
  5
2C6
330
23B
100
AcDbEntity
  8
0
  6
Continuous
 62
     7
100
AcDbLine
 10
118.0740815118
 20
53.4118801967
 30
0.0
 11
119.1014177314
 21
54.4392164163
 31
0.0
  0
LINE
  5
2C7
330
23B
100
AcDbEntity
  8
0
  6
Continuous
 62
     7
100
AcDbLine
 10
125.2654326474
 20
60.60323133229999
 30
0.0
 11
126.8064364622
 21
62.14423514709999
 31
0.0
  0
LINE
  5
2C8
330
23B
100
AcDbEntity
  8
0
  6
Continuous
 62
     7
100
AcDbLine
 10
116.8810893026
 20
52.82228577409999
 30
0.0
 11
118.3688479553
 21
54.31004442689999
 31
0.0
  0
LINE
  5
2C9
330
23B
100
AcDbEntity
  8
0
  6
Continuous
 62
     7
100
AcDbLine
 10
124.532863081
 20
60.4740595525
 30
0.0
 11
126.0738668958
 21
62.01506336729999
 31
0.0
  0
LINE
  5
2CA
330
23B
100
AcDbEntity
  8
0
  6
Continuous
 62
     7
100
AcDbLine
 10
116.7906422487
 20
53.3352365068
 30
0.0
 11
117.8696647362
 21
54.41425899430001
 31
0.0
  0
LINE
  5
2CB
330
23B
100
AcDbEntity
  8
0
  6
Continuous
 62
     7
100
AcDbLine
 10
123.8002935146
 20
60.3448877727
 30
0.0
 11
125.3412973294
 21
61.8858915875
 31
0.0
  0
LINE
  5
2CC
330
23B
100
AcDbEntity
  8
0
  6
Continuous
 62
     7
100
AcDbLine
 10
116.7001951947
 20
53.8481872395
 30
0.0
 11
117.7792176823
 21
54.92720972699999
 31
0.0
  0
LINE
  5
2CD
330
23B
100
AcDbEntity
  8
0
  6
Continuous
 62
     7
100
AcDbLine
 10
123.0677239482
 20
60.2157159929
 30
0.0
 11
124.608727763
 21
61.7567198077
 31
0.0
  0
LINE
  5
2CE
330
23B
100
AcDbEntity
  8
0
  6
Continuous
 62
     7
100
AcDbLine
 10
116.6097481408
 20
54.3611379721
 30
0.0
 11
117.6887706283
 21
55.4401604597
 31
0.0
  0
LINE
  5
2CF
330
23B
100
AcDbEntity
  8
0
  6
Continuous
 62
     7
100
AcDbLine
 10
122.3351543818
 20
60.08654421310001
 30
0.0
 11
123.8761581966
 21
61.6275480279
 31
0.0
  0
LINE
  5
2D0
330
23B
100
AcDbEntity
  8
0
  6
Continuous
 62
     7
100
AcDbLine
 10
116.5193010869
 20
54.87408870479999
 30
0.0
 11
117.5983235744
 21
55.95311119229999
 31
0.0
  0
LINE
  5
2D1
330
23B
100
AcDbEntity
  8
0
  6
Continuous
 62
     7
100
AcDbLine
 10
121.6025848154
 20
59.9573724333
 30
0.0
 11
123.1435886301
 21
61.4983762481
 31
0.0
  0
LINE
  5
2D2
330
23B
100
AcDbEntity
  8
0
  6
Continuous
 62
     7
100
AcDbLine
 10
116.4288540329
 20
55.3870394375
 30
0.0
 11
117.5078765204
 21
56.466061925
 31
0.0
  0
LINE
  5
2D3
330
23B
100
AcDbEntity
  8
0
  6
Continuous
 62
     7
100
AcDbLine
 10
120.8700152489
 20
59.82820065350001
 30
0.0
 11
122.4110190637
 21
61.3692044683
 31
0.0
  0
LINE
  5
2D4
330
23B
100
AcDbEntity
  8
0
  6
Continuous
 62
     7
100
AcDbLine
 10
116.338406979
 20
55.89999017020001
 30
0.0
 11
117.4174294665
 21
56.9790126577
 31
0.0
  0
LINE
  5
2D5
330
23B
100
AcDbEntity
  8
0
  6
Continuous
 62
     7
100
AcDbLine
 10
120.1374456825
 20
59.6990288737
 30
0.0
 11
121.6784494973
 21
61.2400326885
 31
0.0
  0
LINE
  5
2D6
330
23B
100
AcDbEntity
  8
0
  6
Continuous
 62
     7
100
AcDbLine
 10
116.247959925
 20
56.41294090279999
 30
0.0
 11
117.3269824125
 21
57.4919633903
 31
0.0
  0
LINE
  5
2D7
330
23B
100
AcDbEntity
  8
0
  6
Continuous
 62
     7
100
AcDbLine
 10
119.4048761161
 20
59.5698570939
 30
0.0
 11
120.9458799309
 21
61.11086090869999
 31
0.0
  0
LINE
  5
2D8
330
23B
100
AcDbEntity
  8
0
  6
Continuous
 62
     7
100
AcDbLine
 10
116.1575128711
 20
56.9258916355
 30
0.0
 11
117.2365353586
 21
58.004914123
 31
0.0
  0
LINE
  5
2D9
330
23B
100
AcDbEntity
  8
0
  6
Continuous
 62
     7
100
AcDbLine
 10
118.6723065497
 20
59.4406853141
 30
0.0
 11
120.2133103645
 21
60.9816891289
 31
0.0
  0
LINE
  5
2DA
330
23B
100
AcDbEntity
  8
0
  6
Continuous
 62
     7
100
AcDbLine
 10
116.0670658171
 20
57.4388423682
 30
0.0
 11
117.1460883047
 21
58.51786485569999
 31
0.0
  0
LINE
  5
2DB
330
23B
100
AcDbEntity
  8
0
  6
Continuous
 62
     7
100
AcDbLine
 10
117.9397369833
 20
59.3115135343
 30
0.0
 11
119.480740798
 21
60.85251734909999
 31
0.0
  0
LINE
  5
2DC
330
23B
100
AcDbEntity
  8
0
  6
Continuous
 62
     7
100
AcDbLine
 10
115.9766187632
 20
57.95179310079999
 30
0.0
 11
117.0556412507
 21
59.0308155883
 31
0.0
  0
LINE
  5
2DD
330
23B
100
AcDbEntity
  8
0
  6
Continuous
 62
     7
100
AcDbLine
 10
117.2071674168
 20
59.1823417545
 30
0.0
 11
118.7481712316
 21
60.7233455693
 31
0.0
  0
LINE
  5
2DE
330
23B
100
AcDbEntity
  8
0
  6
Continuous
 62
     7
100
AcDbLine
 10
115.8861717092
 20
58.4647438335
 30
0.0
 11
118.0156016652
 21
60.5941737895
 31
0.0
  0
LINE
  5
2DF
330
23B
100
AcDbEntity
  8
0
  6
Continuous
 62
     7
100
AcDbLine
 10
115.7957246553
 20
58.9776945662
 30
0.0
 11
117.2830320988
 21
60.4650020097
 31
0.0
  0
LINE
  5
2E0
330
23B
100
AcDbEntity
  8
0
  6
Continuous
 62
     7
100
AcDbLine
 10
115.7052776014
 20
59.49064529880001
 30
0.0
 11
116.5504625324
 21
60.3358302298
 31
0.0
  0
LINE
  5
2E1
330
23B
100
AcDbEntity
  8
0
  6
Continuous
 62
     7
100
AcDbLine
 10
115.6148305474
 20
60.00359603149999
 30
0.0
 11
115.817892966
 21
60.20665844999999
 31
0.0
  0
ENDBLK
  5
2E2
330
23B
100
AcDbEntity
  8
0
  6
ByBlock
 62
     0
100
AcDbBlockEnd
  0
BLOCK
  5
2E3
330
23C
100
AcDbEntity
  8
0
  6
Continuous
 62
     7
100
AcDbBlockBegin
  2
SYMBOL_0_BL0
 70
     0
 10
160.6666666667
 20
55.33333333329999
 30
0.0
  3
SYMBOL_0_BL0
  1

  0
TEXT
  5
2E4
330
23C
100
AcDbEntity
  8
0
  6
Continuous
 62
     7
100
AcDbText
 10
144.4188815905
 20
63.10676672439999
 30
0.0
 40
0.5
  1
Infomations Techniques/Technical Infomations
  7
TEXTSTYLE_2
100
AcDbText
  0
TEXT
  5
2E5
330
23C
100
AcDbEntity
  8
0
  6
Continuous
 62
     7
100
AcDbText
 10
144.6666666667
 20
61.6666666667
 30
0.0
 40
0.6666666667
  1
NOMBRE DE JETS:     
  7
TEXTSTYLE_2
100
AcDbText
  0
TEXT
  5
2E6
330
23C
100
AcDbEntity
  8
0
  6
Continuous
 62
     7
100
AcDbText
 10
154.5111111111
 20
61.6666666667
 30
0.0
 40
0.6666666667
  1
38
  7
TEXTSTYLE_2
100
AcDbText
  0
TEXT
  5
2E7
330
23C
100
AcDbEntity
  8
0
  6
Continuous
 62
     7
100
AcDbText
 10
144.6666666667
 20
60.6666666667
 30
0.0
 40
0.6666666667
  1
 
  7
TEXTSTYLE_2
100
AcDbText
  0
TEXT
  5
2E8
330
23C
100
AcDbEntity
  8
0
  6
Continuous
 62
     7
100
AcDbText
 10
144.6666666667
 20
59.66666666670001
 30
0.0
 40
0.6666666667
  1
NIVEAU D'EAU              GALLONS(US)        LITRES        GALLONS(UK)
  7
TEXTSTYLE_2
100
AcDbText
  0
TEXT
  5
2E9
330
23C
100
AcDbEntity
  8
0
  6
Continuous
 62
     7
100
AcDbText
 10
144.6666666667
 20
58.6666666667
 30
0.0
 40
0.6666666667
  1
PLEIN
  7
TEXTSTYLE_2
100
AcDbText
  0
TEXT
  5
2EA
330
23C
100
AcDbEntity
  8
0
  6
Continuous
 62
     7
100
AcDbText
 10
144.6666666667
 20
57.6666666667
 30
0.0
 40
0.6666666667
  1
HAUT T.PLEIN
  7
TEXTSTYLE_2
100
AcDbText
  0
TEXT
  5
2EB
330
23C
100
AcDbEntity
  8
0
  6
Continuous
 62
     7
100
AcDbText
 10
144.6666666667
 20
56.6666666667
 30
0.0
 40
0.6666666667
  1
MILIEU T.PLEIN
  7
TEXTSTYLE_2
100
AcDbText
  0
TEXT
  5
2EC
330
23C
100
AcDbEntity
  8
0
  6
Continuous
 62
     7
100
AcDbText
 10
144.6666666667
 20
55.6666666667
 30
0.0
 40
0.6666666667
  1
BAS T.PLEIN
  7
TEXTSTYLE_2
100
AcDbText
  0
TEXT
  5
2ED
330
23C
100
AcDbEntity
  8
0
  6
Continuous
 62
     7
100
AcDbText
 10
144.6666666667
 20
54.66666666670001
 30
0.0
 40
0.6666666667
  1
3" EN BAS T.PLEIN
  7
TEXTSTYLE_2
100
AcDbText
  0
TEXT
  5
2EE
330
23C
100
AcDbEntity
  8
0
  6
Continuous
 62
     7
100
AcDbText
 10
144.6666666667
 20
53.6666666667
 30
0.0
 40
0.6666666667
  1
 
  7
TEXTSTYLE_2
100
AcDbText
  0
TEXT
  5
2EF
330
23C
100
AcDbEntity
  8
0
  6
Continuous
 62
     7
100
AcDbText
 10
144.4665051611
 20
53.1198797418
 30
0.0
 40
0.5
  1
Legende/Legend
  7
TEXTSTYLE_2
100
AcDbText
  0
TEXT
  5
2F0
330
23C
100
AcDbEntity
  8
0
  6
Continuous
 62
     7
100
AcDbText
 10
150.9953401051
 20
51.6086147641
 30
0.0
 40
0.6666666667
  1
ZONE DE ROBINETTERIE
  7
TEXTSTYLE_2
100
AcDbText
  0
TEXT
  5
2F1
330
23C
100
AcDbEntity
  8
0
  6
Continuous
 62
     7
100
AcDbText
 10
145.9156155382
 20
50.1133702497
 30
0.0
 40
0.6666666667
  1
L   :  SYSTEME LED       DC   :  DOUBLE DOSSIER CHAUFFANT
  7
TEXTSTYLE_2
100
AcDbText
  0
TEXT
  5
2F2
330
23C
100
AcDbEntity
  8
0
  6
Continuous
 62
     7
100
AcDbText
 10
145.9156155382
 20
48.7800369164
 30
0.0
 40
0.6666666667
  1
C   :  CONTROLE
  7
TEXTSTYLE_2
100
AcDbText
  0
TEXT
  5
2F3
330
23C
100
AcDbEntity
  8
0
  6
Continuous
 62
     7
100
AcDbText
 10
145.9156155382
 20
47.4467035831
 30
0.0
 40
0.6666666667
  1
T   :  MOTEUR
  7
TEXTSTYLE_2
100
AcDbText
  0
TEXT
  5
2F4
330
23C
100
AcDbEntity
  8
0
  6
Continuous
 62
     7
100
AcDbText
 10
157.499363366
 20
58.6666666667
 30
0.0
 40
0.6666666667
  1
82
  7
TEXTSTYLE_2
100
AcDbText
  0
TEXT
  5
2F5
330
23C
100
AcDbEntity
  8
0
  6
Continuous
 62
     7
100
AcDbText
 10
157.499363366
 20
57.6666666667
 30
0.0
 40
0.6666666667
  1
69
  7
TEXTSTYLE_2
100
AcDbText
  0
TEXT
  5
2F6
330
23C
100
AcDbEntity
  8
0
  6
Continuous
 62
     7
100
AcDbText
 10
157.499363366
 20
56.6666666667
 30
0.0
 40
0.6666666667
  1
63
  7
TEXTSTYLE_2
100
AcDbText
  0
TEXT
  5
2F7
330
23C
100
AcDbEntity
  8
0
  6
Continuous
 62
     7
100
AcDbText
 10
157.499363366
 20
55.6666666667
 30
0.0
 40
0.6666666667
  1
57
  7
TEXTSTYLE_2
100
AcDbText
  0
TEXT
  5
2F8
330
23C
100
AcDbEntity
  8
0
  6
Continuous
 62
     7
100
AcDbText
 10
157.499363366
 20
54.66666666670001
 30
0.0
 40
0.6666666667
  1
48
  7
TEXTSTYLE_2
100
AcDbText
  0
TEXT
  5
2F9
330
23C
100
AcDbEntity
  8
0
  6
Continuous
 62
     7
100
AcDbText
 10
164.4195693097
 20
58.68374606879999
 30
0.0
 40
0.6666666667
  1
309
  7
TEXTSTYLE_2
100
AcDbText
  0
TEXT
  5
2FA
330
23C
100
AcDbEntity
  8
0
  6
Continuous
 62
     7
100
AcDbText
 10
164.4195693097
 20
57.6837460688
 30
0.0
 40
0.6666666667
  1
262
  7
TEXTSTYLE_2
100
AcDbText
  0
TEXT
  5
2FB
330
23C
100
AcDbEntity
  8
0
  6
Continuous
 62
     7
100
AcDbText
 10
164.4195693097
 20
56.6837460688
 30
0.0
 40
0.6666666667
  1
238
  7
TEXTSTYLE_2
100
AcDbText
  0
TEXT
  5
2FC
330
23C
100
AcDbEntity
  8
0
  6
Continuous
 62
     7
100
AcDbText
 10
164.4195693097
 20
55.68374606879999
 30
0.0
 40
0.6666666667
  1
216
  7
TEXTSTYLE_2
100
AcDbText
  0
TEXT
  5
2FD
330
23C
100
AcDbEntity
  8
0
  6
Continuous
 62
     7
100
AcDbText
 10
164.4195693097
 20
54.6837460688
 30
0.0
 40
0.6666666667
  1
183
  7
TEXTSTYLE_2
100
AcDbText
  0
TEXT
  5
2FE
330
23C
100
AcDbEntity
  8
0
  6
Continuous
 62
     7
100
AcDbText
 10
171.3642082472
 20
58.6666666667
 30
0.0
 40
0.6666666667
  1
68
  7
TEXTSTYLE_2
100
AcDbText
  0
TEXT
  5
2FF
330
23C
100
AcDbEntity
  8
0
  6
Continuous
 62
     7
100
AcDbText
 10
171.3642082472
 20
57.6666666667
 30
0.0
 40
0.6666666667
  1
58
  7
TEXTSTYLE_2
100
AcDbText
  0
TEXT
  5
300
330
23C
100
AcDbEntity
  8
0
  6
Continuous
 62
     7
100
AcDbText
 10
171.3642082472
 20
56.6666666667
 30
0.0
 40
0.6666666667
  1
52
  7
TEXTSTYLE_2
100
AcDbText
  0
TEXT
  5
301
330
23C
100
AcDbEntity
  8
0
  6
Continuous
 62
     7
100
AcDbText
 10
171.3642082472
 20
55.6666666667
 30
0.0
 40
0.6666666667
  1
48
  7
TEXTSTYLE_2
100
AcDbText
  0
TEXT
  5
302
330
23C
100
AcDbEntity
  8
0
  6
Continuous
 62
     7
100
AcDbText
 10
171.3642082472
 20
54.66666666670001
 30
0.0
 40
0.6666666667
  1
40
  7
TEXTSTYLE_2
100
AcDbText
  0
LINE
  5
303
330
23C
100
AcDbEntity
  8
0
  6
Continuous
 62
     7
100
AcDbLine
 10
144.0
 20
64.0
 30
0.0
 11
144.0
 21
46.6666666667
 31
0.0
  0
LINE
  5
304
330
23C
100
AcDbEntity
  8
0
  6
Continuous
 62
     7
100
AcDbLine
 10
144.0
 20
64.0
 30
0.0
 11
177.3333333333
 21
64.0
 31
0.0
  0
LINE
  5
305
330
23C
100
AcDbEntity
  8
0
  6
Continuous
 62
     7
100
AcDbLine
 10
177.3333333333
 20
64.0
 30
0.0
 11
177.3333333333
 21
46.6666666667
 31
0.0
  0
LINE
  5
306
330
23C
100
AcDbEntity
  8
0
  6
Continuous
 62
     7
100
AcDbLine
 10
144.0
 20
46.6666666667
 30
0.0
 11
177.3333333333
 21
46.6666666667
 31
0.0
  0
LINE
  5
307
330
23C
100
AcDbEntity
  8
0
  6
Continuous
 62
     7
100
AcDbLine
 10
145.3333333333
 20
54.0
 30
0.0
 11
176.0
 21
54.0
 31
0.0
  0
LINE
  5
308
330
23C
100
AcDbEntity
  8
0
  6
Continuous
 62
     7
100
AcDbLine
 10
145.3333333333
 20
61.0
 30
0.0
 11
176.0
 21
61.0
 31
0.0
  0
LINE
  5
309
330
23C
100
AcDbEntity
  8
0
  6
Continuous
 62
     7
100
AcDbLine
 10
144.8089065593
 20
52.3781645044
 30
0.0
 11
144.4398858169
 21
52.009143762
 31
0.0
  0
LINE
  5
30A
330
23C
100
AcDbEntity
  8
0
  6
Continuous
 62
     7
100
AcDbLine
 10
145.4755732259
 20
52.3781645044
 30
0.0
 11
144.6775574355
 21
51.5801487139
 31
0.0
  0
LINE
  5
30B
330
23C
100
AcDbEntity
  8
0
  6
Continuous
 62
     7
100
AcDbLine
 10
146.1422398926
 20
52.3781645044
 30
0.0
 11
145.3442241022
 21
51.5801487139
 31
0.0
  0
LINE
  5
30C
330
23C
100
AcDbEntity
  8
0
  6
Continuous
 62
     7
100
AcDbLine
 10
146.8089065593
 20
52.3781645044
 30
0.0
 11
146.0108907688
 21
51.5801487139
 31
0.0
  0
LINE
  5
30D
330
23C
100
AcDbEntity
  8
0
  6
Continuous
 62
     7
100
AcDbLine
 10
147.4755732259
 20
52.3781645044
 30
0.0
 11
146.6775574355
 21
51.5801487139
 31
0.0
  0
LINE
  5
30E
330
23C
100
AcDbEntity
  8
0
  6
Continuous
 62
     7
100
AcDbLine
 10
148.1422398926
 20
52.3781645044
 30
0.0
 11
147.3442241022
 21
51.5801487139
 31
0.0
  0
LINE
  5
30F
330
23C
100
AcDbEntity
  8
0
  6
Continuous
 62
     7
100
AcDbLine
 10
148.8089065593
 20
52.3781645044
 30
0.0
 11
148.0108907688
 21
51.5801487139
 31
0.0
  0
LINE
  5
310
330
23C
100
AcDbEntity
  8
0
  6
Continuous
 62
     7
100
AcDbLine
 10
149.4755732259
 20
52.3781645044
 30
0.0
 11
148.6775574355
 21
51.5801487139
 31
0.0
  0
LINE
  5
311
330
23C
100
AcDbEntity
  8
0
  6
Continuous
 62
     7
100
AcDbLine
 10
150.1422398926
 20
52.3781645044
 30
0.0
 11
149.3442241022
 21
51.5801487139
 31
0.0
  0
LINE
  5
312
330
23C
100
AcDbEntity
  8
0
  6
Continuous
 62
     7
100
AcDbLine
 10
150.5857273268
 20
52.1549852718
 30
0.0
 11
150.0108907688
 21
51.5801487139
 31
0.0
  0
ELLIPSE
  5
313
330
23C
100
AcDbEntity
  8
0
  6
Continuous
 62
     7
100
AcDbEllipse
 10
146.1454024822
 20
50.43094770689999
 30
0.0
 11
1.0473539356
 21
0.0
 31
0.0
210
0.0
220
0.0
230
1.0
 40
0.4938647983
 41
0.0
 42
6.283185307179586
  0
ELLIPSE
  5
314
330
23C
100
AcDbEntity
  8
0
  6
Continuous
 62
     7
100
AcDbEllipse
 10
146.1454024822
 20
49.0976143736
 30
0.0
 11
1.0473539356
 21
0.0
 31
0.0
210
0.0
220
0.0
230
1.0
 40
0.4938647983
 41
0.0
 42
6.283185307179586
  0
ELLIPSE
  5
315
330
23C
100
AcDbEntity
  8
0
  6
Continuous
 62
     7
100
AcDbEllipse
 10
146.1454024822
 20
47.76428104029999
 30
0.0
 11
1.0473539356
 21
0.0
 31
0.0
210
0.0
220
0.0
230
1.0
 40
0.4938647983
 41
0.0
 42
6.283185307179586
  0
ELLIPSE
  5
316
330
23C
100
AcDbEntity
  8
0
  6
Continuous
 62
     7
100
AcDbEllipse
 10
157.1640380633
 20
50.45046906399999
 30
0.0
 11
1.0473539356
 21
0.0
 31
0.0
210
0.0
220
0.0
230
1.0
 40
0.4938647983
 41
0.0
 42
6.283185307179586
  0
ENDBLK
  5
317
330
23C
100
AcDbEntity
  8
0
  6
ByBlock
 62
     0
100
AcDbBlockEnd
  0
ENDSEC
  0
SECTION
  2
ENTITIES
  0
LWPOLYLINE
  5
47A
330
220
100
AcDbEntity
  8
DEFAULT_2
  6
HIDDEN
 62
     7
100
AcDbPolyline
 90
       64
 70
     0
 43
0.0
 10
35.5277136076
 20
31.8530364392
 10
35.5512425638
 20
31.8039794179
 10
35.5758346431
 20
31.7554436018
 10
35.6010304355
 20
31.7082695035
 10
35.6272291608
 20
31.66164584300001
 10
35.6539378681
 20
31.6163893112
 10
35.6815919066
 20
31.571704019
 10
35.70966370260001
 20
31.528387125
 10
35.7386237217
 20
31.4856590957
 10
35.767911854
 20
31.4442951647
 10
35.7980324213
 20
31.4035334709
 10
35.8283940309
 20
31.3641268323
 10
35.859533639
 20
31.3253321312
 10
35.890830046
 20
31.2878789074
 10
35.9228515741
 20
31.2510438009
 10
35.9549486497
 20
31.215532411
 10
35.9877196611
 20
31.1806420632
 10
36.0204879546
 20
31.14705396590001
 10
36.0538808097
 20
31.1140868097
 10
36.0871958707
 20
31.0823969382
 10
36.1210880291
 20
31.0513251191
 10
36.1548306092
 20
31.0215024226
 10
36.1891048137
 20
30.9922923348
 10
36.2231609957
 20
30.9643003397
 10
36.2577053818
 20
30.9369131825
 10
36.2919666622
 20
30.9107105396
 10
36.3266748232
 20
30.8851028587
 10
36.3610381281
 20
30.8606438911
 10
36.3958091135
 20
30.8367681172
 10
36.4301750271
 20
30.8140044786
 10
36.4649115183
 20
30.7918105195
 10
36.4991690367
 20
30.7707004813
 10
36.5337618109
 20
30.7501445143
 10
36.5677943222
 20
30.7306464637
 10
36.6021284599
 20
30.711684674
 10
36.6358230041
 20
30.6937509419
 10
36.6697873445
 20
30.6763336669
 10
36.7030349991
 20
30.6599110273
 10
36.73652250510001
 20
30.6439832662
 10
36.8021559313
 20
30.6145028488
 10
36.86656393630001
 20
30.5877389865
 10
36.929639516
 20
30.5635371153
 10
36.9912875703
 20
30.541744337
 10
37.0514235774
 20
30.52221027010001
 10
37.1098963235
 20
30.5048093116
 10
37.16640627090001
 20
30.4894523783
 10
37.2206354118
 20
30.4760387536
 10
37.2724549244
 20
30.4644119831
 10
37.32202501030001
 20
30.4543630771
 10
37.369556779
 20
30.4457002612
 10
37.4152100031
 20
30.438266381
 10
37.4584624812
 20
30.43201663690001
 10
37.4985311
 20
30.4269091758
 10
37.5347413743
 20
30.4228529305
 10
37.5667193646
 20
30.4197084104
 10
37.594762089
 20
30.4172852992
 10
37.6192391853
 20
30.4154225868
 10
37.6405432148
 20
30.41398962400001
 10
37.6589840496
 20
30.4128874863
 10
37.6747741484
 20
30.41204237780001
 10
37.6882270998
 20
30.4113907726
 10
37.69972446420001
 20
30.4108805171
 10
37.7096999792
 20
30.4104695142
 10
37.7185487687
 20
30.410126655
  0
LINE
  5
47B
330
220
100
AcDbEntity
  8
DEFAULT_2
  6
HIDDEN
 62
     7
100
AcDbLine
 10
34.8914589268
 20
33.2177463705
 30
0.0
 11
34.8836842923
 21
33.2341617661
 31
0.0
  0
LINE
  5
47C
330
220
100
AcDbEntity
  8
DEFAULT_2
  6
HIDDEN
 62
     7
100
AcDbLine
 10
34.900412471
 20
33.1987576405
 30
0.0
 11
34.8914589268
 21
33.2177463705
 31
0.0
  0
LINE
  5
47D
330
220
100
AcDbEntity
  8
DEFAULT_2
  6
HIDDEN
 62
     7
100
AcDbLine
 10
34.9111943356
 20
33.1757723781
 30
0.0
 11
34.900412471
 21
33.1987576405
 31
0.0
  0
LINE
  5
47E
330
220
100
AcDbEntity
  8
DEFAULT_2
  6
HIDDEN
 62
     7
100
AcDbLine
 10
27.677997021
 20
48.68680797989999
 30
0.0
 11
34.883684465
 21
33.23416138920001
 31
0.0
  0
LINE
  5
47F
330
220
100
AcDbEntity
  8
DEFAULT_2
  6
HIDDEN
 62
     7
100
AcDbLine
 10
34.949718218
 20
33.0925515489
 30
0.0
 11
35.5277136093
 21
31.8530364322
 31
0.0
  0
LINE
  5
480
330
220
100
AcDbEntity
  8
DEFAULT_2
  6
HIDDEN
 62
     7
100
AcDbLine
 10
34.92277286010001
 20
33.1509418912
 30
0.0
 11
34.9111943356
 21
33.1757723781
 31
0.0
  0
LINE
  5
481
330
220
100
AcDbEntity
  8
DEFAULT_2
  6
HIDDEN
 62
     7
100
AcDbLine
 10
34.9334354278
 20
33.1279389522
 30
0.0
 11
34.92277286010001
 21
33.1509418912
 31
0.0
  0
LINE
  5
482
330
220
100
AcDbEntity
  8
DEFAULT_2
  6
HIDDEN
 62
     7
100
AcDbLine
 10
34.94971839570001
 20
33.0925511744
 30
0.0
 11
34.9334354278
 21
33.1279389522
 31
0.0
  0
LWPOLYLINE
  5
488
330
220
100
AcDbEntity
  8
DEFAULT_2
  6
HIDDEN
 62
     7
100
AcDbPolyline
 90
       37
 70
     0
 43
0.0
 10
54.3190922976
 20
29.7687850189
 10
54.315369583
 20
29.7724314469
 10
54.3115704797
 20
29.7760004821
 10
54.307696981
 20
29.7794903293
 10
54.30375107999999
 20
29.7828991934
 10
54.29973477
 20
29.786225279
 10
54.2956500442
 20
29.7894667912
 10
54.2914989483
 20
29.7926219707
 10
54.2872832318
 20
29.79568958510001
 10
54.2830046939
 20
29.7986684346
 10
54.2786651338
 20
29.8015573192
 10
54.27426635079999
 20
29.8043550391
 10
54.26981014409999
 20
29.8070603943
 10
54.26529843369999
 20
29.8096721631
 10
54.2607331345
 20
29.812189316
 10
54.2561162802
 20
29.8146107981
 10
54.25144990439999
 20
29.8169355546
 10
54.2467360407
 20
29.8191625307
 10
54.2419767227
 20
29.8212906716
 10
54.23717407539999
 20
29.8233189411
 10
54.23233016680001
 20
29.8252465546
 10
54.2274471552
 20
29.8270727429
 10
54.2225271987
 20
29.8287967371
 10
54.2175724554
 20
29.8304177682
 10
54.2125850834
 20
29.8319350673
 10
54.2075672836
 20
29.8333478964
 10
54.20252111859999
 20
29.8346557281
 10
54.197448693
 20
29.8358580636
 10
54.19235211149999
 20
29.8369544044
 10
54.1872334787
 20
29.8379442519
 10
54.1820948992
 20
29.8388271074
 10
54.17693859989999
 20
29.8396025127
 10
54.17176713159999
 20
29.8402701944
 10
54.1665831671
 20
29.8408299184
 10
54.1613893792
 20
29.8412814507
 10
54.1561884406
 20
29.841624557
 10
54.1509830241
 20
29.8418590034
  0
LINE
  5
489
330
220
100
AcDbEntity
  8
DEFAULT_2
  6
HIDDEN
 62
     7
100
AcDbLine
 10
54.6759009883
 20
29.4116884528
 30
0.0
 11
54.3181777825
 21
29.7694116585
 31
0.0
  0
LINE
  5
545
330
220
100
AcDbEntity
  8
DEFAULT_2
  6
HIDDEN
 62
     7
100
AcDbLine
 10
74.5323862318
 20
30.4103149083
 30
0.0
 11
74.5333585258
 21
30.4104071051
 31
0.0
  0
LINE
  5
548
330
220
100
AcDbEntity
  8
DEFAULT_2
  6
HIDDEN
 62
     7
100
AcDbLine
 10
74.5333585258
 20
30.4104071051
 30
0.0
 11
74.5338260147
 21
30.4104487223
 31
0.0
  0
LINE
  5
54D
330
220
100
AcDbEntity
  8
DEFAULT_2
  6
HIDDEN
 62
     7
100
AcDbLine
 10
74.5338260147
 20
30.4104487223
 30
0.0
 11
74.53426231849999
 21
30.41048394780001
 31
0.0
  0
LINE
  5
556
330
220
100
AcDbEntity
  8
DEFAULT_2
  6
HIDDEN
 62
     7
100
AcDbLine
 10
74.53426231849999
 20
30.41048394780001
 30
0.0
 11
74.53465907729999
 21
30.4105126519
 31
0.0
  0
LWPOLYLINE
  5
55C
330
220
100
AcDbEntity
  8
DEFAULT_2
  6
HIDDEN
 62
     7
100
AcDbPolyline
 90
        6
 70
     0
 43
0.0
 10
74.53087272800001
 20
30.410197297
 10
74.53120683739999
 20
30.4102194333
 10
74.53152905899999
 20
30.4102425949
 10
74.53183861789999
 20
30.4102668399
 10
74.5321162302
 20
30.4102904621
 10
74.5323862318
 20
30.4103149083
  0
LINE
  5
560
330
220
100
AcDbEntity
  8
DEFAULT_2
  6
HIDDEN
 62
     7
100
AcDbLine
 10
74.53465907729999
 20
30.4105126519
 30
0.0
 11
74.5350925142
 21
30.4105404935
 31
0.0
  0
LINE
  5
567
330
220
100
AcDbEntity
  8
DEFAULT_2
  6
HIDDEN
 62
     7
100
AcDbLine
 10
74.53017194569999
 20
30.4101558677
 30
0.0
 11
74.53087272800001
 21
30.410197297
 31
0.0
  0
LINE
  5
56A
330
220
100
AcDbEntity
  8
DEFAULT_2
  6
HIDDEN
 62
     7
100
AcDbLine
 10
74.5350925142
 20
30.4105404935
 30
0.0
 11
74.5355687432
 21
30.4105672183
 31
0.0
  0
LINE
  5
56E
330
220
100
AcDbEntity
  8
DEFAULT_2
  6
HIDDEN
 62
     7
100
AcDbLine
 10
74.5294329116
 20
30.4101178424
 30
0.0
 11
74.53017194569999
 21
30.4101558677
 31
0.0
  0
LINE
  5
570
330
220
100
AcDbEntity
  8
DEFAULT_2
  6
HIDDEN
 62
     7
100
AcDbLine
 10
74.5355687432
 20
30.4105672183
 30
0.0
 11
74.53602535279999
 21
30.4105894865
 31
0.0
  0
LWPOLYLINE
  5
573
330
220
100
AcDbEntity
  8
DEFAULT_2
  6
HIDDEN
 62
     7
100
AcDbPolyline
 90
       37
 70
     0
 43
0.0
 10
58.0972655619
 20
29.8418590041
 10
58.09206014539999
 20
29.8416245577
 10
58.0868592068
 20
29.8412814512
 10
58.0816654189
 20
29.8408299189
 10
58.07648145449999
 20
29.8402701947
 10
58.07130998619999
 20
29.8396025129
 10
58.066153687
 20
29.8388271075
 10
58.0610151075
 20
29.8379442519
 10
58.05589647479999
 20
29.8369544043
 10
58.0507998933
 20
29.8358580634
 10
58.0457274677
 20
29.8346557278
 10
58.0406813027
 20
29.833347896
 10
58.0356635031
 20
29.8319350668
 10
58.03067613109999
 20
29.8304177676
 10
58.0257213878
 20
29.8287967364
 10
58.0208014314
 20
29.8270727421
 10
58.01591841979999
 20
29.8252465537
 10
58.0110745114
 20
29.8233189402
 10
58.0062718641
 20
29.8212906706
 10
58.0015125462
 20
29.8191625297
 10
57.9967986826
 20
29.8169355535
 10
57.9921323068
 20
29.8146107969
 10
57.9875154525
 20
29.8121893147
 10
57.9829501534
 20
29.8096721618
 10
57.9784384431
 20
29.8070603929
 10
57.97398223640001
 20
29.8043550376
 10
57.9695834535
 20
29.8015573176
 10
57.9652438935
 20
29.798668433
 10
57.9609653556
 20
29.7956895835
 10
57.95674963919999
 20
29.792621969
 10
57.9525985434
 20
29.7894667894
 10
57.9485138177
 20
29.7862252772
 10
57.94449750770001
 20
29.7828991915
 10
57.9405516068
 20
29.7794903274
 10
57.9366781081
 20
29.7760004802
 10
57.9328790049
 20
29.7724314449
 10
57.9291562904
 20
29.7687850168
  0
LINE
  5
574
330
220
100
AcDbEntity
  8
DEFAULT_2
  6
HIDDEN
 62
     7
100
AcDbLine
 10
74.52866182520001
 20
30.4100827562
 30
0.0
 11
74.5294329116
 21
30.4101178424
 31
0.0
  0
LINE
  5
578
330
220
100
AcDbEntity
  8
DEFAULT_2
  6
HIDDEN
 62
     7
100
AcDbLine
 10
74.53602535279999
 20
30.4105894865
 30
0.0
 11
74.53652350199999
 21
30.4106105345
 31
0.0
  0
LINE
  5
57C
330
220
100
AcDbEntity
  8
DEFAULT_2
  6
HIDDEN
 62
     7
100
AcDbLine
 10
74.52745865899998
 20
30.410034621
 30
0.0
 11
74.52866182520001
 21
30.4100827562
 31
0.0
  0
LINE
  5
581
330
220
100
AcDbEntity
  8
DEFAULT_2
  6
HIDDEN
 62
     7
100
AcDbLine
 10
74.53652350199999
 20
30.4106105345
 30
0.0
 11
74.53706728649999
 21
30.4106301921
 31
0.0
  0
LWPOLYLINE
  5
582
330
220
100
AcDbEntity
  8
DEFAULT_2
  6
HIDDEN
 62
     7
100
AcDbPolyline
 90
       20
 70
     0
 43
0.0
 10
74.5380347963
 20
30.4106589745
 10
74.5382213095
 20
30.4106654527
 10
74.53840343510001
 20
30.4106734158
 10
74.5385781243
 20
30.4106834098
 10
74.53869666060001
 20
30.4106920942
 10
74.5388087364
 20
30.4107022923
 10
74.5389132404
 20
30.4107142031
 10
74.5390090618
 20
30.4107280256
 10
74.53909508939999
 20
30.4107439587
 10
74.5391702121
 20
30.4107622014
 10
74.5392333189
 20
30.4107829526
 10
74.5392733834
 20
30.4108009542
 10
74.5393049842
 20
30.4108206873
 10
74.53932759850001
 20
30.4108422455
 10
74.5393407034
 20
30.4108657225
 10
74.5393437763
 20
30.4108912119
 10
74.5393362944
 20
30.4109188072
 10
74.53931773479999
 20
30.4109486022
 10
74.539287575
 20
30.4109806904
 10
74.539245292
 20
30.4110151655
  0
LINE
  5
583
330
220
100
AcDbEntity
  8
DEFAULT_2
  6
HIDDEN
 62
     7
100
AcDbLine
 10
58.0972655619
 20
29.8418590041
 30
0.0
 11
74.5228423121
 21
30.4098788587
 31
0.0
  0
LWPOLYLINE
  5
585
330
220
100
AcDbEntity
  8
DEFAULT_2
  6
HIDDEN
 62
     7
100
AcDbPolyline
 90
        3
 70
     0
 43
0.0
 10
74.4613987485
 20
30.4077858597
 10
74.486820968
 20
30.4086398588
 10
74.50691644289999
 20
30.4093138433
  0
LINE
  5
586
330
220
100
AcDbEntity
  8
DEFAULT_2
  6
HIDDEN
 62
     7
100
AcDbLine
 10
74.3639443696
 20
30.4045358036
 30
0.0
 11
74.4613987485
 21
30.4077858597
 31
0.0
  0
LWPOLYLINE
  5
587
330
220
100
AcDbEntity
  8
DEFAULT_2
  6
HIDDEN
 62
     7
100
AcDbPolyline
 90
       15
 70
     0
 43
0.0
 10
67.0310569248
 20
30.1728980243
 10
67.16005491989999
 20
30.1771345689
 10
67.27778935519999
 20
30.1810028912
 10
67.3849162705
 20
30.1845240246
 10
67.4821002394
 20
30.1877193866
 10
67.57001812979999
 20
30.1906108948
 10
67.6496156592
 20
30.19322939
 10
67.7221129668
 20
30.1956148172
 10
67.7887382768
 20
30.1978074602
 10
67.850406881
 20
30.1998373448
 10
67.907163991
 20
30.2017058774
 10
67.9589119197
 20
30.2034097649
 10
68.00562517029999
 20
30.2049480956
 10
68.0472966629
 20
30.2063205703
 10
68.08402641319999
 20
30.2075304157
  0
LWPOLYLINE
  5
588
330
220
100
AcDbEntity
  8
DEFAULT_2
  6
HIDDEN
 62
     7
100
AcDbPolyline
 90
        3
 70
     0
 43
0.0
 10
66.18955112800001
 20
30.1453169691
 10
66.3903412465
 20
30.1518882727
 10
67.0310569248
 20
30.1728980243
  0
LINE
  5
589
330
220
100
AcDbEntity
  8
DEFAULT_2
  6
HIDDEN
 62
     7
100
AcDbLine
 10
68.08402641319999
 20
30.2075304157
 30
0.0
 11
68.47107612870001
 21
30.2202656506
 31
0.0
  0
LINE
  5
58A
330
220
100
AcDbEntity
  8
DEFAULT_2
  6
HIDDEN
 62
     7
100
AcDbLine
 10
74.5228423121
 20
30.4098788587
 30
0.0
 11
74.52745865899998
 21
30.410034621
 31
0.0
  0
LINE
  5
58B
330
220
100
AcDbEntity
  8
DEFAULT_2
  6
HIDDEN
 62
     7
100
AcDbLine
 10
74.25818129560001
 20
30.4010734553
 30
0.0
 11
74.3639443696
 21
30.4045358036
 31
0.0
  0
LINE
  5
58C
330
220
100
AcDbEntity
  8
DEFAULT_2
  6
HIDDEN
 62
     7
100
AcDbLine
 10
68.47107612870001
 20
30.2202656506
 30
0.0
 11
68.7947120816
 21
30.2308019892
 31
0.0
  0
LINE
  5
58D
330
220
100
AcDbEntity
  8
DEFAULT_2
  6
HIDDEN
 62
     7
100
AcDbLine
 10
74.13512965799999
 20
30.3970939225
 30
0.0
 11
74.25818129560001
 21
30.4010734553
 31
0.0
  0
LINE
  5
58E
330
220
100
AcDbEntity
  8
DEFAULT_2
  6
HIDDEN
 62
     7
100
AcDbLine
 10
68.7947120816
 20
30.2308019892
 30
0.0
 11
68.9609242879
 21
30.2361696597
 31
0.0
  0
LINE
  5
58F
330
220
100
AcDbEntity
  8
DEFAULT_2
  6
HIDDEN
 62
     7
100
AcDbLine
 10
68.9609242879
 20
30.2361696597
 30
0.0
 11
69.19116488350001
 21
30.2435590902
 31
0.0
  0
LINE
  5
590
330
220
100
AcDbEntity
  8
DEFAULT_2
  6
HIDDEN
 62
     7
100
AcDbLine
 10
73.98934039470001
 20
30.3924282939
 30
0.0
 11
74.13512965799999
 21
30.3970939225
 31
0.0
  0
LINE
  5
591
330
220
100
AcDbEntity
  8
DEFAULT_2
  6
HIDDEN
 62
     7
100
AcDbLine
 10
69.19116488350001
 20
30.2435590902
 30
0.0
 11
69.3736337136
 21
30.2493796042
 31
0.0
  0
LINE
  5
592
330
220
100
AcDbEntity
  8
DEFAULT_2
  6
HIDDEN
 62
     7
100
AcDbLine
 10
73.74916320189999
 20
30.3848294557
 30
0.0
 11
73.98934039470001
 21
30.3924282939
 31
0.0
  0
LINE
  5
593
330
220
100
AcDbEntity
  8
DEFAULT_2
  6
HIDDEN
 62
     7
100
AcDbLine
 10
69.3736337136
 20
30.2493796042
 30
0.0
 11
69.7369477279
 21
30.2608836641
 31
0.0
  0
LINE
  5
594
330
220
100
AcDbEntity
  8
DEFAULT_2
  6
HIDDEN
 62
     7
100
AcDbLine
 10
69.7369477279
 20
30.2608836641
 30
0.0
 11
69.98101494869999
 21
30.2685542843
 31
0.0
  0
LINE
  5
595
330
220
100
AcDbEntity
  8
DEFAULT_2
  6
HIDDEN
 62
     7
100
AcDbLine
 10
73.4959831357
 20
30.3769048822
 30
0.0
 11
73.74916320189999
 21
30.3848294557
 31
0.0
  0
LINE
  5
596
330
220
100
AcDbEntity
  8
DEFAULT_2
  6
HIDDEN
 62
     7
100
AcDbLine
 10
69.98101494869999
 20
30.2685542843
 30
0.0
 11
70.25520865
 21
30.2771230231
 31
0.0
  0
LINE
  5
597
330
220
100
AcDbEntity
  8
DEFAULT_2
  6
HIDDEN
 62
     7
100
AcDbLine
 10
70.25520865
 20
30.2771230231
 30
0.0
 11
70.6296367677
 21
30.2887525172
 31
0.0
  0
LWPOLYLINE
  5
599
330
220
100
AcDbEntity
  8
DEFAULT_2
  6
HIDDEN
 62
     7
100
AcDbPolyline
 90
        3
 70
     0
 43
0.0
 10
72.87913882869999
 20
30.35781940130001
 10
73.0029656991
 20
30.3616329529
 10
73.4959831357
 20
30.3769048822
  0
LINE
  5
59A
330
220
100
AcDbEntity
  8
DEFAULT_2
  6
HIDDEN
 62
     7
100
AcDbLine
 10
70.6296367677
 20
30.2887525172
 30
0.0
 11
71.0045679273
 21
30.3003299286
 31
0.0
  0
LWPOLYLINE
  5
59B
330
220
100
AcDbEntity
  8
DEFAULT_2
  6
HIDDEN
 62
     7
100
AcDbPolyline
 90
        6
 70
     0
 43
0.0
 10
71.0045679273
 20
30.3003299286
 10
71.69904127409999
 20
30.3216530306
 10
71.9141897503
 20
30.3282409515
 10
72.1483938735
 20
30.3354096637
 10
72.3765366933
 20
30.3423949283
 10
72.87913882869999
 20
30.35781940130001
  0
LWPOLYLINE
  5
59C
330
220
100
AcDbEntity
  8
DEFAULT_2
  6
HIDDEN
 62
     7
100
AcDbPolyline
 90
       17
 70
     0
 43
0.0
 10
62.10747890850001
 20
30.0150705902
 10
62.212051966
 20
30.0182323487
 10
62.3290219518
 20
30.0217920024
 10
62.45928268890001
 20
30.0257817561
 10
62.60378025560001
 20
30.0302355556
 10
62.7634841813
 20
30.0351884061
 10
62.9391780217
 20
30.0406697448
 10
63.1313717026
 20
30.0467003278
 10
63.3407567295
 20
30.0533063258
 10
63.57039276590001
 20
30.0605890165
 10
63.8247980909
 20
30.0686973062
 10
64.1084223917
 20
30.07777952530001
 10
64.425781524
 20
30.0879874663
 10
64.7683849939
 20
30.099052908
 10
65.1069635856
 20
30.1100274851
 10
65.42337507790001
 20
30.1203134357
 10
66.18955112800001
 20
30.1453169691
  0
LINE
  5
59D
330
220
100
AcDbEntity
  8
DEFAULT_2
  6
HIDDEN
 62
     7
100
AcDbLine
 10
61.9317559265
 20
30.0098072614
 30
0.0
 11
62.10747890850001
 21
30.0150705902
 31
0.0
  0
LINE
  5
5A0
330
220
100
AcDbEntity
  8
DEFAULT_2
  6
HIDDEN
 62
     7
100
AcDbLine
 10
61.78807601369999
 20
30.0055552581
 30
0.0
 11
61.9317559265
 21
30.0098072614
 31
0.0
  0
LINE
  5
5A2
330
220
100
AcDbEntity
  8
DEFAULT_2
  6
HIDDEN
 62
     7
100
AcDbLine
 10
61.6556909408
 20
30.0016851314
 30
0.0
 11
61.78807601369999
 21
30.0055552581
 31
0.0
  0
LWPOLYLINE
  5
5A3
330
220
100
AcDbEntity
  8
DEFAULT_2
  6
HIDDEN
 62
     7
100
AcDbPolyline
 90
        7
 70
     0
 43
0.0
 10
61.1733940537
 20
29.9879686311
 10
61.247271192
 20
29.990094111
 10
61.31947296609999
 20
29.9921496223
 10
61.388748764
 20
29.9940882967
 10
61.4560656587
 20
29.9959712149
 10
61.5226058918
 20
29.9978561814
 10
61.6556909408
 20
30.0016851314
  0
LINE
  5
5A4
330
220
100
AcDbEntity
  8
DEFAULT_2
  6
HIDDEN
 62
     7
100
AcDbLine
 10
60.95282942619999
 20
29.9816210667
 30
0.0
 11
61.1733940537
 21
29.9879686311
 31
0.0
  0
LINE
  5
5A5
330
220
100
AcDbEntity
  8
DEFAULT_2
  6
HIDDEN
 62
     7
100
AcDbLine
 10
60.63743783239999
 20
29.9725863244
 30
0.0
 11
60.95282942619999
 21
29.9816210667
 31
0.0
  0
LINE
  5
5A6
330
220
100
AcDbEntity
  8
DEFAULT_2
  6
HIDDEN
 62
     7
100
AcDbLine
 10
60.3730688429
 20
29.9650643631
 30
0.0
 11
60.63743783239999
 21
29.9725863244
 31
0.0
  0
LINE
  5
5A7
330
220
100
AcDbEntity
  8
DEFAULT_2
  6
HIDDEN
 62
     7
100
AcDbLine
 10
60.1713465652
 20
29.9593662997
 30
0.0
 11
60.3730688429
 21
29.9650643631
 31
0.0
  0
LINE
  5
5A8
330
220
100
AcDbEntity
  8
DEFAULT_2
  6
HIDDEN
 62
     7
100
AcDbLine
 10
74.53706728649999
 20
30.4106301921
 30
0.0
 11
74.5380347963
 21
30.4106589745
 31
0.0
  0
LWPOLYLINE
  5
5B0
330
220
100
AcDbEntity
  8
DEFAULT_2
  6
HIDDEN
 62
     7
100
AcDbPolyline
 90
       15
 70
     0
 43
0.0
 10
56.124124293
 20
29.883969787
 10
56.6619832688
 20
29.8855695637
 10
57.1377137197
 20
29.8897739981
 10
57.54914618419999
 20
29.895581604
 10
57.9150453002
 20
29.9022461141
 10
58.2579290052
 20
29.9095100034
 10
58.5595539405
 20
29.9165230394
 10
58.8246134601
 20
29.9230550274
 10
59.060093123
 20
29.929085253
 10
59.2692585099
 20
29.9345861439
 10
59.45717080459999
 20
29.939623794
 10
59.6287808091
 20
29.9442909727
 10
59.78542466859999
 20
29.9485984879
 10
59.9272362301
 20
29.9525318857
 10
60.1713465652
 20
29.9593662997
  0
LINE
  5
5B2
330
220
100
AcDbEntity
  8
DEFAULT_2
  6
HIDDEN
 62
     7
100
AcDbLine
 10
57.39557090239999
 20
29.3384651481
 30
0.0
 11
54.85267768359999
 21
29.3384651481
 31
0.0
  0
LWPOLYLINE
  5
5B6
330
220
100
AcDbEntity
  8
DEFAULT_2
  6
HIDDEN
 62
     7
100
AcDbPolyline
 90
       14
 70
     0
 43
0.0
 10
52.3235482735
 20
29.9524612907
 10
52.4656595359
 20
29.9485201486
 10
52.6226202216
 20
29.9442047245
 10
52.79452304260001
 20
29.9395307094
 10
52.9826922804
 20
29.9344877467
 10
53.1921297589
 20
29.9289819565
 10
53.4278809793
 20
29.922948106
 10
53.6932203057
 20
29.9164142445
 10
53.99515721109999
 20
29.9094018238
 10
54.3380148574
 20
29.9021505746
 10
54.70352717229999
 20
29.8955090669
 10
55.11495427939999
 20
29.8897223679
 10
55.58946395989999
 20
29.8855504147
 10
56.124124293
 20
29.883969787
  0
LINE
  5
5B7
330
220
100
AcDbEntity
  8
DEFAULT_2
  6
HIDDEN
 62
     7
100
AcDbLine
 10
52.0778086892
 20
29.9593407838
 30
0.0
 11
52.3235482735
 21
29.9524612907
 31
0.0
  0
LINE
  5
5B8
330
220
100
AcDbEntity
  8
DEFAULT_2
  6
HIDDEN
 62
     7
100
AcDbLine
 10
50.80520940939999
 20
29.9956048609
 30
0.0
 11
50.9437030637
 21
29.9917278377
 31
0.0
  0
LINE
  5
5B9
330
220
100
AcDbEntity
  8
DEFAULT_2
  6
HIDDEN
 62
     7
100
AcDbLine
 10
51.78093909850001
 20
29.9677394268
 30
0.0
 11
52.0778086892
 21
29.9593407838
 31
0.0
  0
LWPOLYLINE
  5
5BA
330
220
100
AcDbEntity
  8
DEFAULT_2
  6
HIDDEN
 62
     7
100
AcDbPolyline
 90
        3
 70
     0
 43
0.0
 10
50.6695383252
 20
29.9994615492
 10
50.7373570867
 20
29.9975227636
 10
50.80520940939999
 20
29.9956048609
  0
LINE
  5
5BB
330
220
100
AcDbEntity
  8
DEFAULT_2
  6
HIDDEN
 62
     7
100
AcDbLine
 10
51.61013932020001
 20
29.9726054937
 30
0.0
 11
51.78093909850001
 21
29.9677394268
 31
0.0
  0
LWPOLYLINE
  5
5BC
330
220
100
AcDbEntity
  8
DEFAULT_2
  6
HIDDEN
 62
     7
100
AcDbPolyline
 90
        6
 70
     0
 43
0.0
 10
50.9437030637
 20
29.9917278377
 10
51.08908319939999
 20
29.9875591211
 10
51.1619102851
 20
29.9854621745
 10
51.2347267161
 20
29.9833661843
 10
51.3076523047
 20
29.9812695479
 10
51.61013932020001
 20
29.9726054937
  0
LINE
  5
5BD
330
220
100
AcDbEntity
  8
DEFAULT_2
  6
HIDDEN
 62
     7
100
AcDbLine
 10
50.53410914189999
 20
30.0033876011
 30
0.0
 11
50.6695383252
 21
29.9994615492
 31
0.0
  0
LINE
  5
5BE
330
220
100
AcDbEntity
  8
DEFAULT_2
  6
HIDDEN
 62
     7
100
AcDbLine
 10
50.3962237061
 20
30.0074415594
 30
0.0
 11
50.53410914189999
 21
30.0033876011
 31
0.0
  0
LWPOLYLINE
  5
5BF
330
220
100
AcDbEntity
  8
DEFAULT_2
  6
HIDDEN
 62
     7
100
AcDbPolyline
 90
        3
 70
     0
 43
0.0
 10
39.6956222674
 20
30.3477913289
 10
39.8942436888
 20
30.3417048075
 10
40.1259975186
 20
30.3346094556
  0
LINE
  5
5C0
330
220
100
AcDbEntity
  8
DEFAULT_2
  6
HIDDEN
 62
     7
100
AcDbLine
 10
39.2560569077
 20
30.3613008625
 30
0.0
 11
39.6956222674
 21
30.3477913289
 31
0.0
  0
LINE
  5
5C1
330
220
100
AcDbEntity
  8
DEFAULT_2
  6
HIDDEN
 62
     7
100
AcDbLine
 10
40.1259975186
 20
30.3346094556
 30
0.0
 11
41.2666279532
 21
30.2996229831
 31
0.0
  0
LINE
  5
5C2
330
220
100
AcDbEntity
  8
DEFAULT_2
  6
HIDDEN
 62
     7
100
AcDbLine
 10
41.2666279532
 20
30.2996229831
 30
0.0
 11
41.742315325
 21
30.2849186524
 31
0.0
  0
LINE
  5
5C3
330
220
100
AcDbEntity
  8
DEFAULT_2
  6
HIDDEN
 62
     7
100
AcDbLine
 10
38.9691829639
 20
30.3701649515
 30
0.0
 11
39.2560569077
 21
30.3613008625
 31
0.0
  0
LINE
  5
5C4
330
220
100
AcDbEntity
  8
DEFAULT_2
  6
HIDDEN
 62
     7
100
AcDbLine
 10
41.742315325
 20
30.2849186524
 30
0.0
 11
42.0127267366
 21
30.2765093803
 31
0.0
  0
LINE
  5
5C5
330
220
100
AcDbEntity
  8
DEFAULT_2
  6
HIDDEN
 62
     7
100
AcDbLine
 10
38.5599092893
 20
30.3829187333
 30
0.0
 11
38.9691829639
 21
30.3701649515
 31
0.0
  0
LINE
  5
5C6
330
220
100
AcDbEntity
  8
DEFAULT_2
  6
HIDDEN
 62
     7
100
AcDbLine
 10
42.0127267366
 20
30.2765093803
 30
0.0
 11
42.2866284219
 21
30.2679463009
 31
0.0
  0
LINE
  5
5C7
330
220
100
AcDbEntity
  8
DEFAULT_2
  6
HIDDEN
 62
     7
100
AcDbLine
 10
42.2866284219
 20
30.2679463009
 30
0.0
 11
42.5390145418
 21
30.2600098734
 31
0.0
  0
LINE
  5
5C8
330
220
100
AcDbEntity
  8
DEFAULT_2
  6
HIDDEN
 62
     7
100
AcDbLine
 10
38.31482490320001
 20
30.3906505243
 30
0.0
 11
38.5599092893
 21
30.3829187333
 31
0.0
  0
LINE
  5
5C9
330
220
100
AcDbEntity
  8
DEFAULT_2
  6
HIDDEN
 62
     7
100
AcDbLine
 10
42.5390145418
 20
30.2600098734
 30
0.0
 11
42.7412381574
 21
30.253615535
 31
0.0
  0
LINE
  5
5CA
330
220
100
AcDbEntity
  8
DEFAULT_2
  6
HIDDEN
 62
     7
100
AcDbLine
 10
42.7412381574
 20
30.253615535
 30
0.0
 11
43.0079740301
 21
30.2451286166
 31
0.0
  0
LINE
  5
5CB
330
220
100
AcDbEntity
  8
DEFAULT_2
  6
HIDDEN
 62
     7
100
AcDbLine
 10
38.159940662
 20
30.3955902893
 30
0.0
 11
38.31482490320001
 21
30.3906505243
 31
0.0
  0
LINE
  5
5CC
330
220
100
AcDbEntity
  8
DEFAULT_2
  6
HIDDEN
 62
     7
100
AcDbLine
 10
43.0079740301
 20
30.2451286166
 30
0.0
 11
43.1870750815
 21
30.2393935278
 31
0.0
  0
LINE
  5
5CD
330
220
100
AcDbEntity
  8
DEFAULT_2
  6
HIDDEN
 62
     7
100
AcDbLine
 10
43.1870750815
 20
30.2393935278
 30
0.0
 11
43.4929243844
 21
30.2295258191
 31
0.0
  0
LINE
  5
5CE
330
220
100
AcDbEntity
  8
DEFAULT_2
  6
HIDDEN
 62
     7
100
AcDbLine
 10
37.9563929948
 20
30.402170755
 30
0.0
 11
38.159940662
 21
30.3955902893
 31
0.0
  0
LWPOLYLINE
  5
5CF
330
220
100
AcDbEntity
  8
DEFAULT_2
  6
HIDDEN
 62
     7
100
AcDbPolyline
 90
       18
 70
     0
 43
0.0
 10
46.7407186542
 20
30.1230534804
 10
47.0337577413
 20
30.1135199821
 10
47.3507979799
 20
30.1032321639
 10
47.6868337113
 20
30.0923629555
 10
48.0231335206
 20
30.0815277969
 10
48.3344772517
 20
30.0715418789
 10
48.6083093063
 20
30.0628016394
 10
48.8513734331
 20
30.0550826141
 10
49.0704333514
 20
30.0481625282
 10
49.2709378547
 20
30.04186353570001
 10
49.454206618
 20
30.0361394161
 10
49.6207871144
 20
30.0309680498
 10
49.7714920943
 20
30.0263188493
 10
49.9073828026
 20
30.0221536954
 10
50.0294658532
 20
30.018436544
 10
50.1384617235
 20
30.0151401452
 10
50.234989021
 20
30.0122403874
 10
50.3962237061
 20
30.0074415594
  0
LWPOLYLINE
  5
5D0
330
220
100
AcDbEntity
  8
DEFAULT_2
  6
HIDDEN
 62
     7
100
AcDbPolyline
 90
        4
 70
     0
 43
0.0
 10
45.61972458199999
 20
30.1596917195
 10
45.8026950977
 20
30.1536963799
 10
46.0046330673
 20
30.1470856739
 10
46.7407186542
 20
30.1230534804
  0
LINE
  5
5D1
330
220
100
AcDbEntity
  8
DEFAULT_2
  6
HIDDEN
 62
     7
100
AcDbLine
 10
43.4929243844
 20
30.2295258191
 30
0.0
 11
43.76204254100001
 21
30.220760981
 31
0.0
  0
LWPOLYLINE
  5
5D2
330
220
100
AcDbEntity
  8
DEFAULT_2
  6
HIDDEN
 62
     7
100
AcDbPolyline
 90
       16
 70
     0
 43
0.0
 10
43.98274692770001
 20
30.2135089739
 10
44.11598695699999
 20
30.2091193858
 10
44.1437224814
 20
30.20820570150001
 10
44.17465633189999
 20
30.2071867127
 10
44.20893708609999
 20
30.2060575615
 10
44.246719136
 20
30.2048132096
 10
44.2881845544
 20
30.203447703
 10
44.33354755769999
 20
30.2019540313
 10
44.38329987270001
 20
30.2003160558
 10
44.43878570329999
 20
30.198489592
 10
44.501434966
 20
30.1964276694
 10
44.57181048
 20
30.1941118908
 10
44.64987799319999
 20
30.1915435294
 10
44.7356179435
 20
30.1887234077
 10
44.8292835667
 20
30.1856434211
 10
45.61972458199999
 20
30.1596917195
  0
LWPOLYLINE
  5
5D3
330
220
100
AcDbEntity
  8
DEFAULT_2
  6
HIDDEN
 62
     7
100
AcDbPolyline
 90
        9
 70
     0
 43
0.0
 10
43.76204254100001
 20
30.220760981
 10
43.8769309693
 20
30.2169921417
 10
43.8883611784
 20
30.2166162765
 10
43.90016018559999
 20
30.2162281546
 10
43.91287070529999
 20
30.2158099184
 10
43.92704243999999
 20
30.2153434624
 10
43.94320332289999
 20
30.2148113842
 10
43.96185487989999
 20
30.2141971448
 10
43.98274692770001
 20
30.2135089739
  0
LINE
  5
5D4
330
220
100
AcDbEntity
  8
DEFAULT_2
  6
HIDDEN
 62
     7
100
AcDbLine
 10
37.8501493874
 20
30.4056663095
 30
0.0
 11
37.9563929948
 21
30.402170755
 31
0.0
  0
LWPOLYLINE
  5
5D5
330
220
100
AcDbEntity
  8
DEFAULT_2
  6
HIDDEN
 62
     7
100
AcDbPolyline
 90
        3
 70
     0
 43
0.0
 10
37.7413237107
 20
30.4093141303
 10
37.78666910670001
 20
30.4077919464
 10
37.8501493874
 20
30.4056663095
  0
LINE
  5
5D6
330
220
100
AcDbEntity
  8
DEFAULT_2
  6
HIDDEN
 62
     7
100
AcDbLine
 10
54.1509830241
 20
29.8418590041
 30
0.0
 11
37.7265590397
 21
30.4098375108
 31
0.0
  0
LINE
  5
662
330
220
100
AcDbEntity
  8
DEFAULT_2
  6
HIDDEN
 62
     7
100
AcDbLine
 10
26.9012186953
 20
49.1803905021
 30
0.0
 11
23.8951442779
 21
49.3382501494
 31
0.0
  0
LINE
  5
6BF
330
220
100
AcDbEntity
  8
DEFAULT_2
  6
HIDDEN
 62
     7
100
AcDbLine
 10
85.3470298907
 20
49.1803905021
 30
0.0
 11
88.3531043081
 21
49.3382501494
 31
0.0
  0
LINE
  5
724
330
220
100
AcDbEntity
  8
DEFAULT_2
  6
HIDDEN
 62
     7
100
AcDbLine
 10
77.3060525425
 20
33.10893941320001
 30
0.0
 11
77.2985301902
 21
33.0925511744
 31
0.0
  0
LINE
  5
725
330
220
100
AcDbEntity
  8
DEFAULT_2
  6
HIDDEN
 62
     7
100
AcDbLine
 10
77.3148101761
 20
33.1279325004
 30
0.0
 11
77.3060525425
 21
33.10893941320001
 31
0.0
  0
LINE
  5
726
330
220
100
AcDbEntity
  8
DEFAULT_2
  6
HIDDEN
 62
     7
100
AcDbLine
 10
77.32547509319999
 20
33.1509405304
 30
0.0
 11
77.3148101761
 21
33.1279325004
 31
0.0
  0
LINE
  5
727
330
220
100
AcDbEntity
  8
DEFAULT_2
  6
HIDDEN
 62
     7
100
AcDbLine
 10
76.72053497669999
 20
31.8530364322
 30
0.0
 11
77.298530368
 21
33.0925515489
 31
0.0
  0
LINE
  5
728
330
220
100
AcDbEntity
  8
DEFAULT_2
  6
HIDDEN
 62
     7
100
AcDbLine
 10
77.364564121
 20
33.23416138920001
 30
0.0
 11
84.570251565
 21
48.68680797989999
 31
0.0
  0
LINE
  5
729
330
220
100
AcDbEntity
  8
DEFAULT_2
  6
HIDDEN
 62
     7
100
AcDbLine
 10
77.3370562261
 20
33.1757766021
 30
0.0
 11
77.32547509319999
 21
33.1509405304
 31
0.0
  0
LINE
  5
72A
330
220
100
AcDbEntity
  8
DEFAULT_2
  6
HIDDEN
 62
     7
100
AcDbLine
 10
77.3478386767
 20
33.1987630862
 30
0.0
 11
77.3370562261
 21
33.1757766021
 31
0.0
  0
LINE
  5
72B
330
220
100
AcDbEntity
  8
DEFAULT_2
  6
HIDDEN
 62
     7
100
AcDbLine
 10
77.3645642936
 20
33.2341617661
 30
0.0
 11
77.3478386767
 21
33.1987630862
 31
0.0
  0
LWPOLYLINE
  5
72C
330
220
100
AcDbEntity
  8
DEFAULT_2
  6
HIDDEN
 62
     7
100
AcDbPolyline
 90
       46
 70
     0
 43
0.0
 10
76.72053497520001
 20
31.8530364329
 10
76.6940203634
 20
31.7979454204
 10
76.6661624422
 20
31.7435110662
 10
76.63698070889999
 20
31.689772006
 10
76.6064944525
 20
31.6367653745
 10
76.5747221364
 20
31.5845223111
 10
76.541682016
 20
31.5330724541
 10
76.50739287819999
 20
31.4824455361
 10
76.4718756483
 20
31.4326716833
 10
76.43515178289999
 20
31.3837811158
 10
76.39724304720001
 20
31.3358036848
 10
76.3581724586
 20
31.2887677894
 10
76.3179633429
 20
31.2427014595
 10
76.2766393663
 20
31.1976324466
 10
76.23422558369999
 20
31.1535874172
 10
76.19074739040001
 20
31.1105927595
 10
76.14623048359999
 20
31.0686745273
 10
76.10070180210001
 20
31.0278574717
 10
76.05418858680001
 20
30.9881660093
 10
76.0067183585
 20
30.9496242089
 10
75.9583198003
 20
30.9122547828
 10
75.90902187560001
 20
30.8760800953
 10
75.8588537992
 20
30.8411221403
 10
75.80784584209999
 20
30.8074014661
 10
75.756028527
 20
30.7749382507
 10
75.70343260029999
 20
30.7437522845
 10
75.65008976119999
 20
30.7138618418
 10
75.5960319332
 20
30.6852848092
 10
75.5412912313
 20
30.6580386703
 10
75.4859006003
 20
30.6321393264
 10
75.4298931772
 20
30.6076022751
 10
75.3733022696
 20
30.5844425981
 10
75.31616193409999
 20
30.5626737394
 10
75.2585063983
 20
30.5423087266
 10
75.20036999520001
 20
30.523360159
 10
75.1417875466
 20
30.5058389454
 10
75.0827939801
 20
30.489755566
 10
75.02342442559999
 20
30.4751200686
 10
74.96371489080001
 20
30.4619407885
 10
74.9037015863
 20
30.4502256282
 10
74.8434204129
 20
30.4399820356
 10
74.78290610080001
 20
30.4312156507
 10
74.72219307100001
 20
30.4239316588
 10
74.66131719439999
 20
30.4181348467
 10
74.60032020629999
 20
30.4138284158
 10
74.5392452919
 20
30.4110151687
  0
LINE
  5
72D
330
220
100
AcDbEntity
  8
DEFAULT_2
  6
HIDDEN
 62
     7
100
AcDbLine
 10
57.5723475977
 20
29.4116884528
 30
0.0
 11
57.9300708034
 21
29.7694116585
 31
0.0
  0
LINE
  5
1555
330
220
100
AcDbEntity
  8
0
  6
Continuous
 62
     7
100
AcDbLine
 10
23.1595635654
 20
48.2435378857
 30
0.0
 11
23.124124293
 21
47.8384651481
 31
0.0
  0
LINE
  5
1556
330
220
100
AcDbEntity
  8
0
  6
Continuous
 62
     7
100
AcDbLine
 10
26.1316682502
 20
43.27263412079999
 30
0.0
 11
26.1341703912
 21
43.266333873
 31
0.0
  0
LWPOLYLINE
  5
1557
330
220
100
AcDbEntity
  8
0
  6
Continuous
 62
     7
100
AcDbPolyline
 90
       17
 70
     0
 43
0.0
 10
29.7471610956
 20
30.91697341070001
 10
29.5894567191
 20
31.7067798993
 10
29.4225510679
 20
32.4946682059
 10
29.2464679275
 20
33.2805228774
 10
29.0612241222
 20
34.0642603544
 10
28.8668398068
 20
34.8457978284
 10
28.6633454091
 20
35.625021508
 10
28.450768345
 20
36.4018299671
 10
28.2291410039
 20
37.1761040019
 10
27.9984972963
 20
37.9477216285
 10
27.7588626091
 20
38.7165904757
 10
27.5102670956
 20
39.4826117545
 10
27.25274509010001
 20
40.2456873821
 10
26.9863255395
 20
41.00573456929999
 10
26.7110587695
 20
41.7626098327
 10
26.426995896
 20
42.51617314079999
 10
26.1341703912
 20
43.266333873
  0
LWPOLYLINE
  5
1558
330
220
100
AcDbEntity
  8
0
  6
Continuous
 62
     7
100
AcDbPolyline
 90
        3
 70
     0
 43
0.0
 10
38.1288515247
 20
22.8412744124
 10
38.2047279445
 20
22.7821131949
 10
38.2183216806
 20
22.7713073814
  0
LINE
  5
1559
330
220
100
AcDbEntity
  8
0
  6
Continuous
 62
     7
100
AcDbLine
 10
38.2183216806
 20
22.7713073814
 30
0.0
 11
38.2315325304
 21
22.7605826982
 31
0.0
  0
LINE
  5
155A
330
220
100
AcDbEntity
  8
0
  6
Continuous
 62
     7
100
AcDbLine
 10
38.2315325304
 20
22.7605826982
 30
0.0
 11
38.2450314018
 21
22.7493233903
 31
0.0
  0
LWPOLYLINE
  5
155B
330
220
100
AcDbEntity
  8
0
  6
Continuous
 62
     7
100
AcDbPolyline
 90
        9
 70
     0
 43
0.0
 10
38.1288515247
 20
22.8412744124
 10
38.0608765972
 20
22.89888287010001
 10
37.9993968404
 20
22.9600112354
 10
37.946287395
 20
23.0219148121
 10
37.8991353041
 20
23.0860390383
 10
37.8570319338
 20
23.1537995395
 10
37.821425247
 20
23.2234765246
 10
37.7920058039
 20
23.2945818842
 10
37.7804628981
 20
23.3279463575
  0
LINE
  5
155C
330
220
100
AcDbEntity
  8
0
  6
Continuous
 62
     7
100
AcDbLine
 10
38.2450314018
 20
22.7493233903
 30
0.0
 11
38.25656162219999
 21
22.7393963065
 31
0.0
  0
LINE
  5
155D
330
220
100
AcDbEntity
  8
0
  6
Continuous
 62
     7
100
AcDbLine
 10
38.25656162219999
 20
22.7393963065
 30
0.0
 11
38.258401423
 21
22.7377816389
 31
0.0
  0
LINE
  5
155E
330
220
100
AcDbEntity
  8
0
  6
Continuous
 62
     7
100
AcDbLine
 10
38.2547963764
 20
22.7409849229
 30
0.0
 11
38.258401423
 21
22.7377816389
 31
0.0
  0
LINE
  5
155F
330
220
100
AcDbEntity
  8
0
  6
Continuous
 62
     7
100
AcDbLine
 10
38.258401423
 20
22.7377816389
 30
0.0
 11
38.2613785539
 21
22.7351480442
 31
0.0
  0
LINE
  5
1560
330
220
100
AcDbEntity
  8
0
  6
Continuous
 62
     7
100
AcDbLine
 10
38.2547963764
 20
22.7409849229
 30
0.0
 11
38.25656162219999
 21
22.7393963065
 31
0.0
  0
LINE
  5
1561
330
220
100
AcDbEntity
  8
0
  6
Continuous
 62
     7
100
AcDbLine
 10
38.2613785539
 20
22.7351480442
 30
0.0
 11
38.273509264
 21
22.7241639158
 31
0.0
  0
LWPOLYLINE
  5
1562
330
220
100
AcDbEntity
  8
0
  6
Continuous
 62
     7
100
AcDbPolyline
 90
        5
 70
     0
 43
0.0
 10
38.273509264
 20
22.7241639158
 10
38.286992626
 20
22.7113682594
 10
38.2997976486
 20
22.6985446328
 10
38.312150435
 20
22.685471613
 10
38.3227348423
 20
22.6736744865
  0
LWPOLYLINE
  5
1563
330
220
100
AcDbEntity
  8
0
  6
Continuous
 62
     7
100
AcDbPolyline
 90
        7
 70
     0
 43
0.0
 10
24.1494454565
 20
47.78604293899999
 10
24.50210166130001
 20
47.04389257179999
 10
24.8459196412
 20
46.2975397342
 10
25.1808617457
 20
45.54706479439999
 10
25.5068455923
 20
44.79264997229999
 10
25.8237924336
 20
44.03447908859999
 10
26.1316682502
 20
43.27263412079999
  0
LWPOLYLINE
  5
1564
330
220
100
AcDbEntity
  8
0
  6
Continuous
 62
     7
100
AcDbPolyline
 90
        7
 70
     0
 43
0.0
 10
37.9424868917
 20
26.8393596631
 10
38.0188511518
 20
26.7355175925
 10
38.1015707061
 20
26.6243319958
 10
38.18134192010001
 20
26.517539292
 10
38.2572062212
 20
26.41540802530001
 10
38.32798033840001
 20
26.3186515196
 10
38.3843435933
 20
26.2398060245
  0
LWPOLYLINE
  5
1565
330
220
100
AcDbEntity
  8
0
  6
Continuous
 62
     7
100
AcDbPolyline
 90
        6
 70
     0
 43
0.0
 10
38.384340074
 20
26.2398109485
 10
38.4147055925
 20
26.1962626722
 10
38.452608693
 20
26.1402587607
 10
38.4894588545
 20
26.0838027853
 10
38.5246254598
 20
26.0278131089
 10
38.5575534321
 20
25.9732082007
  0
LINE
  5
1566
330
220
100
AcDbEntity
  8
0
  6
Continuous
 62
     7
100
AcDbLine
 10
38.5575534321
 20
25.9732082007
 30
0.0
 11
38.5811560422
 21
25.9325554519
 31
0.0
  0
LWPOLYLINE
  5
1567
330
220
100
AcDbEntity
  8
0
  6
Continuous
 62
     7
100
AcDbPolyline
 90
        8
 70
     0
 43
0.0
 10
38.5811560422
 20
25.9325554519
 10
38.5905381511
 20
25.9160661931
 10
38.6052785733
 20
25.8878272791
 10
38.6179322598
 20
25.8606759886
 10
38.6286609985
 20
25.8348007163
 10
38.6376138509
 20
25.8104375334
 10
38.6448818764
 20
25.7880019335
 10
38.6454763308
 20
25.7859021174
  0
LWPOLYLINE
  5
1568
330
220
100
AcDbEntity
  8
0
  6
Continuous
 62
     7
100
AcDbPolyline
 90
        7
 70
     0
 43
0.0
 10
37.5557243745
 20
27.4534788986
 10
37.6006594554
 20
27.3735228979
 10
37.6631242145
 20
27.2658903997
 10
37.7292901334
 20
27.1566132066
 10
37.7993062667
 20
27.046592224
 10
37.8733324
 20
26.93660465320001
 10
37.9425283994
 20
26.8393027176
  0
LWPOLYLINE
  5
1569
330
220
100
AcDbEntity
  8
0
  6
Continuous
 62
     7
100
AcDbPolyline
 90
        7
 70
     0
 43
0.0
 10
37.3099863071
 20
27.9240962397
 10
37.3432803146
 20
27.8579316375
 10
37.3842967194
 20
27.7774098635
 10
37.42374287900001
 20
27.7010015742
 10
37.4619885648
 20
27.6279000092
 10
37.499456448
 20
27.5572498092
 10
37.5255705111
 20
27.5085921681
  0
LWPOLYLINE
  5
156A
330
220
100
AcDbEntity
  8
0
  6
Continuous
 62
     7
100
AcDbPolyline
 90
        4
 70
     0
 43
0.0
 10
38.5752843939
 20
25.9606469888
 10
38.6056102967
 20
25.8980103215
 10
38.6313273712
 20
25.8317653531
 10
38.6443013885
 20
25.7907126167
  0
LWPOLYLINE
  5
156B
330
220
100
AcDbEntity
  8
0
  6
Continuous
 62
     7
100
AcDbPolyline
 90
        3
 70
     0
 43
0.0
 10
37.3099863071
 20
27.9240962397
 10
37.2296121649
 20
28.0910096793
 10
37.12162537
 20
28.3384651481
  0
LWPOLYLINE
  5
156C
330
220
100
AcDbEntity
  8
0
  6
Continuous
 62
     7
100
AcDbPolyline
 90
        4
 70
     0
 43
0.0
 10
38.5752843939
 20
25.9606469888
 10
38.5767224247
 20
25.9470335422
 10
38.5792131688
 20
25.9367838825
 10
38.58103843449999
 20
25.93275862920001
  0
LINE
  5
156D
330
220
100
AcDbEntity
  8
0
  6
Continuous
 62
     7
100
AcDbLine
 10
38.6443013885
 20
25.7907126167
 30
0.0
 11
38.6521033433
 21
25.7587695165
 31
0.0
  0
LWPOLYLINE
  5
156E
330
220
100
AcDbEntity
  8
0
  6
Continuous
 62
     7
100
AcDbPolyline
 90
       14
 70
     0
 43
0.0
 10
40.273932925
 20
24.8471312808
 10
40.2561026775
 20
24.9352198466
 10
40.24565675029999
 20
25.0242571555
 10
40.2421363072
 20
25.1123248092
 10
40.2447459141
 20
25.1971422812
 10
40.2524543377
 20
25.2775080715
 10
40.2648122078
 20
25.3561176547
 10
40.2817314295
 20
25.4328654697
 10
40.3040636041
 20
25.5110269514
 10
40.3321818204
 20
25.5910877228
 10
40.36593869159999
 20
25.6709980941
 10
40.4060470969
 20
25.750444856
 10
40.45216922939999
 20
25.8276907487
 10
40.50367257389999
 20
25.9014037848
  0
LWPOLYLINE
  5
156F
330
220
100
AcDbEntity
  8
0
  6
Continuous
 62
     7
100
AcDbPolyline
 90
       11
 70
     0
 43
0.0
 10
38.6521033433
 20
25.7587695165
 10
38.6582899494
 20
25.7162758084
 10
38.6608386948
 20
25.6709545576
 10
38.65981385179999
 20
25.6223686998
 10
38.6547813221
 20
25.5697280465
 10
38.6461416708
 20
25.5162126996
 10
38.6343313921
 20
25.4629822707
 10
38.6191974688
 20
25.4102201981
 10
38.60159077250001
 20
25.3600124272
 10
38.5809930541
 20
25.3098817923
 10
38.5568174726
 20
25.2580569367
  0
LWPOLYLINE
  5
1570
330
220
100
AcDbEntity
  8
0
  6
Continuous
 62
     7
100
AcDbPolyline
 90
        7
 70
     0
 43
0.0
 10
40.3404278222
 20
24.4387376308
 10
40.3367962285
 20
24.4958776754
 10
40.33022832679999
 20
24.5574219261
 10
40.3207069228
 20
24.6232491197
 10
40.3081892205
 20
24.6934403895
 10
40.2926067072
 20
24.7681078205
 10
40.273932925
 20
24.8471312808
  0
LINE
  5
1571
330
220
100
AcDbEntity
  8
0
  6
Continuous
 62
     7
100
AcDbLine
 10
38.51073988320001
 20
22.5884651481
 30
0.0
 11
39.1806061866
 21
22.5884651481
 31
0.0
  0
LINE
  5
1572
330
220
100
AcDbEntity
  8
0
  6
Continuous
 62
     7
100
AcDbLine
 10
73.0674519224
 20
22.5884651481
 30
0.0
 11
73.7375153712
 21
22.5884651481
 31
0.0
  0
LINE
  5
1573
330
220
100
AcDbEntity
  8
0
  6
Continuous
 62
     7
100
AcDbLine
 10
37.2796829363
 20
28.3973974114
 30
0.0
 11
37.2748319888
 21
28.3989683982
 31
0.0
  0
LWPOLYLINE
  5
1574
330
220
100
AcDbEntity
  8
0
  6
Continuous
 62
     7
100
AcDbPolyline
 90
        9
 70
     0
 43
0.0
 10
41.3751649785
 20
28.4836896488
 10
41.16500495949999
 20
28.5958411648
 10
40.94711233239999
 20
28.7154441496
 10
40.72224809939999
 20
28.8420714936
 10
40.48998647429999
 20
28.975965278
 10
40.249811418
 20
29.1174661445
 10
40.0024104422
 20
29.2662191368
 10
39.74820014570001
 20
29.4220163397
 10
39.48765156989999
 20
29.5846162867
  0
LWPOLYLINE
  5
1575
330
220
100
AcDbEntity
  8
0
  6
Continuous
 62
     7
100
AcDbPolyline
 90
        4
 70
     0
 43
0.0
 10
39.3203013549
 20
29.6932406473
 10
39.2622763563
 20
29.7290794899
 10
39.2041060514
 20
29.7594438518
 10
39.1537556778
 20
29.7814912021
  0
LWPOLYLINE
  5
1576
330
220
100
AcDbEntity
  8
0
  6
Continuous
 62
     7
100
AcDbPolyline
 90
        5
 70
     0
 43
0.0
 10
39.48765156989999
 20
29.5846162867
 10
39.4606685208
 20
29.6016919783
 10
39.4333041877
 20
29.6191872929
 10
39.40558612170001
 20
29.63708668780001
 10
39.3775102323
 20
29.6553951643
  0
LINE
  5
1577
330
220
100
AcDbEntity
  8
0
  6
Continuous
 62
     7
100
AcDbLine
 10
39.3775102323
 20
29.6553951643
 30
0.0
 11
39.3203013549
 21
29.6932406473
 31
0.0
  0
LINE
  5
1579
330
220
100
AcDbEntity
  8
0
  6
Continuous
 62
     7
100
AcDbLine
 10
41.852174293
 20
28.387845185
 30
0.0
 11
41.852174293
 21
28.5884651481
 31
0.0
  0
LWPOLYLINE
  5
157A
330
220
100
AcDbEntity
  8
0
  6
Continuous
 62
     7
100
AcDbPolyline
 90
        7
 70
     0
 43
0.0
 10
40.33909709209999
 20
24.3795355891
 10
40.33982921769999
 20
24.389209287
 10
40.3403598902
 20
24.398981123
 10
40.3406869781
 20
24.4088581789
 10
40.34080722329999
 20
24.4187974309
 10
40.34072050339999
 20
24.4287551706
 10
40.3404278222
 20
24.4387376308
  0
LWPOLYLINE
  5
157B
330
220
100
AcDbEntity
  8
0
  6
Continuous
 62
     7
100
AcDbPolyline
 90
       17
 70
     0
 43
0.0
 10
72.10856373979999
 20
29.18368115050001
 10
72.1048864495
 20
29.1828236155
 10
72.07558526459999
 20
29.1752370449
 10
72.0459618893
 20
29.1668022872
 10
72.0160830329
 20
29.1575114306
 10
71.9860485398
 20
29.1473831732
 10
71.9559348517
 20
29.1364220583
 10
71.9258775763
 20
29.1246767112
 10
71.89599003800001
 20
29.1121766701
 10
71.8664125449
 20
29.0989937629
 10
71.8372852232
 20
29.0851859891
 10
71.80871741539999
 20
29.0708277143
 10
71.7808309822
 20
29.0559858065
 10
71.7537229241
 20
29.0407388629
 10
71.7274970771
 20
29.0251561707
 10
71.702248712
 20
29.0093251847
 10
71.67812290249999
 20
28.9933520623
  0
LINE
  5
157C
330
220
100
AcDbEntity
  8
0
  6
Continuous
 62
     7
100
AcDbLine
 10
70.74244990699999
 20
28.4259573934
 30
0.0
 11
70.66987687770001
 21
28.4101332391
 31
0.0
  0
LINE
  5
157D
330
220
100
AcDbEntity
  8
0
  6
Continuous
 62
     7
100
AcDbLine
 10
73.0675106939
 20
22.5884651481
 30
0.0
 11
73.0482041969
 21
22.5892650331
 31
0.0
  0
LINE
  5
157E
330
220
100
AcDbEntity
  8
0
  6
Continuous
 62
     7
100
AcDbLine
 10
41.505798679
 20
28.4259573934
 30
0.0
 11
41.57837170829999
 21
28.4101332391
 31
0.0
  0
LWPOLYLINE
  5
157F
330
220
100
AcDbEntity
  8
0
  6
Continuous
 62
     7
100
AcDbPolyline
 90
        4
 70
     0
 43
0.0
 10
41.5678850016
 20
28.4043686884
 10
41.51893746659999
 20
28.4207372146
 10
41.4448789607
 20
28.4501614393
 10
41.3751649785
 20
28.4836896488
  0
LWPOLYLINE
  5
1580
330
220
100
AcDbEntity
  8
0
  6
Continuous
 62
     7
100
AcDbPolyline
 90
        7
 70
     0
 43
0.0
 10
39.1537556778
 20
29.7814912021
 10
39.145958284
 20
29.7845665253
 10
39.0881583997
 20
29.8046113021
 10
39.03100707290001
 20
29.8197813346
 10
38.9746963613
 20
29.8303213772
 10
38.9194478058
 20
29.8364681522
 10
38.865405525
 20
29.8384651481
  0
LINE
  5
1581
330
220
100
AcDbEntity
  8
0
  6
Continuous
 62
     7
100
AcDbLine
 10
42.1589762393
 20
28.3989683982
 30
0.0
 11
42.28318914079999
 21
28.3384651481
 31
0.0
  0
LWPOLYLINE
  5
1583
330
220
100
AcDbEntity
  8
0
  6
Continuous
 62
     7
100
AcDbPolyline
 90
        4
 70
     0
 43
0.0
 10
39.2387426888
 20
22.5958065243
 10
39.2194223206
 20
22.5916980098
 10
39.20004390280001
 20
22.5892649814
 10
39.1807377958
 20
22.5884651481
  0
LWPOLYLINE
  5
1584
330
220
100
AcDbEntity
  8
0
  6
Continuous
 62
     7
100
AcDbPolyline
 90
        5
 70
     0
 43
0.0
 10
70.66987687770001
 20
28.4101332391
 10
70.5860765537
 20
28.3974451859
 10
70.5021645405
 20
28.3900008627
 10
70.4197370107
 20
28.38742121800001
 10
70.3366386208
 20
28.3889100991
  0
LWPOLYLINE
  5
1585
330
220
100
AcDbEntity
  8
0
  6
Continuous
 62
     7
100
AcDbPolyline
 90
        7
 70
     0
 43
0.0
 10
70.2160913701
 20
28.3384651481
 10
70.309867889
 20
28.3406928216
 10
70.39928481779999
 20
28.3474989777
 10
70.48593102479999
 20
28.3590345023
 10
70.5700984627
 20
28.3751848413
 10
70.6513523957
 20
28.3957119147
 10
70.6803635844
 20
28.4043686884
  0
LWPOLYLINE
  5
1586
330
220
100
AcDbEntity
  8
0
  6
Continuous
 62
     7
100
AcDbPolyline
 90
        7
 70
     0
 43
0.0
 10
70.3996666967
 20
28.5884651443
 10
70.5599799802
 20
28.5907639036
 10
70.7101385145
 20
28.5971243132
 10
70.849670037
 20
28.6068160832
 10
70.97951636409999
 20
28.6192322008
 10
71.1004217222
 20
28.63382944260001
 10
71.1711629038
 20
28.6441007509
  0
LINE
  5
1587
330
220
100
AcDbEntity
  8
0
  6
Continuous
 62
     7
100
AcDbLine
 10
54.999124293
 20
26.0884651481
 30
0.0
 11
57.249124293
 21
26.0884651481
 31
0.0
  0
LINE
  5
1588
330
220
100
AcDbEntity
  8
0
  6
Continuous
 62
     7
100
AcDbLine
 10
54.999124293
 20
26.9009651481
 30
0.0
 11
57.249124293
 21
26.9009651481
 31
0.0
  0
LINE
  5
1589
330
220
100
AcDbEntity
  8
0
  6
Continuous
 62
     7
100
AcDbLine
 10
54.874124293
 20
27.0259651481
 30
0.0
 11
54.061624293
 21
27.0259651481
 31
0.0
  0
LINE
  5
158A
330
220
100
AcDbEntity
  8
0
  6
Continuous
 62
     7
100
AcDbLine
 10
55.186624293
 20
27.0884651481
 30
0.0
 11
57.061624293
 21
27.0884651481
 31
0.0
  0
LINE
  5
158C
330
220
100
AcDbEntity
  8
0
  6
Continuous
 62
     7
100
AcDbLine
 10
75.126623216
 20
28.3384651481
 30
0.0
 11
75.0872439566
 21
28.3384651481
 31
0.0
  0
LINE
  5
158D
330
220
100
AcDbEntity
  8
0
  6
Continuous
 62
     7
100
AcDbLine
 10
42.28318914079999
 20
28.3384651481
 30
0.0
 11
42.0321572159
 21
28.3384651481
 31
0.0
  0
LINE
  5
158E
330
220
100
AcDbEntity
  8
0
  6
Continuous
 62
     7
100
AcDbLine
 10
37.12162537
 20
28.3384651481
 30
0.0
 11
37.1610046293
 21
28.3384651481
 31
0.0
  0
LINE
  5
158F
330
220
100
AcDbEntity
  8
0
  6
Continuous
 62
     7
100
AcDbLine
 10
69.96505944509999
 20
28.3384651481
 30
0.0
 11
70.2160913701
 21
28.3384651481
 31
0.0
  0
LWPOLYLINE
  5
1591
330
220
100
AcDbEntity
  8
0
  6
Continuous
 62
     7
100
AcDbPolyline
 90
        7
 70
     0
 43
0.0
 10
42.0321572159
 20
28.3384651481
 10
41.93838069689999
 20
28.3406928216
 10
41.8489637682
 20
28.3474989777
 10
41.76231756119999
 20
28.3590345023
 10
41.6781501233
 20
28.3751848413
 10
41.59689619029999
 20
28.3957119147
 10
41.5678850016
 20
28.4043686884
  0
LWPOLYLINE
  5
1593
330
220
100
AcDbEntity
  8
0
  6
Continuous
 62
     7
100
AcDbPolyline
 90
        5
 70
     0
 43
0.0
 10
41.57837170829999
 20
28.4101332391
 10
41.6621720323
 20
28.3974451859
 10
41.74608404539999
 20
28.3900008627
 10
41.8285115753
 20
28.38742121800001
 10
41.9116099651
 20
28.3889100991
  0
LWPOLYLINE
  5
1594
330
220
100
AcDbEntity
  8
0
  6
Continuous
 62
     7
100
AcDbPolyline
 90
        4
 70
     0
 43
0.0
 10
72.99038062840001
 20
22.6016211014
 10
73.0095058971
 20
22.5958065243
 10
73.0288262654
 20
22.5916980098
 10
73.04820430709999
 20
22.5892650286
  0
LWPOLYLINE
  5
1595
330
220
100
AcDbEntity
  8
0
  6
Continuous
 62
     7
100
AcDbPolyline
 90
        7
 70
     0
 43
0.0
 10
40.23462246909999
 20
23.9885977805
 10
40.2619923521
 20
24.0562429585
 10
40.28547422649999
 20
24.1232529203
 10
40.30502056989999
 20
24.1895207976
 10
40.3204888152
 20
24.2545637911
 10
40.33182761059999
 20
24.3179254278
 10
40.33909709209999
 20
24.3795355891
  0
LINE
  5
1596
330
220
100
AcDbEntity
  8
0
  6
Continuous
 62
     7
100
AcDbLine
 10
37.989894014
 20
24.2606205356
 30
0.0
 11
37.9603099225
 21
24.2013522089
 31
0.0
  0
LINE
  5
1597
330
220
100
AcDbEntity
  8
0
  6
Continuous
 62
     7
100
AcDbLine
 10
37.9603099225
 20
24.2013522089
 30
0.0
 11
37.9534899892
 21
24.1880220462
 31
0.0
  0
LINE
  5
1598
330
220
100
AcDbEntity
  8
0
  6
Continuous
 62
     7
100
AcDbLine
 10
38.5568174726
 20
25.2580569367
 30
0.0
 11
38.5346141639
 21
25.2147578577
 31
0.0
  0
LWPOLYLINE
  5
1599
330
220
100
AcDbEntity
  8
0
  6
Continuous
 62
     7
100
AcDbPolyline
 90
       14
 70
     0
 43
0.0
 10
37.8345576769
 20
23.9755741027
 10
37.819855733
 20
23.9470325633
 10
37.80149467280001
 20
23.9067832574
 10
37.7850884554
 20
23.8645895426
 10
37.7706530738
 20
23.8197895619
 10
37.75834247320001
 20
23.7717150251
 10
37.7485523488
 20
23.7202231496
 10
37.7418017704
 20
23.6654682671
 10
37.7386659298
 20
23.6070219355
 10
37.7398748216
 20
23.5448510346
 10
37.7459991914
 20
23.4807019082
 10
37.7575139173
 20
23.414130742
 10
37.7744782393
 20
23.3472047271
 10
37.7804628981
 20
23.3279463575
  0
LWPOLYLINE
  5
159A
330
220
100
AcDbEntity
  8
0
  6
Continuous
 62
     7
100
AcDbPolyline
 90
        5
 70
     0
 43
0.0
 10
37.9534899892
 20
24.1880220462
 10
37.946333722
 20
24.1743469795
 10
37.9384109898
 20
24.1595115116
 10
37.9293471056
 20
24.1428420253
 10
37.9191708021
 20
24.1244041063
  0
LWPOLYLINE
  5
159B
330
220
100
AcDbEntity
  8
0
  6
Continuous
 62
     7
100
AcDbPolyline
 90
        5
 70
     0
 43
0.0
 10
38.536089426
 20
25.2174280693
 10
38.5052854546
 20
25.1616731471
 10
38.4699068772
 20
25.0998188495
 10
38.4342003448
 20
25.0389973997
 10
38.39810690570001
 20
24.9785492807
  0
LINE
  5
159C
330
220
100
AcDbEntity
  8
0
  6
Continuous
 62
     7
100
AcDbLine
 10
37.9191708021
 20
24.1244041063
 30
0.0
 11
37.8952186427
 21
24.0816978986
 31
0.0
  0
LINE
  5
159D
330
220
100
AcDbEntity
  8
0
  6
Continuous
 62
     7
100
AcDbLine
 10
37.843897957
 20
23.9923071058
 30
0.0
 11
37.8411111847
 21
23.9874197316
 31
0.0
  0
LINE
  5
159E
330
220
100
AcDbEntity
  8
0
  6
Continuous
 62
     7
100
AcDbLine
 10
37.8952186427
 20
24.0816978986
 30
0.0
 11
37.87023517770001
 21
24.0379164577
 31
0.0
  0
LINE
  5
159F
330
220
100
AcDbEntity
  8
0
  6
Continuous
 62
     7
100
AcDbLine
 10
37.87023517770001
 20
24.0379164577
 30
0.0
 11
37.8439047274
 21
23.9923188504
 31
0.0
  0
LWPOLYLINE
  5
15A0
330
220
100
AcDbEntity
  8
0
  6
Continuous
 62
     7
100
AcDbPolyline
 90
        8
 70
     0
 43
0.0
 10
38.1969563375
 20
24.6442911215
 10
38.1757000709
 20
24.6075730877
 10
38.1465137588
 20
24.5562821089
 10
38.1165124892
 20
24.5024090272
 10
38.0857625372
 20
24.4458790914
 10
38.0544482306
 20
24.3868518566
 10
38.022541632
 20
24.3251499747
 10
37.989894014
 20
24.2606205356
  0
LINE
  5
15A1
330
220
100
AcDbEntity
  8
0
  6
Continuous
 62
     7
100
AcDbLine
 10
38.2280507392
 20
24.6967789564
 30
0.0
 11
38.1986567409
 21
24.647191041
 31
0.0
  0
LINE
  5
15A2
330
220
100
AcDbEntity
  8
0
  6
Continuous
 62
     7
100
AcDbLine
 10
38.2580080212
 20
24.7467921042
 30
0.0
 11
38.2280507392
 21
24.6967789564
 31
0.0
  0
LINE
  5
15A3
330
220
100
AcDbEntity
  8
0
  6
Continuous
 62
     7
100
AcDbLine
 10
38.39810690570001
 20
24.9785492807
 30
0.0
 11
38.258289747
 21
24.7472595498
 31
0.0
  0
LWPOLYLINE
  5
15A4
330
220
100
AcDbEntity
  8
0
  6
Continuous
 62
     7
100
AcDbPolyline
 90
        9
 70
     0
 43
0.0
 10
37.3559081143
 20
28.4836896488
 10
37.4394309198
 20
28.5958411648
 10
37.534733724
 20
28.7154441496
 10
37.6414590886
 20
28.8420714936
 10
37.7598151476
 20
28.975965278
 10
37.8901778749
 20
29.1174661445
 10
38.0323052845
 20
29.2662191368
 10
38.1860695231
 20
29.4220163397
 10
38.351309322
 20
29.5846162867
  0
LWPOLYLINE
  5
15A5
330
220
100
AcDbEntity
  8
0
  6
Continuous
 62
     7
100
AcDbPolyline
 90
        3
 70
     0
 43
0.0
 10
37.1610046293
 20
28.3384651481
 10
37.1814233596
 20
28.3406928216
 10
37.1901455959
 20
28.3428859541
  0
LWPOLYLINE
  5
15A6
330
220
100
AcDbEntity
  8
0
  6
Continuous
 62
     7
100
AcDbPolyline
 90
        6
 70
     0
 43
0.0
 10
73.33680796580001
 20
29.8384651481
 10
73.2926368877
 20
29.8365604938
 10
73.2467002581
 20
29.8305780861
 10
73.1988887814
 20
29.8200349886
 10
73.15005386340001
 20
29.8046729869
 10
73.09676211670001
 20
29.7824727989
  0
LINE
  5
15A7
330
220
100
AcDbEntity
  8
0
  6
Continuous
 62
     7
100
AcDbLine
 10
41.9116099651
 20
28.3889100991
 30
0.0
 11
42.1589762393
 21
28.3989683982
 31
0.0
  0
LWPOLYLINE
  5
15A8
330
220
100
AcDbEntity
  8
0
  6
Continuous
 62
     7
100
AcDbPolyline
 90
       17
 70
     0
 43
0.0
 10
55.242610567
 20
28.6475751313
 10
55.25847850529999
 20
28.6478831824
 10
55.27430023
 20
28.6488217106
 10
55.2900880102
 20
28.6503944808
 10
55.3058050383
 20
28.6525901982
 10
55.3214282006
 20
28.6554029598
 10
55.33692868399999
 20
28.6588203551
 10
55.3522756076
 20
28.662832008
 10
55.3674520618
 20
28.6674259118
 10
55.3824337134
 20
28.6725893926
 10
55.39721195270001
 20
28.6783140762
 10
55.4117735138
 20
28.6845897099
 10
55.4261080318
 20
28.6914092554
 10
55.44020512199999
 20
28.6987646806
 10
55.4540515779
 20
28.7066487133
 10
55.46762864819999
 20
28.7150501604
 10
55.48094258319999
 20
28.7239727529
  0
LWPOLYLINE
  5
15A9
330
220
100
AcDbEntity
  8
0
  6
Continuous
 62
     7
100
AcDbPolyline
 90
       33
 70
     0
 43
0.0
 10
56.12412482159999
 20
28.9765901468
 10
56.0937236354
 20
28.9762475345
 10
56.0630807244
 20
28.9751639349
 10
56.0321721216
 20
28.97335177969999
 10
56.00107222680001
 20
28.97078730489999
 10
55.9698239279
 20
28.9674560862
 10
55.93849796699999
 20
28.9633563038
 10
55.90715564149999
 20
28.958483031
 10
55.87586827239999
 20
28.9528465133
 10
55.84472187
 20
28.9464585808
 10
55.81373366890001
 20
28.9393255822
 10
55.78294647669999
 20
28.9314627642
 10
55.7523696312
 20
28.922873599
 10
55.7220276868
 20
28.9135753207
 10
55.6919179179
 20
28.9035645204
 10
55.6620413041
 20
28.8928541345
 10
55.6324115229
 20
28.8814429537
 10
55.6030225513
 20
28.8693404029
 10
55.57393477529999
 20
28.85656834
 10
55.5451732318
 20
28.8431486903
 10
55.5168381008
 20
28.8291383061
 10
55.4889971757
 20
28.8145852585
 10
55.4617724686
 20
28.7995850236
 10
55.4352905378
 20
28.7842363579
 10
55.40960489979999
 20
28.7686145973
 10
55.3847840324
 20
28.7528104723
 10
55.3609091171
 20
28.7369296692
 10
55.3380507263
 20
28.72107965
 10
55.3163084302
 20
28.7054007574
 10
55.2957572402
 20
28.69001254050001
 10
55.2765402425
 20
28.6751264
 10
55.25884605779999
 20
28.6609416878
 10
55.24261099890001
 20
28.6475751305
  0
LWPOLYLINE
  5
15AA
330
220
100
AcDbEntity
  8
0
  6
Continuous
 62
     7
100
AcDbPolyline
 90
        7
 70
     0
 43
0.0
 10
57.0056379987
 20
28.6475751312
 10
57.6535653494
 20
28.6484189155
 10
58.3002895769
 20
28.6497488814
 10
58.9458751162
 20
28.651554935
 10
59.5901286621
 20
28.6538673581
 10
60.2328569093
 20
28.65671643260001
 10
60.874124293
 20
28.6600920646
  0
LINE
  5
15AB
330
220
100
AcDbEntity
  8
0
  6
Continuous
 62
     7
100
AcDbLine
 10
77.12412429300001
 20
28.4636388568
 30
0.0
 11
74.90770591109999
 21
28.4636388568
 31
0.0
  0
LINE
  5
15AC
330
220
100
AcDbEntity
  8
0
  6
Continuous
 62
     7
100
AcDbLine
 10
70.8313927274
 20
28.4636388568
 30
0.0
 11
69.0688558201
 21
28.4636388568
 31
0.0
  0
LINE
  5
15AF
330
220
100
AcDbEntity
  8
0
  6
Continuous
 62
     7
100
AcDbLine
 10
79.6785050237
 20
28.5884651481
 30
0.0
 11
74.8143108207
 21
28.5884651481
 31
0.0
  0
LINE
  5
15B0
330
220
100
AcDbEntity
  8
0
  6
Continuous
 62
     7
100
AcDbLine
 10
37.4339377653
 20
28.5884651481
 30
0.0
 11
32.5697435622
 21
28.5884651481
 31
0.0
  0
LINE
  5
15B1
330
220
100
AcDbEntity
  8
0
  6
Continuous
 62
     7
100
AcDbLine
 10
41.1788268307
 20
28.5884651481
 30
0.0
 11
51.374124293
 21
28.5884651481
 31
0.0
  0
LINE
  5
15B2
330
220
100
AcDbEntity
  8
0
  6
Continuous
 62
     7
100
AcDbLine
 10
60.874124293
 20
28.5884651481
 30
0.0
 11
71.06942175520001
 21
28.5884651481
 31
0.0
  0
LINE
  5
15B3
330
220
100
AcDbEntity
  8
0
  6
Continuous
 62
     7
100
AcDbLine
 10
56.22570888560001
 20
28.7134651481
 30
0.0
 11
56.7831806753
 21
28.7134651481
 31
0.0
  0
LINE
  5
15B4
330
220
100
AcDbEntity
  8
0
  6
Continuous
 62
     7
100
AcDbLine
 10
56.1789685525
 20
28.7469587971
 30
0.0
 11
56.7329278206
 21
28.7469587971
 31
0.0
  0
LINE
  5
15B5
330
220
100
AcDbEntity
  8
0
  6
Continuous
 62
     7
100
AcDbLine
 10
56.04912088109999
 20
28.8271991685
 30
0.0
 11
56.5849769355
 21
28.8271991685
 31
0.0
  0
LINE
  5
15B6
330
220
100
AcDbEntity
  8
0
  6
Continuous
 62
     7
100
AcDbLine
 10
55.9197704412
 20
28.8941864666
 30
0.0
 11
56.3895946703
 21
28.8941864666
 31
0.0
  0
LWPOLYLINE
  5
15B7
330
220
100
AcDbEntity
  8
0
  6
Continuous
 62
     7
100
AcDbPolyline
 90
        7
 70
     0
 43
0.0
 10
51.374124293
 20
28.6600920642
 10
52.01531857209999
 20
28.6567167366
 10
52.658011676
 20
28.6538677898
 10
53.30227621569999
 20
28.6515552661
 10
53.9478943585
 20
28.6497490384
 10
54.594648272
 20
28.6484189793
 10
55.242610567
 20
28.6475751313
  0
LINE
  5
15B8
330
220
100
AcDbEntity
  8
0
  6
Continuous
 62
     7
100
AcDbLine
 10
70.3366386208
 20
28.3889100991
 30
0.0
 11
70.1693365599
 21
28.3956199299
 31
0.0
  0
LINE
  5
15B9
330
220
100
AcDbEntity
  8
0
  6
Continuous
 62
     7
100
AcDbLine
 10
70.1693365599
 20
28.3956199299
 30
0.0
 11
70.08927234659999
 21
28.3989683982
 31
0.0
  0
LWPOLYLINE
  5
15BA
330
220
100
AcDbEntity
  8
0
  6
Continuous
 62
     7
100
AcDbPolyline
 90
        6
 70
     0
 43
0.0
 10
38.9114406201
 20
29.8384651481
 10
38.9556116982
 20
29.8365604938
 10
39.0015483278
 20
29.8305780861
 10
39.0493598046
 20
29.8200349886
 10
39.0981947226
 20
29.8046729869
 10
39.1514864692
 20
29.7824727989
  0
LWPOLYLINE
  5
15BB
330
220
100
AcDbEntity
  8
0
  6
Continuous
 62
     7
100
AcDbPolyline
 90
        3
 70
     0
 43
0.0
 10
75.0872439566
 20
28.3384651481
 10
75.0668252263
 20
28.3406928216
 10
75.05810299
 20
28.3428859541
  0
LWPOLYLINE
  5
15BC
330
220
100
AcDbEntity
  8
0
  6
Continuous
 62
     7
100
AcDbPolyline
 90
       15
 70
     0
 43
0.0
 10
56.5098604137
 20
28.4699983773
 10
56.5127289483
 20
28.4694428864
 10
56.51562681539999
 20
28.46889795
 10
56.5186068805
 20
28.4683570046
 10
56.5217168563
 20
28.46781616
 10
56.52500430029999
 20
28.4672735897
 10
56.5285230121
 20
28.4667289774
 10
56.5323054863
 20
28.4661880032
 10
56.5363865807
 20
28.4656586946
 10
56.5408142021
 20
28.4651509183
 10
56.5456513785
 20
28.464677746
 10
56.55088674459999
 20
28.4642638372
 10
56.5565256625
 20
28.4639341388
 10
56.5625701131
 20
28.463716069
 10
56.5688639627
 20
28.4636391731
  0
LINE
  5
15BD
330
220
100
AcDbEntity
  8
0
  6
Continuous
 62
     7
100
AcDbLine
 10
56.5056604321
 20
28.4708374693
 30
0.0
 11
56.5098604137
 21
28.4699983773
 31
0.0
  0
LWPOLYLINE
  5
15BE
330
220
100
AcDbEntity
  8
0
  6
Continuous
 62
     7
100
AcDbPolyline
 90
        5
 70
     0
 43
0.0
 10
72.99038089549999
 20
22.6016218887
 10
72.9724289565
 20
22.6088592709
 10
72.9550867025
 20
22.6176313152
 10
72.93847197819999
 20
22.627896444
 10
72.9226994948
 20
22.6396021349
  0
LWPOLYLINE
  5
15BF
330
220
100
AcDbEntity
  8
0
  6
Continuous
 62
     7
100
AcDbPolyline
 90
       17
 70
     0
 43
0.0
 10
56.767307863
 20
28.7239715697
 10
56.7806330274
 20
28.7150413417
 10
56.7942278982
 20
28.7066303876
 10
56.8081002849
 20
28.6987339345
 10
56.822226759
 20
28.6913663011
 10
56.8365910784
 20
28.6845373725
 10
56.8511794938
 20
28.6782556768
 10
56.86597803459999
 20
28.6725298818
 10
56.8809711234
 20
28.6673694534
 10
56.8961455695
 20
28.6627832906
 10
56.91148024229999
 20
28.6587817615
 10
56.92695865600001
 20
28.6553751199
 10
56.9425536847
 20
28.6525726068
 10
56.958239152
 20
28.6503848791
 10
56.9739957234
 20
28.6488179441
 10
56.98979183149999
 20
28.6478825564
 10
57.0056379987
 20
28.6475751312
  0
LWPOLYLINE
  5
15C0
330
220
100
AcDbEntity
  8
0
  6
Continuous
 62
     7
100
AcDbPolyline
 90
        7
 70
     0
 43
0.0
 10
38.351309322
 20
29.5846162867
 10
38.3690411151
 20
29.6016919783
 10
38.3874904598
 20
29.6191872929
 10
38.4066442065
 20
29.63708668780001
 10
38.4265113613
 20
29.6553951643
 10
38.4471026197
 20
29.6741183957
 10
38.4684056325
 20
29.6932406473
  0
LWPOLYLINE
  5
15C1
330
220
100
AcDbEntity
  8
0
  6
Continuous
 62
     7
100
AcDbPolyline
 90
       33
 70
     0
 43
0.0
 10
57.00563756770001
 20
28.6475751304
 10
56.9894095571
 20
28.6609361525
 10
56.971721925
 20
28.6751156728
 10
56.9525126764
 20
28.6899965565
 10
56.9319653454
 20
28.7053822189
 10
56.9102176754
 20
28.721065436
 10
56.8873470958
 20
28.7369244679
 10
56.86345297919999
 20
28.7528177928
 10
56.83860842439999
 20
28.7686365342
 10
56.8128957197
 20
28.7842731432
 10
56.7863874327
 20
28.7996351512
 10
56.7591412026
 20
28.8146443566
 10
56.73128462680001
 20
28.8292022989
 10
56.7029431211
 20
28.8432123473
 10
56.6741815129
 20
28.8566282314
 10
56.64509859119999
 20
28.8693946996
 10
56.615718051
 20
28.8814903629
 10
56.5860992092
 20
28.8928943985
 10
56.55623382
 20
28.9035979733
 10
56.5261324545
 20
28.9136035424
 10
56.4957976642
 20
28.922897467
 10
56.465227441
 20
28.9314827841
 10
56.4344457989
 20
28.9393423563
 10
56.4034608414
 20
28.9464728343
 10
56.3723181766
 20
28.9528584712
 10
56.3410380677
 20
28.9584922552
 10
56.3097046121
 20
28.9633628765
 10
56.27838839279999
 20
28.9674603905
 10
56.2471502079
 20
28.9707897489
 10
56.2160606021
 20
28.9733529206
 10
56.1851608188
 20
28.9751642515
 10
56.1545233342
 20
28.9762474648
 10
56.12412482159999
 20
28.9765901468
  0
LINE
  5
15C2
330
220
100
AcDbEntity
  8
0
  6
Continuous
 62
     7
100
AcDbLine
 10
57.249124293
 20
26.9009651481
 30
0.0
 11
57.061624293
 21
27.0884651481
 31
0.0
  0
LWPOLYLINE
  5
15C3
330
220
100
AcDbEntity
  8
0
  6
Continuous
 62
     7
100
AcDbPolyline
 90
       13
 70
     0
 43
0.0
 10
48.1309658367
 20
47.8384651481
 10
48.1312522208
 20
47.8369535966
 10
48.1317516065
 20
47.83370581879999
 10
48.1322315608
 20
47.82995210569999
 10
48.13268934359999
 20
47.82571389149999
 10
48.1331223412
 20
47.82101537649999
 10
48.1335280815
 20
47.8158833895
 10
48.13390424819999
 20
47.8103472347
 10
48.1342486936
 20
47.8044385237
 10
48.1345594514
 20
47.7981909957
 10
48.13483474739999
 20
47.7916403246
 10
48.1350730101
 20
47.78482391499999
 10
48.1352728793
 20
47.7777806891
  0
LWPOLYLINE
  5
15C4
330
220
100
AcDbEntity
  8
0
  6
Continuous
 62
     7
100
AcDbPolyline
 90
       13
 70
     0
 43
0.0
 10
48.18587386479999
 20
47.8384651481
 10
48.186157208
 20
47.8369593782
 10
48.1866530575
 20
47.833712685
 10
48.18712965999999
 20
47.8299601731
 10
48.1875842958
 20
47.82572326359999
 10
48.1880143709
 20
47.82102614270001
 10
48.18841743130001
 20
47.81589562359999
 10
48.18879117729999
 20
47.8103609939
 10
48.1891334766
 20
47.8044538477
 10
48.1894423763
 20
47.79820790569999
 10
48.1897161142
 20
47.7916588227
 10
48.1899531288
 20
47.78484398369999
 10
48.1901520683
 20
47.77780229109999
  0
LWPOLYLINE
  5
15C5
330
220
100
AcDbEntity
  8
0
  6
Continuous
 62
     7
100
AcDbPolyline
 90
       13
 70
     0
 43
0.0
 10
48.1948025109
 20
47.8384651481
 10
48.19508462339999
 20
47.8369650185
 10
48.19558024029999
 20
47.833718313
 10
48.19605668
 20
47.82996580149999
 10
48.1965112229
 20
47.8257289047
 10
48.1969412743
 20
47.8210318083
 10
48.19734437939999
 20
47.81590132469999
 10
48.197718237
 20
47.8103667406
 10
48.19806071310001
 20
47.8044596492
 10
48.1983698528
 20
47.79821377010001
 10
48.1986438913
 20
47.7916647569
 10
48.19888126430001
 20
47.78484999369999
 10
48.1990806169
 20
47.7778083814
  0
LWPOLYLINE
  5
15C6
330
220
100
AcDbEntity
  8
0
  6
Continuous
 62
     7
100
AcDbPolyline
 90
       67
 70
     0
 43
0.0
 10
48.199033641
 20
47.77780863199999
 10
48.32076914319999
 20
47.03284396729999
 10
48.440796471
 20
46.2521016881
 10
48.56231711149999
 20
45.42091136709999
 10
48.6796112341
 20
44.5906049092
 10
48.7880733847
 20
43.81136266499999
 10
48.8909128272
 20
43.0749400127
 10
48.9883295413
 20
42.3904536213
 10
49.0821896198
 20
41.75166610719999
 10
49.173530209
 20
41.1557311371
 10
49.2632504253
 20
40.5989993811
 10
49.3519644985
 20
40.0785117528
 10
49.440721293
 20
39.588321628
 10
49.53066116239999
 20
39.1224100585
 10
49.6222912609
 20
38.67850287920001
 10
49.7164740053
 20
38.2528781316
 10
49.81358908109999
 20
37.8443831576
 10
49.9145029836
 20
37.4500856794
 10
50.0188493913
 20
37.0719821359
 10
50.1270340277
 20
36.7088684235
 10
50.2371090226
 20
36.3667510132
 10
50.3463906896
 20
36.0517640218
 10
50.45544728
 20
35.7595974602
 10
50.5639208916
 20
35.4889275561
 10
50.67202243739999
 20
35.2371875446
 10
50.7800123164
 20
35.0020831297
 10
50.8878763801
 20
34.7822048968
 10
50.9958047117
 20
34.5759203819
 10
51.1038078584
 20
34.3821362455
 10
51.21204454279999
 20
34.1996355887
 10
51.32054420100001
 20
34.0275622921
 10
51.4294490328
 20
33.8649870769
 10
51.5388045369
 20
33.7112311872
 10
51.64874812449999
 20
33.5655707911
 10
51.7593358339
 20
33.42746985530001
 10
51.870698746
 20
33.29636321050001
 10
51.9829060721
 20
33.1718239056
 10
52.0960803678
 20
33.05341666050001
 10
52.2103269918
 20
32.9407751902
 10
52.3257951187
 20
32.8335374687
 10
52.4426002884
 20
32.7314168821
 10
52.5609062959
 20
32.6341231568
 10
52.68082389939999
 20
32.5414481407
 10
52.8025037323
 20
32.4531837414
 10
52.92608991399999
 20
32.3691605067
 10
53.0517455551
 20
32.2892259045
 10
53.17966510859999
 20
32.2132367082
 10
53.3100622935
 20
32.1410698873
 10
53.443140221
 20
32.0726380707
 10
53.5791490605
 20
32.00785939380001
 10
53.71825872289999
 20
31.9467177873
 10
53.8611026256
 20
31.8890356085
 10
54.0066122161
 20
31.8353145792
 10
54.1541182743
 20
31.7857789833
 10
54.3026870754
 20
31.7406422111
 10
54.450830933
 20
31.7001510638
 10
54.59911405869999
 20
31.6639199702
 10
54.7475550783
 20
31.6317549768
 10
54.8963941526
 20
31.6034393091
 10
55.0458406126
 20
31.5787937854
 10
55.1960430803
 20
31.5576761169
 10
55.3472034155
 20
31.5399635729
 10
55.49948516579999
 20
31.5255633826
 10
55.6530645582
 20
31.5144029917
 10
55.808191647
 20
31.5064283709
 10
55.96527920999999
 20
31.5016081702
 10
56.12412429009999
 20
31.4999484688
  0
LINE
  5
15C7
330
220
100
AcDbEntity
  8
0
  6
Continuous
 62
     7
100
AcDbLine
 10
51.374124293
 20
28.5884651481
 30
0.0
 11
51.374124293
 21
28.6600920642
 31
0.0
  0
LINE
  5
15C8
330
220
100
AcDbEntity
  8
0
  6
Continuous
 62
     7
100
AcDbLine
 10
53.85647671520001
 20
47.8384651481
 30
0.0
 11
53.8563502493
 21
47.80948215569999
 31
0.0
  0
LINE
  5
15C9
330
220
100
AcDbEntity
  8
0
  6
Continuous
 62
     7
100
AcDbLine
 10
53.7888814172
 20
47.7877476868
 30
0.0
 11
53.7887269304
 21
47.7642337383
 31
0.0
  0
LINE
  5
15CA
330
220
100
AcDbEntity
  8
0
  6
Continuous
 62
     7
100
AcDbLine
 10
53.7891359408
 20
47.80942173119999
 30
0.0
 11
53.7888814172
 21
47.7877476868
 31
0.0
  0
LINE
  5
15CB
330
220
100
AcDbEntity
  8
0
  6
Continuous
 62
     7
100
AcDbLine
 10
53.7893541896
 20
47.8222251068
 30
0.0
 11
53.7891359408
 21
47.80942173119999
 31
0.0
  0
LWPOLYLINE
  5
15CC
330
220
100
AcDbEntity
  8
0
  6
Continuous
 62
     7
100
AcDbPolyline
 90
        4
 70
     0
 43
0.0
 10
53.7897511499
 20
47.8384651481
 10
53.78974045939999
 20
47.83814047579999
 10
53.78960490629999
 20
47.8333225345
 10
53.7893541896
 20
47.8222251068
  0
LWPOLYLINE
  5
15CD
330
220
100
AcDbEntity
  8
0
  6
Continuous
 62
     7
100
AcDbPolyline
 90
        7
 70
     0
 43
0.0
 10
41.38688122579999
 20
26.9471442777
 10
41.55975469869999
 20
27.1619942302
 10
41.7236361284
 20
27.3842392387
 10
41.87820304809999
 20
27.613440243
 10
42.0231621309
 20
27.8491767402
 10
42.1582482001
 20
28.0910096793
 10
42.28318914079999
 20
28.3384651481
  0
LINE
  5
15CE
330
220
100
AcDbEntity
  8
0
  6
Continuous
 62
     7
100
AcDbLine
 10
40.50367257389999
 20
25.9014037848
 30
0.0
 11
40.5597241389
 21
25.9701368767
 31
0.0
  0
LWPOLYLINE
  5
15CF
330
220
100
AcDbEntity
  8
0
  6
Continuous
 62
     7
100
AcDbPolyline
 90
        7
 70
     0
 43
0.0
 10
40.5597241389
 20
25.9701368767
 10
40.60744440429999
 20
26.0246157839
 10
40.655139468
 20
26.079481557
 10
40.70277934429999
 20
26.1347015122
 10
40.75035501969999
 20
26.1902673722
 10
40.79785699449999
 20
26.2461708618
 10
41.38688122579999
 20
26.9471442777
  0
LWPOLYLINE
  5
15D0
330
220
100
AcDbEntity
  8
0
  6
Continuous
 62
     7
100
AcDbPolyline
 90
        9
 70
     0
 43
0.0
 10
38.4684056325
 20
29.6932406473
 10
38.5127910204
 20
29.7290794899
 10
38.5591499098
 20
29.7594438518
 10
38.6073098415
 20
29.7845665253
 10
38.6569655997
 20
29.8046113021
 10
38.7078187877
 20
29.8197813346
 10
38.7596589044
 20
29.8303213772
 10
38.8122448886
 20
29.8364681522
 10
38.865405525
 20
29.8384651481
  0
LWPOLYLINE
  5
15D1
330
220
100
AcDbEntity
  8
0
  6
Continuous
 62
     7
100
AcDbPolyline
 90
        6
 70
     0
 43
0.0
 10
71.6550673751
 20
28.9772351424
 10
71.66782224720001
 20
28.9731449133
 10
71.6806093792
 20
28.9682124539
 10
71.6933779953
 20
28.9624573503
 10
71.70607739340001
 20
28.955902455
 10
71.71472283539999
 20
28.9508658305
  0
LINE
  5
15D2
330
220
100
AcDbEntity
  8
0
  6
Continuous
 62
     7
100
AcDbLine
 10
75.0184805615
 20
28.3607349005
 30
0.0
 11
75.0872439566
 21
28.3384651481
 31
0.0
  0
LWPOLYLINE
  5
15D3
330
220
100
AcDbEntity
  8
0
  6
Continuous
 62
     7
100
AcDbPolyline
 90
        8
 70
     0
 43
0.0
 10
75.05810299
 20
28.3428859541
 10
75.04478526939999
 20
28.3474989777
 10
75.0211119683
 20
28.3590345023
 10
74.9961189322
 20
28.3751848413
 10
74.9703286035
 20
28.3957119147
 10
74.94415326310001
 20
28.4207372146
 10
74.91803400390001
 20
28.4501614393
 10
74.8923404716
 20
28.4836896488
  0
LINE
  5
15D4
330
220
100
AcDbEntity
  8
0
  6
Continuous
 62
     7
100
AcDbLine
 10
74.97341659709999
 20
28.3989683982
 30
0.0
 11
75.126623216
 21
28.3384651481
 31
0.0
  0
LWPOLYLINE
  5
15D5
330
220
100
AcDbEntity
  8
0
  6
Continuous
 62
     7
100
AcDbPolyline
 90
       35
 70
     0
 43
0.0
 10
54.9375212657
 20
45.79387347409999
 10
54.9408843185
 20
45.73969631909999
 10
54.9467356074
 20
45.68572571039999
 10
54.9550521691
 20
45.6321361102
 10
54.9658212659
 20
45.5789818705
 10
54.97903432840001
 20
45.52632274149999
 10
54.99465569329999
 20
45.4743168183
 10
55.0126381612
 20
45.4231131616
 10
55.0329534869
 20
45.37278408579999
 10
55.0555725683
 20
45.32340700819999
 10
55.0804388118
 20
45.2751110715
 10
55.10749096439999
 20
45.22801359239999
 10
55.13667340529999
 20
45.1822081683
 10
55.1679184636
 20
45.1377975749
 10
55.2011740617
 20
45.09485452699999
 10
55.2363897953
 20
45.0534488246
 10
55.2734818565
 20
45.0136844142
 10
55.31236779140001
 20
44.9756520875
 10
55.35296280569999
 20
44.93943579839999
 10
55.3952030227
 20
44.9050955803
 10
55.43891731489999
 20
44.8727666555
 10
55.4839319436
 20
44.8425572962
 10
55.530128209
 20
44.81451900289999
 10
55.5774018013
 20
44.7886871439
 10
55.6255112482
 20
44.7651555231
 10
55.6741845423
 20
44.7439967039
 10
55.7233627131
 20
44.7251702168
 10
55.7729401581
 20
44.7086578574
 10
55.82280665109999
 20
44.69444002979999
 10
55.87282750399999
 20
44.6824985242
 10
55.92299174789999
 20
44.67278515279999
 10
55.9732837762
 20
44.6652649663
 10
56.02361437859999
 20
44.6599198755
 10
56.07392987549999
 20
44.65672759239999
 10
56.124124293
 20
44.6556688251
  0
LWPOLYLINE
  5
15D6
330
220
100
AcDbEntity
  8
0
  6
Continuous
 62
     7
100
AcDbPolyline
 90
       37
 70
     0
 43
0.0
 10
54.936624293
 20
45.7839928088
 10
54.9377561414
 20
45.73239196359999
 10
54.94114308899999
 20
45.6808892034
 10
54.9467851194
 20
45.62958298659999
 10
54.9546650863
 20
45.57857027859999
 10
54.9647743594
 20
45.52794916159999
 10
54.9770873743
 20
45.4778147433
 10
54.9915869524
 20
45.42826398329999
 10
55.0082393058
 20
45.3793894079
 10
55.0270188384
 20
45.33128611619999
 10
55.04788379589999
 20
45.28404334869999
 10
55.07080035939999
 20
45.2377536204
 10
55.09571912600001
 20
45.1925022069
 10
55.1225983115
 20
45.1483783347
 10
55.15138124039999
 20
45.1054626656
 10
55.18201848109999
 20
45.0638404589
 10
55.2144465168
 20
45.0235871484
 10
55.24860864479999
 20
44.98478337729999
 10
55.2844349903
 20
44.9474987775
 10
55.3218620112
 20
44.911808762
 10
55.36081400649999
 20
44.8777766312
 10
55.401221078
 20
44.84547199399999
 10
55.44300227479999
 20
44.8149513372
 10
55.48608187479999
 20
44.7862779361
 10
55.530374293
 20
44.75950103399999
 10
55.5757985596
 20
44.7346770908
 10
55.6222651072
 20
44.7118477318
 10
55.6696883343
 20
44.69106217180001
 10
55.7179753728
 20
44.6723541009
 10
55.7670366411
 20
44.6557651148
 10
55.8167766769
 20
44.64132071189999
 10
55.86710260060001
 20
44.6290545518
 10
55.91791708199999
 20
44.6189837475
 10
55.96912465029999
 20
44.6111337663
 10
56.0206268485
 20
44.6055132055
 10
56.07227711100001
 20
44.60214128749999
 10
56.124124293
 20
44.60101160489999
  0
LINE
  5
15D7
330
220
100
AcDbEntity
  8
0
  6
Continuous
 62
     7
100
AcDbLine
 10
53.86966377850001
 20
47.8384651481
 30
0.0
 11
53.86966377850001
 21
47.764414193
 31
0.0
  0
LINE
  5
15D8
330
220
100
AcDbEntity
  8
0
  6
Continuous
 62
     7
100
AcDbLine
 10
54.061624293
 20
28.6495151511
 30
0.0
 11
54.061624293
 21
27.0259651481
 31
0.0
  0
LINE
  5
15D9
330
220
100
AcDbEntity
  8
0
  6
Continuous
 62
     7
100
AcDbLine
 10
54.874124293
 20
28.6480550148
 30
0.0
 11
54.874124293
 21
27.0259651481
 31
0.0
  0
LINE
  5
15DA
330
220
100
AcDbEntity
  8
0
  6
Continuous
 62
     7
100
AcDbLine
 10
54.999124293
 20
26.0884651481
 30
0.0
 11
54.999124293
 21
26.9009651481
 31
0.0
  0
LINE
  5
15DB
330
220
100
AcDbEntity
  8
0
  6
Continuous
 62
     7
100
AcDbLine
 10
55.061624293
 20
27.2134651481
 30
0.0
 11
55.061624293
 21
28.6478108316
 31
0.0
  0
LINE
  5
15DC
330
220
100
AcDbEntity
  8
0
  6
Continuous
 62
     7
100
AcDbLine
 10
56.124124293
 20
44.6556688251
 30
0.0
 11
56.124124293
 21
46.96697401279999
 31
0.0
  0
LINE
  5
15DD
330
220
100
AcDbEntity
  8
DEFAULT_1
  6
CENTER
 62
     7
100
AcDbLine
 10
56.124124293
 20
23.7717984814
 30
0.0
 11
56.1241239073
 21
28.8941864666
 31
0.0
  0
LINE
  5
15DE
330
220
100
AcDbEntity
  8
DEFAULT_1
  6
CENTER
 62
     7
100
AcDbLine
 10
56.1241248762
 20
28.976590152
 30
0.0
 11
56.124124293
 21
44.6556688251
 31
0.0
  0
LINE
  5
15DF
330
220
100
AcDbEntity
  8
DEFAULT_1
  6
CENTER
 62
     7
100
AcDbLine
 10
56.124124293
 20
46.96697401279999
 30
0.0
 11
56.124124293
 21
55.90513181470001
 31
0.0
  0
LINE
  5
15E0
330
220
100
AcDbEntity
  8
0
  6
Continuous
 62
     7
100
AcDbLine
 10
56.1241239073
 20
28.8941864666
 30
0.0
 11
56.1241248762
 21
28.976590152
 31
0.0
  0
LINE
  5
15E1
330
220
100
AcDbEntity
  8
0
  6
Continuous
 62
     7
100
AcDbLine
 10
53.8563502493
 20
47.80948215569999
 30
0.0
 11
53.856245741
 21
47.7643678547
 31
0.0
  0
LINE
  5
15E2
330
220
100
AcDbEntity
  8
0
  6
Continuous
 62
     7
100
AcDbLine
 10
72.7466231203
 20
22.781712252
 30
0.0
 11
72.67179469350001
 21
22.8412744124
 31
0.0
  0
LINE
  5
15E3
330
220
100
AcDbEntity
  8
0
  6
Continuous
 62
     7
100
AcDbLine
 10
72.82021656329999
 20
22.722502946
 30
0.0
 11
72.7466231203
 21
22.781712252
 31
0.0
  0
LINE
  5
15E4
330
220
100
AcDbEntity
  8
0
  6
Continuous
 62
     7
100
AcDbLine
 10
72.92270005739999
 20
22.6396018236
 30
0.0
 11
72.82021656329999
 21
22.722502946
 31
0.0
  0
LWPOLYLINE
  5
15E5
330
220
100
AcDbEntity
  8
0
  6
Continuous
 62
     7
100
AcDbPolyline
 90
       19
 70
     0
 43
0.0
 10
72.67179469350001
 20
22.8412744124
 10
72.6039561055
 20
22.89888287010001
 10
72.5409691926
 20
22.9600112354
 10
72.4846004709
 20
23.0219148121
 10
72.4322826743
 20
23.0860390383
 10
72.38262817509999
 20
23.1537995395
 10
72.3368811947
 20
23.2234765246
 10
72.29469585300001
 20
23.2945818842
 10
72.25765225319999
 20
23.3633223764
 10
72.22398473520001
 20
23.4321306638
 10
72.19261977890001
 20
23.5019379074
 10
72.16471048159999
 20
23.569401442
 10
72.13913567359999
 20
23.6359221326
 10
72.11545488760001
 20
23.7014759047
 10
72.09340790109999
 20
23.7653547593
 10
72.0723558704
 20
23.8276583834
 10
72.0523535825
 20
23.8862841925
 10
72.03303784229999
 20
23.9400507673
 10
72.0136261168
 20
23.9885977805
  0
LINE
  5
15E6
330
220
100
AcDbEntity
  8
0
  6
Continuous
 62
     7
100
AcDbLine
 10
53.8696637776
 20
47.764414193
 30
0.0
 11
54.24393391529999
 21
45.64999650659999
 31
0.0
  0
LWPOLYLINE
  5
15E7
330
220
100
AcDbEntity
  8
0
  6
Continuous
 62
     7
100
AcDbPolyline
 90
       39
 70
     0
 43
0.0
 10
54.24393391529999
 20
45.64999650659999
 10
54.2578975254
 20
45.5698719168
 10
54.2713926659
 20
45.4945281867
 10
54.2844775584
 20
45.42453638749999
 10
54.2987422522
 20
45.3572174662
 10
54.3157783237
 20
45.29026039709999
 10
54.3356394134
 20
45.2231321697
 10
54.3591296761
 20
45.1537953565
 10
54.38558914489999
 20
45.0844521832
 10
54.41458289029999
 20
45.0167960399
 10
54.4462399551
 20
44.95031600539999
 10
54.4805781927
 20
44.88500326199999
 10
54.5174962415
 20
44.8210448884
 10
54.5569105651
 20
44.75860769819999
 10
54.59878554189999
 20
44.6977436686
 10
54.6430858332
 20
44.6385230646
 10
54.6897270538
 20
44.58105783579999
 10
54.73864473859999
 20
44.5254521863
 10
54.789743788
 20
44.4717996167
 10
54.8429383908
 20
44.4202006609
 10
54.8981362181
 20
44.37073842199999
 10
54.95524194979999
 20
44.3235127587
 10
55.0141787491
 20
44.2785739385
 10
55.07487814600001
 20
44.2359791771
 10
55.13721972029999
 20
44.1958074888
 10
55.2010865407
 20
44.15814465039999
 10
55.2663996707
 20
44.1230275895
 10
55.3330865001
 20
44.0905021518
 10
55.4010111179
 20
44.06062736019999
 10
55.4700402916
 20
44.0334691443
 10
55.5400933765
 20
44.00905262939999
 10
55.6110942187
 20
43.98741323189999
 10
55.6828961141
 20
43.96858600829999
 10
55.7553561413
 20
43.9526131314
 10
55.8283867985
 20
43.9395086694
 10
55.9018907481
 20
43.92929803609999
 10
55.9757545767
 20
43.92198936799999
 10
56.0498141926
 20
43.91760134850001
 10
56.124124293
 20
43.9161277499
  0
LINE
  5
15E8
330
220
100
AcDbEntity
  8
0
  6
Continuous
 62
     7
100
AcDbLine
 10
58.4584895546
 20
47.8384651481
 30
0.0
 11
58.4585004095
 21
47.83813620270001
 31
0.0
  0
LINE
  5
15E9
330
220
100
AcDbEntity
  8
0
  6
Continuous
 62
     7
100
AcDbLine
 10
58.4585004095
 20
47.83813620270001
 30
0.0
 11
58.4587658708
 21
47.8280020127
 31
0.0
  0
LWPOLYLINE
  5
15EA
330
220
100
AcDbEntity
  8
0
  6
Continuous
 62
     7
100
AcDbPolyline
 90
       73
 70
     0
 43
0.0
 10
57.311624293
 20
45.7839928088
 10
57.3104902951
 20
45.8356426967
 10
57.30710549699999
 20
45.8870964143
 10
57.30146346659999
 20
45.93840263109999
 10
57.2935834997
 20
45.98941533909999
 10
57.2834742266
 20
46.04003645609999
 10
57.27116121169999
 20
46.09017087439999
 10
57.25666163359999
 20
46.13972163439999
 10
57.2400092802
 20
46.18859620979999
 10
57.2212297475
 20
46.2366995015
 10
57.2003647901
 20
46.28394226890001
 10
57.1774482265
 20
46.3302319973
 10
57.15252945999999
 20
46.3754834108
 10
57.1256502744
 20
46.419607283
 10
57.0968673456
 20
46.4625229521
 10
57.0662301048
 20
46.5041451588
 10
57.0338020692
 20
46.5443984693
 10
56.99963994109999
 20
46.58320224039999
 10
56.9638135956
 20
46.6204868402
 10
56.9263865747
 20
46.6561768556
 10
56.8874345795
 20
46.69020898649999
 10
56.8470275079
 20
46.72251362359999
 10
56.80524631109999
 20
46.7530342804
 10
56.76216671119999
 20
46.7817076816
 10
56.717874293
 20
46.80848458369999
 10
56.6724500264
 20
46.8333085268
 10
56.6259834788
 20
46.8561378859
 10
56.5785602516
 20
46.8769234459
 10
56.53027321319999
 20
46.8956315168
 10
56.48121194479999
 20
46.9122205029
 10
56.43147190899999
 20
46.9266649058
 10
56.38114598539999
 20
46.9389310659
 10
56.33033150399999
 20
46.9490018702
 10
56.27912393569999
 20
46.9568518514
 10
56.2276217375
 20
46.9624724122
 10
56.1759222451
 20
46.9658464714
 10
56.124124293
 20
46.96697401279999
 10
56.07232634079999
 20
46.9658464714
 10
56.0206268485
 20
46.9624724122
 10
55.96912465029999
 20
46.9568518514
 10
55.91791708199999
 20
46.9490018702
 10
55.86710260060001
 20
46.9389310659
 10
55.8167766769
 20
46.9266649058
 10
55.7670366411
 20
46.9122205029
 10
55.7179753728
 20
46.8956315168
 10
55.6696883343
 20
46.8769234459
 10
55.6222651072
 20
46.8561378859
 10
55.5757985596
 20
46.8333085268
 10
55.530374293
 20
46.80848458369999
 10
55.48608187479999
 20
46.7817076816
 10
55.44300227479999
 20
46.7530342804
 10
55.401221078
 20
46.72251362359999
 10
55.36081400649999
 20
46.69020898649999
 10
55.3218620112
 20
46.6561768556
 10
55.2844349903
 20
46.6204868402
 10
55.24860864479999
 20
46.58320224039999
 10
55.2144465168
 20
46.5443984693
 10
55.18201848109999
 20
46.5041451588
 10
55.15138124039999
 20
46.4625229521
 10
55.1225983115
 20
46.419607283
 10
55.09571912600001
 20
46.3754834108
 10
55.07080035939999
 20
46.3302319973
 10
55.04788379589999
 20
46.28394226890001
 10
55.0270188384
 20
46.2366995015
 10
55.0082393058
 20
46.18859620979999
 10
54.9915869524
 20
46.13972163439999
 10
54.9770873743
 20
46.09017087439999
 10
54.9647743594
 20
46.04003645609999
 10
54.9546650863
 20
45.98941533909999
 10
54.9467851194
 20
45.93840263109999
 10
54.94114308899999
 20
45.8870964143
 10
54.9377561414
 20
45.8355936541
 10
54.936624293
 20
45.7839928088
  0
LINE
  5
15EB
330
220
100
AcDbEntity
  8
0
  6
Continuous
 62
     7
100
AcDbLine
 10
58.4587658708
 20
47.8280020127
 30
0.0
 11
58.4590022919
 21
47.8160133563
 31
0.0
  0
LINE
  5
15EC
330
220
100
AcDbEntity
  8
0
  6
Continuous
 62
     7
100
AcDbLine
 10
58.4590022919
 20
47.8160133563
 30
0.0
 11
58.4592893937
 21
47.7952382754
 31
0.0
  0
LWPOLYLINE
  5
15ED
330
220
100
AcDbEntity
  8
0
  6
Continuous
 62
     7
100
AcDbPolyline
 90
        3
 70
     0
 43
0.0
 10
58.4592893937
 20
47.7952382754
 10
58.4594810583
 20
47.7721911369
 10
58.4595216468
 20
47.7642312313
  0
LINE
  5
15EE
330
220
100
AcDbEntity
  8
0
  6
Continuous
 62
     7
100
AcDbLine
 10
58.39177187069999
 20
47.8384651481
 30
0.0
 11
58.3919749721
 21
47.7801631652
 31
0.0
  0
LINE
  5
15EF
330
220
100
AcDbEntity
  8
0
  6
Continuous
 62
     7
100
AcDbLine
 10
58.3919749721
 20
47.7801631652
 30
0.0
 11
58.392002845
 21
47.7643678547
 31
0.0
  0
LINE
  5
15F0
330
220
100
AcDbEntity
  8
0
  6
Continuous
 62
     7
100
AcDbLine
 10
57.249124293
 20
26.0884651481
 30
0.0
 11
57.249124293
 21
26.9009651481
 31
0.0
  0
LINE
  5
15F1
330
220
100
AcDbEntity
  8
0
  6
Continuous
 62
     7
100
AcDbLine
 10
58.37858480739999
 20
47.8384651481
 30
0.0
 11
58.37858480739999
 21
47.764414193
 31
0.0
  0
LWPOLYLINE
  5
15F2
330
220
100
AcDbEntity
  8
0
  6
Continuous
 62
     7
100
AcDbPolyline
 90
       36
 70
     0
 43
0.0
 10
57.3107492368
 20
45.78400983659999
 10
57.3107309941
 20
45.78307234189999
 10
57.30737374010001
 20
45.7289121689
 10
57.3015298764
 20
45.67495863989999
 10
57.2932230631
 20
45.62138981909999
 10
57.2824655867
 20
45.5682554221
 10
57.2692645048
 20
45.5156098448
 10
57.2536566742
 20
45.4636174359
 10
57.2356880737
 20
45.4124237731
 10
57.21539633209999
 20
45.36212397779999
 10
57.1928380842
 20
45.3128452481
 10
57.1680318049
 20
45.26462398729999
 10
57.1409875905
 20
45.21749848089999
 10
57.1117683009
 20
45.17160141859999
 10
57.08041700859999
 20
45.1270201388
 10
57.0470377423
 20
45.0839141292
 10
57.0117529535
 20
45.042434979
 10
56.9746225424
 20
45.0026417855
 10
56.9357284487
 20
44.96461481709999
 10
56.89514579529999
 20
44.9284216376
 10
56.85292511260001
 20
44.89410726729999
 10
56.80923457310001
 20
44.8618036472
 10
56.7642367766
 20
44.8316114701
 10
56.7180559358
 20
44.80358706789999
 10
56.6707991213
 20
44.7777677127
 10
56.6227064294
 20
44.7542465141
 10
56.5740510785
 20
44.7330966896
 10
56.5248869892
 20
44.714275921
 10
56.47531278899999
 20
44.6977645306
 10
56.42544459189999
 20
44.6835460696
 10
56.3754215663
 20
44.6716039889
 10
56.32525329619999
 20
44.6618899185
 10
56.27495329600001
 20
44.6543688787
 10
56.22461753039999
 20
44.6490238524
 10
56.1743066178
 20
44.6458324757
 10
56.124124293
 20
44.6447742208
  0
LWPOLYLINE
  5
15F3
330
220
100
AcDbEntity
  8
0
  6
Continuous
 62
     7
100
AcDbPolyline
 90
       37
 70
     0
 43
0.0
 10
57.311385215
 20
45.7839980579
 10
57.3104902951
 20
45.7432373889
 10
57.30710549699999
 20
45.6917836712
 10
57.30146346659999
 20
45.64047745439999
 10
57.2935834997
 20
45.5894647464
 10
57.2834742266
 20
45.53884362939999
 10
57.27116121169999
 20
45.48870921109999
 10
57.25666163359999
 20
45.43915845119999
 10
57.2400092802
 20
45.3902838757
 10
57.2212297475
 20
45.3421805841
 10
57.2003647901
 20
45.2949378166
 10
57.1774482265
 20
45.2486480883
 10
57.15252945999999
 20
45.2033966747
 10
57.1256502744
 20
45.15927280249999
 10
57.0968673456
 20
45.1163571334
 10
57.0662301048
 20
45.0747349267
 10
57.0338020692
 20
45.03448161629999
 10
56.99963994109999
 20
44.9956778451
 10
56.9638135956
 20
44.95839324529999
 10
56.9263865747
 20
44.92270322989999
 10
56.8874345795
 20
44.8886710991
 10
56.8470275079
 20
44.85636646189999
 10
56.80524631109999
 20
44.8258458051
 10
56.76216671119999
 20
44.79717240399999
 10
56.717874293
 20
44.7703955018
 10
56.6724500264
 20
44.7455715587
 10
56.6259834788
 20
44.7227421996
 10
56.5785602516
 20
44.7019566396
 10
56.53027321319999
 20
44.6832485688
 10
56.48121194479999
 20
44.66665958260001
 10
56.43147190899999
 20
44.65221517969999
 10
56.38114598539999
 20
44.6399490196
 10
56.33033150399999
 20
44.62987821529999
 10
56.27912393569999
 20
44.6220282341
 10
56.2276217375
 20
44.61640767329999
 10
56.17597147499999
 20
44.61303575529999
 10
56.124124293
 20
44.6119060727
  0
LWPOLYLINE
  5
15F4
330
220
100
AcDbEntity
  8
0
  6
Continuous
 62
     7
100
AcDbPolyline
 90
       37
 70
     0
 43
0.0
 10
57.311624293
 20
45.7839928088
 10
57.3104902951
 20
45.732342921
 10
57.30710549699999
 20
45.6808892034
 10
57.30146346659999
 20
45.62958298659999
 10
57.2935834997
 20
45.57857027859999
 10
57.2834742266
 20
45.52794916159999
 10
57.27116121169999
 20
45.4778147433
 10
57.25666163359999
 20
45.42826398329999
 10
57.2400092802
 20
45.3793894079
 10
57.2212297475
 20
45.33128611619999
 10
57.2003647901
 20
45.28404334869999
 10
57.1774482265
 20
45.2377536204
 10
57.15252945999999
 20
45.1925022069
 10
57.1256502744
 20
45.1483783347
 10
57.0968673456
 20
45.1054626656
 10
57.0662301048
 20
45.0638404589
 10
57.0338020692
 20
45.0235871484
 10
56.99963994109999
 20
44.98478337729999
 10
56.9638135956
 20
44.9474987775
 10
56.9263865747
 20
44.911808762
 10
56.8874345795
 20
44.8777766312
 10
56.8470275079
 20
44.84547199399999
 10
56.80524631109999
 20
44.8149513372
 10
56.76216671119999
 20
44.7862779361
 10
56.717874293
 20
44.75950103399999
 10
56.6724500264
 20
44.7346770908
 10
56.6259834788
 20
44.7118477318
 10
56.5785602516
 20
44.69106217180001
 10
56.53027321319999
 20
44.6723541009
 10
56.48121194479999
 20
44.6557651148
 10
56.43147190899999
 20
44.64132071189999
 10
56.38114598539999
 20
44.6290545518
 10
56.33033150399999
 20
44.6189837475
 10
56.27912393569999
 20
44.6111337663
 10
56.2276217375
 20
44.6055132055
 10
56.17597147499999
 20
44.60214128749999
 10
56.124124293
 20
44.60101160489999
  0
LINE
  5
15F5
330
220
100
AcDbEntity
  8
0
  6
Continuous
 62
     7
100
AcDbLine
 10
57.3073944868
 20
45.7400516392
 30
0.0
 11
57.3107322226
 21
45.79399930100001
 31
0.0
  0
LWPOLYLINE
  5
15F6
330
220
100
AcDbEntity
  8
0
  6
Continuous
 62
     7
100
AcDbPolyline
 90
       40
 70
     0
 43
0.0
 10
58.3785848085
 20
47.764414193
 10
58.0043146707
 20
45.64999650659999
 10
57.9903510605
 20
45.5698719169
 10
57.9768559201
 20
45.4945281867
 10
57.96377102760001
 20
45.42453638749999
 10
57.9495063338
 20
45.3572174663
 10
57.93247026220001
 20
45.29026039709999
 10
57.9126091726
 20
45.2231321697
 10
57.8891189099
 20
45.1537953565
 10
57.86265944100001
 20
45.0844521832
 10
57.8336656956
 20
45.0167960399
 10
57.80200863090001
 20
44.95031600539999
 10
57.7676703933
 20
44.88500326199999
 10
57.7307523444
 20
44.8210448884
 10
57.69133802089999
 20
44.75860769819999
 10
57.64946304409999
 20
44.6977436686
 10
57.6051627527
 20
44.6385230646
 10
57.5585215321
 20
44.58105783579999
 10
57.5096038474
 20
44.5254521863
 10
57.4585047979
 20
44.4717996167
 10
57.4053101952
 20
44.4202006609
 10
57.3501123678
 20
44.37073842199999
 10
57.2930066362
 20
44.3235127587
 10
57.2340698369
 20
44.2785739385
 10
57.17337044
 20
44.2359791771
 10
57.11102886569999
 20
44.1958074888
 10
57.0471620452
 20
44.15814465039999
 10
56.9818489153
 20
44.1230275895
 10
56.9151620859
 20
44.0905021518
 10
56.847237468
 20
44.06062736019999
 10
56.77820829439999
 20
44.0334691443
 10
56.7081552095
 20
44.00905262939999
 10
56.63715436729999
 20
43.98741323189999
 10
56.5653524718
 20
43.96858600829999
 10
56.49289244470001
 20
43.9526131314
 10
56.41986178749999
 20
43.9395086694
 10
56.3463578379
 20
43.92929803609999
 10
56.2724940092
 20
43.92198936799999
 10
56.1984343934
 20
43.91760134850001
 10
56.124124293
 20
43.9161277499
  0
LWPOLYLINE
  5
15F7
330
220
100
AcDbEntity
  8
0
  6
Continuous
 62
     7
100
AcDbPolyline
 90
       19
 70
     0
 43
0.0
 10
39.5764538925
 20
22.8412744124
 10
39.6442924805
 20
22.89888287010001
 10
39.7072793933
 20
22.9600112354
 10
39.763648115
 20
23.0219148121
 10
39.8159659117
 20
23.0860390383
 10
39.8656204108
 20
23.1537995395
 10
39.91136739130001
 20
23.2234765246
 10
39.953552733
 20
23.2945818842
 10
39.9905963328
 20
23.3633223764
 10
40.0242638507
 20
23.4321306638
 10
40.055628807
 20
23.5019379074
 10
40.0835381043
 20
23.569401442
 10
40.1091129124
 20
23.6359221326
 10
40.1327936983
 20
23.7014759047
 10
40.1548406848
 20
23.7653547593
 10
40.1758927156
 20
23.8276583834
 10
40.1958950034
 20
23.8862841925
 10
40.2152107436
 20
23.9400507673
 10
40.23462246909999
 20
23.9885977805
  0
LINE
  5
15F8
330
220
100
AcDbEntity
  8
0
  6
Continuous
 62
     7
100
AcDbLine
 10
39.3256116761
 20
22.639652905
 30
0.0
 11
39.47694653340001
 21
22.7619279251
 31
0.0
  0
LWPOLYLINE
  5
15F9
330
220
100
AcDbEntity
  8
0
  6
Continuous
 62
     7
100
AcDbPolyline
 90
        3
 70
     0
 43
0.0
 10
39.47694653340001
 20
22.7619279251
 10
39.5513861538
 20
22.8213912557
 10
39.5764538925
 20
22.8412744124
  0
LWPOLYLINE
  5
15FA
330
220
100
AcDbEntity
  8
0
  6
Continuous
 62
     7
100
AcDbPolyline
 90
        5
 70
     0
 43
0.0
 10
39.3256408689
 20
22.6396719707
 10
39.3097374025
 20
22.6278662239
 10
39.29305521190001
 20
22.61756910989999
 10
39.2757226421
 20
22.6088138398
 10
39.2578679576
 20
22.6016211014
  0
LINE
  5
15FB
330
220
100
AcDbEntity
  8
0
  6
Continuous
 62
     7
100
AcDbLine
 10
37.2748319888
 20
28.3989683982
 30
0.0
 11
37.12162537
 21
28.3384651481
 31
0.0
  0
LWPOLYLINE
  5
15FC
330
220
100
AcDbEntity
  8
0
  6
Continuous
 62
     7
100
AcDbPolyline
 90
       12
 70
     0
 43
0.0
 10
88.1605268178
 20
47.8384651481
 10
88.16000945209998
 20
47.8383323171
 10
88.15218496419999
 20
47.8356157543
 10
88.14461212559999
 20
47.8322609905
 10
88.1373428878
 20
47.82829104029999
 10
88.13042711940001
 20
47.82373313819999
 10
88.1239122642
 20
47.8186185527
 10
88.11784301559999
 20
47.8129823709
 10
88.11226101009999
 20
47.8068632584
 10
88.10720454149999
 20
47.80030319369999
 10
88.10270829830001
 20
47.7933471804
 10
88.09880312590001
 20
47.78604293839999
  0
LWPOLYLINE
  5
15FD
330
220
100
AcDbEntity
  8
0
  6
Continuous
 62
     7
100
AcDbPolyline
 90
       12
 70
     0
 43
0.0
 10
24.0877217542
 20
47.8384651481
 10
24.088239134
 20
47.8383323135
 10
24.0960636221
 20
47.83561575140001
 10
24.1036364609
 20
47.8322609884
 10
24.1109056991
 20
47.8282910388
 10
24.1178214678
 20
47.82373313739999
 10
24.1243363235
 20
47.81861855249999
 10
24.1304055726
 20
47.8129823713
 10
24.1359875787
 20
47.80686325939999
 10
24.1410440479
 20
47.8003031952
 10
24.1455402916
 20
47.7933471824
 10
24.1494454647
 20
47.78604294069999
  0
LINE
  5
15FE
330
220
100
AcDbEntity
  8
0
  6
Continuous
 62
     7
100
AcDbLine
 10
60.874124293
 20
28.6600920646
 30
0.0
 11
60.874124293
 21
28.5884651481
 31
0.0
  0
LWPOLYLINE
  5
15FF
330
220
100
AcDbEntity
  8
0
  6
Continuous
 62
     7
100
AcDbPolyline
 90
        8
 70
     0
 43
0.0
 10
37.1901455959
 20
28.3428859541
 10
37.2034633165
 20
28.3474989777
 10
37.2271366177
 20
28.3590345023
 10
37.2521296537
 20
28.3751848413
 10
37.2779199824
 20
28.3957119147
 10
37.3040953228
 20
28.4207372146
 10
37.330214582
 20
28.4501614393
 10
37.3559081143
 20
28.4836896488
  0
LINE
  5
1600
330
220
100
AcDbEntity
  8
0
  6
Continuous
 62
     7
100
AcDbLine
 10
37.2297680245
 20
28.3607349005
 30
0.0
 11
37.1610046293
 21
28.3384651481
 31
0.0
  0
LWPOLYLINE
  5
1601
330
220
100
AcDbEntity
  8
0
  6
Continuous
 62
     7
100
AcDbPolyline
 90
        9
 70
     0
 43
0.0
 10
73.7798429534
 20
29.6932406473
 10
73.7354575656
 20
29.7290794899
 10
73.6890986761
 20
29.7594438518
 10
73.6409387445
 20
29.7845665253
 10
73.5912829863
 20
29.8046113021
 10
73.54042979829999
 20
29.8197813346
 10
73.4885896816
 20
29.8303213772
 10
73.43600369739999
 20
29.8364681522
 10
73.382843061
 20
29.8384651481
  0
LWPOLYLINE
  5
1602
330
220
100
AcDbEntity
  8
0
  6
Continuous
 62
     7
100
AcDbPolyline
 90
        6
 70
     0
 43
0.0
 10
71.68852444709999
 20
25.9701368767
 10
71.64080418160001
 20
26.0246157839
 10
71.5931091179
 20
26.079481557
 10
71.5454692416
 20
26.1347015122
 10
71.49789356620001
 20
26.1902673722
 10
71.45039159149999
 20
26.2461708618
  0
LINE
  5
1603
330
220
100
AcDbEntity
  8
0
  6
Continuous
 62
     7
100
AcDbLine
 10
71.45039159149999
 20
26.2461708618
 30
0.0
 11
70.86136736020001
 21
26.9471442777
 31
0.0
  0
LINE
  5
1604
330
220
100
AcDbEntity
  8
0
  6
Continuous
 62
     7
100
AcDbLine
 10
71.7445760121
 20
25.9014037848
 30
0.0
 11
71.68852444709999
 21
25.9701368767
 31
0.0
  0
LWPOLYLINE
  5
1605
330
220
100
AcDbEntity
  8
0
  6
Continuous
 62
     7
100
AcDbPolyline
 90
        7
 70
     0
 43
0.0
 10
70.86136736020001
 20
26.9471442777
 10
70.6884938873
 20
27.1619942302
 10
70.52461245759999
 20
27.3842392387
 10
70.3700455378
 20
27.613440243
 10
70.2250864551
 20
27.8491767402
 10
70.09000038589999
 20
28.0910096793
 10
69.96505944509999
 20
28.3384651481
  0
LWPOLYLINE
  5
1606
330
220
100
AcDbEntity
  8
0
  6
Continuous
 62
     7
100
AcDbPolyline
 90
       67
 70
     0
 43
0.0
 10
64.0492140658
 20
47.77780341209999
 10
63.9274790479
 20
47.03284146509999
 10
63.8074519876
 20
46.25210083649999
 10
63.6859313875
 20
45.4209107614
 10
63.56863722539999
 20
44.5906040043
 10
63.4601750825
 20
43.8113618109
 10
63.3573356488
 20
43.0749392316
 10
63.2599189409
 20
42.390452903
 10
63.1660588675
 20
41.751665449
 10
63.0747182822
 20
41.1557305334
 10
62.9849980688
 20
40.59899882639999
 10
62.8962839975
 20
40.0785112406
 10
62.8075272042
 20
39.5883211528
 10
62.7175873351
 20
39.12240961510001
 10
62.6259572363
 20
38.6785024635
 10
62.53177449089999
 20
38.2528777405
 10
62.4346594139
 20
37.8443827891
 10
62.33374551
 20
37.4500853321
 10
62.2293991013
 20
37.0719818102
 10
62.121214465
 20
36.7088681222
 10
62.01113947100001
 20
36.3667507371
 10
61.9018578059
 20
36.0517637707
 10
61.7928012179
 20
35.7595972328
 10
61.6843276087
 20
35.4889273496
 10
61.5762260651
 20
35.2371873567
 10
61.4682361882
 20
35.0020829584
 10
61.36037212649999
 20
34.7822047402
 10
61.25244379689999
 20
34.5759202386
 10
61.1444406521
 20
34.3821361142
 10
61.0362039695
 20
34.1996354683
 10
60.9277043131
 20
34.0275621815
 10
60.818799483
 20
33.8649869753
 10
60.7094439806
 20
33.7112310937
 10
60.5995003946
 20
33.5655707052
 10
60.48891268680001
 20
33.4274697763
 10
60.3775497763
 20
33.2963631378
 10
60.2653424518
 20
33.1718238387
 10
60.1521681576
 20
33.053416599
 10
60.0379215351
 20
32.9407751337
 10
59.92245340970001
 20
32.8335374169
 10
59.8056482415
 20
32.7314168345
 10
59.6873422354
 20
32.63412311320001
 10
59.5674246333
 20
32.5414481009
 10
59.4457448019
 20
32.45318370510001
 10
59.3221586217
 20
32.36916047360001
 10
59.196502982
 20
32.2892258745
 10
59.06858342999999
 20
32.213236681
 10
58.93818624649999
 20
32.1410698628
 10
58.8051083205
 20
32.0726380487
 10
58.6690994826
 20
32.0078593741
 10
58.52998982169999
 20
31.9467177698
 10
58.3871459208
 20
31.8890355932
 10
58.2416363323
 20
31.835314566
 10
58.09413027649999
 20
31.7857789721
 10
57.9455614779
 20
31.7406422017
 10
57.797417623
 20
31.7001510561
 10
57.64913449999999
 20
31.6639199639
 10
57.5006934831
 20
31.6317549718
 10
57.3518544114
 20
31.6034393052
 10
57.20240795409999
 20
31.5787937825
 10
57.05220548899999
 20
31.5576761148
 10
56.90104515659999
 20
31.5399635714
 10
56.7487634089
 20
31.5255633817
 10
56.59518401959999
 20
31.5144029911
 10
56.4400569332
 20
31.5064283706
 10
56.2829693709
 20
31.50160817010001
 10
56.12412429009999
 20
31.4999484688
  0
LWPOLYLINE
  5
1607
330
220
100
AcDbEntity
  8
0
  6
Continuous
 62
     7
100
AcDbPolyline
 90
       13
 70
     0
 43
0.0
 10
64.05344698669999
 20
47.8384651481
 10
64.0531638742
 20
47.83695984939999
 10
64.0526682009
 20
47.8337131354
 10
64.05219170069999
 20
47.8299606147
 10
64.05173709359999
 20
47.8257237081
 10
64.05130697469999
 20
47.82102660119999
 10
64.05090379909999
 20
47.8158961069
 10
64.05052986840001
 20
47.8103615116
 10
64.0501873171
 20
47.80445440899999
 10
64.04987810059999
 20
47.7982085186
 10
64.0496039841
 20
47.79165949430001
 10
64.0493665322
 20
47.78484472
 10
64.0491671004
 20
47.77780309709999
  0
LWPOLYLINE
  5
1608
330
220
100
AcDbEntity
  8
0
  6
Continuous
 62
     7
100
AcDbPolyline
 90
       13
 70
     0
 43
0.0
 10
64.06237921829999
 20
47.8384651481
 10
64.0620957281
 20
47.8369593783
 10
64.06159955879999
 20
47.8337126851
 10
64.0611225863
 20
47.8299601733
 10
64.0606675344
 20
47.8257232638
 10
64.0602370016
 20
47.82102614279999
 10
64.0598334464
 20
47.8158956239
 10
64.0594591735
 20
47.8103609942
 10
64.0591163202
 20
47.804453848
 10
64.0588068447
 20
47.79820790609999
 10
64.05853251439999
 20
47.7916588231
 10
64.0582948962
 20
47.7848439842
 10
64.0580953475
 20
47.7778022917
  0
LWPOLYLINE
  5
1609
330
220
100
AcDbEntity
  8
0
  6
Continuous
 62
     7
100
AcDbPolyline
 90
       13
 70
     0
 43
0.0
 10
64.11748281140001
 20
47.8384651481
 10
64.1171972626
 20
47.8369581901
 10
64.11669776869999
 20
47.8337102481
 10
64.1162176918
 20
47.82995636189999
 10
64.11575977359999
 20
47.825717967
 10
64.1153266292
 20
47.82101926569999
 10
64.11492073249999
 20
47.81588708850001
 10
64.11454440139999
 20
47.8103507414
 10
64.1141997854
 20
47.804441838
 10
64.1138888525
 20
47.7981941196
 10
64.11361337859999
 20
47.7916432619
 10
64.1133749371
 20
47.784826672
 10
64.11317488989999
 20
47.7777832739
  0
LINE
  5
160A
330
220
100
AcDbEntity
  8
0
  6
Continuous
 62
     7
100
AcDbLine
 10
55.061624293
 20
27.2134651481
 30
0.0
 11
54.874124293
 21
27.0259651481
 31
0.0
  0
LINE
  5
160B
330
220
100
AcDbEntity
  8
0
  6
Continuous
 62
     7
100
AcDbLine
 10
55.186624293
 20
27.0884651481
 30
0.0
 11
54.999124293
 21
26.9009651481
 31
0.0
  0
LWPOLYLINE
  5
160C
330
220
100
AcDbEntity
  8
0
  6
Continuous
 62
     7
100
AcDbPolyline
 90
       34
 70
     0
 43
0.0
 10
56.124124293
 20
44.6556688251
 10
56.1745388809
 20
44.6567369038
 10
56.2250916872
 20
44.6599587321
 10
56.2756809509
 20
44.66535667859999
 10
56.3262343005
 20
44.6729531544
 10
56.3766477399
 20
44.6827641632
 10
56.4268990842
 20
44.6948223448
 10
56.4769703296
 20
44.70917244169999
 10
56.52671560569999
 20
44.72582630469999
 10
56.576011381
 20
44.74479406069999
 10
56.6247564783
 20
44.766089673
 10
56.6728920551
 20
44.78974779579999
 10
56.7201488745
 20
44.8156905693
 10
56.7662868912
 20
44.84381802909999
 10
56.81120900979999
 20
44.8740926588
 10
56.8547980708
 20
44.90645741979999
 10
56.8968992641
 20
44.94081263899999
 10
56.9373575681
 20
44.97703400499999
 10
56.9761105358
 20
45.0150626327
 10
57.0130796237
 20
45.0548214454
 10
57.0481796408
 20
45.0962180056
 10
57.0813279936
 20
45.1391510151
 10
57.11246870850001
 20
45.18354410999999
 10
57.1415438147
 20
45.2293143031
 10
57.1684932724
 20
45.2763687045
 10
57.1932663769
 20
45.3246230947
 10
57.2157985095
 20
45.3739549284
 10
57.2360327067
 20
45.4242344073
 10
57.2539380478
 20
45.4753785606
 10
57.26948694109999
 20
45.5273142367
 10
57.2826296016
 20
45.57987607229999
 10
57.2933298751
 20
45.6328839121
 10
57.3015875124
 20
45.6862925085
 10
57.3073944868
 20
45.7400516392
  0
LWPOLYLINE
  5
160D
330
220
100
AcDbEntity
  8
0
  6
Continuous
 62
     7
100
AcDbPolyline
 90
       35
 70
     0
 43
0.0
 10
56.124124293
 20
44.6447742208
 10
56.07371443479999
 20
44.6458420984
 10
56.0231754208
 20
44.64906254539999
 10
55.97261104859999
 20
44.6544564887
 10
55.9220868746
 20
44.662046022
 10
55.8717001703
 20
44.6718479634
 10
55.82147514369999
 20
44.6838946462
 10
55.7714311715
 20
44.6982303077
 10
55.7217093074
 20
44.7148682362
 10
55.6724268868
 20
44.7338214972
 10
55.62369181560001
 20
44.75510232819999
 10
55.57556775430001
 20
44.7787432502
 10
55.5283221879
 20
44.80466701140001
 10
55.4821964352
 20
44.8327726971
 10
55.4372832858
 20
44.8630253788
 10
55.3936954425
 20
44.89537186869999
 10
55.3515915326
 20
44.9297106915
 10
55.3111377044
 20
44.9659078551
 10
55.2723691098
 20
45.0039303214
 10
55.2353436143
 20
45.0437297639
 10
55.2001575177
 20
45.08521348489999
 10
55.1668779501
 20
45.128313818
 10
55.1356251725
 20
45.17288065459999
 10
55.106503595
 20
45.218752552
 10
55.0795546113
 20
45.26584346249999
 10
55.05484145189999
 20
45.3140183137
 10
55.0323689868
 20
45.36324857479999
 10
55.01214972279999
 20
45.41351507449999
 10
54.9942502695
 20
45.4646689792
 10
54.978712205
 20
45.5165990201
 10
54.965579558
 20
45.5691553737
 10
54.9548876889
 20
45.6221627599
 10
54.9466383417
 20
45.6755704129
 10
54.940839958
 20
45.7293229562
 10
54.9375102389
 20
45.7832615886
  0
LWPOLYLINE
  5
160E
330
220
100
AcDbEntity
  8
0
  6
Continuous
 62
     7
100
AcDbPolyline
 90
       37
 70
     0
 43
0.0
 10
56.124124293
 20
44.6119060727
 10
56.07227711100001
 20
44.61303575529999
 10
56.0206268485
 20
44.61640767329999
 10
55.96912465029999
 20
44.6220282341
 10
55.91791708199999
 20
44.62987821529999
 10
55.86710260060001
 20
44.6399490196
 10
55.8167766769
 20
44.65221517969999
 10
55.7670366411
 20
44.66665958260001
 10
55.7179753728
 20
44.6832485688
 10
55.6696883343
 20
44.7019566396
 10
55.6222651072
 20
44.7227421996
 10
55.5757985596
 20
44.7455715587
 10
55.530374293
 20
44.7703955018
 10
55.48608187479999
 20
44.79717240399999
 10
55.44300227479999
 20
44.8258458051
 10
55.401221078
 20
44.85636646189999
 10
55.36081400649999
 20
44.8886710991
 10
55.3218620112
 20
44.92270322989999
 10
55.2844349903
 20
44.95839324529999
 10
55.24860864479999
 20
44.9956778451
 10
55.2144465168
 20
45.03448161629999
 10
55.18201848109999
 20
45.0747349267
 10
55.15138124039999
 20
45.1163571334
 10
55.1225983115
 20
45.15927280249999
 10
55.09571912600001
 20
45.2033966747
 10
55.07080035939999
 20
45.2486480883
 10
55.04788379589999
 20
45.2949378166
 10
55.0270188384
 20
45.3421805841
 10
55.0082393058
 20
45.3902838757
 10
54.9915869524
 20
45.43915845119999
 10
54.9770873743
 20
45.48870921109999
 10
54.9647743594
 20
45.53884362939999
 10
54.9546650863
 20
45.5894647464
 10
54.9467851194
 20
45.64047745439999
 10
54.94114308899999
 20
45.6917836712
 10
54.9377561414
 20
45.7432864314
 10
54.93686314479999
 20
45.783998048
  0
LWPOLYLINE
  5
160F
330
220
100
AcDbEntity
  8
0
  6
Continuous
 62
     7
100
AcDbPolyline
 90
        7
 70
     0
 43
0.0
 10
73.89693926390001
 20
29.5846162867
 10
73.87920747079999
 20
29.6016919783
 10
73.86075812619999
 20
29.6191872929
 10
73.8416043794
 20
29.63708668780001
 10
73.8217372247
 20
29.6553951643
 10
73.8011459663
 20
29.6741183957
 10
73.7798429534
 20
29.6932406473
  0
LINE
  5
1610
330
220
100
AcDbEntity
  8
0
  6
Continuous
 62
     7
100
AcDbLine
 10
73.98995883890001
 20
24.7472595498
 30
0.0
 11
73.8867149016
 21
24.9178921541
 31
0.0
  0
LWPOLYLINE
  5
1611
330
220
100
AcDbEntity
  8
0
  6
Continuous
 62
     7
100
AcDbPolyline
 90
        5
 70
     0
 43
0.0
 10
73.8867149016
 20
24.9178921541
 10
73.85014168020001
 20
24.9785492807
 10
73.8140482412
 20
25.0389973997
 10
73.77834170869999
 20
25.0998188495
 10
73.7429631313
 20
25.1616731471
  0
LINE
  5
1612
330
220
100
AcDbEntity
  8
0
  6
Continuous
 62
     7
100
AcDbLine
 10
74.0201978467
 20
24.6967789564
 30
0.0
 11
73.9902405647
 21
24.7467921042
 31
0.0
  0
LINE
  5
1613
330
220
100
AcDbEntity
  8
0
  6
Continuous
 62
     7
100
AcDbLine
 10
74.0495918451
 20
24.647191041
 30
0.0
 11
74.0201978467
 21
24.6967789564
 31
0.0
  0
LINE
  5
1614
330
220
100
AcDbEntity
  8
0
  6
Continuous
 62
     7
100
AcDbLine
 10
39.2387429401
 20
22.5958070084
 30
0.0
 11
39.2578676905
 21
22.6016218887
 31
0.0
  0
LINE
  5
1616
330
220
100
AcDbEntity
  8
0
  6
Continuous
 62
     7
100
AcDbLine
 10
63.2375824237
 20
47.774723338
 30
0.0
 11
62.5571654164
 21
47.7672436554
 31
0.0
  0
LINE
  5
161A
330
220
100
AcDbEntity
  8
0
  6
Continuous
 62
     7
100
AcDbLine
 10
62.5571654164
 20
47.7672436554
 30
0.0
 11
62.41414503489999
 21
47.76608304829999
 31
0.0
  0
LINE
  5
161D
330
220
100
AcDbEntity
  8
0
  6
Continuous
 62
     7
100
AcDbLine
 10
63.4558926976
 20
47.7763275088
 30
0.0
 11
63.2375824237
 21
47.774723338
 31
0.0
  0
LINE
  5
1620
330
220
100
AcDbEntity
  8
0
  6
Continuous
 62
     7
100
AcDbLine
 10
62.41414503489999
 20
47.76608304829999
 30
0.0
 11
62.25777172489999
 21
47.7651771152
 31
0.0
  0
LINE
  5
1624
330
220
100
AcDbEntity
  8
0
  6
Continuous
 62
     7
100
AcDbLine
 10
63.6284355852
 20
47.77716053579999
 30
0.0
 11
63.4558926976
 21
47.7763275088
 31
0.0
  0
LINE
  5
1627
330
220
100
AcDbEntity
  8
0
  6
Continuous
 62
     7
100
AcDbLine
 10
62.25777172489999
 20
47.7651771152
 30
0.0
 11
62.0870196554
 21
47.7644962237
 31
0.0
  0
LINE
  5
162C
330
220
100
AcDbEntity
  8
0
  6
Continuous
 62
     7
100
AcDbLine
 10
63.8262737404
 20
47.77769169479999
 30
0.0
 11
63.6284355852
 21
47.77716053579999
 31
0.0
  0
LINE
  5
162E
330
220
100
AcDbEntity
  8
0
  6
Continuous
 62
     7
100
AcDbLine
 10
62.0870196554
 20
47.7644962237
 30
0.0
 11
61.8029550022
 21
47.7638320764
 31
0.0
  0
LINE
  5
1633
330
220
100
AcDbEntity
  8
0
  6
Continuous
 62
     7
100
AcDbLine
 10
61.8029550022
 20
47.7638320764
 30
0.0
 11
61.3512403274
 21
47.76339497979999
 31
0.0
  0
LINE
  5
1634
330
220
100
AcDbEntity
  8
0
  6
Continuous
 62
     7
100
AcDbLine
 10
53.8696637776
 20
47.764414193
 30
0.0
 11
53.1612358438
 21
47.7636397667
 31
0.0
  0
LINE
  5
1637
330
220
100
AcDbEntity
  8
0
  6
Continuous
 62
     7
100
AcDbLine
 10
23.1241242933
 20
47.8384651481
 30
0.0
 11
89.1241242927
 21
47.8384651481
 31
0.0
  0
LINE
  5
163A
330
220
100
AcDbEntity
  8
0
  6
Continuous
 62
     7
100
AcDbLine
 10
64.11317488989999
 20
47.7777832739
 30
0.0
 11
63.8262737404
 21
47.77769169479999
 31
0.0
  0
LINE
  5
163C
330
220
100
AcDbEntity
  8
0
  6
Continuous
 62
     7
100
AcDbLine
 10
53.1612358438
 20
47.7636397667
 30
0.0
 11
51.02706836100001
 21
47.7633555315
 31
0.0
  0
LINE
  5
163E
330
220
100
AcDbEntity
  8
0
  6
Continuous
 62
     7
100
AcDbLine
 10
51.02706836100001
 20
47.7633555315
 30
0.0
 11
50.6428589846
 21
47.7635935805
 31
0.0
  0
LINE
  5
163F
330
220
100
AcDbEntity
  8
0
  6
Continuous
 62
     7
100
AcDbLine
 10
61.3512403274
 20
47.76339497979999
 30
0.0
 11
58.7167734368
 21
47.76392880249999
 31
0.0
  0
LINE
  5
1643
330
220
100
AcDbEntity
  8
0
  6
Continuous
 62
     7
100
AcDbLine
 10
50.6428589846
 20
47.7635935805
 30
0.0
 11
50.3295423613
 21
47.764053106
 31
0.0
  0
LINE
  5
1644
330
220
100
AcDbEntity
  8
0
  6
Continuous
 62
     7
100
AcDbLine
 10
48.5238790267
 20
47.7774690724
 30
0.0
 11
48.1352728793
 21
47.7777806891
 31
0.0
  0
LINE
  5
1645
330
220
100
AcDbEntity
  8
0
  6
Continuous
 62
     7
100
AcDbLine
 10
58.7167734368
 20
47.76392880249999
 30
0.0
 11
58.392002845
 21
47.7643678547
 31
0.0
  0
LINE
  5
164A
330
220
100
AcDbEntity
  8
0
  6
Continuous
 62
     7
100
AcDbLine
 10
58.392002845
 20
47.7643678547
 30
0.0
 11
53.8696637776
 21
47.764414193
 31
0.0
  0
LINE
  5
164B
330
220
100
AcDbEntity
  8
0
  6
Continuous
 62
     7
100
AcDbLine
 10
50.3295423613
 20
47.764053106
 30
0.0
 11
50.0620634383
 21
47.76486113439999
 31
0.0
  0
LINE
  5
164F
330
220
100
AcDbEntity
  8
0
  6
Continuous
 62
     7
100
AcDbLine
 10
48.70882477560001
 20
47.7767837268
 30
0.0
 11
48.5238790267
 21
47.7774690724
 31
0.0
  0
LINE
  5
1654
330
220
100
AcDbEntity
  8
0
  6
Continuous
 62
     7
100
AcDbLine
 10
50.0620634383
 20
47.76486113439999
 30
0.0
 11
49.90238135520001
 21
47.76565024649999
 31
0.0
  0
LINE
  5
1661
330
220
100
AcDbEntity
  8
0
  6
Continuous
 62
     7
100
AcDbLine
 10
48.9417738029
 20
47.7753009322
 30
0.0
 11
48.70882477560001
 21
47.7767837268
 31
0.0
  0
LINE
  5
1663
330
220
100
AcDbEntity
  8
0
  6
Continuous
 62
     7
100
AcDbLine
 10
49.90238135520001
 20
47.76565024649999
 30
0.0
 11
49.7561699858
 21
47.76667764789999
 31
0.0
  0
LINE
  5
1665
330
220
100
AcDbEntity
  8
0
  6
Continuous
 62
     7
100
AcDbLine
 10
49.7561699858
 20
47.76667764789999
 30
0.0
 11
49.6231328525
 21
47.7679884902
 31
0.0
  0
LINE
  5
1666
330
220
100
AcDbEntity
  8
0
  6
Continuous
 62
     7
100
AcDbLine
 10
49.2615935006
 20
47.77218842629999
 30
0.0
 11
48.9417738029
 21
47.7753009322
 31
0.0
  0
LINE
  5
1667
330
220
100
AcDbEntity
  8
0
  6
Continuous
 62
     7
100
AcDbLine
 10
49.6231328525
 20
47.7679884902
 30
0.0
 11
49.2615935006
 21
47.77218842629999
 31
0.0
  0
LWPOLYLINE
  5
1669
330
220
100
AcDbEntity
  8
0
  6
Continuous
 62
     7
100
AcDbPolyline
 90
        9
 70
     0
 43
0.0
 10
74.8923404716
 20
28.4836896488
 10
74.8088176661
 20
28.5958411648
 10
74.71351486189999
 20
28.7154441496
 10
74.6067894974
 20
28.8420714936
 10
74.48843343829999
 20
28.975965278
 10
74.3580707111
 20
29.1174661445
 10
74.21594330149999
 20
29.2662191368
 10
74.0621790628
 20
29.4220163397
 10
73.89693926390001
 20
29.5846162867
  0
LINE
  5
166A
330
220
100
AcDbEntity
  8
0
  6
Continuous
 62
     7
100
AcDbLine
 10
74.4043438585
 20
23.9923188504
 30
0.0
 11
74.3653554362
 21
24.0600137554
 31
0.0
  0
LINE
  5
166B
330
220
100
AcDbEntity
  8
0
  6
Continuous
 62
     7
100
AcDbLine
 10
74.4071374012
 20
23.9874197316
 30
0.0
 11
74.4043506289
 21
23.9923071058
 31
0.0
  0
LWPOLYLINE
  5
166C
330
220
100
AcDbEntity
  8
0
  6
Continuous
 62
     7
100
AcDbPolyline
 90
        7
 70
     0
 43
0.0
 10
74.3653554362
 20
24.0600137554
 10
74.34070059069999
 20
24.1035811632
 10
74.3290777839
 20
24.1244041063
 10
74.3189014804
 20
24.1428420253
 10
74.3098375962
 20
24.1595115116
 10
74.3019148639
 20
24.1743469795
 10
74.29475859680001
 20
24.1880220462
  0
LINE
  5
166D
330
220
100
AcDbEntity
  8
0
  6
Continuous
 62
     7
100
AcDbLine
 10
73.7429631313
 20
25.1616731471
 30
0.0
 11
73.71215916
 21
25.2174280693
 31
0.0
  0
LWPOLYLINE
  5
166E
330
220
100
AcDbEntity
  8
0
  6
Continuous
 62
     7
100
AcDbPolyline
 90
       12
 70
     0
 43
0.0
 10
73.71363442199999
 20
25.2147578577
 10
73.6914311134
 20
25.2580569367
 10
73.66725553180001
 20
25.3098817923
 10
73.6466578135
 20
25.3600124272
 10
73.6290511171
 20
25.4102201981
 10
73.61391719390001
 20
25.4629822707
 10
73.60210691510001
 20
25.5162126996
 10
73.5934672639
 20
25.5697280465
 10
73.58843473410001
 20
25.6223686998
 10
73.5874098911
 20
25.6709545576
 10
73.5899586366
 20
25.7162758084
 10
73.5961452426
 20
25.7587695165
  0
LINE
  5
166F
330
220
100
AcDbEntity
  8
0
  6
Continuous
 62
     7
100
AcDbLine
 10
74.29475859680001
 20
24.1880220462
 30
0.0
 11
74.2879386635
 21
24.2013522089
 31
0.0
  0
LWPOLYLINE
  5
1670
330
220
100
AcDbEntity
  8
0
  6
Continuous
 62
     7
100
AcDbPolyline
 90
        9
 70
     0
 43
0.0
 10
74.2879386635
 20
24.2013522089
 10
74.2583545719
 20
24.2606205356
 10
74.22570695400001
 20
24.3251499747
 10
74.1938003553
 20
24.3868518566
 10
74.1624860488
 20
24.4458790914
 10
74.1317360967
 20
24.5024090272
 10
74.10173482720001
 20
24.5562821089
 10
74.0725485151
 20
24.6075730877
 10
74.0512922484
 20
24.6442911215
  0
LWPOLYLINE
  5
1671
330
220
100
AcDbEntity
  8
0
  6
Continuous
 62
     7
100
AcDbPolyline
 90
        9
 70
     0
 43
0.0
 10
73.92908457939999
 20
22.6869775792
 10
73.92971138909999
 20
22.6855287157
 10
73.93002525899999
 20
22.6839545656
 10
73.9300064756
 20
22.6822610124
 10
73.92962302019999
 20
22.6804410783
 10
73.9288437438
 20
22.6784915368
 10
73.927634936
 20
22.67640998840001
 10
73.92596092479999
 20
22.6741945462
 10
73.9255527281
 20
22.6737190617
  0
LWPOLYLINE
  5
1672
330
220
100
AcDbEntity
  8
0
  6
Continuous
 62
     7
100
AcDbPolyline
 90
        7
 70
     0
 43
0.0
 10
72.0136261168
 20
23.9885977805
 10
71.9862562339
 20
24.0562429585
 10
71.9627743595
 20
24.1232529203
 10
71.94322801600001
 20
24.1895207976
 10
71.9277597708
 20
24.2545637911
 10
71.9164209754
 20
24.3179254278
 10
71.9091514939
 20
24.3795355891
  0
LWPOLYLINE
  5
1673
330
220
100
AcDbEntity
  8
0
  6
Continuous
 62
     7
100
AcDbPolyline
 90
       41
 70
     0
 43
0.0
 10
25.4649683982
 20
50.3383841463
 10
25.38862384110001
 20
50.3377529841
 10
25.3028761389
 20
50.3340086612
 10
25.2173075571
 20
50.32706026069999
 10
25.1320568516
 20
50.3169192152
 10
25.0472624982
 20
50.3035997785
 10
24.9630263544
 20
50.287114578
 10
24.8794484537
 20
50.2674865851
 10
24.7966637959
 20
50.2447497671
 10
24.7148066791
 20
50.2189408384
 10
24.6339761436
 20
50.1900870766
 10
24.5542684123
 20
50.1582235231
 10
24.4758111864
 20
50.1234056041
 10
24.3987309962
 20
50.08569152689999
 10
24.3231210587
 20
50.04512414979999
 10
24.2490753532
 20
50.001750996
 10
24.1767035397
 20
49.9556417641
 10
24.1061113597
 20
49.9068668438
 10
24.0373942549
 20
49.8554899273
 10
23.9706514419
 20
49.8015796939
 10
23.9059650903
 20
49.7452067671
 10
23.8434112788
 20
49.68643988
 10
23.7830932586
 20
49.62537251949999
 10
23.725112003
 20
49.5621005012
 10
23.6695362815
 20
49.4966996084
 10
23.6164299089
 20
49.4292503041
 10
23.5658794379
 20
49.35986168140001
 10
23.5179691498
 20
49.2886445474
 10
23.4727584738
 20
49.2156825099
 10
23.430298303
 20
49.1410647893
 10
23.3906561396
 20
49.06491309479999
 10
23.3538970101
 20
48.9873505077
 10
23.3200683521
 20
48.90846809430001
 10
23.2892089499
 20
48.8283606653
 10
23.2613655828
 20
48.74715940899999
 10
23.2365822959
 20
48.6649964692
 10
23.2148916424
 20
48.58196928199999
 10
23.1963210786
 20
48.49817643
 10
23.1808960013
 20
48.41375464479999
 10
23.168637716
 20
48.3288372375
 10
23.1595635654
 20
48.2435378857
  0
LINE
  5
1674
330
220
100
AcDbEntity
  8
0
  6
Continuous
 62
     7
100
AcDbLine
 10
86.7832801878
 20
50.3383841463
 30
0.0
 11
86.57865710839999
 21
50.3369580845
 31
0.0
  0
LINE
  5
1675
330
220
100
AcDbEntity
  8
0
  6
Continuous
 62
     7
100
AcDbLine
 10
86.57865710839999
 20
50.3369580845
 30
0.0
 11
86.37572840799998
 21
50.335881414
 31
0.0
  0
LINE
  5
1676
330
220
100
AcDbEntity
  8
0
  6
Continuous
 62
     7
100
AcDbLine
 10
86.37572840799998
 20
50.335881414
 30
0.0
 11
86.11153392629999
 21
50.3348542424
 31
0.0
  0
LINE
  5
1677
330
220
100
AcDbEntity
  8
0
  6
Continuous
 62
     7
100
AcDbLine
 10
86.11153392629999
 20
50.3348542424
 30
0.0
 11
85.7897090822
 21
50.3340740458
 31
0.0
  0
LINE
  5
1678
330
220
100
AcDbEntity
  8
0
  6
Continuous
 62
     7
100
AcDbLine
 10
30.07858912090001
 20
50.33709331669999
 30
0.0
 11
27.7860207006
 21
50.3340600063
 31
0.0
  0
LINE
  5
1679
330
220
100
AcDbEntity
  8
0
  6
Continuous
 62
     7
100
AcDbLine
 10
85.7897090822
 20
50.3340740458
 30
0.0
 11
85.40989957939999
 21
50.333658234
 31
0.0
  0
LINE
  5
167A
330
220
100
AcDbEntity
  8
0
  6
Continuous
 62
     7
100
AcDbLine
 10
27.7860207006
 20
50.3340600063
 30
0.0
 11
27.2787846916
 21
50.3336528517
 31
0.0
  0
LINE
  5
167B
330
220
100
AcDbEntity
  8
0
  6
Continuous
 62
     7
100
AcDbLine
 10
31.3174432065
 20
50.33813186439999
 30
0.0
 11
30.07858912090001
 21
50.33709331669999
 31
0.0
  0
LWPOLYLINE
  5
167C
330
220
100
AcDbEntity
  8
0
  6
Continuous
 62
     7
100
AcDbPolyline
 90
        4
 70
     0
 43
0.0
 10
78.7087839241
 20
50.3386855872
 10
78.29511597879999
 20
50.3386759548
 10
77.86872567979999
 20
50.33864348279999
 10
72.3948558888
 20
50.3376353213
  0
LINE
  5
167D
330
220
100
AcDbEntity
  8
0
  6
Continuous
 62
     7
100
AcDbLine
 10
44.6156261435
 20
50.338603755
 30
0.0
 11
40.41550125739999
 21
50.3376300833
 31
0.0
  0
LINE
  5
167E
330
220
100
AcDbEntity
  8
0
  6
Continuous
 62
     7
100
AcDbLine
 10
47.223343459
 20
50.3390150118
 30
0.0
 11
44.6156261435
 21
50.338603755
 31
0.0
  0
LINE
  5
167F
330
220
100
AcDbEntity
  8
0
  6
Continuous
 62
     7
100
AcDbLine
 10
33.1383287768
 20
50.33866882649999
 30
0.0
 11
31.3174432065
 21
50.33813186439999
 31
0.0
  0
LWPOLYLINE
  5
1680
330
220
100
AcDbEntity
  8
0
  6
Continuous
 62
     7
100
AcDbPolyline
 90
        3
 70
     0
 43
0.0
 10
40.41550125739999
 20
50.3376300833
 10
39.3013450987
 20
50.3377101067
 10
34.3795228732
 20
50.33864348279999
  0
LINE
  5
1681
330
220
100
AcDbEntity
  8
0
  6
Continuous
 62
     7
100
AcDbLine
 10
34.3795228732
 20
50.33864348279999
 30
0.0
 11
33.1383287768
 21
50.33866882649999
 31
0.0
  0
LINE
  5
1682
330
220
100
AcDbEntity
  8
0
  6
Continuous
 62
     7
100
AcDbLine
 10
50.7181345393
 20
50.3389820696
 30
0.0
 11
47.223343459
 21
50.3390150118
 31
0.0
  0
LINE
  5
1683
330
220
100
AcDbEntity
  8
0
  6
Continuous
 62
     7
100
AcDbLine
 10
56.124124293
 20
50.3384627605
 30
0.0
 11
49.99586556979999
 21
50.3390311739
 31
0.0
  0
LINE
  5
1684
330
220
100
AcDbEntity
  8
0
  6
Continuous
 62
     7
100
AcDbLine
 10
72.3948558888
 20
50.3376353213
 30
0.0
 11
71.2607920537
 21
50.3376833697
 31
0.0
  0
LINE
  5
1685
330
220
100
AcDbEntity
  8
0
  6
Continuous
 62
     7
100
AcDbLine
 10
65.6921242673
 20
50.3389364957
 30
0.0
 11
56.124124293
 21
50.3384627605
 31
0.0
  0
LINE
  5
1686
330
220
100
AcDbEntity
  8
0
  6
Continuous
 62
     7
100
AcDbLine
 10
79.498551065
 20
50.338621824
 30
0.0
 11
78.7087839241
 21
50.3386855872
 31
0.0
  0
LINE
  5
1687
330
220
100
AcDbEntity
  8
0
  6
Continuous
 62
     7
100
AcDbLine
 10
27.2787846916
 20
50.3336528517
 30
0.0
 11
26.8383489879
 21
50.333658234
 31
0.0
  0
LINE
  5
1688
330
220
100
AcDbEntity
  8
0
  6
Continuous
 62
     7
100
AcDbLine
 10
71.2607920537
 20
50.3376833697
 30
0.0
 11
70.0881262584
 21
50.3379203329
 31
0.0
  0
LINE
  5
1689
330
220
100
AcDbEntity
  8
0
  6
Continuous
 62
     7
100
AcDbLine
 10
70.0881262584
 20
50.3379203329
 30
0.0
 11
65.6921242673
 21
50.3389364957
 31
0.0
  0
LINE
  5
168A
330
220
100
AcDbEntity
  8
0
  6
Continuous
 62
     7
100
AcDbLine
 10
85.40989957939999
 20
50.333658234
 30
0.0
 11
84.96946387379999
 21
50.3336528517
 31
0.0
  0
LINE
  5
168B
330
220
100
AcDbEntity
  8
0
  6
Continuous
 62
     7
100
AcDbLine
 10
80.23877051520001
 20
50.3384358855
 30
0.0
 11
79.498551065
 21
50.338621824
 31
0.0
  0
LINE
  5
168C
330
220
100
AcDbEntity
  8
0
  6
Continuous
 62
     7
100
AcDbLine
 10
81.57479624350001
 20
50.3376761254
 30
0.0
 11
80.23877051520001
 21
50.3384358855
 31
0.0
  0
LINE
  5
168D
330
220
100
AcDbEntity
  8
0
  6
Continuous
 62
     7
100
AcDbLine
 10
84.96946387379999
 20
50.3336528517
 30
0.0
 11
84.46222786289999
 21
50.3340600063
 31
0.0
  0
LINE
  5
168E
330
220
100
AcDbEntity
  8
0
  6
Continuous
 62
     7
100
AcDbLine
 10
82.4485601109
 20
50.3367710846
 30
0.0
 11
81.57479624350001
 21
50.3376761254
 31
0.0
  0
LWPOLYLINE
  5
168F
330
220
100
AcDbEntity
  8
0
  6
Continuous
 62
     7
100
AcDbPolyline
 90
        3
 70
     0
 43
0.0
 10
84.46222786289999
 20
50.3340600063
 10
84.08319759079999
 20
50.3345202458
 10
83.8803121537
 20
50.33479701850001
  0
LWPOLYLINE
  5
1690
330
220
100
AcDbEntity
  8
0
  6
Continuous
 62
     7
100
AcDbPolyline
 90
        3
 70
     0
 43
0.0
 10
83.2131756266
 20
50.3357551542
 10
82.9697847287
 20
50.3360966408
 10
82.4485601109
 20
50.3367710846
  0
LINE
  5
1691
330
220
100
AcDbEntity
  8
0
  6
Continuous
 62
     7
100
AcDbLine
 10
26.8383489879
 20
50.333658234
 30
0.0
 11
26.4585394871
 21
50.3340740458
 31
0.0
  0
LINE
  5
1692
330
220
100
AcDbEntity
  8
0
  6
Continuous
 62
     7
100
AcDbLine
 10
83.8803121537
 20
50.33479701850001
 30
0.0
 11
83.2131756266
 21
50.3357551542
 31
0.0
  0
LINE
  5
1693
330
220
100
AcDbEntity
  8
0
  6
Continuous
 62
     7
100
AcDbLine
 10
26.4585394871
 20
50.3340740458
 30
0.0
 11
26.1367146452
 21
50.3348542425
 31
0.0
  0
LINE
  5
1694
330
220
100
AcDbEntity
  8
0
  6
Continuous
 62
     7
100
AcDbLine
 10
26.1367146452
 20
50.3348542425
 30
0.0
 11
25.8725201659
 21
50.335881414
 31
0.0
  0
LINE
  5
1695
330
220
100
AcDbEntity
  8
0
  6
Continuous
 62
     7
100
AcDbLine
 10
25.8725201659
 20
50.335881414
 30
0.0
 11
25.6164314479
 21
50.3372915216
 31
0.0
  0
LINE
  5
1696
330
220
100
AcDbEntity
  8
0
  6
Continuous
 62
     7
100
AcDbLine
 10
25.6164314479
 20
50.3372915216
 30
0.0
 11
25.4649683982
 21
50.3383841463
 31
0.0
  0
LWPOLYLINE
  5
1697
330
220
100
AcDbEntity
  8
0
  6
Continuous
 62
     7
100
AcDbPolyline
 90
       41
 70
     0
 43
0.0
 10
86.7832801878
 20
50.3383841463
 10
86.85962474490001
 20
50.3377529841
 10
86.94537244700001
 20
50.3340086612
 10
87.03094102889998
 20
50.32706026069999
 10
87.1161917344
 20
50.3169192152
 10
87.20098608769999
 20
50.3035997785
 10
87.28522223149999
 20
50.287114578
 10
87.3688001322
 20
50.2674865851
 10
87.45158479009999
 20
50.2447497671
 10
87.5334419069
 20
50.2189408384
 10
87.6142724424
 20
50.1900870766
 10
87.69398017360002
 20
50.1582235231
 10
87.7724373995
 20
50.1234056041
 10
87.84951758970001
 20
50.08569152689999
 10
87.92512752719998
 20
50.04512414979999
 10
87.99917323269999
 20
50.001750996
 10
88.07154504629998
 20
49.9556417641
 10
88.14213722629999
 20
49.9068668438
 10
88.21085433110001
 20
49.8554899273
 10
88.277597144
 20
49.8015796939
 10
88.3422834957
 20
49.7452067671
 10
88.4048373072
 20
49.68643988
 10
88.46515532739999
 20
49.62537251949999
 10
88.52313658299999
 20
49.5621005012
 10
88.57871230449999
 20
49.4966996084
 10
88.63181867700001
 20
49.4292503041
 10
88.68236914809999
 20
49.35986168140001
 10
88.7302794362
 20
49.2886445474
 10
88.77549011209998
 20
49.2156825099
 10
88.81795028299999
 20
49.1410647893
 10
88.85759244629999
 20
49.06491309479999
 10
88.8943515759
 20
48.9873505077
 10
88.9281802338
 20
48.90846809430001
 10
88.95903963610001
 20
48.8283606653
 10
88.98688300309999
 20
48.74715940899999
 10
89.01166629009999
 20
48.6649964692
 10
89.0333569436
 20
48.58196928199999
 10
89.0519275073
 20
48.49817643
 10
89.06735258469998
 20
48.41375464479999
 10
89.07961086989999
 20
48.3288372375
 10
89.08868502049999
 20
48.2435378857
  0
LWPOLYLINE
  5
1698
330
220
100
AcDbEntity
  8
0
  6
Continuous
 62
     7
100
AcDbPolyline
 90
        7
 70
     0
 43
0.0
 10
71.9091514939
 20
24.3795355891
 10
71.9084193682
 20
24.389209287
 10
71.90788869569999
 20
24.398981123
 10
71.90756160779999
 20
24.4088581789
 10
71.9074413627
 20
24.4187974309
 10
71.9075280826
 20
24.4287551706
 10
71.9078207638
 20
24.4387376308
  0
LWPOLYLINE
  5
1699
330
220
100
AcDbEntity
  8
0
  6
Continuous
 62
     7
100
AcDbPolyline
 90
        9
 70
     0
 43
0.0
 10
70.8730836075
 20
28.4836896488
 10
71.08324362649999
 20
28.5958411648
 10
71.3011362535
 20
28.7154441496
 10
71.5260004866
 20
28.8420714936
 10
71.7582621116
 20
28.975965278
 10
71.998437168
 20
29.1174661445
 10
72.24583814369999
 20
29.2662191368
 10
72.50004844020001
 20
29.4220163397
 10
72.76059701609999
 20
29.5846162867
  0
LINE
  5
169A
330
220
100
AcDbEntity
  8
0
  6
Continuous
 62
     7
100
AcDbLine
 10
70.08927234659999
 20
28.3989683982
 30
0.0
 11
69.96505944509999
 21
28.3384651481
 31
0.0
  0
LINE
  5
169B
330
220
100
AcDbEntity
  8
0
  6
Continuous
 62
     7
100
AcDbLine
 10
70.3366386208
 20
28.3889100991
 30
0.0
 11
70.2160913701
 21
28.3384651481
 31
0.0
  0
LWPOLYLINE
  5
169C
330
220
100
AcDbEntity
  8
0
  6
Continuous
 62
     7
100
AcDbPolyline
 90
        7
 70
     0
 43
0.0
 10
73.0944929081
 20
29.7814912021
 10
73.102290302
 20
29.7845665253
 10
73.16009018629999
 20
29.8046113021
 10
73.217241513
 20
29.8197813346
 10
73.2735522247
 20
29.8303213772
 10
73.3288007802
 20
29.8364681522
 10
73.382843061
 20
29.8384651481
  0
LWPOLYLINE
  5
169D
330
220
100
AcDbEntity
  8
0
  6
Continuous
 62
     7
100
AcDbPolyline
 90
        4
 70
     0
 43
0.0
 10
70.6803635844
 20
28.4043686884
 10
70.7293111194
 20
28.4207372146
 10
70.8033696252
 20
28.4501614393
 10
70.8730836075
 20
28.4836896488
  0
LINE
  5
169E
330
220
100
AcDbEntity
  8
0
  6
Continuous
 62
     7
100
AcDbLine
 10
74.96856564959999
 20
28.3973974114
 30
0.0
 11
74.97341659709999
 21
28.3989683982
 31
0.0
  0
LWPOLYLINE
  5
169F
330
220
100
AcDbEntity
  8
0
  6
Continuous
 62
     7
100
AcDbPolyline
 90
        7
 70
     0
 43
0.0
 10
71.9078207638
 20
24.4387376308
 10
71.91145235749999
 20
24.4958776754
 10
71.91802025920001
 20
24.5574219261
 10
71.9275416632
 20
24.6232491197
 10
71.9400593654
 20
24.6934403895
 10
71.95564187869999
 20
24.7681078205
 10
71.9743156609
 20
24.8471312808
  0
LWPOLYLINE
  5
16A0
330
220
100
AcDbEntity
  8
0
  6
Continuous
 62
     7
100
AcDbPolyline
 90
        4
 70
     0
 43
0.0
 10
73.67296419209999
 20
25.9606469888
 10
73.67152616130001
 20
25.9470335422
 10
73.66903541720001
 20
25.9367838825
 10
73.6672101515
 20
25.93275862920001
  0
LWPOLYLINE
  5
16A1
330
220
100
AcDbEntity
  8
0
  6
Continuous
 62
     7
100
AcDbPolyline
 90
       14
 70
     0
 43
0.0
 10
71.9743156609
 20
24.8471312808
 10
71.9921459084
 20
24.9352198466
 10
72.0025918356
 20
25.0242571555
 10
72.0061122787
 20
25.1123248092
 10
72.0035026719
 20
25.1971422812
 10
71.9957942482
 20
25.2775080715
 10
71.98343637810001
 20
25.3561176547
 10
71.96651715649998
 20
25.4328654697
 10
71.9441849819
 20
25.5110269514
 10
71.91606676560001
 20
25.5910877228
 10
71.8823098944
 20
25.6709980941
 10
71.84220148909999
 20
25.750444856
 10
71.7960793565
 20
25.8276907487
 10
71.7445760121
 20
25.9014037848
  0
LWPOLYLINE
  5
16A2
330
220
100
AcDbEntity
  8
0
  6
Continuous
 62
     7
100
AcDbPolyline
 90
       18
 70
     0
 43
0.0
 10
71.67812290249999
 20
28.9933520623
 10
71.59891743580001
 20
28.938329532
 10
71.5430494313
 20
28.9022694178
 10
71.4883771824
 20
28.8694403196
 10
71.4322491225
 20
28.8382095877
 10
71.37259456879999
 20
28.80748495
 10
71.30877794559999
 20
28.777363488
 10
71.2391468672
 20
28.7475207244
 10
71.16478476330001
 20
28.7189202779
 10
71.0853995858
 20
28.6919680341
 10
71.00333470859999
 20
28.6677019573
 10
70.92028375249999
 20
28.6467521673
 10
70.83755255689999
 20
28.6292736499
 10
70.7567970242
 20
28.6153627554
 10
70.67844510589999
 20
28.6047242035
 10
70.60354629159999
 20
28.5970987729
 10
70.53197240109999
 20
28.592079866
 10
70.4640506758
 20
28.5893148417
  0
LWPOLYLINE
  5
16A3
330
220
100
AcDbEntity
  8
0
  6
Continuous
 62
     7
100
AcDbPolyline
 90
        6
 70
     0
 43
0.0
 10
72.76059701609999
 20
29.5846162867
 10
72.7875800652
 20
29.6016919783
 10
72.8149443983
 20
29.6191872929
 10
72.8426624643
 20
29.63708668780001
 10
72.87073835370001
 20
29.6553951643
 10
72.927947231
 20
29.6932406473
  0
LWPOLYLINE
  5
16A4
330
220
100
AcDbEntity
  8
0
  6
Continuous
 62
     7
100
AcDbPolyline
 90
        4
 70
     0
 43
0.0
 10
72.927947231
 20
29.6932406473
 10
72.98597222969999
 20
29.7290794899
 10
73.0441425346
 20
29.7594438518
 10
73.0944929081
 20
29.7814912021
  0
LINE
  5
16A5
330
220
100
AcDbEntity
  8
0
  6
Continuous
 62
     7
100
AcDbLine
 10
73.5961452426
 20
25.7587695165
 30
0.0
 11
73.6039471974
 21
25.7907126167
 31
0.0
  0
LWPOLYLINE
  5
16A6
330
220
100
AcDbEntity
  8
0
  6
Continuous
 62
     7
100
AcDbPolyline
 90
        8
 70
     0
 43
0.0
 10
73.6027722552
 20
25.7859021174
 10
73.60336670949999
 20
25.7880019335
 10
73.6106347351
 20
25.8104375334
 10
73.61958758750001
 20
25.8348007163
 10
73.6303163262
 20
25.8606759886
 10
73.6429700127
 20
25.8878272791
 10
73.65771043489999
 20
25.9160661931
 10
73.66709254369999
 20
25.9325554519
  0
LWPOLYLINE
  5
16A7
330
220
100
AcDbEntity
  8
0
  6
Continuous
 62
     7
100
AcDbPolyline
 90
        4
 70
     0
 43
0.0
 10
73.67296419209999
 20
25.9606469888
 10
73.64263828930001
 20
25.8980103215
 10
73.61692121469999
 20
25.8317653531
 10
73.6039471974
 20
25.7907126167
  0
LWPOLYLINE
  5
16A8
330
220
100
AcDbEntity
  8
0
  6
Continuous
 62
     7
100
AcDbPolyline
 90
       14
 70
     0
 43
0.0
 10
74.4677856879
 20
23.3279463575
 10
74.47377034670001
 20
23.3472047271
 10
74.49073466859999
 20
23.414130742
 10
74.50224939449999
 20
23.4807019082
 10
74.50837376439999
 20
23.5448510346
 10
74.50958265619999
 20
23.6070219355
 10
74.5064468155
 20
23.6654682671
 10
74.4996962371
 20
23.7202231496
 10
74.4899061128
 20
23.7717150251
 10
74.47759551219999
 20
23.8197895619
 10
74.4631601305
 20
23.8645895426
 10
74.4467539132
 20
23.9067832574
 10
74.4283928529
 20
23.9470325633
 10
74.413690909
 20
23.9755741027
  0
LWPOLYLINE
  5
16A9
330
220
100
AcDbEntity
  8
0
  6
Continuous
 62
     7
100
AcDbPolyline
 90
        7
 70
     0
 43
0.0
 10
74.1384044608
 20
22.8682144744
 10
74.136141722
 20
22.8634062769
 10
74.13350775419999
 20
22.8587208743
 10
74.1305109239
 20
22.854163443
 10
74.12715676020001
 20
22.8497350996
 10
74.123449749
 20
22.8454370893
 10
74.1193970612
 20
22.8412744124
  0
LWPOLYLINE
  5
16AA
330
220
100
AcDbEntity
  8
0
  6
Continuous
 62
     7
100
AcDbPolyline
 90
        3
 70
     0
 43
0.0
 10
74.9382622789
 20
27.9240962397
 10
75.01863642100001
 20
28.0910096793
 10
75.126623216
 20
28.3384651481
  0
LWPOLYLINE
  5
16AB
330
220
100
AcDbEntity
  8
0
  6
Continuous
 62
     7
100
AcDbPolyline
 90
        7
 70
     0
 43
0.0
 10
74.7226780749
 20
27.5085921681
 10
74.7487921379
 20
27.5572498092
 10
74.78626002119999
 20
27.6279000092
 10
74.824505707
 20
27.7010015742
 10
74.86395186660001
 20
27.7774098635
 10
74.90496827130001
 20
27.8579316375
 10
74.9382622789
 20
27.9240962397
  0
LWPOLYLINE
  5
16AC
330
220
100
AcDbEntity
  8
0
  6
Continuous
 62
     7
100
AcDbPolyline
 90
        7
 70
     0
 43
0.0
 10
73.66709254369999
 20
25.9325554519
 10
73.69069515390001
 20
25.9732082007
 10
73.72362312619999
 20
26.0278131089
 10
73.7587897315
 20
26.0838027853
 10
73.795639893
 20
26.1402587607
 10
73.8335429934
 20
26.1962626722
 10
73.86390851189999
 20
26.2398109485
  0
LWPOLYLINE
  5
16AD
330
220
100
AcDbEntity
  8
0
  6
Continuous
 62
     7
100
AcDbPolyline
 90
        7
 70
     0
 43
0.0
 10
74.3057201865
 20
26.8393027176
 10
74.37491618600001
 20
26.93660465320001
 10
74.4489423192
 20
27.046592224
 10
74.51895845260001
 20
27.1566132066
 10
74.5851243715
 20
27.2658903997
 10
74.64758913050001
 20
27.3735228979
 10
74.6925242115
 20
27.4534788986
  0
LWPOLYLINE
  5
16AE
330
220
100
AcDbEntity
  8
0
  6
Continuous
 62
     7
100
AcDbPolyline
 90
        7
 70
     0
 43
0.0
 10
73.8639049927
 20
26.2398060245
 10
73.92026824760001
 20
26.3186515196
 10
73.99104236470001
 20
26.41540802530001
 10
74.06690666580001
 20
26.517539292
 10
74.1466778799
 20
26.6243319958
 10
74.22939743409999
 20
26.7355175925
 10
74.3057616943
 20
26.8393596631
  0
LINE
  5
16AF
330
220
100
AcDbEntity
  8
0
  6
Continuous
 62
     7
100
AcDbLine
 10
73.9255527281
 20
22.6737190617
 30
0.0
 11
73.9255371501
 21
22.6737012945
 31
0.0
  0
LWPOLYLINE
  5
16B0
330
220
100
AcDbEntity
  8
0
  6
Continuous
 62
     7
100
AcDbPolyline
 90
        5
 70
     0
 43
0.0
 10
73.9255138021
 20
22.6736745532
 10
73.93609815100001
 20
22.685471613
 10
73.94845093739999
 20
22.6985446328
 10
73.96125596
 20
22.7113682594
 10
73.97473932189999
 20
22.7241639158
  0
LINE
  5
16B1
330
220
100
AcDbEntity
  8
0
  6
Continuous
 62
     7
100
AcDbLine
 10
73.97473932189999
 20
22.7241639158
 30
0.0
 11
73.9868700321
 21
22.7351480442
 31
0.0
  0
LINE
  5
16B2
330
220
100
AcDbEntity
  8
0
  6
Continuous
 62
     7
100
AcDbLine
 10
73.99345220949999
 20
22.7409849229
 30
0.0
 11
73.99168696380001
 21
22.7393963065
 31
0.0
  0
LINE
  5
16B3
330
220
100
AcDbEntity
  8
0
  6
Continuous
 62
     7
100
AcDbLine
 10
73.99345220949999
 20
22.7409849229
 30
0.0
 11
73.9916639003
 21
22.7393761181
 31
0.0
  0
LINE
  5
16B4
330
220
100
AcDbEntity
  8
0
  6
Continuous
 62
     7
100
AcDbLine
 10
73.9868700321
 20
22.7351480442
 30
0.0
 11
73.9916639003
 21
22.7393761181
 31
0.0
  0
LINE
  5
16B5
330
220
100
AcDbEntity
  8
0
  6
Continuous
 62
     7
100
AcDbLine
 10
73.99168696380001
 20
22.7393963065
 30
0.0
 11
73.9916639003
 21
22.7393761181
 31
0.0
  0
LINE
  5
16B6
330
220
100
AcDbEntity
  8
0
  6
Continuous
 62
     7
100
AcDbLine
 10
73.99168696380001
 20
22.7393963065
 30
0.0
 11
74.00321718419999
 21
22.7493233903
 31
0.0
  0
LWPOLYLINE
  5
16B7
330
220
100
AcDbEntity
  8
0
  6
Continuous
 62
     7
100
AcDbPolyline
 90
        9
 70
     0
 43
0.0
 10
74.1193970612
 20
22.8412744124
 10
74.18737198879999
 20
22.89888287010001
 10
74.2488517456
 20
22.9600112354
 10
74.3019611909
 20
23.0219148121
 10
74.34911328190001
 20
23.0860390383
 10
74.3912166522
 20
23.1537995395
 10
74.42682333899999
 20
23.2234765246
 10
74.45624278210001
 20
23.2945818842
 10
74.4677856879
 20
23.3279463575
  0
LINE
  5
16B8
330
220
100
AcDbEntity
  8
0
  6
Continuous
 62
     7
100
AcDbLine
 10
74.00321718419999
 20
22.7493233903
 30
0.0
 11
74.01671605549999
 21
22.7605826982
 31
0.0
  0
LWPOLYLINE
  5
16B9
330
220
100
AcDbEntity
  8
0
  6
Continuous
 62
     7
100
AcDbPolyline
 90
        3
 70
     0
 43
0.0
 10
74.01671605549999
 20
22.7605826982
 10
74.0299269053
 20
22.7713073814
 10
74.0435206415
 20
22.7821131949
  0
LINE
  5
16BA
330
220
100
AcDbEntity
  8
0
  6
Continuous
 62
     7
100
AcDbLine
 10
74.0435206415
 20
22.7821131949
 30
0.0
 11
74.1193970612
 21
22.8412744124
 31
0.0
  0
LINE
  5
16BB
330
220
100
AcDbEntity
  8
0
  6
Continuous
 62
     7
100
AcDbLine
 10
86.11658033579999
 20
43.27263412079999
 30
0.0
 11
86.1140781948
 21
43.266333873
 31
0.0
  0
LWPOLYLINE
  5
16BC
330
220
100
AcDbEntity
  8
0
  6
Continuous
 62
     7
100
AcDbPolyline
 90
        7
 70
     0
 43
0.0
 10
88.0988031286
 20
47.78604293709999
 10
87.7461522926
 20
47.04390404419999
 10
87.4023365538
 20
46.2975565141
 10
87.0673930915
 20
45.5470790281
 10
86.7414065974
 20
44.7926584506
 10
86.4244579036
 20
44.034483349
 10
86.11658033579999
 20
43.27263412079999
  0
LWPOLYLINE
  5
16BD
330
220
100
AcDbEntity
  8
0
  6
Continuous
 62
     7
100
AcDbPolyline
 90
       17
 70
     0
 43
0.0
 10
82.5010874904
 20
30.91697341070001
 10
82.65879186680001
 20
31.7067798993
 10
82.82569751809999
 20
32.4946682059
 10
83.00178065850001
 20
33.2805228774
 10
83.18702446379999
 20
34.0642603544
 10
83.38140877909999
 20
34.8457978284
 10
83.58490317679999
 20
35.625021508
 10
83.79748024100001
 20
36.4018299671
 10
84.0191075821
 20
37.1761040019
 10
84.2497512897
 20
37.9477216285
 10
84.48938597680001
 20
38.7165904757
 10
84.73798149030001
 20
39.4826117545
 10
84.9955034959
 20
40.2456873821
 10
85.2619230464
 20
41.00573456929999
 10
85.53718981640001
 20
41.7626098327
 10
85.82125269
 20
42.51617314079999
 10
86.1140781948
 20
43.266333873
  0
LINE
  5
16BE
330
220
100
AcDbEntity
  8
0
  6
Continuous
 62
     7
100
AcDbLine
 10
89.08868502049999
 20
48.2435378857
 30
0.0
 11
89.12412429299999
 21
47.8384651481
 31
0.0
  0
ARC
  5
1AD0
330
220
100
AcDbEntity
  8
DEFAULT_2
  6
HIDDEN
 62
     7
100
AcDbCircle
 10
84.74912429300001
 20
49.27596514810001
 30
0.0
 40
0.5
100
AcDbArc
 50
266.7449723050999
 51
337.4552328933
  0
ARC
  5
1AD1
330
220
100
AcDbEntity
  8
DEFAULT_2
  6
HIDDEN
 62
     7
100
AcDbCircle
 10
27.499124293
 20
49.27596514810001
 30
0.0
 40
0.5
100
AcDbArc
 50
202.5447671067
 51
273.2550276949
  0
ARC
  5
1AD4
330
220
100
AcDbEntity
  8
DEFAULT_2
  6
HIDDEN
 62
     7
100
AcDbCircle
 10
57.39557090239999
 20
29.5884651481
 30
0.0
 40
0.25
100
AcDbArc
 50
270.0
 51
315.0
  0
ARC
  5
1AD5
330
220
100
AcDbEntity
  8
DEFAULT_2
  6
HIDDEN
 62
     7
100
AcDbCircle
 10
54.85267768359999
 20
29.5884651481
 30
0.0
 40
0.25
100
AcDbArc
 50
225.0
 51
270.0
  0
ARC
  5
1AD8
330
220
100
AcDbEntity
  8
DEFAULT_2
  6
HIDDEN
 62
     7
100
AcDbCircle
 10
85.3552238312
 20
49.02435549959999
 30
0.0
 40
0.1562500003
100
AcDbArc
 50
93.00603939709999
 51
157.4552318949
  0
ARC
  5
1AD9
330
220
100
AcDbEntity
  8
DEFAULT_2
  6
HIDDEN
 62
     7
100
AcDbCircle
 10
84.7118621635
 20
48.6207738837
 30
0.0
 40
0.1562500003
100
AcDbArc
 50
86.74497421759999
 51
155.0000034215
  0
ARC
  5
1ADA
330
220
100
AcDbEntity
  8
DEFAULT_2
  6
HIDDEN
 62
     7
100
AcDbCircle
 10
27.5363864225
 20
48.6207738837
 30
0.0
 40
0.1562500003
100
AcDbArc
 50
24.9999965785
 51
93.2550257824
  0
ARC
  5
1ADB
330
220
100
AcDbEntity
  8
DEFAULT_2
  6
HIDDEN
 62
     7
100
AcDbCircle
 10
26.8930247548
 20
49.02435549959999
 30
0.0
 40
0.1562500003
100
AcDbArc
 50
22.5447681051
 51
86.9939606029
  0
ARC
  5
1AE0
330
220
100
AcDbEntity
  8
0
  6
Continuous
 62
     7
100
AcDbCircle
 10
79.67850502320001
 20
31.4634651481
 30
0.0
 40
2.875
100
AcDbArc
 50
270.0000000109
 51
349.0423088067
  0
ARC
  5
1AE1
330
220
100
AcDbEntity
  8
0
  6
Continuous
 62
     7
100
AcDbCircle
 10
32.5697435628
 20
31.4634651481
 30
0.0
 40
2.875
100
AcDbArc
 50
190.9576911933
 51
269.9999999891
  0
ARC
  5
1AE2
330
220
100
AcDbEntity
  8
0
  6
Continuous
 62
     7
100
AcDbCircle
 10
55.061624293
 20
27.0884651481
 30
0.0
 40
2.0
100
AcDbArc
 50
0.0
 51
65.2152610472
  0
ARC
  5
1AE3
330
220
100
AcDbEntity
  8
0
  6
Continuous
 62
     7
100
AcDbCircle
 10
56.124124293
 20
27.8009651481
 30
0.0
 40
1.125
100
AcDbArc
 50
55.130384801
 51
124.8696194343
  0
ARC
  5
1AE4
330
220
100
AcDbEntity
  8
0
  6
Continuous
 62
     7
100
AcDbCircle
 10
73.7375136086
 20
22.8384651481
 30
0.0
 40
0.25
100
AcDbArc
 50
270.0000000019
 51
318.7774240944
  0
ARC
  5
1AE5
330
220
100
AcDbEntity
  8
0
  6
Continuous
 62
     7
100
AcDbCircle
 10
38.51073497650001
 20
22.8384651481
 30
0.0
 40
0.25
100
AcDbArc
 50
221.2225754573
 51
269.9999999999
  0
ARC
  5
1AE6
330
220
100
AcDbEntity
  8
0
  6
Continuous
 62
     7
100
AcDbCircle
 10
55.061624293
 20
27.0884651481
 30
0.0
 40
0.125
100
AcDbArc
 50
0.0
 51
90.0
  0
ENDSEC
  0
SECTION
  2
OBJECTS
  0
DICTIONARY
  5
C
330
0
100
AcDbDictionary
281
     1
  3
ACAD_COLOR
350
1B26
  3
ACAD_GROUP
350
D
  3
ACAD_LAYOUT
350
1A
  3
ACAD_MATERIAL
350
1AF9
  3
ACAD_MLEADERSTYLE
350
1B4B
  3
ACAD_MLINESTYLE
350
17
  3
ACAD_PLOTSETTINGS
350
19
  3
ACAD_PLOTSTYLENAME
350
E
  3
ACAD_SCALELIST
350
1B29
  3
ACAD_TABLESTYLE
350
1B27
  3
ACAD_VISUALSTYLE
350
1B12
  3
ACDB_RECOMPOSE_DATA
350
1B51
  3
AcDbVariableDictionary
350
1B83
  3
DWGPROPS
350
1BEC
  0
DICTIONARY
  5
1B52
330
8
100
AcDbDictionary
280
     1
281
     1
  0
DICTIONARY
  5
1B97
330
10
100
AcDbDictionary
280
     1
281
     1
  3
ADSK_XREC_LAYER_RECONCILED
360
1B98
  0
DICTIONARY
  5
1B99
330
1FA
100
AcDbDictionary
280
     1
281
     1
  3
ADSK_XREC_LAYER_RECONCILED
360
1B9A
  0
DICTIONARY
  5
1B9B
330
1FB
100
AcDbDictionary
280
     1
281
     1
  3
ADSK_XREC_LAYER_RECONCILED
360
1B9C
  0
DICTIONARY
  5
1B9D
330
1FC
100
AcDbDictionary
280
     1
281
     1
  3
ADSK_XREC_LAYER_RECONCILED
360
1B9E
  0
DICTIONARY
  5
1B9F
330
1FD
100
AcDbDictionary
280
     1
281
     1
  3
ADSK_XREC_LAYER_RECONCILED
360
1BA0
  0
DICTIONARY
  5
1BA1
330
1FE
100
AcDbDictionary
280
     1
281
     1
  3
ADSK_XREC_LAYER_RECONCILED
360
1BA2
  0
DICTIONARY
  5
1BA3
330
1FF
100
AcDbDictionary
280
     1
281
     1
  3
ADSK_XREC_LAYER_RECONCILED
360
1BA4
  0
DICTIONARY
  5
1BA5
330
200
100
AcDbDictionary
280
     1
281
     1
  3
ADSK_XREC_LAYER_RECONCILED
360
1BA6
  0
DICTIONARY
  5
1BA7
330
201
100
AcDbDictionary
280
     1
281
     1
  3
ADSK_XREC_LAYER_RECONCILED
360
1BA8
  0
DICTIONARY
  5
1BA9
330
202
100
AcDbDictionary
280
     1
281
     1
  3
ADSK_XREC_LAYER_RECONCILED
360
1BAA
  0
DICTIONARY
  5
1BAB
330
203
100
AcDbDictionary
280
     1
281
     1
  3
ADSK_XREC_LAYER_RECONCILED
360
1BAC
  0
DICTIONARY
  5
1BAD
330
204
100
AcDbDictionary
280
     1
281
     1
  3
ADSK_XREC_LAYER_RECONCILED
360
1BAE
  0
DICTIONARY
  5
1BAF
330
205
100
AcDbDictionary
280
     1
281
     1
  3
ADSK_XREC_LAYER_RECONCILED
360
1BB0
  0
DICTIONARY
  5
1BB1
330
206
100
AcDbDictionary
280
     1
281
     1
  3
ADSK_XREC_LAYER_RECONCILED
360
1BB2
  0
DICTIONARY
  5
1BB3
330
207
100
AcDbDictionary
280
     1
281
     1
  3
ADSK_XREC_LAYER_RECONCILED
360
1BB4
  0
DICTIONARY
  5
1BB5
330
208
100
AcDbDictionary
280
     1
281
     1
  3
ADSK_XREC_LAYER_RECONCILED
360
1BB6
  0
DICTIONARY
  5
1BB7
330
209
100
AcDbDictionary
280
     1
281
     1
  3
ADSK_XREC_LAYER_RECONCILED
360
1BB8
  0
DICTIONARY
  5
1BB9
330
20A
100
AcDbDictionary
280
     1
281
     1
  3
ADSK_XREC_LAYER_RECONCILED
360
1BBA
  0
DICTIONARY
  5
1BBB
330
20B
100
AcDbDictionary
280
     1
281
     1
  3
ADSK_XREC_LAYER_RECONCILED
360
1BBC
  0
DICTIONARY
  5
1BBD
330
20C
100
AcDbDictionary
280
     1
281
     1
  3
ADSK_XREC_LAYER_RECONCILED
360
1BBE
  0
DICTIONARY
  5
1BBF
330
20D
100
AcDbDictionary
280
     1
281
     1
  3
ADSK_XREC_LAYER_RECONCILED
360
1BC0
  0
DICTIONARY
  5
1BC1
330
20E
100
AcDbDictionary
280
     1
281
     1
  3
ADSK_XREC_LAYER_RECONCILED
360
1BC2
  0
DICTIONARY
  5
1BC3
330
20F
100
AcDbDictionary
280
     1
281
     1
  3
ADSK_XREC_LAYER_RECONCILED
360
1BC4
  0
DICTIONARY
  5
1BC5
330
210
100
AcDbDictionary
280
     1
281
     1
  3
ADSK_XREC_LAYER_RECONCILED
360
1BC6
  0
DICTIONARY
  5
1BC7
330
211
100
AcDbDictionary
280
     1
281
     1
  3
ADSK_XREC_LAYER_RECONCILED
360
1BC8
  0
DICTIONARY
  5
1BC9
330
212
100
AcDbDictionary
280
     1
281
     1
  3
ADSK_XREC_LAYER_RECONCILED
360
1BCA
  0
DICTIONARY
  5
1BCB
330
213
100
AcDbDictionary
280
     1
281
     1
  3
ADSK_XREC_LAYER_RECONCILED
360
1BCC
  0
DICTIONARY
  5
1BCD
330
214
100
AcDbDictionary
280
     1
281
     1
  3
ADSK_XREC_LAYER_RECONCILED
360
1BCE
  0
DICTIONARY
  5
1BCF
330
215
100
AcDbDictionary
280
     1
281
     1
  3
ADSK_XREC_LAYER_RECONCILED
360
1BD0
  0
DICTIONARY
  5
1BD1
330
216
100
AcDbDictionary
280
     1
281
     1
  3
ADSK_XREC_LAYER_RECONCILED
360
1BD2
  0
DICTIONARY
  5
1BD3
330
217
100
AcDbDictionary
280
     1
281
     1
  3
ADSK_XREC_LAYER_RECONCILED
360
1BD4
  0
DICTIONARY
  5
1B26
102
{ACAD_REACTORS
330
C
102
}
330
C
100
AcDbDictionary
281
     1
  0
DICTIONARY
  5
D
102
{ACAD_REACTORS
330
C
102
}
330
C
100
AcDbDictionary
281
     1
  0
DICTIONARY
  5
1A
102
{ACAD_REACTORS
330
C
102
}
330
C
100
AcDbDictionary
281
     1
  3
Layout1
350
1AF5
  3
Model
350
1AF4
  0
DICTIONARY
  5
1AF9
102
{ACAD_REACTORS
330
C
102
}
330
C
100
AcDbDictionary
281
     1
  3
ByBlock
350
1B02
  3
ByLayer
350
1AFA
  3
Global
350
1B0A
  0
DICTIONARY
  5
1B4B
102
{ACAD_REACTORS
330
C
102
}
330
C
100
AcDbDictionary
281
     1
  3
Standard
350
1B4C
  0
DICTIONARY
  5
17
102
{ACAD_REACTORS
330
C
102
}
330
C
100
AcDbDictionary
281
     1
  3
Standard
350
18
  0
DICTIONARY
  5
19
102
{ACAD_REACTORS
330
C
102
}
330
C
100
AcDbDictionary
281
     1
  0
ACDBDICTIONARYWDFLT
  5
E
102
{ACAD_REACTORS
330
C
102
}
330
C
100
AcDbDictionary
281
     1
  3
Normal
350
F
100
AcDbDictionaryWithDefault
340
F
  0
DICTIONARY
  5
1B29
102
{ACAD_REACTORS
330
C
102
}
330
C
100
AcDbDictionary
281
     1
  3
A0
350
1B2A
  3
A1
350
1B2B
  3
A2
350
1B2C
  3
A3
350
1B2D
  3
A4
350
1B2E
  3
A5
350
1B2F
  3
A6
350
1B30
  3
A7
350
1B31
  3
A8
350
1B32
  3
A9
350
1B33
  3
B0
350
1B34
  3
B1
350
1B35
  3
B2
350
1B36
  3
B3
350
1B37
  3
B4
350
1B38
  3
B5
350
1B39
  3
B6
350
1B3A
  3
B7
350
1B3B
  3
B8
350
1B3C
  3
B9
350
1B3D
  3
C0
350
1B3E
  3
C1
350
1B3F
  3
C2
350
1B40
  3
C3
350
1B41
  3
C4
350
1B42
  3
C5
350
1B43
  3
C6
350
1B44
  3
C7
350
1B45
  3
C8
350
1B46
  3
C9
350
1B47
  3
D0
350
1B48
  3
D1
350
1B49
  3
D2
350
1B4A
  0
DICTIONARY
  5
1B27
102
{ACAD_REACTORS
330
C
102
}
330
C
100
AcDbDictionary
281
     1
  3
Standard
350
1B28
  0
DICTIONARY
  5
1B12
102
{ACAD_REACTORS
330
C
102
}
330
C
100
AcDbDictionary
281
     1
  3
2dWireframe
350
1B18
  3
3D Hidden
350
1B1A
  3
3dWireframe
350
1B19
  3
Basic
350
1B17
  3
Brighten
350
1B1E
  3
ColorChange
350
1B22
  3
Conceptual
350
1B1B
  3
Dim
350
1B1D
  3
EdgeColorOff
350
1B25
  3
Facepattern
350
1B21
  3
Flat
350
1B13
  3
FlatWithEdges
350
1B14
  3
Gouraud
350
1B15
  3
GouraudWithEdges
350
1B16
  3
JitterOff
350
1B23
  3
Linepattern
350
1B20
  3
OverhangOff
350
1B24
  3
Realistic
350
1B1C
  3
Thicken
350
1B1F
  0
XRECORD
  5
1B51
102
{ACAD_REACTORS
330
C
102
}
330
C
100
AcDbXrecord
280
     1
 90
        1
330
1B28
  0
DICTIONARY
  5
1B83
102
{ACAD_REACTORS
330
C
102
}
330
C
100
AcDbDictionary
281
     1
  3
CANNOSCALE
350
1B86
  3
CMLEADERSTYLE
350
1B85
  3
CTABLESTYLE
350
1B84
  3
DIMASSOC
350
1B89
  3
INDEXCTL
350
1B88
  3
LAYEREVAL
350
1BD8
  3
LAYERNOTIFY
350
1BD9
  3
LIGHTINGUNITS
350
1BD7
  3
MSLTSCALE
350
1BD6
  3
SORTENTS
350
1B87
  3
XCLIPFRAME
350
1B8A
  0
XRECORD
  5
1BEC
102
{ACAD_REACTORS
330
C
102
}
330
C
100
AcDbXrecord
280
     1
  1
DWGPROPS COOKIE
  2

  3

  4

  6

  7

  8
francoisbu
  9

300
=
301
=
302
=
303
=
304
=
305
=
306
=
307
=
308
=
309
=
 40
0.0127682523148148
 41
2456087.40924669
 42
2456087.436627523
  1

 90
        0
  0
XRECORD
  5
1B98
102
{ACAD_REACTORS
330
1B97
102
}
330
1B97
100
AcDbXrecord
280
     1
290
     1
  0
XRECORD
  5
1B9A
102
{ACAD_REACTORS
330
1B99
102
}
330
1B99
100
AcDbXrecord
280
     1
290
     1
  0
XRECORD
  5
1B9C
102
{ACAD_REACTORS
330
1B9B
102
}
330
1B9B
100
AcDbXrecord
280
     1
290
     1
  0
XRECORD
  5
1B9E
102
{ACAD_REACTORS
330
1B9D
102
}
330
1B9D
100
AcDbXrecord
280
     1
290
     1
  0
XRECORD
  5
1BA0
102
{ACAD_REACTORS
330
1B9F
102
}
330
1B9F
100
AcDbXrecord
280
     1
290
     1
  0
XRECORD
  5
1BA2
102
{ACAD_REACTORS
330
1BA1
102
}
330
1BA1
100
AcDbXrecord
280
     1
290
     1
  0
XRECORD
  5
1BA4
102
{ACAD_REACTORS
330
1BA3
102
}
330
1BA3
100
AcDbXrecord
280
     1
290
     1
  0
XRECORD
  5
1BA6
102
{ACAD_REACTORS
330
1BA5
102
}
330
1BA5
100
AcDbXrecord
280
     1
290
     1
  0
XRECORD
  5
1BA8
102
{ACAD_REACTORS
330
1BA7
102
}
330
1BA7
100
AcDbXrecord
280
     1
290
     1
  0
XRECORD
  5
1BAA
102
{ACAD_REACTORS
330
1BA9
102
}
330
1BA9
100
AcDbXrecord
280
     1
290
     1
  0
XRECORD
  5
1BAC
102
{ACAD_REACTORS
330
1BAB
102
}
330
1BAB
100
AcDbXrecord
280
     1
290
     1
  0
XRECORD
  5
1BAE
102
{ACAD_REACTORS
330
1BAD
102
}
330
1BAD
100
AcDbXrecord
280
     1
290
     1
  0
XRECORD
  5
1BB0
102
{ACAD_REACTORS
330
1BAF
102
}
330
1BAF
100
AcDbXrecord
280
     1
290
     1
  0
XRECORD
  5
1BB2
102
{ACAD_REACTORS
330
1BB1
102
}
330
1BB1
100
AcDbXrecord
280
     1
290
     1
  0
XRECORD
  5
1BB4
102
{ACAD_REACTORS
330
1BB3
102
}
330
1BB3
100
AcDbXrecord
280
     1
290
     1
  0
XRECORD
  5
1BB6
102
{ACAD_REACTORS
330
1BB5
102
}
330
1BB5
100
AcDbXrecord
280
     1
290
     1
  0
XRECORD
  5
1BB8
102
{ACAD_REACTORS
330
1BB7
102
}
330
1BB7
100
AcDbXrecord
280
     1
290
     1
  0
XRECORD
  5
1BBA
102
{ACAD_REACTORS
330
1BB9
102
}
330
1BB9
100
AcDbXrecord
280
     1
290
     1
  0
XRECORD
  5
1BBC
102
{ACAD_REACTORS
330
1BBB
102
}
330
1BBB
100
AcDbXrecord
280
     1
290
     1
  0
XRECORD
  5
1BBE
102
{ACAD_REACTORS
330
1BBD
102
}
330
1BBD
100
AcDbXrecord
280
     1
290
     1
  0
XRECORD
  5
1BC0
102
{ACAD_REACTORS
330
1BBF
102
}
330
1BBF
100
AcDbXrecord
280
     1
290
     1
  0
XRECORD
  5
1BC2
102
{ACAD_REACTORS
330
1BC1
102
}
330
1BC1
100
AcDbXrecord
280
     1
290
     1
  0
XRECORD
  5
1BC4
102
{ACAD_REACTORS
330
1BC3
102
}
330
1BC3
100
AcDbXrecord
280
     1
290
     1
  0
XRECORD
  5
1BC6
102
{ACAD_REACTORS
330
1BC5
102
}
330
1BC5
100
AcDbXrecord
280
     1
290
     1
  0
XRECORD
  5
1BC8
102
{ACAD_REACTORS
330
1BC7
102
}
330
1BC7
100
AcDbXrecord
280
     1
290
     1
  0
XRECORD
  5
1BCA
102
{ACAD_REACTORS
330
1BC9
102
}
330
1BC9
100
AcDbXrecord
280
     1
290
     1
  0
XRECORD
  5
1BCC
102
{ACAD_REACTORS
330
1BCB
102
}
330
1BCB
100
AcDbXrecord
280
     1
290
     1
  0
XRECORD
  5
1BCE
102
{ACAD_REACTORS
330
1BCD
102
}
330
1BCD
100
AcDbXrecord
280
     1
290
     1
  0
XRECORD
  5
1BD0
102
{ACAD_REACTORS
330
1BCF
102
}
330
1BCF
100
AcDbXrecord
280
     1
290
     1
  0
XRECORD
  5
1BD2
102
{ACAD_REACTORS
330
1BD1
102
}
330
1BD1
100
AcDbXrecord
280
     1
290
     1
  0
XRECORD
  5
1BD4
102
{ACAD_REACTORS
330
1BD3
102
}
330
1BD3
100
AcDbXrecord
280
     1
290
     1
  0
LAYOUT
  5
1AF5
102
{ACAD_XDICTIONARY
360
1BEF
102
}
102
{ACAD_REACTORS
330
1A
102
}
330
1A
100
AcDbPlotSettings
  1

  2
none_device
  4
ANSI_B_(17.00_x_11.00_Inches)
  6

 40
0.0
 41
0.0
 42
0.0
 43
0.0
 44
431.8
 45
279.4
 46
0.0
 47
0.0
 48
0.0
 49
0.0
140
0.0
141
0.0
142
1.0
143
1.0
 70
     0
 72
     0
 73
     0
 74
     0
  7

 75
     0
147
1.0
148
0.0
149
0.0
100
AcDbLayout
  1
Layout1
 70
     1
 71
     1
 10
0.0
 20
0.0
 11
12.0
 21
9.0
 12
0.0
 22
0.0
 32
0.0
 14
1.000000000000000E+20
 24
1.000000000000000E+20
 34
1.000000000000000E+20
 15
-1.000000000000000E+20
 25
-1.000000000000000E+20
 35
-1.000000000000000E+20
146
0.0
 13
0.0
 23
0.0
 33
0.0
 16
1.0
 26
0.0
 36
0.0
 17
0.0
 27
1.0
 37
0.0
 76
     0
330
221
  0
LAYOUT
  5
1AF4
102
{ACAD_XDICTIONARY
360
1BED
102
}
102
{ACAD_REACTORS
330
1A
102
}
330
1A
100
AcDbPlotSettings
  1

  2
none_device
  4
ANSI_B_(17.00_x_11.00_Inches)
  6

 40
0.0
 41
0.0
 42
0.0
 43
0.0
 44
431.8
 45
279.4
 46
0.0
 47
0.0
 48
0.0
 49
0.0
140
0.0
141
0.0
142
1.0
143
1.0
 70
  1024
 72
     0
 73
     0
 74
     0
  7

 75
     0
147
1.0
148
0.0
149
0.0
100
AcDbLayout
  1
Model
 70
     0
 71
     0
 10
0.0
 20
0.0
 11
17.0
 21
11.0
 12
0.0
 22
0.0
 32
0.0
 14
0.0
 24
0.0
 34
0.0
 15
0.0
 25
0.0
 35
0.0
146
0.0
 13
0.0
 23
0.0
 33
0.0
 16
1.0
 26
0.0
 36
0.0
 17
0.0
 27
1.0
 37
0.0
 76
     0
330
220
331
1F4
  0
MATERIAL
  5
1B02
102
{ACAD_XDICTIONARY
360
1B03
102
}
102
{ACAD_REACTORS
330
1AF9
102
}
330
1AF9
100
AcDbMaterial
  1
ByBlock
 72
     0
 43
0.0208333333333333
 43
0.0
 43
0.0
 43
0.0
 43
0.0
 43
0.0208333333333333
 43
0.0
 43
0.0
 43
0.0
 43
0.0
 43
1.0
 43
0.0
 43
0.0
 43
0.0
 43
0.0
 43
1.0
 77
     0
 47
0.0208333333333333
 47
0.0
 47
0.0
 47
0.0
 47
0.0
 47
0.0208333333333333
 47
0.0
 47
0.0
 47
0.0
 47
0.0
 47
1.0
 47
0.0
 47
0.0
 47
0.0
 47
0.0
 47
1.0
171
     0
 49
0.0208333333333333
 49
0.0
 49
0.0
 49
0.0
 49
0.0
 49
0.0208333333333333
 49
0.0
 49
0.0
 49
0.0
 49
0.0
 49
1.0
 49
0.0
 49
0.0
 49
0.0
 49
0.0
 49
1.0
175
     0
142
0.0208333333333333
142
0.0
142
0.0
142
0.0
142
0.0
142
0.0208333333333333
142
0.0
142
0.0
142
0.0
142
0.0
142
1.0
142
0.0
142
0.0
142
0.0
142
0.0
142
1.0
179
     0
144
0.0208333333333333
144
0.0
144
0.0
144
0.0
144
0.0
144
0.0208333333333333
144
0.0
144
0.0
144
0.0
144
0.0
144
1.0
144
0.0
144
0.0
144
0.0
144
0.0
144
1.0
147
0.0208333333333333
147
0.0
147
0.0
147
0.0
147
0.0
147
0.0208333333333333
147
0.0
147
0.0
147
0.0
147
0.0
147
1.0
147
0.0
147
0.0
147
0.0
147
0.0
147
1.0
  0
MATERIAL
  5
1AFA
102
{ACAD_XDICTIONARY
360
1AFB
102
}
102
{ACAD_REACTORS
330
1AF9
102
}
330
1AF9
100
AcDbMaterial
  1
ByLayer
 72
     0
 43
0.0208333333333333
 43
0.0
 43
0.0
 43
0.0
 43
0.0
 43
0.0208333333333333
 43
0.0
 43
0.0
 43
0.0
 43
0.0
 43
1.0
 43
0.0
 43
0.0
 43
0.0
 43
0.0
 43
1.0
 77
     0
 47
0.0208333333333333
 47
0.0
 47
0.0
 47
0.0
 47
0.0
 47
0.0208333333333333
 47
0.0
 47
0.0
 47
0.0
 47
0.0
 47
1.0
 47
0.0
 47
0.0
 47
0.0
 47
0.0
 47
1.0
171
     0
 49
0.0208333333333333
 49
0.0
 49
0.0
 49
0.0
 49
0.0
 49
0.0208333333333333
 49
0.0
 49
0.0
 49
0.0
 49
0.0
 49
1.0
 49
0.0
 49
0.0
 49
0.0
 49
0.0
 49
1.0
175
     0
142
0.0208333333333333
142
0.0
142
0.0
142
0.0
142
0.0
142
0.0208333333333333
142
0.0
142
0.0
142
0.0
142
0.0
142
1.0
142
0.0
142
0.0
142
0.0
142
0.0
142
1.0
179
     0
144
0.0208333333333333
144
0.0
144
0.0
144
0.0
144
0.0
144
0.0208333333333333
144
0.0
144
0.0
144
0.0
144
0.0
144
1.0
144
0.0
144
0.0
144
0.0
144
0.0
144
1.0
147
0.0208333333333333
147
0.0
147
0.0
147
0.0
147
0.0
147
0.0208333333333333
147
0.0
147
0.0
147
0.0
147
0.0
147
1.0
147
0.0
147
0.0
147
0.0
147
0.0
147
1.0
  0
MATERIAL
  5
1B0A
102
{ACAD_XDICTIONARY
360
1B0B
102
}
102
{ACAD_REACTORS
330
1AF9
102
}
330
1AF9
100
AcDbMaterial
  1
Global
 72
     0
 43
0.0208333333333333
 43
0.0
 43
0.0
 43
0.0
 43
0.0
 43
0.0208333333333333
 43
0.0
 43
0.0
 43
0.0
 43
0.0
 43
1.0
 43
0.0
 43
0.0
 43
0.0
 43
0.0
 43
1.0
 77
     0
 47
0.0208333333333333
 47
0.0
 47
0.0
 47
0.0
 47
0.0
 47
0.0208333333333333
 47
0.0
 47
0.0
 47
0.0
 47
0.0
 47
1.0
 47
0.0
 47
0.0
 47
0.0
 47
0.0
 47
1.0
171
     0
 49
0.0208333333333333
 49
0.0
 49
0.0
 49
0.0
 49
0.0
 49
0.0208333333333333
 49
0.0
 49
0.0
 49
0.0
 49
0.0
 49
1.0
 49
0.0
 49
0.0
 49
0.0
 49
0.0
 49
1.0
175
     0
142
0.0208333333333333
142
0.0
142
0.0
142
0.0
142
0.0
142
0.0208333333333333
142
0.0
142
0.0
142
0.0
142
0.0
142
1.0
142
0.0
142
0.0
142
0.0
142
0.0
142
1.0
179
     0
144
0.0208333333333333
144
0.0
144
0.0
144
0.0
144
0.0
144
0.0208333333333333
144
0.0
144
0.0
144
0.0
144
0.0
144
1.0
144
0.0
144
0.0
144
0.0
144
0.0
144
1.0
147
0.0208333333333333
147
0.0
147
0.0
147
0.0
147
0.0
147
0.0208333333333333
147
0.0
147
0.0
147
0.0
147
0.0
147
1.0
147
0.0
147
0.0
147
0.0
147
0.0
147
1.0
  0
MLEADERSTYLE
  5
1B4C
102
{ACAD_REACTORS
330
1B4B
102
}
330
1B4B
100
AcDbMLeaderStyle
170
     2
171
     1
172
     0
 90
        2
 40
0.0
 41
0.0
173
     1
 91
-1056964608
340
14
 92
       -2
290
     1
 42
0.09
291
     1
 43
0.36
  3
Standard
 44
0.18
300

342
11
174
     1
178
     6
175
     1
176
     0
 93
-1056964608
 45
0.18
292
     0
297
     0
 46
0.18
 94
-1056964608
 47
1.0
 49
1.0
140
1.0
293
     1
141
0.0
294
     1
177
     0
142
1.0
295
     0
296
     0
143
0.125
1001
ACAD_MLEADERVER
1070
     2
  0
MLINESTYLE
  5
18
102
{ACAD_REACTORS
330
17
102
}
330
17
100
AcDbMlineStyle
  2
STANDARD
 70
     0
  3

 62
   256
 51
90.0
 52
90.0
 71
     2
 49
0.5
 62
   256
  6
BYLAYER
 49
-0.5
 62
   256
  6
BYLAYER
  0
ACDBPLACEHOLDER
  5
F
102
{ACAD_REACTORS
330
E
102
}
330
E
  0
SCALE
  5
1B2A
102
{ACAD_REACTORS
330
1B29
102
}
330
1B29
100
AcDbScale
 70
     0
300
1:1
140
1.0
141
1.0
290
     1
  0
SCALE
  5
1B2B
102
{ACAD_REACTORS
330
1B29
102
}
330
1B29
100
AcDbScale
 70
     0
300
1:2
140
1.0
141
2.0
290
     0
  0
SCALE
  5
1B2C
102
{ACAD_REACTORS
330
1B29
102
}
330
1B29
100
AcDbScale
 70
     0
300
1:4
140
1.0
141
4.0
290
     0
  0
SCALE
  5
1B2D
102
{ACAD_REACTORS
330
1B29
102
}
330
1B29
100
AcDbScale
 70
     0
300
1:5
140
1.0
141
5.0
290
     0
  0
SCALE
  5
1B2E
102
{ACAD_REACTORS
330
1B29
102
}
330
1B29
100
AcDbScale
 70
     0
300
1:8
140
1.0
141
8.0
290
     0
  0
SCALE
  5
1B2F
102
{ACAD_REACTORS
330
1B29
102
}
330
1B29
100
AcDbScale
 70
     0
300
1:10
140
1.0
141
10.0
290
     0
  0
SCALE
  5
1B30
102
{ACAD_REACTORS
330
1B29
102
}
330
1B29
100
AcDbScale
 70
     0
300
1:16
140
1.0
141
16.0
290
     0
  0
SCALE
  5
1B31
102
{ACAD_REACTORS
330
1B29
102
}
330
1B29
100
AcDbScale
 70
     0
300
1:20
140
1.0
141
20.0
290
     0
  0
SCALE
  5
1B32
102
{ACAD_REACTORS
330
1B29
102
}
330
1B29
100
AcDbScale
 70
     0
300
1:30
140
1.0
141
30.0
290
     0
  0
SCALE
  5
1B33
102
{ACAD_REACTORS
330
1B29
102
}
330
1B29
100
AcDbScale
 70
     0
300
1:40
140
1.0
141
40.0
290
     0
  0
SCALE
  5
1B34
102
{ACAD_REACTORS
330
1B29
102
}
330
1B29
100
AcDbScale
 70
     0
300
1:50
140
1.0
141
50.0
290
     0
  0
SCALE
  5
1B35
102
{ACAD_REACTORS
330
1B29
102
}
330
1B29
100
AcDbScale
 70
     0
300
1:100
140
1.0
141
100.0
290
     0
  0
SCALE
  5
1B36
102
{ACAD_REACTORS
330
1B29
102
}
330
1B29
100
AcDbScale
 70
     0
300
2:1
140
2.0
141
1.0
290
     0
  0
SCALE
  5
1B37
102
{ACAD_REACTORS
330
1B29
102
}
330
1B29
100
AcDbScale
 70
     0
300
4:1
140
4.0
141
1.0
290
     0
  0
SCALE
  5
1B38
102
{ACAD_REACTORS
330
1B29
102
}
330
1B29
100
AcDbScale
 70
     0
300
8:1
140
8.0
141
1.0
290
     0
  0
SCALE
  5
1B39
102
{ACAD_REACTORS
330
1B29
102
}
330
1B29
100
AcDbScale
 70
     0
300
10:1
140
10.0
141
1.0
290
     0
  0
SCALE
  5
1B3A
102
{ACAD_REACTORS
330
1B29
102
}
330
1B29
100
AcDbScale
 70
     0
300
100:1
140
100.0
141
1.0
290
     0
  0
SCALE
  5
1B3B
102
{ACAD_REACTORS
330
1B29
102
}
330
1B29
100
AcDbScale
 70
     0
300
1/128" = 1'-0"
140
0.0078125
141
12.0
290
     0
  0
SCALE
  5
1B3C
102
{ACAD_REACTORS
330
1B29
102
}
330
1B29
100
AcDbScale
 70
     0
300
1/64" = 1'-0"
140
0.015625
141
12.0
290
     0
  0
SCALE
  5
1B3D
102
{ACAD_REACTORS
330
1B29
102
}
330
1B29
100
AcDbScale
 70
     0
300
1/32" = 1'-0"
140
0.03125
141
12.0
290
     0
  0
SCALE
  5
1B3E
102
{ACAD_REACTORS
330
1B29
102
}
330
1B29
100
AcDbScale
 70
     0
300
1/16" = 1'-0"
140
0.0625
141
12.0
290
     0
  0
SCALE
  5
1B3F
102
{ACAD_REACTORS
330
1B29
102
}
330
1B29
100
AcDbScale
 70
     0
300
3/32" = 1'-0"
140
0.09375
141
12.0
290
     0
  0
SCALE
  5
1B40
102
{ACAD_REACTORS
330
1B29
102
}
330
1B29
100
AcDbScale
 70
     0
300
1/8" = 1'-0"
140
0.125
141
12.0
290
     0
  0
SCALE
  5
1B41
102
{ACAD_REACTORS
330
1B29
102
}
330
1B29
100
AcDbScale
 70
     0
300
3/16" = 1'-0"
140
0.1875
141
12.0
290
     0
  0
SCALE
  5
1B42
102
{ACAD_REACTORS
330
1B29
102
}
330
1B29
100
AcDbScale
 70
     0
300
1/4" = 1'-0"
140
0.25
141
12.0
290
     0
  0
SCALE
  5
1B43
102
{ACAD_REACTORS
330
1B29
102
}
330
1B29
100
AcDbScale
 70
     0
300
3/8" = 1'-0"
140
0.375
141
12.0
290
     0
  0
SCALE
  5
1B44
102
{ACAD_REACTORS
330
1B29
102
}
330
1B29
100
AcDbScale
 70
     0
300
1/2" = 1'-0"
140
0.5
141
12.0
290
     0
  0
SCALE
  5
1B45
102
{ACAD_REACTORS
330
1B29
102
}
330
1B29
100
AcDbScale
 70
     0
300
3/4" = 1'-0"
140
0.75
141
12.0
290
     0
  0
SCALE
  5
1B46
102
{ACAD_REACTORS
330
1B29
102
}
330
1B29
100
AcDbScale
 70
     0
300
1" = 1'-0"
140
1.0
141
12.0
290
     0
  0
SCALE
  5
1B47
102
{ACAD_REACTORS
330
1B29
102
}
330
1B29
100
AcDbScale
 70
     0
300
1-1/2" = 1'-0"
140
1.5
141
12.0
290
     0
  0
SCALE
  5
1B48
102
{ACAD_REACTORS
330
1B29
102
}
330
1B29
100
AcDbScale
 70
     0
300
3" = 1'-0"
140
3.0
141
12.0
290
     0
  0
SCALE
  5
1B49
102
{ACAD_REACTORS
330
1B29
102
}
330
1B29
100
AcDbScale
 70
     0
300
6" = 1'-0"
140
6.0
141
12.0
290
     0
  0
SCALE
  5
1B4A
102
{ACAD_REACTORS
330
1B29
102
}
330
1B29
100
AcDbScale
 70
     0
300
1'-0" = 1'-0"
140
12.0
141
12.0
290
     0
  0
TABLESTYLE
  5
1B28
102
{ACAD_XDICTIONARY
360
1B4F
102
}
102
{ACAD_REACTORS
330
1B27
102
}
330
1B27
100
AcDbTableStyle
  3
Standard
 70
     0
 71
     0
 40
0.06
 41
0.06
280
     0
281
     0
  7
STANDARD
140
0.18
170
     2
 62
     0
 63
     7
283
     0
274
    -2
284
     1
 64
     0
275
    -2
285
     1
 65
     0
276
    -2
286
     1
 66
     0
277
    -2
287
     1
 67
     0
278
    -2
288
     1
 68
     0
279
    -2
289
     1
 69
     0
  7
STANDARD
140
0.25
170
     5
 62
     0
 63
     7
283
     0
274
    -2
284
     1
 64
     0
275
    -2
285
     1
 65
     0
276
    -2
286
     1
 66
     0
277
    -2
287
     1
 67
     0
278
    -2
288
     1
 68
     0
279
    -2
289
     1
 69
     0
  7
STANDARD
140
0.18
170
     5
 62
     0
 63
     7
283
     0
274
    -2
284
     1
 64
     0
275
    -2
285
     1
 65
     0
276
    -2
286
     1
 66
     0
277
    -2
287
     1
 67
     0
278
    -2
288
     1
 68
     0
279
    -2
289
     1
 69
     0
  0
VISUALSTYLE
  5
1B18
102
{ACAD_XDICTIONARY
360
1B65
102
}
102
{ACAD_REACTORS
330
1B12
102
}
330
1B12
100
AcDbVisualStyle
  2
2dWireframe
 70
     4
 71
     0
 72
     2
 73
     0
 90
        0
 40
-0.6
 41
-30.0
 62
     5
 63
     7
 74
     1
 91
        4
 64
     7
 65
   257
 75
     1
175
     1
 42
1.0
 92
        0
 66
   257
 43
1.0
 76
     1
 77
     6
 78
     2
 67
     7
 79
     5
170
     0
171
     0
290
     0
174
     0
 93
        1
 44
0.0
173
     0
291
     0
 45
0.0
1001
ACAD
1000
AcDbSavedByObjectVersion
1070
     0
  0
VISUALSTYLE
  5
1B1A
102
{ACAD_XDICTIONARY
360
1B69
102
}
102
{ACAD_REACTORS
330
1B12
102
}
330
1B12
100
AcDbVisualStyle
  2
3D Hidden
 70
     6
 71
     1
 72
     2
 73
     2
 90
        0
 40
-0.6
 41
-30.0
 62
     5
 63
     7
 74
     2
 91
        2
 64
     7
 65
   257
 75
     2
175
     1
 42
179.0
 92
        0
 66
   257
 43
1.0
 76
     1
 77
     6
 78
     2
 67
     7
 79
     3
170
     0
171
     0
290
     0
174
     0
 93
        1
 44
0.0
173
     0
291
     0
 45
0.0
1001
ACAD
1000
AcDbSavedByObjectVersion
1070
     0
  0
VISUALSTYLE
  5
1B19
102
{ACAD_XDICTIONARY
360
1B67
102
}
102
{ACAD_REACTORS
330
1B12
102
}
330
1B12
100
AcDbVisualStyle
  2
3dWireframe
 70
     5
 71
     0
 72
     2
 73
     0
 90
        0
 40
-0.6
 41
-30.0
 62
     5
 63
     7
 74
     1
 91
        4
 64
     7
 65
   257
 75
     1
175
     1
 42
1.0
 92
        0
 66
   257
 43
1.0
 76
     1
 77
     6
 78
     2
 67
     7
 79
     5
170
     0
171
     0
290
     0
174
     0
 93
        1
 44
0.0
173
     0
291
     0
 45
0.0
1001
ACAD
1000
AcDbSavedByObjectVersion
1070
     0
  0
VISUALSTYLE
  5
1B17
102
{ACAD_XDICTIONARY
360
1B63
102
}
102
{ACAD_REACTORS
330
1B12
102
}
330
1B12
100
AcDbVisualStyle
  2
Basic
 70
     7
 71
     1
 72
     0
 73
     1
 90
        0
 40
-0.6
 41
-30.0
 62
     5
 63
     7
 74
     0
 91
        4
 64
     7
 65
   257
 75
     1
175
     1
 42
1.0
 92
        8
 66
     7
 43
1.0
 76
     1
 77
     6
 78
     2
 67
     7
 79
     5
170
     0
171
     0
290
     0
174
     0
 93
        1
 44
0.0
173
     0
291
     1
 45
0.0
1001
ACAD
1000
AcDbSavedByObjectVersion
1070
     0
  0
VISUALSTYLE
  5
1B1E
102
{ACAD_XDICTIONARY
360
1B71
102
}
102
{ACAD_REACTORS
330
1B12
102
}
330
1B12
100
AcDbVisualStyle
  2
Brighten
 70
    12
 71
     2
 72
     2
 73
     0
 90
        0
 40
-0.6
 41
-30.0
 62
     5
 63
     7
 74
     1
 91
        4
 64
     7
 65
   257
 75
     1
175
     1
 42
1.0
 92
        8
 66
     7
 43
1.0
 76
     1
 77
     6
 78
     2
 67
     7
 79
     5
170
     0
171
     0
290
     0
174
     0
 93
        1
 44
50.0
173
     0
291
     1
 45
0.0
1001
ACAD
1000
AcDbSavedByObjectVersion
1070
     0
  0
VISUALSTYLE
  5
1B22
102
{ACAD_XDICTIONARY
360
1B79
102
}
102
{ACAD_REACTORS
330
1B12
102
}
330
1B12
100
AcDbVisualStyle
  2
ColorChange
 70
    16
 71
     2
 72
     2
 73
     3
 90
        0
 40
-0.6
 41
-30.0
 62
     5
 63
     8
 74
     1
 91
        4
 64
     7
 65
   257
 75
     1
175
     1
 42
1.0
 92
        8
 66
     8
 43
1.0
 76
     1
 77
     6
 78
     2
 67
     7
 79
     5
170
     0
171
     0
290
     0
174
     0
 93
        1
 44
0.0
173
     0
291
     1
 45
0.0
1001
ACAD
1000
AcDbSavedByObjectVersion
1070
     0
  0
VISUALSTYLE
  5
1B1B
102
{ACAD_XDICTIONARY
360
1B6B
102
}
102
{ACAD_REACTORS
330
1B12
102
}
330
1B12
100
AcDbVisualStyle
  2
Conceptual
 70
     9
 71
     3
 72
     2
 73
     0
 90
        0
 40
-0.6
 41
-30.0
 62
     5
 63
     7
 74
     2
 91
        2
 64
     7
 65
   257
 75
     1
175
     1
 42
179.0
 92
        8
 66
     7
 43
1.0
 76
     1
 77
     6
 78
     2
 67
     7
 79
     3
170
     0
171
     0
290
     0
174
     0
 93
        1
 44
0.0
173
     0
291
     0
 45
0.0
1001
ACAD
1000
AcDbSavedByObjectVersion
1070
     0
  0
VISUALSTYLE
  5
1B1D
102
{ACAD_XDICTIONARY
360
1B6F
102
}
102
{ACAD_REACTORS
330
1B12
102
}
330
1B12
100
AcDbVisualStyle
  2
Dim
 70
    11
 71
     2
 72
     2
 73
     0
 90
        0
 40
-0.6
 41
-30.0
 62
     5
 63
     7
 74
     1
 91
        4
 64
     7
 65
   257
 75
     1
175
     1
 42
1.0
 92
        8
 66
     7
 43
1.0
 76
     1
 77
     6
 78
     2
 67
     7
 79
     5
170
     0
171
     0
290
     0
174
     0
 93
        1
 44
-50.0
173
     0
291
     1
 45
0.0
1001
ACAD
1000
AcDbSavedByObjectVersion
1070
     0
  0
VISUALSTYLE
  5
1B25
102
{ACAD_XDICTIONARY
360
1B7F
102
}
102
{ACAD_REACTORS
330
1B12
102
}
330
1B12
100
AcDbVisualStyle
  2
EdgeColorOff
 70
    22
 71
     2
 72
     2
 73
     0
 90
        0
 40
-0.6
 41
-30.0
 62
     5
 63
     7
 74
     1
 91
        4
 64
     7
 65
   257
 75
     1
175
     1
 42
1.0
 92
        8
 66
     7
 43
1.0
 76
     1
 77
     6
 78
     2
 67
     7
 79
     5
170
     0
171
     0
290
     0
174
     0
 93
        1
 44
0.0
173
     0
291
     1
 45
0.0
1001
ACAD
1000
AcDbSavedByObjectVersion
1070
     0
  0
VISUALSTYLE
  5
1B21
102
{ACAD_XDICTIONARY
360
1B77
102
}
102
{ACAD_REACTORS
330
1B12
102
}
330
1B12
100
AcDbVisualStyle
  2
Facepattern
 70
    15
 71
     2
 72
     2
 73
     0
 90
        0
 40
-0.6
 41
-30.0
 62
     5
 63
     7
 74
     1
 91
        4
 64
     7
 65
   257
 75
     1
175
     1
 42
1.0
 92
        8
 66
     7
 43
1.0
 76
     1
 77
     6
 78
     2
 67
     7
 79
     5
170
     0
171
     0
290
     0
174
     0
 93
        1
 44
0.0
173
     0
291
     1
 45
0.0
1001
ACAD
1000
AcDbSavedByObjectVersion
1070
     0
  0
VISUALSTYLE
  5
1B13
102
{ACAD_XDICTIONARY
360
1B5B
102
}
102
{ACAD_REACTORS
330
1B12
102
}
330
1B12
100
AcDbVisualStyle
  2
Flat
 70
     0
 71
     2
 72
     1
 73
     1
 90
        2
 40
-0.6
 41
30.0
 62
     5
 63
     7
 74
     0
 91
        4
 64
     7
 65
   257
 75
     1
175
     1
 42
1.0
 92
        8
 66
     7
 43
1.0
 76
     1
 77
     6
 78
     2
 67
     7
 79
     5
170
     0
171
     0
290
     0
174
     0
 93
       13
 44
0.0
173
     0
291
     1
 45
0.0
1001
ACAD
1000
AcDbSavedByObjectVersion
1070
     0
  0
VISUALSTYLE
  5
1B14
102
{ACAD_XDICTIONARY
360
1B5D
102
}
102
{ACAD_REACTORS
330
1B12
102
}
330
1B12
100
AcDbVisualStyle
  2
FlatWithEdges
 70
     1
 71
     2
 72
     1
 73
     1
 90
        2
 40
-0.6
 41
30.0
 62
     5
 63
     7
 74
     1
 91
        4
 64
     7
 65
   257
 75
     1
175
     1
 42
1.0
 92
        0
 66
   257
 43
1.0
 76
     1
 77
     6
 78
     2
 67
     7
 79
     5
170
     0
171
     0
290
     0
174
     0
 93
       13
 44
0.0
173
     0
291
     1
 45
0.0
1001
ACAD
1000
AcDbSavedByObjectVersion
1070
     0
  0
VISUALSTYLE
  5
1B15
102
{ACAD_XDICTIONARY
360
1B5F
102
}
102
{ACAD_REACTORS
330
1B12
102
}
330
1B12
100
AcDbVisualStyle
  2
Gouraud
 70
     2
 71
     2
 72
     2
 73
     1
 90
        2
 40
-0.6
 41
30.0
 62
     5
 63
     7
 74
     0
 91
        4
 64
     7
 65
   257
 75
     1
175
     1
 42
1.0
 92
        0
 66
     7
 43
1.0
 76
     1
 77
     6
 78
     2
 67
     7
 79
     5
170
     0
171
     0
290
     0
174
     0
 93
       13
 44
0.0
173
     0
291
     1
 45
0.0
1001
ACAD
1000
AcDbSavedByObjectVersion
1070
     0
  0
VISUALSTYLE
  5
1B16
102
{ACAD_XDICTIONARY
360
1B61
102
}
102
{ACAD_REACTORS
330
1B12
102
}
330
1B12
100
AcDbVisualStyle
  2
GouraudWithEdges
 70
     3
 71
     2
 72
     2
 73
     1
 90
        2
 40
-0.6
 41
30.0
 62
     5
 63
     7
 74
     1
 91
        4
 64
     7
 65
   257
 75
     1
175
     1
 42
1.0
 92
        0
 66
   257
 43
1.0
 76
     1
 77
     6
 78
     2
 67
     7
 79
     5
170
     0
171
     0
290
     0
174
     0
 93
       13
 44
0.0
173
     0
291
     1
 45
0.0
1001
ACAD
1000
AcDbSavedByObjectVersion
1070
     0
  0
VISUALSTYLE
  5
1B23
102
{ACAD_XDICTIONARY
360
1B7B
102
}
102
{ACAD_REACTORS
330
1B12
102
}
330
1B12
100
AcDbVisualStyle
  2
JitterOff
 70
    20
 71
     2
 72
     2
 73
     0
 90
        0
 40
-0.6
 41
-30.0
 62
     5
 63
     7
 74
     1
 91
        4
 64
     7
 65
   257
 75
     1
175
     1
 42
1.0
 92
       10
 66
     7
 43
1.0
 76
     1
 77
     6
 78
     2
 67
     7
 79
     5
170
     0
171
     0
290
     0
174
     0
 93
        1
 44
0.0
173
     0
291
     1
 45
0.0
1001
ACAD
1000
AcDbSavedByObjectVersion
1070
     0
  0
VISUALSTYLE
  5
1B20
102
{ACAD_XDICTIONARY
360
1B75
102
}
102
{ACAD_REACTORS
330
1B12
102
}
330
1B12
100
AcDbVisualStyle
  2
Linepattern
 70
    14
 71
     2
 72
     2
 73
     0
 90
        0
 40
-0.6
 41
-30.0
 62
     5
 63
     7
 74
     1
 91
        4
 64
     7
 65
   257
 75
     7
175
     7
 42
1.0
 92
        8
 66
     7
 43
1.0
 76
     1
 77
     6
 78
     2
 67
     7
 79
     5
170
     0
171
     0
290
     0
174
     0
 93
        1
 44
0.0
173
     0
291
     1
 45
0.0
1001
ACAD
1000
AcDbSavedByObjectVersion
1070
     0
  0
VISUALSTYLE
  5
1B24
102
{ACAD_XDICTIONARY
360
1B7D
102
}
102
{ACAD_REACTORS
330
1B12
102
}
330
1B12
100
AcDbVisualStyle
  2
OverhangOff
 70
    21
 71
     2
 72
     2
 73
     0
 90
        0
 40
-0.6
 41
-30.0
 62
     5
 63
     7
 74
     1
 91
        4
 64
     7
 65
   257
 75
     1
175
     1
 42
1.0
 92
        9
 66
     7
 43
1.0
 76
     1
 77
     6
 78
     2
 67
     7
 79
     5
170
     0
171
     0
290
     0
174
     0
 93
        1
 44
0.0
173
     0
291
     1
 45
0.0
1001
ACAD
1000
AcDbSavedByObjectVersion
1070
     0
  0
VISUALSTYLE
  5
1B1C
102
{ACAD_XDICTIONARY
360
1B6D
102
}
102
{ACAD_REACTORS
330
1B12
102
}
330
1B12
100
AcDbVisualStyle
  2
Realistic
 70
     8
 71
     2
 72
     2
 73
     0
 90
        0
 40
-0.6
 41
-30.0
 62
     5
 63
     7
 74
     1
 91
        0
 64
     7
 65
   257
 75
     1
175
     1
 42
1.0
 92
        8
 66
     8
 43
1.0
 76
     1
 77
     6
 78
     2
 67
     7
 79
     5
170
     0
171
     0
290
     0
174
     0
 93
       13
 44
0.0
173
     0
291
     0
 45
0.0
1001
ACAD
1000
AcDbSavedByObjectVersion
1070
     0
  0
VISUALSTYLE
  5
1B1F
102
{ACAD_XDICTIONARY
360
1B73
102
}
102
{ACAD_REACTORS
330
1B12
102
}
330
1B12
100
AcDbVisualStyle
  2
Thicken
 70
    13
 71
     2
 72
     2
 73
     0
 90
        0
 40
-0.6
 41
-30.0
 62
     5
 63
     7
 74
     1
 91
        4
 64
     7
 65
   257
 75
     1
175
     1
 42
1.0
 92
       12
 66
     7
 43
1.0
 76
     1
 77
     6
 78
     2
 67
     7
 79
     5
170
     0
171
     0
290
     0
174
     0
 93
        1
 44
0.0
173
     0
291
     1
 45
0.0
1001
ACAD
1000
AcDbSavedByObjectVersion
1070
     0
  0
DICTIONARYVAR
  5
1B86
102
{ACAD_REACTORS
330
1B83
102
}
330
1B83
100
DictionaryVariables
280
     0
  1
1:1
  0
DICTIONARYVAR
  5
1B85
102
{ACAD_REACTORS
330
1B83
102
}
330
1B83
100
DictionaryVariables
280
     0
  1
STANDARD
  0
DICTIONARYVAR
  5
1B84
102
{ACAD_REACTORS
330
1B83
102
}
330
1B83
100
DictionaryVariables
280
     0
  1
STANDARD
  0
DICTIONARYVAR
  5
1B89
102
{ACAD_REACTORS
330
1B83
102
}
330
1B83
100
DictionaryVariables
280
     0
  1
1
  0
DICTIONARYVAR
  5
1B88
102
{ACAD_REACTORS
330
1B83
102
}
330
1B83
100
DictionaryVariables
280
     0
  1
0
  0
DICTIONARYVAR
  5
1BD8
102
{ACAD_REACTORS
330
1B83
102
}
330
1B83
100
DictionaryVariables
280
     0
  1
1
  0
DICTIONARYVAR
  5
1BD9
102
{ACAD_REACTORS
330
1B83
102
}
330
1B83
100
DictionaryVariables
280
     0
  1
15
  0
DICTIONARYVAR
  5
1BD7
102
{ACAD_REACTORS
330
1B83
102
}
330
1B83
100
DictionaryVariables
280
     0
  1
0
  0
DICTIONARYVAR
  5
1BD6
102
{ACAD_REACTORS
330
1B83
102
}
330
1B83
100
DictionaryVariables
280
     0
  1
0
  0
DICTIONARYVAR
  5
1B87
102
{ACAD_REACTORS
330
1B83
102
}
330
1B83
100
DictionaryVariables
280
     0
  1
127
  0
DICTIONARYVAR
  5
1B8A
102
{ACAD_REACTORS
330
1B83
102
}
330
1B83
100
DictionaryVariables
280
     0
  1
0
  0
DICTIONARY
  5
1BEF
330
1AF5
100
AcDbDictionary
280
     1
281
     1
  3
ACAD_XREC_ROUNDTRIP
360
1BF0
  0
DICTIONARY
  5
1BED
330
1AF4
100
AcDbDictionary
280
     1
281
     1
  3
ACAD_XREC_ROUNDTRIP
360
1BEE
  0
DICTIONARY
  5
1B03
330
1B02
100
AcDbDictionary
280
     1
281
     1
  3
ACAD_XREC_ROUNDTRIP
360
1BF2
  3
BUMPTILE
360
1B05
  3
DIFFUSETILE
360
1B04
  3
OPACITYTILE
360
1B08
  3
REFLECTIONTILE
360
1B07
  3
REFRACTIONTILE
360
1B09
  3
SPECULARTILE
360
1B06
  0
DICTIONARY
  5
1AFB
330
1AFA
100
AcDbDictionary
280
     1
281
     1
  3
ACAD_XREC_ROUNDTRIP
360
1BF1
  3
BUMPTILE
360
1AFD
  3
DIFFUSETILE
360
1AFC
  3
OPACITYTILE
360
1B00
  3
REFLECTIONTILE
360
1AFF
  3
REFRACTIONTILE
360
1B01
  3
SPECULARTILE
360
1AFE
  0
DICTIONARY
  5
1B0B
330
1B0A
100
AcDbDictionary
280
     1
281
     1
  3
ACAD_XREC_ROUNDTRIP
360
1BF3
  3
BUMPTILE
360
1B0D
  3
DIFFUSETILE
360
1B0C
  3
OPACITYTILE
360
1B10
  3
REFLECTIONTILE
360
1B0F
  3
REFRACTIONTILE
360
1B11
  3
SPECULARTILE
360
1B0E
  0
DICTIONARY
  5
1B4F
330
1B28
100
AcDbDictionary
280
     1
281
     1
  3
ACAD_ROUNDTRIP_2008_TABLESTYLE_CELLSTYLEMAP
360
1BEB
  3
ACAD_XREC_ROUNDTRIP
360
1BF4
  0
DICTIONARY
  5
1B65
330
1B18
100
AcDbDictionary
280
     1
281
     1
  3
ACAD_XREC_ROUNDTRIP
360
1B66
  0
DICTIONARY
  5
1B69
330
1B1A
100
AcDbDictionary
280
     1
281
     1
  3
ACAD_XREC_ROUNDTRIP
360
1B6A
  0
DICTIONARY
  5
1B67
330
1B19
100
AcDbDictionary
280
     1
281
     1
  3
ACAD_XREC_ROUNDTRIP
360
1B68
  0
DICTIONARY
  5
1B63
330
1B17
100
AcDbDictionary
280
     1
281
     1
  3
ACAD_XREC_ROUNDTRIP
360
1B64
  0
DICTIONARY
  5
1B71
330
1B1E
100
AcDbDictionary
280
     1
281
     1
  3
ACAD_XREC_ROUNDTRIP
360
1B72
  0
DICTIONARY
  5
1B79
330
1B22
100
AcDbDictionary
280
     1
281
     1
  3
ACAD_XREC_ROUNDTRIP
360
1B7A
  0
DICTIONARY
  5
1B6B
330
1B1B
100
AcDbDictionary
280
     1
281
     1
  3
ACAD_XREC_ROUNDTRIP
360
1B6C
  0
DICTIONARY
  5
1B6F
330
1B1D
100
AcDbDictionary
280
     1
281
     1
  3
ACAD_XREC_ROUNDTRIP
360
1B70
  0
DICTIONARY
  5
1B7F
330
1B25
100
AcDbDictionary
280
     1
281
     1
  3
ACAD_XREC_ROUNDTRIP
360
1B80
  0
DICTIONARY
  5
1B77
330
1B21
100
AcDbDictionary
280
     1
281
     1
  3
ACAD_XREC_ROUNDTRIP
360
1B78
  0
DICTIONARY
  5
1B5B
330
1B13
100
AcDbDictionary
280
     1
281
     1
  3
ACAD_XREC_ROUNDTRIP
360
1B5C
  0
DICTIONARY
  5
1B5D
330
1B14
100
AcDbDictionary
280
     1
281
     1
  3
ACAD_XREC_ROUNDTRIP
360
1B5E
  0
DICTIONARY
  5
1B5F
330
1B15
100
AcDbDictionary
280
     1
281
     1
  3
ACAD_XREC_ROUNDTRIP
360
1B60
  0
DICTIONARY
  5
1B61
330
1B16
100
AcDbDictionary
280
     1
281
     1
  3
ACAD_XREC_ROUNDTRIP
360
1B62
  0
DICTIONARY
  5
1B7B
330
1B23
100
AcDbDictionary
280
     1
281
     1
  3
ACAD_XREC_ROUNDTRIP
360
1B7C
  0
DICTIONARY
  5
1B75
330
1B20
100
AcDbDictionary
280
     1
281
     1
  3
ACAD_XREC_ROUNDTRIP
360
1B76
  0
DICTIONARY
  5
1B7D
330
1B24
100
AcDbDictionary
280
     1
281
     1
  3
ACAD_XREC_ROUNDTRIP
360
1B7E
  0
DICTIONARY
  5
1B6D
330
1B1C
100
AcDbDictionary
280
     1
281
     1
  3
ACAD_XREC_ROUNDTRIP
360
1B6E
  0
DICTIONARY
  5
1B73
330
1B1F
100
AcDbDictionary
280
     1
281
     1
  3
ACAD_XREC_ROUNDTRIP
360
1B74
  0
XRECORD
  5
1BF0
102
{ACAD_REACTORS
330
1BEF
102
}
330
1BEF
100
AcDbXrecord
280
     1
102
SHADEPLOT
 70
     0
102
SHADEPLOTRESLEVEL
 70
     2
102
SHADEPLOTCUSTOMDPI
 70
   300
  0
XRECORD
  5
1BEE
102
{ACAD_REACTORS
330
1BED
102
}
330
1BED
100
AcDbXrecord
280
     1
102
SHADEPLOT
 70
     0
102
SHADEPLOTRESLEVEL
 70
     2
102
SHADEPLOTCUSTOMDPI
 70
   300
  0
XRECORD
  5
1BF2
102
{ACAD_REACTORS
330
1B03
102
}
330
1B03
100
AcDbXrecord
280
     1
102
MATERIAL
148
0.0
149
0.0
149
0.0
 93
        0
 94
      127
282
     0
 72
     0
 77
     0
171
     0
175
     0
179
     0
273
     0
  0
XRECORD
  5
1B05
102
{ACAD_REACTORS
330
1B03
102
}
330
1B03
100
AcDbXrecord
280
     1
270
     1
271
     1
  0
XRECORD
  5
1B04
102
{ACAD_REACTORS
330
1B03
102
}
330
1B03
100
AcDbXrecord
280
     1
270
     1
271
     1
  0
XRECORD
  5
1B08
102
{ACAD_REACTORS
330
1B03
102
}
330
1B03
100
AcDbXrecord
280
     1
270
     1
271
     1
  0
XRECORD
  5
1B07
102
{ACAD_REACTORS
330
1B03
102
}
330
1B03
100
AcDbXrecord
280
     1
270
     1
271
     1
  0
XRECORD
  5
1B09
102
{ACAD_REACTORS
330
1B03
102
}
330
1B03
100
AcDbXrecord
280
     1
270
     1
271
     1
  0
XRECORD
  5
1B06
102
{ACAD_REACTORS
330
1B03
102
}
330
1B03
100
AcDbXrecord
280
     1
270
     1
271
     1
  0
XRECORD
  5
1BF1
102
{ACAD_REACTORS
330
1AFB
102
}
330
1AFB
100
AcDbXrecord
280
     1
102
MATERIAL
148
0.0
149
0.0
149
0.0
 93
        0
 94
      127
282
     0
 72
     0
 77
     0
171
     0
175
     0
179
     0
273
     0
  0
XRECORD
  5
1AFD
102
{ACAD_REACTORS
330
1AFB
102
}
330
1AFB
100
AcDbXrecord
280
     1
270
     1
271
     1
  0
XRECORD
  5
1AFC
102
{ACAD_REACTORS
330
1AFB
102
}
330
1AFB
100
AcDbXrecord
280
     1
270
     1
271
     1
  0
XRECORD
  5
1B00
102
{ACAD_REACTORS
330
1AFB
102
}
330
1AFB
100
AcDbXrecord
280
     1
270
     1
271
     1
  0
XRECORD
  5
1AFF
102
{ACAD_REACTORS
330
1AFB
102
}
330
1AFB
100
AcDbXrecord
280
     1
270
     1
271
     1
  0
XRECORD
  5
1B01
102
{ACAD_REACTORS
330
1AFB
102
}
330
1AFB
100
AcDbXrecord
280
     1
270
     1
271
     1
  0
XRECORD
  5
1AFE
102
{ACAD_REACTORS
330
1AFB
102
}
330
1AFB
100
AcDbXrecord
280
     1
270
     1
271
     1
  0
XRECORD
  5
1BF3
102
{ACAD_REACTORS
330
1B0B
102
}
330
1B0B
100
AcDbXrecord
280
     1
102
MATERIAL
148
0.0
149
0.0
149
0.0
 93
        0
 94
      127
282
     0
 72
     0
 77
     0
171
     0
175
     0
179
     0
273
     0
  0
XRECORD
  5
1B0D
102
{ACAD_REACTORS
330
1B0B
102
}
330
1B0B
100
AcDbXrecord
280
     1
270
     1
271
     1
  0
XRECORD
  5
1B0C
102
{ACAD_REACTORS
330
1B0B
102
}
330
1B0B
100
AcDbXrecord
280
     1
270
     1
271
     1
  0
XRECORD
  5
1B10
102
{ACAD_REACTORS
330
1B0B
102
}
330
1B0B
100
AcDbXrecord
280
     1
270
     1
271
     1
  0
XRECORD
  5
1B0F
102
{ACAD_REACTORS
330
1B0B
102
}
330
1B0B
100
AcDbXrecord
280
     1
270
     1
271
     1
  0
XRECORD
  5
1B11
102
{ACAD_REACTORS
330
1B0B
102
}
330
1B0B
100
AcDbXrecord
280
     1
270
     1
271
     1
  0
XRECORD
  5
1B0E
102
{ACAD_REACTORS
330
1B0B
102
}
330
1B0B
100
AcDbXrecord
280
     1
270
     1
271
     1
  0
CELLSTYLEMAP
  5
1BEB
102
{ACAD_REACTORS
330
1B4F
102
}
330
1B4F
100
AcDbCellStyleMap
 90
        3
300
CELLSTYLE
  1
TABLEFORMAT_BEGIN
 90
        5
170
     1
 91
        0
 92
    32768
 62
   257
 93
        1
300
CONTENTFORMAT
  1
CONTENTFORMAT_BEGIN
 90
        0
 91
        0
 92
      512
 93
        0
300

 40
0.0
140
1.0
 94
        5
 62
     0
340
11
144
0.25
309
CONTENTFORMAT_END
171
     0
 94
        0
309
TABLEFORMAT_END
  1
CELLSTYLE_BEGIN
 90
        1
 91
        1
300
_TITLE
309
CELLSTYLE_END
300
CELLSTYLE
  1
TABLEFORMAT_BEGIN
 90
        5
170
     1
 91
        0
 92
        0
 62
   257
 93
        1
300
CONTENTFORMAT
  1
CONTENTFORMAT_BEGIN
 90
        0
 91
        0
 92
      512
 93
        0
300

 40
0.0
140
1.0
 94
        5
 62
     0
340
11
144
0.18
309
CONTENTFORMAT_END
171
     0
 94
        0
309
TABLEFORMAT_END
  1
CELLSTYLE_BEGIN
 90
        2
 91
        1
300
_HEADER
309
CELLSTYLE_END
300
CELLSTYLE
  1
TABLEFORMAT_BEGIN
 90
        5
170
     1
 91
        0
 92
        0
 62
   257
 93
        1
300
CONTENTFORMAT
  1
CONTENTFORMAT_BEGIN
 90
        0
 91
        0
 92
      512
 93
        0
300

 40
0.0
140
1.0
 94
        2
 62
     0
340
11
144
0.18
309
CONTENTFORMAT_END
171
     0
 94
        0
309
TABLEFORMAT_END
  1
CELLSTYLE_BEGIN
 90
        3
 91
        2
300
_DATA
309
CELLSTYLE_END
  0
XRECORD
  5
1BF4
102
{ACAD_REACTORS
330
1B4F
102
}
330
1B4F
100
AcDbXrecord
280
     1
102
ACAD_ROUNDTRIP_PRE2007_TABLESTYLE
 90
      512
 91
        0
  1

 92
      512
 93
        0
  2

 94
      512
 95
        0
  3

  0
XRECORD
  5
1B66
102
{ACAD_REACTORS
330
1B65
102
}
330
1B65
100
AcDbXrecord
280
     1
102
RTVSPropertyOp0
 70
     1
102
RTVSPropertyOp1
 70
     1
102
RTVSPropertyOp2
 70
     1
102
RTVSPropertyOp3
 70
     1
102
RTVSPropertyOp4
 70
     1
102
RTVSPropertyOp5
 70
     1
102
RTVSPropertyOp6
 70
     1
102
RTVSPropertyOp7
 70
     1
102
RTVSPropertyOp8
 70
     1
102
RTVSPropertyOp9
 70
     1
102
RTVSPropertyOp10
 70
     1
102
RTVSPropertyOp11
 70
     1
102
RTVSPropertyOp12
 70
     1
102
RTVSPropertyOp13
 70
     1
102
RTVSPropertyOp14
 70
     1
102
RTVSPropertyOp15
 70
     1
102
RTVSPropertyOp16
 70
     1
102
RTVSPropertyOp17
 70
     1
102
RTVSPropertyOp18
 70
     1
102
RTVSPropertyOp19
 70
     1
102
RTVSPropertyOp20
 70
     1
102
RTVSPropertyOp21
 70
     1
102
RTVSPropertyOp22
 70
     1
102
RTVSPropertyOp23
 70
     1
102
RTVSPropertyOp24
 70
     1
102
RTVSPropertyOp25
 70
     1
102
RTVSPropertyOp26
 70
     1
102
RTVSPropertyOp27
 70
     1
  0
XRECORD
  5
1B6A
102
{ACAD_REACTORS
330
1B69
102
}
330
1B69
100
AcDbXrecord
280
     1
102
RTVSPropertyOp0
 70
     1
102
RTVSPropertyOp1
 70
     1
102
RTVSPropertyOp2
 70
     1
102
RTVSPropertyOp3
 70
     1
102
RTVSPropertyOp4
 70
     1
102
RTVSPropertyOp5
 70
     1
102
RTVSPropertyOp6
 70
     1
102
RTVSPropertyOp7
 70
     1
102
RTVSPropertyOp8
 70
     1
102
RTVSPropertyOp9
 70
     1
102
RTVSPropertyOp10
 70
     1
102
RTVSPropertyOp11
 70
     1
102
RTVSPropertyOp12
 70
     1
102
RTVSPropertyOp13
 70
     1
102
RTVSPropertyOp14
 70
     1
102
RTVSPropertyOp15
 70
     1
102
RTVSPropertyOp16
 70
     1
102
RTVSPropertyOp17
 70
     1
102
RTVSPropertyOp18
 70
     1
102
RTVSPropertyOp19
 70
     1
102
RTVSPropertyOp20
 70
     1
102
RTVSPropertyOp21
 70
     1
102
RTVSPropertyOp22
 70
     1
102
RTVSPropertyOp23
 70
     1
102
RTVSPropertyOp24
 70
     1
102
RTVSPropertyOp25
 70
     1
102
RTVSPropertyOp26
 70
     1
102
RTVSPropertyOp27
 70
     1
  0
XRECORD
  5
1B68
102
{ACAD_REACTORS
330
1B67
102
}
330
1B67
100
AcDbXrecord
280
     1
102
RTVSPropertyOp0
 70
     1
102
RTVSPropertyOp1
 70
     1
102
RTVSPropertyOp2
 70
     1
102
RTVSPropertyOp3
 70
     1
102
RTVSPropertyOp4
 70
     1
102
RTVSPropertyOp5
 70
     1
102
RTVSPropertyOp6
 70
     1
102
RTVSPropertyOp7
 70
     1
102
RTVSPropertyOp8
 70
     1
102
RTVSPropertyOp9
 70
     1
102
RTVSPropertyOp10
 70
     1
102
RTVSPropertyOp11
 70
     1
102
RTVSPropertyOp12
 70
     1
102
RTVSPropertyOp13
 70
     1
102
RTVSPropertyOp14
 70
     1
102
RTVSPropertyOp15
 70
     1
102
RTVSPropertyOp16
 70
     1
102
RTVSPropertyOp17
 70
     1
102
RTVSPropertyOp18
 70
     1
102
RTVSPropertyOp19
 70
     1
102
RTVSPropertyOp20
 70
     1
102
RTVSPropertyOp21
 70
     1
102
RTVSPropertyOp22
 70
     1
102
RTVSPropertyOp23
 70
     1
102
RTVSPropertyOp24
 70
     1
102
RTVSPropertyOp25
 70
     1
102
RTVSPropertyOp26
 70
     1
102
RTVSPropertyOp27
 70
     1
  0
XRECORD
  5
1B64
102
{ACAD_REACTORS
330
1B63
102
}
330
1B63
100
AcDbXrecord
280
     1
102
RTVSPropertyOp0
 70
     1
102
RTVSPropertyOp1
 70
     1
102
RTVSPropertyOp2
 70
     1
102
RTVSPropertyOp3
 70
     1
102
RTVSPropertyOp4
 70
     1
102
RTVSPropertyOp5
 70
     1
102
RTVSPropertyOp6
 70
     1
102
RTVSPropertyOp7
 70
     1
102
RTVSPropertyOp8
 70
     1
102
RTVSPropertyOp9
 70
     1
102
RTVSPropertyOp10
 70
     1
102
RTVSPropertyOp11
 70
     1
102
RTVSPropertyOp12
 70
     1
102
RTVSPropertyOp13
 70
     1
102
RTVSPropertyOp14
 70
     1
102
RTVSPropertyOp15
 70
     1
102
RTVSPropertyOp16
 70
     1
102
RTVSPropertyOp17
 70
     1
102
RTVSPropertyOp18
 70
     1
102
RTVSPropertyOp19
 70
     1
102
RTVSPropertyOp20
 70
     1
102
RTVSPropertyOp21
 70
     1
102
RTVSPropertyOp22
 70
     1
102
RTVSPropertyOp23
 70
     1
102
RTVSPropertyOp24
 70
     1
102
RTVSPropertyOp25
 70
     1
102
RTVSPropertyOp26
 70
     1
102
RTVSPropertyOp27
 70
     1
  0
XRECORD
  5
1B72
102
{ACAD_REACTORS
330
1B71
102
}
330
1B71
100
AcDbXrecord
280
     1
102
RTVSPropertyOp0
 70
     1
102
RTVSPropertyOp1
 70
     1
102
RTVSPropertyOp2
 70
     1
102
RTVSPropertyOp3
 70
     1
102
RTVSPropertyOp4
 70
     1
102
RTVSPropertyOp5
 70
     1
102
RTVSPropertyOp6
 70
     1
102
RTVSPropertyOp7
 70
     1
102
RTVSPropertyOp8
 70
     1
102
RTVSPropertyOp9
 70
     1
102
RTVSPropertyOp10
 70
     1
102
RTVSPropertyOp11
 70
     1
102
RTVSPropertyOp12
 70
     1
102
RTVSPropertyOp13
 70
     1
102
RTVSPropertyOp14
 70
     1
102
RTVSPropertyOp15
 70
     1
102
RTVSPropertyOp16
 70
     1
102
RTVSPropertyOp17
 70
     1
102
RTVSPropertyOp18
 70
     1
102
RTVSPropertyOp19
 70
     1
102
RTVSPropertyOp20
 70
     1
102
RTVSPropertyOp21
 70
     1
102
RTVSPropertyOp22
 70
     1
102
RTVSPropertyOp23
 70
     1
102
RTVSPropertyOp24
 70
     1
102
RTVSPropertyOp25
 70
     1
102
RTVSPropertyOp26
 70
     1
102
RTVSPropertyOp27
 70
     1
  0
XRECORD
  5
1B7A
102
{ACAD_REACTORS
330
1B79
102
}
330
1B79
100
AcDbXrecord
280
     1
102
RTVSPropertyOp0
 70
     1
102
RTVSPropertyOp1
 70
     1
102
RTVSPropertyOp2
 70
     1
102
RTVSPropertyOp3
 70
     1
102
RTVSPropertyOp4
 70
     1
102
RTVSPropertyOp5
 70
     1
102
RTVSPropertyOp6
 70
     1
102
RTVSPropertyOp7
 70
     1
102
RTVSPropertyOp8
 70
     1
102
RTVSPropertyOp9
 70
     1
102
RTVSPropertyOp10
 70
     1
102
RTVSPropertyOp11
 70
     1
102
RTVSPropertyOp12
 70
     1
102
RTVSPropertyOp13
 70
     1
102
RTVSPropertyOp14
 70
     1
102
RTVSPropertyOp15
 70
     1
102
RTVSPropertyOp16
 70
     1
102
RTVSPropertyOp17
 70
     1
102
RTVSPropertyOp18
 70
     1
102
RTVSPropertyOp19
 70
     1
102
RTVSPropertyOp20
 70
     1
102
RTVSPropertyOp21
 70
     1
102
RTVSPropertyOp22
 70
     1
102
RTVSPropertyOp23
 70
     1
102
RTVSPropertyOp24
 70
     1
102
RTVSPropertyOp25
 70
     1
102
RTVSPropertyOp26
 70
     1
102
RTVSPropertyOp27
 70
     1
  0
XRECORD
  5
1B6C
102
{ACAD_REACTORS
330
1B6B
102
}
330
1B6B
100
AcDbXrecord
280
     1
102
RTVSPropertyOp0
 70
     1
102
RTVSPropertyOp1
 70
     1
102
RTVSPropertyOp2
 70
     1
102
RTVSPropertyOp3
 70
     1
102
RTVSPropertyOp4
 70
     1
102
RTVSPropertyOp5
 70
     1
102
RTVSPropertyOp6
 70
     1
102
RTVSPropertyOp7
 70
     1
102
RTVSPropertyOp8
 70
     1
102
RTVSPropertyOp9
 70
     1
102
RTVSPropertyOp10
 70
     1
102
RTVSPropertyOp11
 70
     1
102
RTVSPropertyOp12
 70
     1
102
RTVSPropertyOp13
 70
     1
102
RTVSPropertyOp14
 70
     1
102
RTVSPropertyOp15
 70
     1
102
RTVSPropertyOp16
 70
     1
102
RTVSPropertyOp17
 70
     1
102
RTVSPropertyOp18
 70
     1
102
RTVSPropertyOp19
 70
     1
102
RTVSPropertyOp20
 70
     1
102
RTVSPropertyOp21
 70
     1
102
RTVSPropertyOp22
 70
     1
102
RTVSPropertyOp23
 70
     1
102
RTVSPropertyOp24
 70
     1
102
RTVSPropertyOp25
 70
     1
102
RTVSPropertyOp26
 70
     1
102
RTVSPropertyOp27
 70
     1
  0
XRECORD
  5
1B70
102
{ACAD_REACTORS
330
1B6F
102
}
330
1B6F
100
AcDbXrecord
280
     1
102
RTVSPropertyOp0
 70
     1
102
RTVSPropertyOp1
 70
     1
102
RTVSPropertyOp2
 70
     1
102
RTVSPropertyOp3
 70
     1
102
RTVSPropertyOp4
 70
     1
102
RTVSPropertyOp5
 70
     1
102
RTVSPropertyOp6
 70
     1
102
RTVSPropertyOp7
 70
     1
102
RTVSPropertyOp8
 70
     1
102
RTVSPropertyOp9
 70
     1
102
RTVSPropertyOp10
 70
     1
102
RTVSPropertyOp11
 70
     1
102
RTVSPropertyOp12
 70
     1
102
RTVSPropertyOp13
 70
     1
102
RTVSPropertyOp14
 70
     1
102
RTVSPropertyOp15
 70
     1
102
RTVSPropertyOp16
 70
     1
102
RTVSPropertyOp17
 70
     1
102
RTVSPropertyOp18
 70
     1
102
RTVSPropertyOp19
 70
     1
102
RTVSPropertyOp20
 70
     1
102
RTVSPropertyOp21
 70
     1
102
RTVSPropertyOp22
 70
     1
102
RTVSPropertyOp23
 70
     1
102
RTVSPropertyOp24
 70
     1
102
RTVSPropertyOp25
 70
     1
102
RTVSPropertyOp26
 70
     1
102
RTVSPropertyOp27
 70
     1
  0
XRECORD
  5
1B80
102
{ACAD_REACTORS
330
1B7F
102
}
330
1B7F
100
AcDbXrecord
280
     1
102
RTVSPropertyOp0
 70
     0
102
RTVSPropertyOp1
 70
     0
102
RTVSPropertyOp2
 70
     0
102
RTVSPropertyOp3
 70
     0
102
RTVSPropertyOp4
 70
     0
102
RTVSPropertyOp5
 70
     0
102
RTVSPropertyOp6
 70
     0
102
RTVSPropertyOp7
 70
     0
102
RTVSPropertyOp8
 70
     0
102
RTVSPropertyOp9
 70
     0
102
RTVSPropertyOp10
 70
     0
102
RTVSPropertyOp11
 70
     0
102
RTVSPropertyOp12
 70
     0
102
RTVSPropertyOp13
 70
     0
102
RTVSPropertyOp14
 70
     2
102
RTVSPropertyOp15
 70
     0
102
RTVSPropertyOp16
 70
     0
102
RTVSPropertyOp17
 70
     0
102
RTVSPropertyOp18
 70
     0
102
RTVSPropertyOp19
 70
     0
102
RTVSPropertyOp20
 70
     0
102
RTVSPropertyOp21
 70
     0
102
RTVSPropertyOp22
 70
     0
102
RTVSPropertyOp23
 70
     0
102
RTVSPropertyOp24
 70
     0
102
RTVSPropertyOp25
 70
     0
102
RTVSPropertyOp26
 70
     0
102
RTVSPropertyOp27
 70
     0
  0
XRECORD
  5
1B78
102
{ACAD_REACTORS
330
1B77
102
}
330
1B77
100
AcDbXrecord
280
     1
102
RTVSPropertyOp0
 70
     1
102
RTVSPropertyOp1
 70
     1
102
RTVSPropertyOp2
 70
     1
102
RTVSPropertyOp3
 70
     1
102
RTVSPropertyOp4
 70
     1
102
RTVSPropertyOp5
 70
     1
102
RTVSPropertyOp6
 70
     1
102
RTVSPropertyOp7
 70
     1
102
RTVSPropertyOp8
 70
     1
102
RTVSPropertyOp9
 70
     1
102
RTVSPropertyOp10
 70
     1
102
RTVSPropertyOp11
 70
     1
102
RTVSPropertyOp12
 70
     1
102
RTVSPropertyOp13
 70
     1
102
RTVSPropertyOp14
 70
     1
102
RTVSPropertyOp15
 70
     1
102
RTVSPropertyOp16
 70
     1
102
RTVSPropertyOp17
 70
     1
102
RTVSPropertyOp18
 70
     1
102
RTVSPropertyOp19
 70
     1
102
RTVSPropertyOp20
 70
     1
102
RTVSPropertyOp21
 70
     1
102
RTVSPropertyOp22
 70
     1
102
RTVSPropertyOp23
 70
     1
102
RTVSPropertyOp24
 70
     1
102
RTVSPropertyOp25
 70
     1
102
RTVSPropertyOp26
 70
     1
102
RTVSPropertyOp27
 70
     1
  0
XRECORD
  5
1B5C
102
{ACAD_REACTORS
330
1B5B
102
}
330
1B5B
100
AcDbXrecord
280
     1
102
RTVSPropertyOp0
 70
     1
102
RTVSPropertyOp1
 70
     1
102
RTVSPropertyOp2
 70
     1
102
RTVSPropertyOp3
 70
     1
102
RTVSPropertyOp4
 70
     1
102
RTVSPropertyOp5
 70
     1
102
RTVSPropertyOp6
 70
     1
102
RTVSPropertyOp7
 70
     1
102
RTVSPropertyOp8
 70
     1
102
RTVSPropertyOp9
 70
     1
102
RTVSPropertyOp10
 70
     1
102
RTVSPropertyOp11
 70
     1
102
RTVSPropertyOp12
 70
     1
102
RTVSPropertyOp13
 70
     1
102
RTVSPropertyOp14
 70
     1
102
RTVSPropertyOp15
 70
     1
102
RTVSPropertyOp16
 70
     1
102
RTVSPropertyOp17
 70
     1
102
RTVSPropertyOp18
 70
     1
102
RTVSPropertyOp19
 70
     1
102
RTVSPropertyOp20
 70
     1
102
RTVSPropertyOp21
 70
     1
102
RTVSPropertyOp22
 70
     1
102
RTVSPropertyOp23
 70
     1
102
RTVSPropertyOp24
 70
     1
102
RTVSPropertyOp25
 70
     1
102
RTVSPropertyOp26
 70
     1
102
RTVSPropertyOp27
 70
     1
  0
XRECORD
  5
1B5E
102
{ACAD_REACTORS
330
1B5D
102
}
330
1B5D
100
AcDbXrecord
280
     1
102
RTVSPropertyOp0
 70
     1
102
RTVSPropertyOp1
 70
     1
102
RTVSPropertyOp2
 70
     1
102
RTVSPropertyOp3
 70
     1
102
RTVSPropertyOp4
 70
     1
102
RTVSPropertyOp5
 70
     1
102
RTVSPropertyOp6
 70
     1
102
RTVSPropertyOp7
 70
     1
102
RTVSPropertyOp8
 70
     1
102
RTVSPropertyOp9
 70
     1
102
RTVSPropertyOp10
 70
     1
102
RTVSPropertyOp11
 70
     1
102
RTVSPropertyOp12
 70
     1
102
RTVSPropertyOp13
 70
     1
102
RTVSPropertyOp14
 70
     1
102
RTVSPropertyOp15
 70
     1
102
RTVSPropertyOp16
 70
     1
102
RTVSPropertyOp17
 70
     1
102
RTVSPropertyOp18
 70
     1
102
RTVSPropertyOp19
 70
     1
102
RTVSPropertyOp20
 70
     1
102
RTVSPropertyOp21
 70
     1
102
RTVSPropertyOp22
 70
     1
102
RTVSPropertyOp23
 70
     1
102
RTVSPropertyOp24
 70
     1
102
RTVSPropertyOp25
 70
     1
102
RTVSPropertyOp26
 70
     1
102
RTVSPropertyOp27
 70
     1
  0
XRECORD
  5
1B60
102
{ACAD_REACTORS
330
1B5F
102
}
330
1B5F
100
AcDbXrecord
280
     1
102
RTVSPropertyOp0
 70
     1
102
RTVSPropertyOp1
 70
     1
102
RTVSPropertyOp2
 70
     1
102
RTVSPropertyOp3
 70
     1
102
RTVSPropertyOp4
 70
     1
102
RTVSPropertyOp5
 70
     1
102
RTVSPropertyOp6
 70
     1
102
RTVSPropertyOp7
 70
     1
102
RTVSPropertyOp8
 70
     1
102
RTVSPropertyOp9
 70
     1
102
RTVSPropertyOp10
 70
     1
102
RTVSPropertyOp11
 70
     1
102
RTVSPropertyOp12
 70
     1
102
RTVSPropertyOp13
 70
     1
102
RTVSPropertyOp14
 70
     1
102
RTVSPropertyOp15
 70
     1
102
RTVSPropertyOp16
 70
     1
102
RTVSPropertyOp17
 70
     1
102
RTVSPropertyOp18
 70
     1
102
RTVSPropertyOp19
 70
     1
102
RTVSPropertyOp20
 70
     1
102
RTVSPropertyOp21
 70
     1
102
RTVSPropertyOp22
 70
     1
102
RTVSPropertyOp23
 70
     1
102
RTVSPropertyOp24
 70
     1
102
RTVSPropertyOp25
 70
     1
102
RTVSPropertyOp26
 70
     1
102
RTVSPropertyOp27
 70
     1
  0
XRECORD
  5
1B62
102
{ACAD_REACTORS
330
1B61
102
}
330
1B61
100
AcDbXrecord
280
     1
102
RTVSPropertyOp0
 70
     1
102
RTVSPropertyOp1
 70
     1
102
RTVSPropertyOp2
 70
     1
102
RTVSPropertyOp3
 70
     1
102
RTVSPropertyOp4
 70
     1
102
RTVSPropertyOp5
 70
     1
102
RTVSPropertyOp6
 70
     1
102
RTVSPropertyOp7
 70
     1
102
RTVSPropertyOp8
 70
     1
102
RTVSPropertyOp9
 70
     1
102
RTVSPropertyOp10
 70
     1
102
RTVSPropertyOp11
 70
     1
102
RTVSPropertyOp12
 70
     1
102
RTVSPropertyOp13
 70
     1
102
RTVSPropertyOp14
 70
     1
102
RTVSPropertyOp15
 70
     1
102
RTVSPropertyOp16
 70
     1
102
RTVSPropertyOp17
 70
     1
102
RTVSPropertyOp18
 70
     1
102
RTVSPropertyOp19
 70
     1
102
RTVSPropertyOp20
 70
     1
102
RTVSPropertyOp21
 70
     1
102
RTVSPropertyOp22
 70
     1
102
RTVSPropertyOp23
 70
     1
102
RTVSPropertyOp24
 70
     1
102
RTVSPropertyOp25
 70
     1
102
RTVSPropertyOp26
 70
     1
102
RTVSPropertyOp27
 70
     1
  0
XRECORD
  5
1B7C
102
{ACAD_REACTORS
330
1B7B
102
}
330
1B7B
100
AcDbXrecord
280
     1
102
RTVSPropertyOp0
 70
     0
102
RTVSPropertyOp1
 70
     0
102
RTVSPropertyOp2
 70
     0
102
RTVSPropertyOp3
 70
     0
102
RTVSPropertyOp4
 70
     0
102
RTVSPropertyOp5
 70
     0
102
RTVSPropertyOp6
 70
     0
102
RTVSPropertyOp7
 70
     0
102
RTVSPropertyOp8
 70
     0
102
RTVSPropertyOp9
 70
     0
102
RTVSPropertyOp10
 70
     0
102
RTVSPropertyOp11
 70
     0
102
RTVSPropertyOp12
 70
     0
102
RTVSPropertyOp13
 70
     0
102
RTVSPropertyOp14
 70
     2
102
RTVSPropertyOp15
 70
     0
102
RTVSPropertyOp16
 70
     0
102
RTVSPropertyOp17
 70
     0
102
RTVSPropertyOp18
 70
     0
102
RTVSPropertyOp19
 70
     0
102
RTVSPropertyOp20
 70
     0
102
RTVSPropertyOp21
 70
     0
102
RTVSPropertyOp22
 70
     0
102
RTVSPropertyOp23
 70
     0
102
RTVSPropertyOp24
 70
     0
102
RTVSPropertyOp25
 70
     0
102
RTVSPropertyOp26
 70
     0
102
RTVSPropertyOp27
 70
     0
  0
XRECORD
  5
1B76
102
{ACAD_REACTORS
330
1B75
102
}
330
1B75
100
AcDbXrecord
280
     1
102
RTVSPropertyOp0
 70
     1
102
RTVSPropertyOp1
 70
     1
102
RTVSPropertyOp2
 70
     1
102
RTVSPropertyOp3
 70
     1
102
RTVSPropertyOp4
 70
     1
102
RTVSPropertyOp5
 70
     1
102
RTVSPropertyOp6
 70
     1
102
RTVSPropertyOp7
 70
     1
102
RTVSPropertyOp8
 70
     1
102
RTVSPropertyOp9
 70
     1
102
RTVSPropertyOp10
 70
     1
102
RTVSPropertyOp11
 70
     1
102
RTVSPropertyOp12
 70
     1
102
RTVSPropertyOp13
 70
     1
102
RTVSPropertyOp14
 70
     1
102
RTVSPropertyOp15
 70
     1
102
RTVSPropertyOp16
 70
     1
102
RTVSPropertyOp17
 70
     1
102
RTVSPropertyOp18
 70
     1
102
RTVSPropertyOp19
 70
     1
102
RTVSPropertyOp20
 70
     1
102
RTVSPropertyOp21
 70
     1
102
RTVSPropertyOp22
 70
     1
102
RTVSPropertyOp23
 70
     1
102
RTVSPropertyOp24
 70
     1
102
RTVSPropertyOp25
 70
     1
102
RTVSPropertyOp26
 70
     1
102
RTVSPropertyOp27
 70
     1
  0
XRECORD
  5
1B7E
102
{ACAD_REACTORS
330
1B7D
102
}
330
1B7D
100
AcDbXrecord
280
     1
102
RTVSPropertyOp0
 70
     0
102
RTVSPropertyOp1
 70
     0
102
RTVSPropertyOp2
 70
     0
102
RTVSPropertyOp3
 70
     0
102
RTVSPropertyOp4
 70
     0
102
RTVSPropertyOp5
 70
     0
102
RTVSPropertyOp6
 70
     0
102
RTVSPropertyOp7
 70
     0
102
RTVSPropertyOp8
 70
     0
102
RTVSPropertyOp9
 70
     0
102
RTVSPropertyOp10
 70
     0
102
RTVSPropertyOp11
 70
     0
102
RTVSPropertyOp12
 70
     0
102
RTVSPropertyOp13
 70
     0
102
RTVSPropertyOp14
 70
     2
102
RTVSPropertyOp15
 70
     0
102
RTVSPropertyOp16
 70
     0
102
RTVSPropertyOp17
 70
     0
102
RTVSPropertyOp18
 70
     0
102
RTVSPropertyOp19
 70
     0
102
RTVSPropertyOp20
 70
     0
102
RTVSPropertyOp21
 70
     0
102
RTVSPropertyOp22
 70
     0
102
RTVSPropertyOp23
 70
     0
102
RTVSPropertyOp24
 70
     0
102
RTVSPropertyOp25
 70
     0
102
RTVSPropertyOp26
 70
     0
102
RTVSPropertyOp27
 70
     0
  0
XRECORD
  5
1B6E
102
{ACAD_REACTORS
330
1B6D
102
}
330
1B6D
100
AcDbXrecord
280
     1
102
RTVSPropertyOp0
 70
     1
102
RTVSPropertyOp1
 70
     1
102
RTVSPropertyOp2
 70
     1
102
RTVSPropertyOp3
 70
     1
102
RTVSPropertyOp4
 70
     1
102
RTVSPropertyOp5
 70
     1
102
RTVSPropertyOp6
 70
     1
102
RTVSPropertyOp7
 70
     1
102
RTVSPropertyOp8
 70
     1
102
RTVSPropertyOp9
 70
     1
102
RTVSPropertyOp10
 70
     1
102
RTVSPropertyOp11
 70
     1
102
RTVSPropertyOp12
 70
     1
102
RTVSPropertyOp13
 70
     1
102
RTVSPropertyOp14
 70
     1
102
RTVSPropertyOp15
 70
     1
102
RTVSPropertyOp16
 70
     1
102
RTVSPropertyOp17
 70
     1
102
RTVSPropertyOp18
 70
     1
102
RTVSPropertyOp19
 70
     1
102
RTVSPropertyOp20
 70
     1
102
RTVSPropertyOp21
 70
     1
102
RTVSPropertyOp22
 70
     1
102
RTVSPropertyOp23
 70
     1
102
RTVSPropertyOp24
 70
     1
102
RTVSPropertyOp25
 70
     1
102
RTVSPropertyOp26
 70
     1
102
RTVSPropertyOp27
 70
     1
  0
XRECORD
  5
1B74
102
{ACAD_REACTORS
330
1B73
102
}
330
1B73
100
AcDbXrecord
280
     1
102
RTVSPropertyOp0
 70
     1
102
RTVSPropertyOp1
 70
     1
102
RTVSPropertyOp2
 70
     1
102
RTVSPropertyOp3
 70
     1
102
RTVSPropertyOp4
 70
     1
102
RTVSPropertyOp5
 70
     1
102
RTVSPropertyOp6
 70
     1
102
RTVSPropertyOp7
 70
     1
102
RTVSPropertyOp8
 70
     1
102
RTVSPropertyOp9
 70
     1
102
RTVSPropertyOp10
 70
     1
102
RTVSPropertyOp11
 70
     1
102
RTVSPropertyOp12
 70
     1
102
RTVSPropertyOp13
 70
     1
102
RTVSPropertyOp14
 70
     1
102
RTVSPropertyOp15
 70
     1
102
RTVSPropertyOp16
 70
     1
102
RTVSPropertyOp17
 70
     1
102
RTVSPropertyOp18
 70
     1
102
RTVSPropertyOp19
 70
     1
102
RTVSPropertyOp20
 70
     1
102
RTVSPropertyOp21
 70
     1
102
RTVSPropertyOp22
 70
     1
102
RTVSPropertyOp23
 70
     1
102
RTVSPropertyOp24
 70
     1
102
RTVSPropertyOp25
 70
     1
102
RTVSPropertyOp26
 70
     1
102
RTVSPropertyOp27
 70
     1
  0
ENDSEC
  0
EOF
