  0
SECTION
  2
HEADER
  9
$ACADVER
  1
AC1021
  9
$ACADMAINTVER
 70
    50
  9
$DWGCODEPAGE
  3
ANSI_1252
  9
$LASTSAVEDBY
  1
francoisbu
  9
$INSBASE
 10
0.0
 20
0.0
 30
0.0
  9
$EXTMIN
 10
20.91243534237441
 20
24.89143910424167
 30
-0.0000000349181948
  9
$EXTMAX
 10
85.00830109129692
 20
49.62532571518472
 30
0.0000000814935746
  9
$LIMMIN
 10
0.0
 20
0.0
  9
$LIMMAX
 10
181.3333333333
 20
117.3333333333
  9
$ORTHOMODE
 70
     0
  9
$REGENMODE
 70
     1
  9
$FILLMODE
 70
     1
  9
$QTEXTMODE
 70
     0
  9
$MIRRTEXT
 70
     0
  9
$LTSCALE
 40
9.973333333300001
  9
$ATTMODE
 70
     1
  9
$TEXTSIZE
 40
0.2
  9
$TRACEWID
 40
0.05
  9
$TEXTSTYLE
  7
STANDARD
  9
$CLAYER
  8
0
  9
$CELTYPE
  6
BYLAYER
  9
$CECOLOR
 62
   256
  9
$CELTSCALE
 40
1.0
  9
$DISPSILH
 70
     0
  9
$DIMSCALE
 40
1.0
  9
$DIMASZ
 40
2.0
  9
$DIMEXO
 40
0.0625
  9
$DIMDLI
 40
6.890666666699999
  9
$DIMRND
 40
0.0
  9
$DIMDLE
 40
0.0
  9
$DIMEXE
 40
0.125
  9
$DIMTP
 40
0.00001
  9
$DIMTM
 40
0.00001
  9
$DIMTXT
 40
1.333333333299999
  9
$DIMCEN
 40
1.631999999999999
  9
$DIMTSZ
 40
0.0
  9
$DIMTOL
 70
     1
  9
$DIMLIM
 70
     0
  9
$DIMTIH
 70
     1
  9
$DIMTOH
 70
     1
  9
$DIMSE1
 70
     0
  9
$DIMSE2
 70
     0
  9
$DIMTAD
 70
     0
  9
$DIMZIN
 70
     0
  9
$DIMBLK
  1
_FILLED
  9
$DIMASO
 70
     1
  9
$DIMSHO
 70
     1
  9
$DIMPOST
  1

  9
$DIMAPOST
  1

  9
$DIMALT
 70
     0
  9
$DIMALTD
 70
     2
  9
$DIMALTF
 40
25.4
  9
$DIMLFAC
 40
1.0
  9
$DIMTOFL
 70
     0
  9
$DIMTVP
 40
0.0
  9
$DIMTIX
 70
     0
  9
$DIMSOXD
 70
     0
  9
$DIMSAH
 70
     0
  9
$DIMBLK1
  1

  9
$DIMBLK2
  1

  9
$DIMSTYLE
  2
STANDARD
  9
$DIMCLRD
 70
     0
  9
$DIMCLRE
 70
     0
  9
$DIMCLRT
 70
     0
  9
$DIMTFAC
 40
1.0
  9
$DIMGAP
 40
0.09
  9
$DIMJUST
 70
     0
  9
$DIMSD1
 70
     0
  9
$DIMSD2
 70
     0
  9
$DIMTOLJ
 70
     1
  9
$DIMTZIN
 70
     0
  9
$DIMALTZ
 70
     0
  9
$DIMALTTZ
 70
     0
  9
$DIMUPT
 70
     0
  9
$DIMDEC
 70
     4
  9
$DIMTDEC
 70
     4
  9
$DIMALTU
 70
     2
  9
$DIMALTTD
 70
     2
  9
$DIMTXSTY
  7
STANDARD
  9
$DIMAUNIT
 70
     0
  9
$DIMADEC
 70
     0
  9
$DIMALTRND
 40
0.0
  9
$DIMAZIN
 70
     0
  9
$DIMDSEP
 70
    46
  9
$DIMATFIT
 70
     3
  9
$DIMFRAC
 70
     0
  9
$DIMLDRBLK
  1

  9
$DIMLUNIT
 70
     2
  9
$DIMLWD
 70
    -2
  9
$DIMLWE
 70
    -2
  9
$DIMTMOVE
 70
     0
  9
$DIMFXL
 40
1.0
  9
$DIMFXLON
 70
     0
  9
$DIMJOGANG
 40
0.7853981633974483
  9
$DIMTFILL
 70
     0
  9
$DIMTFILLCLR
 70
     0
  9
$DIMARCSYM
 70
     0
  9
$DIMLTYPE
  6

  9
$DIMLTEX1
  6

  9
$DIMLTEX2
  6

  9
$LUNITS
 70
     2
  9
$LUPREC
 70
     4
  9
$SKETCHINC
 40
0.1
  9
$FILLETRAD
 40
0.0
  9
$AUNITS
 70
     0
  9
$AUPREC
 70
     0
  9
$MENU
  1
.
  9
$ELEVATION
 40
0.0
  9
$PELEVATION
 40
0.0
  9
$THICKNESS
 40
0.0
  9
$LIMCHECK
 70
     0
  9
$CHAMFERA
 40
0.0
  9
$CHAMFERB
 40
0.0
  9
$CHAMFERC
 40
0.0
  9
$CHAMFERD
 40
0.0
  9
$SKPOLY
 70
     0
  9
$TDCREATE
 40
2456966.607491713
  9
$TDUCREATE
 40
2456966.815825047
  9
$TDUPDATE
 40
2456966.622610359
  9
$TDUUPDATE
 40
2456966.830943692
  9
$TDINDWG
 40
0.0045515625
  9
$TDUSRTIMER
 40
0.0045515625
  9
$USRTIMER
 70
     1
  9
$ANGBASE
 50
0.0
  9
$ANGDIR
 70
     0
  9
$PDMODE
 70
     3
  9
$PDSIZE
 40
0.03125
  9
$PLINEWID
 40
0.0
  9
$SPLFRAME
 70
     0
  9
$SPLINETYPE
 70
     6
  9
$SPLINESEGS
 70
     8
  9
$HANDSEED
  5
16A4
  9
$SURFTAB1
 70
     6
  9
$SURFTAB2
 70
     6
  9
$SURFTYPE
 70
     6
  9
$SURFU
 70
     6
  9
$SURFV
 70
     6
  9
$UCSBASE
  2

  9
$UCSNAME
  2

  9
$UCSORG
 10
0.0
 20
0.0
 30
0.0
  9
$UCSXDIR
 10
1.0
 20
0.0
 30
0.0
  9
$UCSYDIR
 10
0.0
 20
1.0
 30
0.0
  9
$UCSORTHOREF
  2

  9
$UCSORTHOVIEW
 70
     0
  9
$UCSORGTOP
 10
0.0
 20
0.0
 30
0.0
  9
$UCSORGBOTTOM
 10
0.0
 20
0.0
 30
0.0
  9
$UCSORGLEFT
 10
0.0
 20
0.0
 30
0.0
  9
$UCSORGRIGHT
 10
0.0
 20
0.0
 30
0.0
  9
$UCSORGFRONT
 10
0.0
 20
0.0
 30
0.0
  9
$UCSORGBACK
 10
0.0
 20
0.0
 30
0.0
  9
$PUCSBASE
  2

  9
$PUCSNAME
  2

  9
$PUCSORG
 10
0.0
 20
0.0
 30
0.0
  9
$PUCSXDIR
 10
1.0
 20
0.0
 30
0.0
  9
$PUCSYDIR
 10
0.0
 20
1.0
 30
0.0
  9
$PUCSORTHOREF
  2

  9
$PUCSORTHOVIEW
 70
     0
  9
$PUCSORGTOP
 10
0.0
 20
0.0
 30
0.0
  9
$PUCSORGBOTTOM
 10
0.0
 20
0.0
 30
0.0
  9
$PUCSORGLEFT
 10
0.0
 20
0.0
 30
0.0
  9
$PUCSORGRIGHT
 10
0.0
 20
0.0
 30
0.0
  9
$PUCSORGFRONT
 10
0.0
 20
0.0
 30
0.0
  9
$PUCSORGBACK
 10
0.0
 20
0.0
 30
0.0
  9
$USERI1
 70
     0
  9
$USERI2
 70
     0
  9
$USERI3
 70
     0
  9
$USERI4
 70
     0
  9
$USERI5
 70
     0
  9
$USERR1
 40
0.0
  9
$USERR2
 40
0.0
  9
$USERR3
 40
0.0
  9
$USERR4
 40
0.0
  9
$USERR5
 40
0.0
  9
$WORLDVIEW
 70
     1
  9
$SHADEDGE
 70
     3
  9
$SHADEDIF
 70
    70
  9
$TILEMODE
 70
     1
  9
$MAXACTVP
 70
    64
  9
$PINSBASE
 10
0.0
 20
0.0
 30
0.0
  9
$PLIMCHECK
 70
     0
  9
$PEXTMIN
 10
1.000000000000000E+20
 20
1.000000000000000E+20
 30
1.000000000000000E+20
  9
$PEXTMAX
 10
-1.000000000000000E+20
 20
-1.000000000000000E+20
 30
-1.000000000000000E+20
  9
$PLIMMIN
 10
0.0
 20
0.0
  9
$PLIMMAX
 10
12.0
 20
9.0
  9
$UNITMODE
 70
     0
  9
$VISRETAIN
 70
     1
  9
$PLINEGEN
 70
     0
  9
$PSLTSCALE
 70
     1
  9
$TREEDEPTH
 70
  3020
  9
$CMLSTYLE
  2
Standard
  9
$CMLJUST
 70
     0
  9
$CMLSCALE
 40
1.0
  9
$PROXYGRAPHICS
 70
     1
  9
$MEASUREMENT
 70
     0
  9
$CELWEIGHT
370
    -1
  9
$ENDCAPS
280
     0
  9
$JOINSTYLE
280
     0
  9
$LWDISPLAY
290
     0
  9
$INSUNITS
 70
     1
  9
$HYPERLINKBASE
  1

  9
$STYLESHEET
  1

  9
$XEDIT
290
     1
  9
$CEPSNTYPE
380
     0
  9
$PSTYLEMODE
290
     1
  9
$FINGERPRINTGUID
  2
{AE8E2B7D-3705-4BF7-94C9-3D4DB3ABA4F9}
  9
$VERSIONGUID
  2
{EE39FF99-C495-4623-BBF0-68DA6A5ECE9C}
  9
$EXTNAMES
290
     1
  9
$PSVPSCALE
 40
0.0
  9
$OLESTARTUP
290
     0
  9
$SORTENTS
280
   127
  9
$INDEXCTL
280
     0
  9
$HIDETEXT
280
     0
  9
$XCLIPFRAME
290
     0
  9
$HALOGAP
280
     0
  9
$OBSCOLOR
 70
   257
  9
$OBSLTYPE
280
     0
  9
$INTERSECTIONDISPLAY
280
     0
  9
$INTERSECTIONCOLOR
 70
   257
  9
$DIMASSOC
280
     1
  9
$PROJECTNAME
  1

  9
$CAMERADISPLAY
290
     0
  9
$LENSLENGTH
 40
50.0
  9
$CAMERAHEIGHT
 40
0.0
  9
$STEPSPERSEC
 40
2.0
  9
$STEPSIZE
 40
6.0
  9
$3DDWFPREC
 40
2.0
  9
$PSOLWIDTH
 40
0.25
  9
$PSOLHEIGHT
 40
4.0
  9
$LOFTANG1
 40
1.570796326794896
  9
$LOFTANG2
 40
1.570796326794896
  9
$LOFTMAG1
 40
0.0
  9
$LOFTMAG2
 40
0.0
  9
$LOFTPARAM
 70
     7
  9
$LOFTNORMALS
280
     1
  9
$LATITUDE
 40
37.795
  9
$LONGITUDE
 40
-122.394
  9
$NORTHDIRECTION
 40
0.0
  9
$TIMEZONE
 70
 -8000
  9
$LIGHTGLYPHDISPLAY
280
     1
  9
$TILEMODELIGHTSYNCH
280
     1
  9
$CMATERIAL
347
15B7
  9
$SOLIDHIST
280
     1
  9
$SHOWHIST
280
     1
  9
$DWFFRAME
280
     2
  9
$DGNFRAME
280
     0
  9
$REALWORLDSCALE
290
     1
  9
$INTERFERECOLOR
 62
     1
  9
$INTERFEREOBJVS
345
15D9
  9
$INTERFEREVPVS
346
15D6
  9
$CSHADOW
280
     0
  9
$SHADOWPLANELOCATION
 40
0.0
  0
ENDSEC
  0
SECTION
  2
CLASSES
  0
CLASS
  1
ACDBDICTIONARYWDFLT
  2
AcDbDictionaryWithDefault
  3
ObjectDBX Classes
 90
        0
 91
        1
280
     0
281
     0
  0
CLASS
  1
MATERIAL
  2
AcDbMaterial
  3
ObjectDBX Classes
 90
     1153
 91
        3
280
     0
281
     0
  0
CLASS
  1
VISUALSTYLE
  2
AcDbVisualStyle
  3
ObjectDBX Classes
 90
     4095
 91
       19
280
     0
281
     0
  0
CLASS
  1
TABLESTYLE
  2
AcDbTableStyle
  3
ObjectDBX Classes
 90
     4095
 91
        1
280
     0
281
     0
  0
CLASS
  1
SCALE
  2
AcDbScale
  3
ObjectDBX Classes
 90
     1153
 91
       33
280
     0
281
     0
  0
CLASS
  1
MLEADERSTYLE
  2
AcDbMLeaderStyle
  3
ACDB_MLEADERSTYLE_CLASS
 90
     4095
 91
        1
280
     0
281
     0
  0
CLASS
  1
CELLSTYLEMAP
  2
AcDbCellStyleMap
  3
ObjectDBX Classes
 90
     1152
 91
        2
280
     0
281
     0
  0
CLASS
  1
DICTIONARYVAR
  2
AcDbDictionaryVar
  3
ObjectDBX Classes
 90
        0
 91
       11
280
     0
281
     0
  0
ENDSEC
  0
SECTION
  2
TABLES
  0
TABLE
  2
VPORT
  5
8
102
{ACAD_XDICTIONARY
360
160D
102
}
330
0
100
AcDbSymbolTable
 70
     1
  0
VPORT
  5
1F4
330
8
100
AcDbSymbolTableRecord
100
AcDbViewportTableRecord
  2
*ACTIVE
 70
     0
 10
0.0
 20
0.0
 11
1.0
 21
1.0
 12
60.1844201543284
 22
38.23636438475566
 13
0.0
 23
0.0
 14
1.0
 24
1.0
 15
0.0
 25
0.0
 16
0.0
 26
0.0
 36
1.0
 17
0.0
 27
0.0
 37
0.0
 40
45.49747699315602
 41
1.780711825487944
 42
50.0
 43
0.0
 44
0.0
 50
0.0
 51
0.0
 71
     0
 72
   100
 73
     1
 74
     1
 75
     0
 76
     0
 77
     0
 78
     0
281
     0
 65
     1
110
0.0
120
0.0
130
0.0
111
1.0
121
0.0
131
0.0
112
0.0
122
1.0
132
0.0
 79
     0
146
0.0
348
15D5
 60
     3
 61
     5
292
     1
282
     1
141
0.0
142
0.0
 63
   250
421
  3355443
  0
ENDTAB
  0
TABLE
  2
LTYPE
  5
5
330
0
100
AcDbSymbolTable
 70
     6
  0
LTYPE
  5
14
330
5
100
AcDbSymbolTableRecord
100
AcDbLinetypeTableRecord
  2
BYBLOCK
 70
     0
  3

 72
    65
 73
     0
 40
0.0
  0
LTYPE
  5
15
330
5
100
AcDbSymbolTableRecord
100
AcDbLinetypeTableRecord
  2
BYLAYER
 70
     0
  3

 72
    65
 73
     0
 40
0.0
  0
LTYPE
  5
16
330
5
100
AcDbSymbolTableRecord
100
AcDbLinetypeTableRecord
  2
CONTINUOUS
 70
     0
  3
Solid line
 72
    65
 73
     0
 40
0.0
  0
LTYPE
  5
1F5
330
5
100
AcDbSymbolTableRecord
100
AcDbLinetypeTableRecord
  2
CENTER
 70
     0
  3
____ _ ____ _ ____ _ ____ _ ____ _ ____ _ ____
 72
    65
 73
     4
 40
0.6
 49
0.375
 74
     0
 49
-0.075
 74
     0
 49
0.075
 74
     0
 49
-0.075
 74
     0
  0
LTYPE
  5
1F6
330
5
100
AcDbSymbolTableRecord
100
AcDbLinetypeTableRecord
  2
HIDDEN
 70
     0
  3
- - - - - - - - - - - - - - - - - - - -
 72
    65
 73
     2
 40
0.2
 49
0.1
 74
     0
 49
-0.1
 74
     0
  0
LTYPE
  5
1F7
330
5
100
AcDbSymbolTableRecord
100
AcDbLinetypeTableRecord
  2
PHANTOM
 70
     0
  3
_____ _ _ _____ _ _ _____ _ _ _____
 72
    65
 73
     6
 40
0.8
 49
0.45
 74
     0
 49
-0.05
 74
     0
 49
0.1
 74
     0
 49
-0.05
 74
     0
 49
0.1
 74
     0
 49
-0.05
 74
     0
  0
LTYPE
  5
1F8
330
5
100
AcDbSymbolTableRecord
100
AcDbLinetypeTableRecord
  2
DOT
 70
     0
  3
. . . . . . . . . . . . . . . . . . . .
 72
    65
 73
     2
 40
0.2
 49
0.1
 74
     0
 49
-0.1
 74
     0
  0
LTYPE
  5
1F9
330
5
100
AcDbSymbolTableRecord
100
AcDbLinetypeTableRecord
  2
DASHED
 70
     0
  3
- - - - - - - - - - - - - - - - - - - -
 72
    65
 73
     2
 40
0.2
 49
0.1
 74
     0
 49
-0.1
 74
     0
  0
ENDTAB
  0
TABLE
  2
LAYER
  5
2
330
0
100
AcDbSymbolTable
 70
    31
  0
LAYER
  5
10
102
{ACAD_XDICTIONARY
360
164D
102
}
330
2
100
AcDbSymbolTableRecord
100
AcDbLayerTableRecord
  2
0
 70
     0
 62
     7
  6
CONTINUOUS
370
    -3
390
F
347
15C7
  0
LAYER
  5
1FA
102
{ACAD_XDICTIONARY
360
164F
102
}
330
2
100
AcDbSymbolTableRecord
100
AcDbLayerTableRecord
  2
DEFAULT_1
 70
     0
 62
     7
  6
CENTER
370
    -3
390
F
347
15C7
  0
LAYER
  5
1FB
102
{ACAD_XDICTIONARY
360
1651
102
}
330
2
100
AcDbSymbolTableRecord
100
AcDbLayerTableRecord
  2
DEFAULT_2
 70
     0
 62
     7
  6
HIDDEN
370
    -3
390
F
347
15C7
  0
LAYER
  5
1FC
102
{ACAD_XDICTIONARY
360
1653
102
}
330
2
100
AcDbSymbolTableRecord
100
AcDbLayerTableRecord
  2
DEFAULT_3
 70
     0
 62
     7
  6
PHANTOM
370
    -3
390
F
347
15C7
  0
LAYER
  5
1FD
102
{ACAD_XDICTIONARY
360
1655
102
}
330
2
100
AcDbSymbolTableRecord
100
AcDbLayerTableRecord
  2
1_CURVES
 70
     0
 62
     7
  6
CONTINUOUS
370
    -3
390
F
347
15C7
  0
LAYER
  5
1FE
102
{ACAD_XDICTIONARY
360
1657
102
}
330
2
100
AcDbSymbolTableRecord
100
AcDbLayerTableRecord
  2
1_CURVES_CONDUIT
 70
     0
 62
     7
  6
CONTINUOUS
370
    -3
390
F
347
15C7
  0
LAYER
  5
1FF
102
{ACAD_XDICTIONARY
360
1659
102
}
330
2
100
AcDbSymbolTableRecord
100
AcDbLayerTableRecord
  2
1_CURVES_DOT
 70
     0
 62
     7
  6
CONTINUOUS
370
    -3
390
F
347
15C7
  0
LAYER
  5
200
102
{ACAD_XDICTIONARY
360
165B
102
}
330
2
100
AcDbSymbolTableRecord
100
AcDbLayerTableRecord
  2
1_CURVES_JETS
 70
     0
 62
     7
  6
CONTINUOUS
370
    -3
390
F
347
15C7
  0
LAYER
  5
201
102
{ACAD_XDICTIONARY
360
165D
102
}
330
2
100
AcDbSymbolTableRecord
100
AcDbLayerTableRecord
  2
1_CURVES_PATINS
 70
     0
 62
     7
  6
CONTINUOUS
370
    -3
390
F
347
15C7
  0
LAYER
  5
202
102
{ACAD_XDICTIONARY
360
165F
102
}
330
2
100
AcDbSymbolTableRecord
100
AcDbLayerTableRecord
  2
1_CURVES_SPEC_FRONT
 70
     0
 62
     7
  6
CONTINUOUS
370
    -3
390
F
347
15C7
  0
LAYER
  5
203
102
{ACAD_XDICTIONARY
360
1661
102
}
330
2
100
AcDbSymbolTableRecord
100
AcDbLayerTableRecord
  2
1_CURVES_SPEC_RIGHT
 70
     0
 62
     7
  6
CONTINUOUS
370
    -3
390
F
347
15C7
  0
LAYER
  5
204
102
{ACAD_XDICTIONARY
360
1663
102
}
330
2
100
AcDbSymbolTableRecord
100
AcDbLayerTableRecord
  2
2_PLANES
 70
     0
 62
     7
  6
CONTINUOUS
370
    -3
390
F
347
15C7
  0
LAYER
  5
205
102
{ACAD_XDICTIONARY
360
1665
102
}
330
2
100
AcDbSymbolTableRecord
100
AcDbLayerTableRecord
  2
2_PLANES_JETS
 70
     0
 62
     7
  6
CONTINUOUS
370
    -3
390
F
347
15C7
  0
LAYER
  5
206
102
{ACAD_XDICTIONARY
360
1667
102
}
330
2
100
AcDbSymbolTableRecord
100
AcDbLayerTableRecord
  2
3_POINTS
 70
     0
 62
     7
  6
CONTINUOUS
370
    -3
390
F
347
15C7
  0
LAYER
  5
207
102
{ACAD_XDICTIONARY
360
1669
102
}
330
2
100
AcDbSymbolTableRecord
100
AcDbLayerTableRecord
  2
3_POINTS_JETS
 70
     0
 62
     7
  6
CONTINUOUS
370
    -3
390
F
347
15C7
  0
LAYER
  5
208
102
{ACAD_XDICTIONARY
360
166B
102
}
330
2
100
AcDbSymbolTableRecord
100
AcDbLayerTableRecord
  2
4_CSYS
 70
     0
 62
     7
  6
CONTINUOUS
370
    -3
390
F
347
15C7
  0
LAYER
  5
209
102
{ACAD_XDICTIONARY
360
166D
102
}
330
2
100
AcDbSymbolTableRecord
100
AcDbLayerTableRecord
  2
5_AXIS
 70
     0
 62
     7
  6
CONTINUOUS
370
    -3
390
F
347
15C7
  0
LAYER
  5
20A
102
{ACAD_XDICTIONARY
360
166F
102
}
330
2
100
AcDbSymbolTableRecord
100
AcDbLayerTableRecord
  2
5_AXIS_JETS
 70
     0
 62
     7
  6
CONTINUOUS
370
    -3
390
F
347
15C7
  0
LAYER
  5
20B
102
{ACAD_XDICTIONARY
360
1671
102
}
330
2
100
AcDbSymbolTableRecord
100
AcDbLayerTableRecord
  2
6_AIRE_CONDUIT
 70
     0
 62
     7
  6
CONTINUOUS
370
    -3
390
F
347
15C7
  0
LAYER
  5
20C
102
{ACAD_XDICTIONARY
360
1673
102
}
330
2
100
AcDbSymbolTableRecord
100
AcDbLayerTableRecord
  2
6_SURFACES
 70
     0
 62
     7
  6
CONTINUOUS
370
    -3
390
F
347
15C7
  0
LAYER
  5
20D
102
{ACAD_XDICTIONARY
360
1675
102
}
330
2
100
AcDbSymbolTableRecord
100
AcDbLayerTableRecord
  2
6_SURFACES_AIRE
 70
     0
 62
     7
  6
CONTINUOUS
370
    -3
390
F
347
15C7
  0
LAYER
  5
20E
102
{ACAD_XDICTIONARY
360
1677
102
}
330
2
100
AcDbSymbolTableRecord
100
AcDbLayerTableRecord
  2
6_SURFACES_OFFSET_FIBRE_ACRYLIQ
 70
     0
 62
     7
  6
CONTINUOUS
370
    -3
390
F
347
15C7
  0
LAYER
  5
20F
102
{ACAD_XDICTIONARY
360
1679
102
}
330
2
100
AcDbSymbolTableRecord
100
AcDbLayerTableRecord
  2
6_SURFACES_POUR_CONDUIT
 70
     0
 62
     7
  6
CONTINUOUS
370
    -3
390
F
347
15C7
  0
LAYER
  5
210
102
{ACAD_XDICTIONARY
360
167B
102
}
330
2
100
AcDbSymbolTableRecord
100
AcDbLayerTableRecord
  2
6_SURFACES_POUR_HFL
 70
     0
 62
     7
  6
CONTINUOUS
370
    -3
390
F
347
15C7
  0
LAYER
  5
211
102
{ACAD_XDICTIONARY
360
167D
102
}
330
2
100
AcDbSymbolTableRecord
100
AcDbLayerTableRecord
  2
6_SURFACES_POUR_TROP_PLEIN
 70
     0
 62
     7
  6
CONTINUOUS
370
    -3
390
F
347
15C7
  0
LAYER
  5
212
102
{ACAD_XDICTIONARY
360
167F
102
}
330
2
100
AcDbSymbolTableRecord
100
AcDbLayerTableRecord
  2
6_SURFACES_TOOLING
 70
     0
 62
     7
  6
CONTINUOUS
370
    -3
390
F
347
15C7
  0
LAYER
  5
213
102
{ACAD_XDICTIONARY
360
1681
102
}
330
2
100
AcDbSymbolTableRecord
100
AcDbLayerTableRecord
  2
7_NOTES
 70
     0
 62
     7
  6
CONTINUOUS
370
    -3
390
F
347
15C7
  0
LAYER
  5
214
102
{ACAD_XDICTIONARY
360
1683
102
}
330
2
100
AcDbSymbolTableRecord
100
AcDbLayerTableRecord
  2
8_TOL_GEOM
 70
     0
 62
     7
  6
CONTINUOUS
370
    -3
390
F
347
15C7
  0
LAYER
  5
215
102
{ACAD_XDICTIONARY
360
1685
102
}
330
2
100
AcDbSymbolTableRecord
100
AcDbLayerTableRecord
  2
DEGAGEMENT_SERIGRAPHIE
 70
     0
 62
     7
  6
CONTINUOUS
370
    -3
390
F
347
15C7
  0
LAYER
  5
216
102
{ACAD_XDICTIONARY
360
1687
102
}
330
2
100
AcDbSymbolTableRecord
100
AcDbLayerTableRecord
  2
NONE
 70
     0
 62
     7
  6
CONTINUOUS
370
    -3
390
F
347
15C7
  0
LAYER
  5
217
102
{ACAD_XDICTIONARY
360
1689
102
}
330
2
100
AcDbSymbolTableRecord
100
AcDbLayerTableRecord
  2
XSEC_DATUMS
 70
     0
 62
     7
  6
CONTINUOUS
370
    -3
390
F
347
15C7
  0
ENDTAB
  0
TABLE
  2
STYLE
  5
3
330
0
100
AcDbSymbolTable
 70
     8
  0
STYLE
  5
11
330
3
100
AcDbSymbolTableRecord
100
AcDbTextStyleTableRecord
  2
STANDARD
 70
     0
 40
0.0
 41
0.8
 50
0.0
 71
     0
 42
0.2
  3
txt
  4

  0
STYLE
  5
218
330
3
100
AcDbSymbolTableRecord
100
AcDbTextStyleTableRecord
  2
TEXTSTYLE_1
 70
     0
 40
0.0
 41
0.8
 50
0.0
 71
     0
 42
0.2
  3
gdt
  4

  0
STYLE
  5
219
330
3
100
AcDbSymbolTableRecord
100
AcDbTextStyleTableRecord
  2
TEXTSTYLE_2
 70
     0
 40
0.0
 41
1.0
 50
0.0
 71
     0
 42
0.2
  3
trium.ttf
  4

  0
STYLE
  5
21A
330
3
100
AcDbSymbolTableRecord
100
AcDbTextStyleTableRecord
  2
TEXTSTYLE_3
 70
     0
 40
0.0
 41
1.0
 50
0.0
 71
     0
 42
0.2
  3
trium.ttf
  4

  0
STYLE
  5
21B
330
3
100
AcDbSymbolTableRecord
100
AcDbTextStyleTableRecord
  2
TEXTSTYLE_4
 70
     0
 40
0.0
 41
1.0
 50
0.0
 71
     0
 42
0.2
  3
txt_____.ttf
  4

1001
ACAD
1000
txt
1071
        2
  0
STYLE
  5
21C
330
3
100
AcDbSymbolTableRecord
100
AcDbTextStyleTableRecord
  2
TEXTSTYLE_5
 70
     0
 40
0.0
 41
1.0
 50
0.0
 71
     0
 42
0.2
  3
txt
  4

  0
STYLE
  5
21D
330
3
100
AcDbSymbolTableRecord
100
AcDbTextStyleTableRecord
  2
TEXTSTYLE_6
 70
     0
 40
0.0
 41
1.0
 50
0.0
 71
     0
 42
0.2
  3
trium.ttf
  4

  0
STYLE
  5
21E
330
3
100
AcDbSymbolTableRecord
100
AcDbTextStyleTableRecord
  2
TEXTSTYLE_7
 70
     0
 40
0.0
 41
0.8
 50
0.0
 71
     0
 42
0.2
  3
txt
  4

1001
ACAD
1000
txt
1071
        2
  0
ENDTAB
  0
TABLE
  2
VIEW
  5
6
330
0
100
AcDbSymbolTable
 70
     0
  0
ENDTAB
  0
TABLE
  2
UCS
  5
7
330
0
100
AcDbSymbolTable
 70
     0
  0
ENDTAB
  0
TABLE
  2
APPID
  5
9
330
0
100
AcDbSymbolTable
 70
     2
  0
APPID
  5
21F
330
9
100
AcDbSymbolTableRecord
100
AcDbRegAppTableRecord
  2
ACAD
 70
     0
  0
APPID
  5
163D
330
9
100
AcDbSymbolTableRecord
100
AcDbRegAppTableRecord
  2
ACAD_MLEADERVER
 70
     0
  0
ENDTAB
  0
TABLE
  2
DIMSTYLE
  5
A
330
0
100
AcDbSymbolTable
 70
     4
100
AcDbDimStyleTable
 71
     0
  0
DIMSTYLE
105
237
330
A
100
AcDbSymbolTableRecord
100
AcDbDimStyleTableRecord
  2
STANDARD
 70
     0
 41
2.0
 44
0.125
 47
0.00001
 48
0.00001
 71
     1
 78
     4
140
1.333333333299999
271
     5
272
     5
284
     4
340
11
341
222
342
222
343
222
344
222
  0
DIMSTYLE
105
238
330
A
100
AcDbSymbolTableRecord
100
AcDbDimStyleTableRecord
  2
DIMSTYLE_1
 70
     0
 41
2.0
 44
0.125
 47
0.00001
 48
0.00001
 78
     4
140
1.333333333299999
147
0.0625
271
     3
272
     3
284
     4
340
11
341
222
342
222
343
222
344
222
  0
DIMSTYLE
105
239
330
A
100
AcDbSymbolTableRecord
100
AcDbDimStyleTableRecord
  2
DIMSTYLE_2
 70
     0
 41
2.0
 44
0.125
 47
1.0
 48
1.0
 78
     4
140
1.333333333299999
271
     0
272
     0
284
     4
340
11
341
222
342
222
343
222
344
222
  0
DIMSTYLE
105
23A
330
A
100
AcDbSymbolTableRecord
100
AcDbDimStyleTableRecord
  2
DIMSTYLE_3
 70
     0
 41
2.0
 44
0.125
 47
0.5
 48
0.5
 78
     4
140
1.333333333299999
271
     0
272
     0
284
     4
340
11
341
222
342
222
343
222
344
222
  0
ENDTAB
  0
TABLE
  2
BLOCK_RECORD
  5
1
330
0
100
AcDbSymbolTable
 70
     6
  0
BLOCK_RECORD
  5
220
330
1
100
AcDbSymbolTableRecord
100
AcDbBlockTableRecord
  2
*Model_Space
340
15B2
 70
     0
280
     1
281
     0
  0
BLOCK_RECORD
  5
221
330
1
100
AcDbSymbolTableRecord
100
AcDbBlockTableRecord
  2
*Paper_Space
340
15B3
 70
     0
280
     1
281
     0
  0
BLOCK_RECORD
  5
222
330
1
100
AcDbSymbolTableRecord
100
AcDbBlockTableRecord
  2
_FILLED
340
0
 70
     0
280
     1
281
     0
  0
BLOCK_RECORD
  5
232
330
1
100
AcDbSymbolTableRecord
100
AcDbBlockTableRecord
  2
SYMBOL_0_BL4
340
0
 70
     0
280
     1
281
     0
  0
BLOCK_RECORD
  5
233
330
1
100
AcDbSymbolTableRecord
100
AcDbBlockTableRecord
  2
SYMBOL_5_BL3
340
0
 70
     0
280
     1
281
     0
  0
BLOCK_RECORD
  5
234
330
1
100
AcDbSymbolTableRecord
100
AcDbBlockTableRecord
  2
SYMBOL_4_BL2
340
0
 70
     0
280
     1
281
     0
  0
BLOCK_RECORD
  5
235
330
1
100
AcDbSymbolTableRecord
100
AcDbBlockTableRecord
  2
SYMBOL_2_BL1
340
0
 70
     0
280
     1
281
     0
  0
BLOCK_RECORD
  5
236
330
1
100
AcDbSymbolTableRecord
100
AcDbBlockTableRecord
  2
SYMBOL_8_BL0
340
0
 70
     0
280
     1
281
     0
  0
ENDTAB
  0
ENDSEC
  0
SECTION
  2
BLOCKS
  0
BLOCK
  5
20
330
220
100
AcDbEntity
  8
0
100
AcDbBlockBegin
  2
*Model_Space
 70
     0
 10
0.0
 20
0.0
 30
0.0
  3
*Model_Space
  1

  0
ENDBLK
  5
21
330
220
100
AcDbEntity
  8
0
100
AcDbBlockEnd
  0
BLOCK
  5
1C
330
221
100
AcDbEntity
 67
     1
  8
0
100
AcDbBlockBegin
  2
*Paper_Space
 70
     0
 10
0.0
 20
0.0
 30
0.0
  3
*Paper_Space
  1

  0
ENDBLK
  5
1D
330
221
100
AcDbEntity
 67
     1
  8
0
100
AcDbBlockEnd
  0
BLOCK
  5
316
330
222
100
AcDbEntity
  8
0
100
AcDbBlockBegin
  2
_FILLED
 70
     0
 10
0.0
 20
0.0
 30
0.0
  3
_FILLED
  1

  0
SOLID
  5
317
330
222
100
AcDbEntity
  8
0
  6
ByBlock
 62
     0
100
AcDbTrace
 10
0.0
 20
0.0
 30
0.0
 11
-1.0
 21
0.1666666667
 31
0.0
 12
-1.0
 22
-0.1666666667
 32
0.0
 13
-1.0
 23
-0.1666666667
 33
0.0
  0
ENDBLK
  5
318
330
222
100
AcDbEntity
  8
0
  6
ByBlock
 62
     0
100
AcDbBlockEnd
  0
BLOCK
  5
23B
330
232
100
AcDbEntity
  8
0
  6
Continuous
 62
     7
100
AcDbBlockBegin
  2
SYMBOL_0_BL4
 70
     0
 10
127.5868681454
 20
55.4010909351
 30
0.0
  3
SYMBOL_0_BL4
  1

  0
TEXT
  5
23C
330
232
100
AcDbEntity
  8
0
  6
Continuous
 62
     7
100
AcDbText
 10
121.2728078436
 20
57.6461249209
 30
0.0
 40
1.1626666667
  1
INTERNAL USE 
 50
10.0
  7
TEXTSTYLE_3
100
AcDbText
  0
TEXT
  5
23D
330
232
100
AcDbEntity
  8
0
  6
Continuous
 62
     7
100
AcDbText
 10
120.5291236396
 20
55.64460374319999
 30
0.0
 40
1.1626666667
  1
DOCUMENT ONLY
 50
10.0
  7
TEXTSTYLE_3
100
AcDbText
  0
TEXT
  5
23E
330
232
100
AcDbEntity
  8
0
  6
Continuous
 62
     7
100
AcDbText
 10
126.3138512029
 20
55.3961756927
 30
0.0
 40
1.1626666667
  1
 
 50
10.0
  7
TEXTSTYLE_5
100
AcDbText
  0
TEXT
  5
23F
330
232
100
AcDbEntity
  8
0
  6
Continuous
 62
     7
100
AcDbText
 10
117.8692033199
 20
51.21908128640001
 30
0.0
 40
1.1626666667
  1
DOCUMENT POUR USAGE
 50
10.0
  7
TEXTSTYLE_3
100
AcDbText
  0
TEXT
  5
240
330
232
100
AcDbEntity
  8
0
  6
Continuous
 62
     7
100
AcDbText
 10
118.2983027659
 20
49.202332826
 30
0.0
 40
1.1626666667
  1
A L'INTERNE SEULEMENT
 50
10.0
  7
TEXTSTYLE_3
100
AcDbText
  0
LINE
  5
241
330
232
100
AcDbEntity
  8
0
  6
Continuous
 62
     7
100
AcDbLine
 10
141.4434198687
 20
51.0575573171
 30
0.0
 11
141.4501788014
 21
51.06431624979999
 31
0.0
  0
LINE
  5
242
330
232
100
AcDbEntity
  8
0
  6
Continuous
 62
     7
100
AcDbLine
 10
140.7108503023
 20
50.9283855373
 30
0.0
 11
141.3597317474
 21
51.5772669825
 31
0.0
  0
LINE
  5
243
330
232
100
AcDbEntity
  8
0
  6
Continuous
 62
     7
100
AcDbLine
 10
139.9782807359
 20
50.7992137575
 30
0.0
 11
141.2692846935
 21
52.0902177151
 31
0.0
  0
LINE
  5
244
330
232
100
AcDbEntity
  8
0
  6
Continuous
 62
     7
100
AcDbLine
 10
139.2457111695
 20
50.6700419777
 30
0.0
 11
141.1788376395
 21
52.6031684478
 31
0.0
  0
LINE
  5
245
330
232
100
AcDbEntity
  8
0
  6
Continuous
 62
     7
100
AcDbLine
 10
138.513141603
 20
50.54087019789999
 30
0.0
 11
141.0883905856
 21
53.1161191805
 31
0.0
  0
LINE
  5
246
330
232
100
AcDbEntity
  8
0
  6
Continuous
 62
     7
100
AcDbLine
 10
137.7805720366
 20
50.4116984181
 30
0.0
 11
139.3215758514
 21
51.9527022329
 31
0.0
  0
LINE
  5
247
330
232
100
AcDbEntity
  8
0
  6
Continuous
 62
     7
100
AcDbLine
 10
139.9189210441
 20
52.5500474256
 30
0.0
 11
140.9979435316
 21
53.6290699131
 31
0.0
  0
LINE
  5
248
330
232
100
AcDbEntity
  8
0
  6
Continuous
 62
     7
100
AcDbLine
 10
137.0480024702
 20
50.2825266383
 30
0.0
 11
138.589006285
 21
51.82353045310001
 31
0.0
  0
LINE
  5
249
330
232
100
AcDbEntity
  8
0
  6
Continuous
 62
     7
100
AcDbLine
 10
139.8284739902
 20
53.0629981583
 30
0.0
 11
140.9074964777
 21
54.1420206458
 31
0.0
  0
LINE
  5
24A
330
232
100
AcDbEntity
  8
0
  6
Continuous
 62
     7
100
AcDbLine
 10
136.3154329038
 20
50.1533548585
 30
0.0
 11
137.8564367186
 21
51.6943586733
 31
0.0
  0
LINE
  5
24B
330
232
100
AcDbEntity
  8
0
  6
Continuous
 62
     7
100
AcDbLine
 10
139.7380269362
 20
53.575948891
 30
0.0
 11
140.8170494238
 21
54.6549713785
 31
0.0
  0
LINE
  5
24C
330
232
100
AcDbEntity
  8
0
  6
Continuous
 62
     7
100
AcDbLine
 10
135.5828633374
 20
50.0241830787
 30
0.0
 11
137.1238671522
 21
51.56518689350001
 31
0.0
  0
LINE
  5
24D
330
232
100
AcDbEntity
  8
0
  6
Continuous
 62
     7
100
AcDbLine
 10
139.6475798823
 20
54.08889962359999
 30
0.0
 11
140.7266023698
 21
55.1679221111
 31
0.0
  0
LINE
  5
24E
330
232
100
AcDbEntity
  8
0
  6
Continuous
 62
     7
100
AcDbLine
 10
134.850293771
 20
49.8950112989
 30
0.0
 11
136.3912975857
 21
51.4360151137
 31
0.0
  0
LINE
  5
24F
330
232
100
AcDbEntity
  8
0
  6
Continuous
 62
     7
100
AcDbLine
 10
139.5571328284
 20
54.6018503563
 30
0.0
 11
140.6361553159
 21
55.6808728438
 31
0.0
  0
LINE
  5
250
330
232
100
AcDbEntity
  8
0
  6
Continuous
 62
     7
100
AcDbLine
 10
134.1177242045
 20
49.7658395191
 30
0.0
 11
135.6587280193
 21
51.3068433339
 31
0.0
  0
LINE
  5
251
330
232
100
AcDbEntity
  8
0
  6
Continuous
 62
     7
100
AcDbLine
 10
139.4666857744
 20
55.11480108899999
 30
0.0
 11
140.5457082619
 21
56.1938235765
 31
0.0
  0
LINE
  5
252
330
232
100
AcDbEntity
  8
0
  6
Continuous
 62
     7
100
AcDbLine
 10
133.3851546381
 20
49.6366677393
 30
0.0
 11
134.9261584529
 21
51.1776715541
 31
0.0
  0
LINE
  5
253
330
232
100
AcDbEntity
  8
0
  6
Continuous
 62
     7
100
AcDbLine
 10
139.3762387205
 20
55.6277518216
 30
0.0
 11
140.455261208
 21
56.7067743091
 31
0.0
  0
LINE
  5
254
330
232
100
AcDbEntity
  8
0
  6
Continuous
 62
     7
100
AcDbLine
 10
132.6525850717
 20
49.5074959595
 30
0.0
 11
134.1935888865
 21
51.0484997743
 31
0.0
  0
LINE
  5
255
330
232
100
AcDbEntity
  8
0
  6
Continuous
 62
     7
100
AcDbLine
 10
139.2857916665
 20
56.1407025543
 30
0.0
 11
140.364814154
 21
57.2197250418
 31
0.0
  0
LINE
  5
256
330
232
100
AcDbEntity
  8
0
  6
Continuous
 62
     7
100
AcDbLine
 10
131.9200155053
 20
49.3783241797
 30
0.0
 11
133.4610193201
 21
50.91932799439999
 31
0.0
  0
LINE
  5
257
330
232
100
AcDbEntity
  8
0
  6
Continuous
 62
     7
100
AcDbLine
 10
139.1953446126
 20
56.653653287
 30
0.0
 11
140.2743671001
 21
57.73267577449999
 31
0.0
  0
LINE
  5
258
330
232
100
AcDbEntity
  8
0
  6
Continuous
 62
     7
100
AcDbLine
 10
131.1874459389
 20
49.24915239989999
 30
0.0
 11
132.7284497536
 21
50.7901562146
 31
0.0
  0
LINE
  5
259
330
232
100
AcDbEntity
  8
0
  6
Continuous
 62
     7
100
AcDbLine
 10
138.8924650128
 20
56.9541714737
 30
0.0
 11
140.1839200462
 21
58.24562650709999
 31
0.0
  0
LINE
  5
25A
330
232
100
AcDbEntity
  8
0
  6
Continuous
 62
     7
100
AcDbLine
 10
130.4548763725
 20
49.1199806201
 30
0.0
 11
131.9958801872
 21
50.66098443479999
 31
0.0
  0
LINE
  5
25B
330
232
100
AcDbEntity
  8
0
  6
Continuous
 62
     7
100
AcDbLine
 10
138.1598954463
 20
56.82499969390001
 30
0.0
 11
140.0934729922
 21
58.7585772398
 31
0.0
  0
LINE
  5
25C
330
232
100
AcDbEntity
  8
0
  6
Continuous
 62
     7
100
AcDbLine
 10
129.722306806
 20
48.99080884029999
 30
0.0
 11
131.2633106208
 21
50.53181265500001
 31
0.0
  0
LINE
  5
25D
330
232
100
AcDbEntity
  8
0
  6
Continuous
 62
     7
100
AcDbLine
 10
137.4273258799
 20
56.6958279141
 30
0.0
 11
138.4546681782
 21
57.7231702124
 31
0.0
  0
LINE
  5
25E
330
232
100
AcDbEntity
  8
0
  6
Continuous
 62
     7
100
AcDbLine
 10
138.9240034508
 20
58.192505485
 30
0.0
 11
140.0030259383
 21
59.2715279725
 31
0.0
  0
LINE
  5
25F
330
232
100
AcDbEntity
  8
0
  6
Continuous
 62
     7
100
AcDbLine
 10
128.9897372396
 20
48.8616370604
 30
0.0
 11
130.5307410544
 21
50.4026408752
 31
0.0
  0
LINE
  5
260
330
232
100
AcDbEntity
  8
0
  6
Continuous
 62
     7
100
AcDbLine
 10
136.6947563135
 20
56.5666561343
 30
0.0
 11
137.7220984022
 21
57.593998223
 31
0.0
  0
LINE
  5
261
330
232
100
AcDbEntity
  8
0
  6
Continuous
 62
     7
100
AcDbLine
 10
138.8335563968
 20
58.7054562176
 30
0.0
 11
139.9125788843
 21
59.7844787052
 31
0.0
  0
LINE
  5
262
330
232
100
AcDbEntity
  8
0
  6
Continuous
 62
     7
100
AcDbLine
 10
128.2571676732
 20
48.73246528060001
 30
0.0
 11
129.798171488
 21
50.2734690954
 31
0.0
  0
LINE
  5
263
330
232
100
AcDbEntity
  8
0
  6
Continuous
 62
     7
100
AcDbLine
 10
135.9621867471
 20
56.4374843545
 30
0.0
 11
136.9895286261
 21
57.46482623359999
 31
0.0
  0
LINE
  5
264
330
232
100
AcDbEntity
  8
0
  6
Continuous
 62
     7
100
AcDbLine
 10
138.7431093429
 20
59.2184069503
 30
0.0
 11
139.8221318304
 21
60.2974294378
 31
0.0
  0
LINE
  5
265
330
232
100
AcDbEntity
  8
0
  6
Continuous
 62
     7
100
AcDbLine
 10
127.5245981068
 20
48.6032935008
 30
0.0
 11
129.0656019216
 21
50.1442973156
 31
0.0
  0
LINE
  5
266
330
232
100
AcDbEntity
  8
0
  6
Continuous
 62
     7
100
AcDbLine
 10
135.2296171807
 20
56.3083125747
 30
0.0
 11
136.2569588501
 21
57.3356542442
 31
0.0
  0
LINE
  5
267
330
232
100
AcDbEntity
  8
0
  6
Continuous
 62
     7
100
AcDbLine
 10
138.6526622889
 20
59.731357683
 30
0.0
 11
139.7316847764
 21
60.8103801705
 31
0.0
  0
LINE
  5
268
330
232
100
AcDbEntity
  8
0
  6
Continuous
 62
     7
100
AcDbLine
 10
126.7920285404
 20
48.474121721
 30
0.0
 11
128.3330323551
 21
50.01512553579999
 31
0.0
  0
LINE
  5
269
330
232
100
AcDbEntity
  8
0
  6
Continuous
 62
     7
100
AcDbLine
 10
134.4970476142
 20
56.1791407949
 30
0.0
 11
135.5243890741
 21
57.2064822547
 31
0.0
  0
LINE
  5
26A
330
232
100
AcDbEntity
  8
0
  6
Continuous
 62
     7
100
AcDbLine
 10
138.562215235
 20
60.2443084156
 30
0.0
 11
139.6412377225
 21
61.32333090319999
 31
0.0
  0
LINE
  5
26B
330
232
100
AcDbEntity
  8
0
  6
Continuous
 62
     7
100
AcDbLine
 10
126.0594589739
 20
48.34494994119999
 30
0.0
 11
127.6004627887
 21
49.885953756
 31
0.0
  0
LINE
  5
26C
330
232
100
AcDbEntity
  8
0
  6
Continuous
 62
     7
100
AcDbLine
 10
133.7644780478
 20
56.0499690151
 30
0.0
 11
134.7918192979999
 21
57.0773102653
 31
0.0
  0
LINE
  5
26D
330
232
100
AcDbEntity
  8
0
  6
Continuous
 62
     7
100
AcDbLine
 10
138.471768181
 20
60.7572591483
 30
0.0
 11
139.5507906686
 21
61.83628163579999
 31
0.0
  0
LINE
  5
26E
330
232
100
AcDbEntity
  8
0
  6
Continuous
 62
     7
100
AcDbLine
 10
125.3268894075
 20
48.2157781614
 30
0.0
 11
126.8678932223
 21
49.75678197619999
 31
0.0
  0
LINE
  5
26F
330
232
100
AcDbEntity
  8
0
  6
Continuous
 62
     7
100
AcDbLine
 10
133.0319084814
 20
55.9207972353
 30
0.0
 11
134.059249522
 21
56.94813827589999
 31
0.0
  0
LINE
  5
270
330
232
100
AcDbEntity
  8
0
  6
Continuous
 62
     7
100
AcDbLine
 10
138.3813211271
 20
61.270209881
 30
0.0
 11
139.4603436146
 21
62.34923236850001
 31
0.0
  0
LINE
  5
271
330
232
100
AcDbEntity
  8
0
  6
Continuous
 62
     7
100
AcDbLine
 10
124.5943198411
 20
48.0866063816
 30
0.0
 11
126.1353236559
 21
49.62761019640001
 31
0.0
  0
LINE
  5
272
330
232
100
AcDbEntity
  8
0
  6
Continuous
 62
     7
100
AcDbLine
 10
132.299338915
 20
55.7916254555
 30
0.0
 11
133.326679746
 21
56.81896628649999
 31
0.0
  0
LINE
  5
273
330
232
100
AcDbEntity
  8
0
  6
Continuous
 62
     7
100
AcDbLine
 10
138.2908740731
 20
61.7831606137
 30
0.0
 11
139.3698965607
 21
62.86218310119999
 31
0.0
  0
LINE
  5
274
330
232
100
AcDbEntity
  8
0
  6
Continuous
 62
     7
100
AcDbLine
 10
123.8617502747
 20
47.9574346018
 30
0.0
 11
125.4027540895
 21
49.49843841659999
 31
0.0
  0
LINE
  5
275
330
232
100
AcDbEntity
  8
0
  6
Continuous
 62
     7
100
AcDbLine
 10
131.5667693486
 20
55.6624536757
 30
0.0
 11
132.59410997
 21
56.6897942971
 31
0.0
  0
LINE
  5
276
330
232
100
AcDbEntity
  8
0
  6
Continuous
 62
     7
100
AcDbLine
 10
138.2004270192
 20
62.2961113463
 30
0.0
 11
139.2794495067
 21
63.3751338338
 31
0.0
  0
LINE
  5
277
330
232
100
AcDbEntity
  8
0
  6
Continuous
 62
     7
100
AcDbLine
 10
123.1291807083
 20
47.828262822
 30
0.0
 11
124.6701845231
 21
49.36926663680001
 31
0.0
  0
LINE
  5
278
330
232
100
AcDbEntity
  8
0
  6
Continuous
 62
     7
100
AcDbLine
 10
130.8341997822
 20
55.53328189590001
 30
0.0
 11
131.8615401939
 21
56.5606223077
 31
0.0
  0
LINE
  5
279
330
232
100
AcDbEntity
  8
0
  6
Continuous
 62
     7
100
AcDbLine
 10
138.0255509178
 20
62.7246330315
 30
0.0
 11
139.1890024528
 21
63.8880845665
 31
0.0
  0
LINE
  5
27A
330
232
100
AcDbEntity
  8
0
  6
Continuous
 62
     7
100
AcDbLine
 10
122.3966111419
 20
47.6990910422
 30
0.0
 11
123.9376149566
 21
49.240094857
 31
0.0
  0
LINE
  5
27B
330
232
100
AcDbEntity
  8
0
  6
Continuous
 62
     7
100
AcDbLine
 10
130.1016302157
 20
55.4041101161
 30
0.0
 11
131.1289704179
 21
56.4314503182
 31
0.0
  0
LINE
  5
27C
330
232
100
AcDbEntity
  8
0
  6
Continuous
 62
     7
100
AcDbLine
 10
137.2929813514
 20
62.5954612517
 30
0.0
 11
138.8339851661
 21
64.1364650665
 31
0.0
  0
LINE
  5
27D
330
232
100
AcDbEntity
  8
0
  6
Continuous
 62
     7
100
AcDbLine
 10
121.6640415754
 20
47.5699192624
 30
0.0
 11
123.2050453902
 21
49.1109230772
 31
0.0
  0
LINE
  5
27E
330
232
100
AcDbEntity
  8
0
  6
Continuous
 62
     7
100
AcDbLine
 10
129.3690606493
 20
55.2749383363
 30
0.0
 11
130.3964006419
 21
56.3022783288
 31
0.0
  0
LINE
  5
27F
330
232
100
AcDbEntity
  8
0
  6
Continuous
 62
     7
100
AcDbLine
 10
136.5604117849
 20
62.4662894719
 30
0.0
 11
138.1014155997
 21
64.0072932867
 31
0.0
  0
LINE
  5
280
330
232
100
AcDbEntity
  8
0
  6
Continuous
 62
     7
100
AcDbLine
 10
120.931472009
 20
47.4407474826
 30
0.0
 11
122.4724758238
 21
48.9817512974
 31
0.0
  0
LINE
  5
281
330
232
100
AcDbEntity
  8
0
  6
Continuous
 62
     7
100
AcDbLine
 10
128.6364910829
 20
55.14576655649999
 30
0.0
 11
129.6638308658
 21
56.17310633939999
 31
0.0
  0
LINE
  5
282
330
232
100
AcDbEntity
  8
0
  6
Continuous
 62
     7
100
AcDbLine
 10
135.8278422185
 20
62.3371176921
 30
0.0
 11
137.3688460333
 21
63.87812150689999
 31
0.0
  0
LINE
  5
283
330
232
100
AcDbEntity
  8
0
  6
Continuous
 62
     7
100
AcDbLine
 10
120.1989024426
 20
47.31157570279999
 30
0.0
 11
121.7399062574
 21
48.85257951759999
 31
0.0
  0
LINE
  5
284
330
232
100
AcDbEntity
  8
0
  6
Continuous
 62
     7
100
AcDbLine
 10
127.9039215165
 20
55.0165947767
 30
0.0
 11
128.9312610898
 21
56.04393435
 31
0.0
  0
LINE
  5
285
330
232
100
AcDbEntity
  8
0
  6
Continuous
 62
     7
100
AcDbLine
 10
135.0952726521
 20
62.20794591229999
 30
0.0
 11
136.6362764669
 21
63.74894972709999
 31
0.0
  0
LINE
  5
286
330
232
100
AcDbEntity
  8
0
  6
Continuous
 62
     7
100
AcDbLine
 10
119.4663328762
 20
47.182403923
 30
0.0
 11
121.007336691
 21
48.72340773779999
 31
0.0
  0
LINE
  5
287
330
232
100
AcDbEntity
  8
0
  6
Continuous
 62
     7
100
AcDbLine
 10
127.1713519501
 20
54.88742299689999
 30
0.0
 11
128.1986913138
 21
55.9147623606
 31
0.0
  0
LINE
  5
288
330
232
100
AcDbEntity
  8
0
  6
Continuous
 62
     7
100
AcDbLine
 10
134.3627030857
 20
62.0787741325
 30
0.0
 11
135.9037069005
 21
63.61977794729999
 31
0.0
  0
LINE
  5
289
330
232
100
AcDbEntity
  8
0
  6
Continuous
 62
     7
100
AcDbLine
 10
118.7337633098
 20
47.05323214319999
 30
0.0
 11
120.2747671245
 21
48.5942359579
 31
0.0
  0
LINE
  5
28A
330
232
100
AcDbEntity
  8
0
  6
Continuous
 62
     7
100
AcDbLine
 10
126.4387823837
 20
54.7582512171
 30
0.0
 11
127.4661215378
 21
55.7855903712
 31
0.0
  0
LINE
  5
28B
330
232
100
AcDbEntity
  8
0
  6
Continuous
 62
     7
100
AcDbLine
 10
133.6301335193
 20
61.9496023527
 30
0.0
 11
135.1711373341
 21
63.4906061675
 31
0.0
  0
LINE
  5
28C
330
232
100
AcDbEntity
  8
0
  6
Continuous
 62
     7
100
AcDbLine
 10
118.0011937433
 20
46.9240603634
 30
0.0
 11
119.5421975581
 21
48.46506417810001
 31
0.0
  0
LINE
  5
28D
330
232
100
AcDbEntity
  8
0
  6
Continuous
 62
     7
100
AcDbLine
 10
125.7062128172
 20
54.62907943729999
 30
0.0
 11
126.7335517617
 21
55.6564183817
 31
0.0
  0
LINE
  5
28E
330
232
100
AcDbEntity
  8
0
  6
Continuous
 62
     7
100
AcDbLine
 10
132.8975639529
 20
61.8204305729
 30
0.0
 11
134.4385677676
 21
63.3614343877
 31
0.0
  0
LINE
  5
28F
330
232
100
AcDbEntity
  8
0
  6
Continuous
 62
     7
100
AcDbLine
 10
117.2686241769
 20
46.7948885836
 30
0.0
 11
118.8096279917
 21
48.3358923983
 31
0.0
  0
LINE
  5
290
330
232
100
AcDbEntity
  8
0
  6
Continuous
 62
     7
100
AcDbLine
 10
124.9736432508
 20
54.49990765739999
 30
0.0
 11
126.0009819857
 21
55.5272463923
 31
0.0
  0
LINE
  5
291
330
232
100
AcDbEntity
  8
0
  6
Continuous
 62
     7
100
AcDbLine
 10
132.1649943864
 20
61.69125879310001
 30
0.0
 11
133.7059982012
 21
63.2322626079
 31
0.0
  0
LINE
  5
292
330
232
100
AcDbEntity
  8
0
  6
Continuous
 62
     7
100
AcDbLine
 10
116.5360546105
 20
46.6657168038
 30
0.0
 11
118.0770584253
 21
48.2067206185
 31
0.0
  0
LINE
  5
293
330
232
100
AcDbEntity
  8
0
  6
Continuous
 62
     7
100
AcDbLine
 10
124.2410736844
 20
54.3707358776
 30
0.0
 11
125.2684122097
 21
55.3980744029
 31
0.0
  0
LINE
  5
294
330
232
100
AcDbEntity
  8
0
  6
Continuous
 62
     7
100
AcDbLine
 10
131.43242482
 20
61.5620870133
 30
0.0
 11
132.9734286348
 21
63.10309082799999
 31
0.0
  0
LINE
  5
295
330
232
100
AcDbEntity
  8
0
  6
Continuous
 62
     7
100
AcDbLine
 10
115.984733838
 20
46.7177938178
 30
0.0
 11
117.3444888589
 21
48.0775488387
 31
0.0
  0
LINE
  5
296
330
232
100
AcDbEntity
  8
0
  6
Continuous
 62
     7
100
AcDbLine
 10
123.508504118
 20
54.2415640978
 30
0.0
 11
124.5358424336
 21
55.2689024135
 31
0.0
  0
LINE
  5
297
330
232
100
AcDbEntity
  8
0
  6
Continuous
 62
     7
100
AcDbLine
 10
130.6998552536
 20
61.43291523350001
 30
0.0
 11
132.2408590684
 21
62.97391904819999
 31
0.0
  0
LINE
  5
298
330
232
100
AcDbEntity
  8
0
  6
Continuous
 62
     7
100
AcDbLine
 10
115.894286784
 20
47.23074455049999
 30
0.0
 11
116.9733092716
 21
48.30976703800001
 31
0.0
  0
LINE
  5
299
330
232
100
AcDbEntity
  8
0
  6
Continuous
 62
     7
100
AcDbLine
 10
122.7759345516
 20
54.112392318
 30
0.0
 11
123.8032726576
 21
55.1397304241
 31
0.0
  0
LINE
  5
29A
330
232
100
AcDbEntity
  8
0
  6
Continuous
 62
     7
100
AcDbLine
 10
129.9672856872
 20
61.3037434537
 30
0.0
 11
131.508289502
 21
62.8447472684
 31
0.0
  0
LINE
  5
29B
330
232
100
AcDbEntity
  8
0
  6
Continuous
 62
     7
100
AcDbLine
 10
115.8038397301
 20
47.7436952832
 30
0.0
 11
116.8828622176
 21
48.82271777069999
 31
0.0
  0
LINE
  5
29C
330
232
100
AcDbEntity
  8
0
  6
Continuous
 62
     7
100
AcDbLine
 10
122.0433649851
 20
53.98322053819999
 30
0.0
 11
123.0707028816
 21
55.0105584347
 31
0.0
  0
LINE
  5
29D
330
232
100
AcDbEntity
  8
0
  6
Continuous
 62
     7
100
AcDbLine
 10
129.2347161208
 20
61.1745716739
 30
0.0
 11
130.7757199355
 21
62.71557548859999
 31
0.0
  0
LINE
  5
29E
330
232
100
AcDbEntity
  8
0
  6
Continuous
 62
     7
100
AcDbLine
 10
115.7133926762
 20
48.2566460159
 30
0.0
 11
116.7924151637
 21
49.3356685034
 31
0.0
  0
LINE
  5
29F
330
232
100
AcDbEntity
  8
0
  6
Continuous
 62
     7
100
AcDbLine
 10
121.3107954187
 20
53.8540487584
 30
0.0
 11
122.3381331056
 21
54.88138644520001
 31
0.0
  0
LINE
  5
2A0
330
232
100
AcDbEntity
  8
0
  6
Continuous
 62
     7
100
AcDbLine
 10
128.5021465544
 20
61.045399894
 30
0.0
 11
130.0431503691
 21
62.5864037088
 31
0.0
  0
LINE
  5
2A1
330
232
100
AcDbEntity
  8
0
  6
Continuous
 62
     7
100
AcDbLine
 10
115.6229456222
 20
48.76959674850001
 30
0.0
 11
116.7019681097
 21
49.848619236
 31
0.0
  0
LINE
  5
2A2
330
232
100
AcDbEntity
  8
0
  6
Continuous
 62
     7
100
AcDbLine
 10
120.5782258523
 20
53.72487697859999
 30
0.0
 11
121.6055633295
 21
54.7522144558
 31
0.0
  0
LINE
  5
2A3
330
232
100
AcDbEntity
  8
0
  6
Continuous
 62
     7
100
AcDbLine
 10
127.7695769879
 20
60.9162281142
 30
0.0
 11
129.3105808027
 21
62.45723192899999
 31
0.0
  0
LINE
  5
2A4
330
232
100
AcDbEntity
  8
0
  6
Continuous
 62
     7
100
AcDbLine
 10
115.5324985683
 20
49.2825474812
 30
0.0
 11
116.6115210558
 21
50.36156996869999
 31
0.0
  0
LINE
  5
2A5
330
232
100
AcDbEntity
  8
0
  6
Continuous
 62
     7
100
AcDbLine
 10
119.8456562859
 20
53.5957051988
 30
0.0
 11
120.8729935535
 21
54.6230424664
 31
0.0
  0
LINE
  5
2A6
330
232
100
AcDbEntity
  8
0
  6
Continuous
 62
     7
100
AcDbLine
 10
127.0370074215
 20
60.7870563344
 30
0.0
 11
128.5780112363
 21
62.3280601492
 31
0.0
  0
LINE
  5
2A7
330
232
100
AcDbEntity
  8
0
  6
Continuous
 62
     7
100
AcDbLine
 10
115.4420515143
 20
49.7954982139
 30
0.0
 11
116.5210740018
 21
50.8745207014
 31
0.0
  0
LINE
  5
2A8
330
232
100
AcDbEntity
  8
0
  6
Continuous
 62
     7
100
AcDbLine
 10
119.1130867195
 20
53.46653341899999
 30
0.0
 11
120.1404237775
 21
54.493870477
 31
0.0
  0
LINE
  5
2A9
330
232
100
AcDbEntity
  8
0
  6
Continuous
 62
     7
100
AcDbLine
 10
126.3044378551
 20
60.6578845546
 30
0.0
 11
127.8454416699
 21
62.1988883694
 31
0.0
  0
LINE
  5
2AA
330
232
100
AcDbEntity
  8
0
  6
Continuous
 62
     7
100
AcDbLine
 10
115.3516044604
 20
50.30844894649999
 30
0.0
 11
116.4306269479
 21
51.38747143399999
 31
0.0
  0
LINE
  5
2AB
330
232
100
AcDbEntity
  8
0
  6
Continuous
 62
     7
100
AcDbLine
 10
118.3805171531
 20
53.3373616392
 30
0.0
 11
119.4078540014
 21
54.3646984876
 31
0.0
  0
LINE
  5
2AC
330
232
100
AcDbEntity
  8
0
  6
Continuous
 62
     7
100
AcDbLine
 10
125.5718682887
 20
60.5287127748
 30
0.0
 11
127.1128721035
 21
62.0697165896
 31
0.0
  0
LINE
  5
2AD
330
232
100
AcDbEntity
  8
0
  6
Continuous
 62
     7
100
AcDbLine
 10
115.2611574064
 20
50.82139967919999
 30
0.0
 11
116.340179894
 21
51.90042216670001
 31
0.0
  0
LINE
  5
2AE
330
232
100
AcDbEntity
  8
0
  6
Continuous
 62
     7
100
AcDbLine
 10
117.6479475866
 20
53.20818985939999
 30
0.0
 11
118.6752842254
 21
54.23552649819999
 31
0.0
  0
LINE
  5
2AF
330
232
100
AcDbEntity
  8
0
  6
Continuous
 62
     7
100
AcDbLine
 10
124.8392987223
 20
60.399540995
 30
0.0
 11
126.380302537
 21
61.9405448098
 31
0.0
  0
LINE
  5
2B0
330
232
100
AcDbEntity
  8
0
  6
Continuous
 62
     7
100
AcDbLine
 10
115.1707103525
 20
51.3343504119
 30
0.0
 11
116.24973284
 21
52.41337289939999
 31
0.0
  0
LINE
  5
2B1
330
232
100
AcDbEntity
  8
0
  6
Continuous
 62
     7
100
AcDbLine
 10
116.9153780202
 20
53.0790180796
 30
0.0
 11
117.9427144494
 21
54.1063545088
 31
0.0
  0
LINE
  5
2B2
330
232
100
AcDbEntity
  8
0
  6
Continuous
 62
     7
100
AcDbLine
 10
124.1067291558
 20
60.2703692152
 30
0.0
 11
125.6477329706
 21
61.81137302999999
 31
0.0
  0
LINE
  5
2B3
330
232
100
AcDbEntity
  8
0
  6
Continuous
 62
     7
100
AcDbLine
 10
115.0802632986
 20
51.8473011445
 30
0.0
 11
116.1592857861
 21
52.9263236321
 31
0.0
  0
LINE
  5
2B4
330
232
100
AcDbEntity
  8
0
  6
Continuous
 62
     7
100
AcDbLine
 10
116.1828084538
 20
52.9498462998
 30
0.0
 11
117.2101446734
 21
53.9771825193
 31
0.0
  0
LINE
  5
2B5
330
232
100
AcDbEntity
  8
0
  6
Continuous
 62
     7
100
AcDbLine
 10
123.3741595894
 20
60.1411974354
 30
0.0
 11
124.9151634042
 21
61.6822012502
 31
0.0
  0
LINE
  5
2B6
330
232
100
AcDbEntity
  8
0
  6
Continuous
 62
     7
100
AcDbLine
 10
114.9898162446
 20
52.3602518772
 30
0.0
 11
116.4775748973
 21
53.84801052989999
 31
0.0
  0
LINE
  5
2B7
330
232
100
AcDbEntity
  8
0
  6
Continuous
 62
     7
100
AcDbLine
 10
122.641590023
 20
60.0120256556
 30
0.0
 11
124.1825938378
 21
61.5530294704
 31
0.0
  0
LINE
  5
2B8
330
232
100
AcDbEntity
  8
0
  6
Continuous
 62
     7
100
AcDbLine
 10
114.8993691907
 20
52.8732026099
 30
0.0
 11
115.9783916782
 21
53.95222509739999
 31
0.0
  0
LINE
  5
2B9
330
232
100
AcDbEntity
  8
0
  6
Continuous
 62
     7
100
AcDbLine
 10
121.9090204566
 20
59.8828538758
 30
0.0
 11
123.4500242714
 21
61.4238576906
 31
0.0
  0
LINE
  5
2BA
330
232
100
AcDbEntity
  8
0
  6
Continuous
 62
     7
100
AcDbLine
 10
114.8089221367
 20
53.3861533425
 30
0.0
 11
115.8879446242
 21
54.4651758301
 31
0.0
  0
LINE
  5
2BB
330
232
100
AcDbEntity
  8
0
  6
Continuous
 62
     7
100
AcDbLine
 10
121.1764508902
 20
59.753682096
 30
0.0
 11
122.717454705
 21
61.2946859108
 31
0.0
  0
LINE
  5
2BC
330
232
100
AcDbEntity
  8
0
  6
Continuous
 62
     7
100
AcDbLine
 10
114.7184750828
 20
53.89910407520001
 30
0.0
 11
115.7974975703
 21
54.9781265627
 31
0.0
  0
LINE
  5
2BD
330
232
100
AcDbEntity
  8
0
  6
Continuous
 62
     7
100
AcDbLine
 10
120.4438813238
 20
59.6245103162
 30
0.0
 11
121.9848851385
 21
61.165514131
 31
0.0
  0
LINE
  5
2BE
330
232
100
AcDbEntity
  8
0
  6
Continuous
 62
     7
100
AcDbLine
 10
114.6280280288
 20
54.41205480789999
 30
0.0
 11
115.7070505164
 21
55.4910772954
 31
0.0
  0
LINE
  5
2BF
330
232
100
AcDbEntity
  8
0
  6
Continuous
 62
     7
100
AcDbLine
 10
119.7113117573
 20
59.49533853640001
 30
0.0
 11
121.2523155721
 21
61.0363423512
 31
0.0
  0
LINE
  5
2C0
330
232
100
AcDbEntity
  8
0
  6
Continuous
 62
     7
100
AcDbLine
 10
114.5375809749
 20
54.9250055405
 30
0.0
 11
115.6166034624
 21
56.0040280281
 31
0.0
  0
LINE
  5
2C1
330
232
100
AcDbEntity
  8
0
  6
Continuous
 62
     7
100
AcDbLine
 10
118.9787421909
 20
59.3661667566
 30
0.0
 11
120.5197460057
 21
60.9071705714
 31
0.0
  0
LINE
  5
2C2
330
232
100
AcDbEntity
  8
0
  6
Continuous
 62
     7
100
AcDbLine
 10
114.4471339209
 20
55.43795627319999
 30
0.0
 11
115.5261564085
 21
56.5169787607
 31
0.0
  0
LINE
  5
2C3
330
232
100
AcDbEntity
  8
0
  6
Continuous
 62
     7
100
AcDbLine
 10
118.2461726245
 20
59.23699497680001
 30
0.0
 11
119.7871764393
 21
60.77799879149999
 31
0.0
  0
LINE
  5
2C4
330
232
100
AcDbEntity
  8
0
  6
Continuous
 62
     7
100
AcDbLine
 10
114.356686867
 20
55.9509070059
 30
0.0
 11
115.4357093545
 21
57.0299294934
 31
0.0
  0
LINE
  5
2C5
330
232
100
AcDbEntity
  8
0
  6
Continuous
 62
     7
100
AcDbLine
 10
117.5136030581
 20
59.107823197
 30
0.0
 11
119.0546068729
 21
60.6488270117
 31
0.0
  0
LINE
  5
2C6
330
232
100
AcDbEntity
  8
0
  6
Continuous
 62
     7
100
AcDbLine
 10
114.2662398131
 20
56.4638577386
 30
0.0
 11
115.3452623006
 21
57.54288022609999
 31
0.0
  0
LINE
  5
2C7
330
232
100
AcDbEntity
  8
0
  6
Continuous
 62
     7
100
AcDbLine
 10
116.7810334917
 20
58.9786514172
 30
0.0
 11
118.3220373064
 21
60.51965523189999
 31
0.0
  0
LINE
  5
2C8
330
232
100
AcDbEntity
  8
0
  6
Continuous
 62
     7
100
AcDbLine
 10
114.1757927591
 20
56.9768084712
 30
0.0
 11
115.2548152466
 21
58.0558309587
 31
0.0
  0
LINE
  5
2C9
330
232
100
AcDbEntity
  8
0
  6
Continuous
 62
     7
100
AcDbLine
 10
116.0484639252
 20
58.8494796374
 30
0.0
 11
117.58946774
 21
60.3904834521
 31
0.0
  0
LINE
  5
2CA
330
232
100
AcDbEntity
  8
0
  6
Continuous
 62
     7
100
AcDbLine
 10
114.0853457052
 20
57.4897592039
 30
0.0
 11
115.1643681927
 21
58.5687816914
 31
0.0
  0
LINE
  5
2CB
330
232
100
AcDbEntity
  8
0
  6
Continuous
 62
     7
100
AcDbLine
 10
115.3158943588
 20
58.7203078575
 30
0.0
 11
116.8568981736
 21
60.26131167229999
 31
0.0
  0
LINE
  5
2CC
330
232
100
AcDbEntity
  8
0
  6
Continuous
 62
     7
100
AcDbLine
 10
113.9948986512
 20
58.00270993659999
 30
0.0
 11
116.1243286072
 21
60.1321398925
 31
0.0
  0
LINE
  5
2CD
330
232
100
AcDbEntity
  8
0
  6
Continuous
 62
     7
100
AcDbLine
 10
113.9044515973
 20
58.5156606692
 30
0.0
 11
115.3917590408
 21
60.00296811270001
 31
0.0
  0
LINE
  5
2CE
330
232
100
AcDbEntity
  8
0
  6
Continuous
 62
     7
100
AcDbLine
 10
113.8140045433
 20
59.02861140189999
 30
0.0
 11
114.6591894744
 21
59.8737963329
 31
0.0
  0
LINE
  5
2CF
330
232
100
AcDbEntity
  8
0
  6
Continuous
 62
     7
100
AcDbLine
 10
113.7235574894
 20
59.5415621346
 30
0.0
 11
113.9266199079
 21
59.7446245531
 31
0.0
  0
ENDBLK
  5
2D0
330
232
100
AcDbEntity
  8
0
  6
ByBlock
 62
     0
100
AcDbBlockEnd
  0
BLOCK
  5
2D1
330
233
100
AcDbEntity
  8
0
  6
Continuous
 62
     7
100
AcDbBlockBegin
  2
SYMBOL_5_BL3
 70
     0
 10
53.1149315402
 20
72.85138168500001
 30
0.0
  3
SYMBOL_5_BL3
  1

  0
TEXT
  5
2D2
330
233
100
AcDbEntity
  8
0
  6
Continuous
 62
     7
100
AcDbText
 10
52.5865362729
 20
72.184714759
 30
0.0
 40
1.333333852099999
  1
L
  7
TEXTSTYLE_2
100
AcDbText
  0
ELLIPSE
  5
2D3
330
233
100
AcDbEntity
  8
0
  6
Continuous
 62
     7
100
AcDbEllipse
 10
53.1149315402
 20
72.85138168500001
 30
0.0
 11
-1.942887567899999
 21
0.0
 31
0.0
210
0.0
220
0.0
230
1.0
 40
0.6606458385
 41
0.0
 42
6.283185307179586
  0
ENDBLK
  5
2D4
330
233
100
AcDbEntity
  8
0
  6
ByBlock
 62
     0
100
AcDbBlockEnd
  0
BLOCK
  5
2D5
330
234
100
AcDbEntity
  8
0
  6
Continuous
 62
     7
100
AcDbBlockBegin
  2
SYMBOL_4_BL2
 70
     0
 10
41.4479652582
 20
97.00153928010001
 30
0.0
  3
SYMBOL_4_BL2
  1

  0
TEXT
  5
2D6
330
234
100
AcDbEntity
  8
0
  6
Continuous
 62
     7
100
AcDbText
 10
40.95976650319999
 20
96.2771557027
 30
0.0
 40
1.333333852099999
  1
L
 50
5.0
  7
TEXTSTYLE_2
100
AcDbText
  0
TEXT
  5
2D7
330
234
100
AcDbEntity
  8
0
  6
Continuous
 62
     7
100
AcDbText
 10
37.2881195132
 20
95.96838645
 30
0.0
 40
1.333333852099999
  1
5
 50
5.0
  7
TEXTSTYLE_2
100
AcDbText
  0
TEXT
  5
2D8
330
234
100
AcDbEntity
  8
0
  6
Continuous
 62
     7
100
AcDbText
 10
44.70568595109999
 20
96.6173394243
 30
0.0
 40
1.333333852099999
  1
4
 50
5.0
  7
TEXTSTYLE_2
100
AcDbText
  0
ELLIPSE
  5
2D9
330
234
100
AcDbEntity
  8
0
  6
Continuous
 62
     7
100
AcDbEllipse
 10
41.4280472159
 20
96.98733844180001
 30
0.0
 11
-1.9354942941
 21
-0.1693338091
 31
0.0
210
0.0
220
0.0
230
1.0
 40
0.6606458385
 41
0.0
 42
6.283185307179586
  0
ENDBLK
  5
2DA
330
234
100
AcDbEntity
  8
0
  6
ByBlock
 62
     0
100
AcDbBlockEnd
  0
BLOCK
  5
2DB
330
235
100
AcDbEntity
  8
0
  6
Continuous
 62
     7
100
AcDbBlockBegin
  2
SYMBOL_2_BL1
 70
     0
 10
64.7461302513
 20
97.10891137870001
 30
0.0
  3
SYMBOL_2_BL1
  1

  0
TEXT
  5
2DC
330
235
100
AcDbEntity
  8
0
  6
Continuous
 62
     7
100
AcDbText
 10
64.1395604442
 20
96.48030763969998
 30
0.0
 40
1.333333852099999
  1
L
 50
355.0
  7
TEXTSTYLE_2
100
AcDbText
  0
TEXT
  5
2DD
330
235
100
AcDbEntity
  8
0
  6
Continuous
 62
     7
100
AcDbText
 10
60.4700768041
 20
96.81380409450001
 30
0.0
 40
1.333333852099999
  1
4
 50
355.0
  7
TEXTSTYLE_2
100
AcDbText
  0
TEXT
  5
2DE
330
235
100
AcDbEntity
  8
0
  6
Continuous
 62
     7
100
AcDbText
 10
67.88764324199999
 20
96.1648511203
 30
0.0
 40
1.333333852099999
  1
5
 50
355.0
  7
TEXTSTYLE_2
100
AcDbText
  0
ELLIPSE
  5
2DF
330
235
100
AcDbEntity
  8
0
  6
Continuous
 62
     7
100
AcDbEllipse
 10
64.72404885909999
 20
97.0983850148
 30
0.0
 11
-1.9354942941
 21
0.1693338091
 31
0.0
210
0.0
220
0.0
230
1.0
 40
0.6606458385
 41
0.0
 42
6.283185307179586
  0
ENDBLK
  5
2E0
330
235
100
AcDbEntity
  8
0
  6
ByBlock
 62
     0
100
AcDbBlockEnd
  0
BLOCK
  5
2E1
330
236
100
AcDbEntity
  8
0
  6
Continuous
 62
     7
100
AcDbBlockBegin
  2
SYMBOL_8_BL0
 70
     0
 10
160.6670946139
 20
55.3334888088
 30
0.0
  3
SYMBOL_8_BL0
  1

  0
TEXT
  5
2E2
330
236
100
AcDbEntity
  8
0
  6
Continuous
 62
     7
100
AcDbText
 10
144.4193095377
 20
63.10692219989999
 30
0.0
 40
0.5
  1
Infomations Techniques/Technical Infomations
  7
TEXTSTYLE_2
100
AcDbText
  0
TEXT
  5
2E3
330
236
100
AcDbEntity
  8
0
  6
Continuous
 62
     7
100
AcDbText
 10
144.6670946139
 20
61.6668221421
 30
0.0
 40
0.6666666667
  1
NOMBRE DE JETS:     
  7
TEXTSTYLE_2
100
AcDbText
  0
TEXT
  5
2E4
330
236
100
AcDbEntity
  8
0
  6
Continuous
 62
     7
100
AcDbText
 10
154.5115390583
 20
61.6668221421
 30
0.0
 40
0.6666666667
  1
38
  7
TEXTSTYLE_2
100
AcDbText
  0
TEXT
  5
2E5
330
236
100
AcDbEntity
  8
0
  6
Continuous
 62
     7
100
AcDbText
 10
144.6670946139
 20
60.6668221421
 30
0.0
 40
0.6666666667
  1
 
  7
TEXTSTYLE_2
100
AcDbText
  0
TEXT
  5
2E6
330
236
100
AcDbEntity
  8
0
  6
Continuous
 62
     7
100
AcDbText
 10
144.6670946139
 20
59.6668221421
 30
0.0
 40
0.6666666667
  1
NIVEAU D'EAU              GALLONS(US)        LITRES        GALLONS(UK)
  7
TEXTSTYLE_2
100
AcDbText
  0
TEXT
  5
2E7
330
236
100
AcDbEntity
  8
0
  6
Continuous
 62
     7
100
AcDbText
 10
144.6670946139
 20
58.6668221421
 30
0.0
 40
0.6666666667
  1
PLEIN
  7
TEXTSTYLE_2
100
AcDbText
  0
TEXT
  5
2E8
330
236
100
AcDbEntity
  8
0
  6
Continuous
 62
     7
100
AcDbText
 10
144.6670946139
 20
57.6668221421
 30
0.0
 40
0.6666666667
  1
HAUT T.PLEIN
  7
TEXTSTYLE_2
100
AcDbText
  0
TEXT
  5
2E9
330
236
100
AcDbEntity
  8
0
  6
Continuous
 62
     7
100
AcDbText
 10
144.6670946139
 20
56.6668221421
 30
0.0
 40
0.6666666667
  1
MILIEU T.PLEIN
  7
TEXTSTYLE_2
100
AcDbText
  0
TEXT
  5
2EA
330
236
100
AcDbEntity
  8
0
  6
Continuous
 62
     7
100
AcDbText
 10
144.6670946139
 20
55.6668221421
 30
0.0
 40
0.6666666667
  1
BAS T.PLEIN
  7
TEXTSTYLE_2
100
AcDbText
  0
TEXT
  5
2EB
330
236
100
AcDbEntity
  8
0
  6
Continuous
 62
     7
100
AcDbText
 10
144.6670946139
 20
54.6668221421
 30
0.0
 40
0.6666666667
  1
3" EN BAS T.PLEIN
  7
TEXTSTYLE_2
100
AcDbText
  0
TEXT
  5
2EC
330
236
100
AcDbEntity
  8
0
  6
Continuous
 62
     7
100
AcDbText
 10
144.6670946139
 20
53.6668221421
 30
0.0
 40
0.6666666667
  1
 
  7
TEXTSTYLE_2
100
AcDbText
  0
TEXT
  5
2ED
330
236
100
AcDbEntity
  8
0
  6
Continuous
 62
     7
100
AcDbText
 10
144.4669331082
 20
53.12003521729999
 30
0.0
 40
0.5
  1
Legende/Legend
  7
TEXTSTYLE_2
100
AcDbText
  0
TEXT
  5
2EE
330
236
100
AcDbEntity
  8
0
  6
Continuous
 62
     7
100
AcDbText
 10
150.9957680523
 20
51.6087702396
 30
0.0
 40
0.6666666667
  1
ZONE DE ROBINETTERIE
  7
TEXTSTYLE_2
100
AcDbText
  0
TEXT
  5
2EF
330
236
100
AcDbEntity
  8
0
  6
Continuous
 62
     7
100
AcDbText
 10
145.9160434854
 20
50.1135257252
 30
0.0
 40
0.6666666667
  1
L   :  SYSTEME LED       DC   :  DOUBLE DOSSIER CHAUFFANT
  7
TEXTSTYLE_2
100
AcDbText
  0
TEXT
  5
2F0
330
236
100
AcDbEntity
  8
0
  6
Continuous
 62
     7
100
AcDbText
 10
145.9160434854
 20
48.78019239189999
 30
0.0
 40
0.6666666667
  1
C   :  CONTROLE
  7
TEXTSTYLE_2
100
AcDbText
  0
TEXT
  5
2F1
330
236
100
AcDbEntity
  8
0
  6
Continuous
 62
     7
100
AcDbText
 10
145.9160434854
 20
47.44685905859999
 30
0.0
 40
0.6666666667
  1
T   :  MOTEUR
  7
TEXTSTYLE_2
100
AcDbText
  0
TEXT
  5
2F2
330
236
100
AcDbEntity
  8
0
  6
Continuous
 62
     7
100
AcDbText
 10
157.4997913132
 20
58.6668221421
 30
0.0
 40
0.6666666667
  1
98
  7
TEXTSTYLE_2
100
AcDbText
  0
TEXT
  5
2F3
330
236
100
AcDbEntity
  8
0
  6
Continuous
 62
     7
100
AcDbText
 10
157.4997913132
 20
57.6668221421
 30
0.0
 40
0.6666666667
  1
75
  7
TEXTSTYLE_2
100
AcDbText
  0
TEXT
  5
2F4
330
236
100
AcDbEntity
  8
0
  6
Continuous
 62
     7
100
AcDbText
 10
157.4997913132
 20
56.6668221421
 30
0.0
 40
0.6666666667
  1
73
  7
TEXTSTYLE_2
100
AcDbText
  0
TEXT
  5
2F5
330
236
100
AcDbEntity
  8
0
  6
Continuous
 62
     7
100
AcDbText
 10
157.4997913132
 20
55.6668221421
 30
0.0
 40
0.6666666667
  1
72
  7
TEXTSTYLE_2
100
AcDbText
  0
TEXT
  5
2F6
330
236
100
AcDbEntity
  8
0
  6
Continuous
 62
     7
100
AcDbText
 10
157.4997913132
 20
54.6668221421
 30
0.0
 40
0.6666666667
  1
55
  7
TEXTSTYLE_2
100
AcDbText
  0
TEXT
  5
2F7
330
236
100
AcDbEntity
  8
0
  6
Continuous
 62
     7
100
AcDbText
 10
164.4199972569
 20
58.68390154430001
 30
0.0
 40
0.6666666667
  1
371
  7
TEXTSTYLE_2
100
AcDbText
  0
TEXT
  5
2F8
330
236
100
AcDbEntity
  8
0
  6
Continuous
 62
     7
100
AcDbText
 10
164.4199972569
 20
57.68390154430001
 30
0.0
 40
0.6666666667
  1
282
  7
TEXTSTYLE_2
100
AcDbText
  0
TEXT
  5
2F9
330
236
100
AcDbEntity
  8
0
  6
Continuous
 62
     7
100
AcDbText
 10
164.4199972569
 20
56.6839015443
 30
0.0
 40
0.6666666667
  1
278
  7
TEXTSTYLE_2
100
AcDbText
  0
TEXT
  5
2FA
330
236
100
AcDbEntity
  8
0
  6
Continuous
 62
     7
100
AcDbText
 10
164.4199972569
 20
55.68390154430001
 30
0.0
 40
0.6666666667
  1
273
  7
TEXTSTYLE_2
100
AcDbText
  0
TEXT
  5
2FB
330
236
100
AcDbEntity
  8
0
  6
Continuous
 62
     7
100
AcDbText
 10
164.4199972569
 20
54.6839015443
 30
0.0
 40
0.6666666667
  1
208
  7
TEXTSTYLE_2
100
AcDbText
  0
TEXT
  5
2FC
330
236
100
AcDbEntity
  8
0
  6
Continuous
 62
     7
100
AcDbText
 10
171.3646361944
 20
58.6668221421
 30
0.0
 40
0.6666666667
  1
82
  7
TEXTSTYLE_2
100
AcDbText
  0
TEXT
  5
2FD
330
236
100
AcDbEntity
  8
0
  6
Continuous
 62
     7
100
AcDbText
 10
171.3646361944
 20
57.6668221421
 30
0.0
 40
0.6666666667
  1
62
  7
TEXTSTYLE_2
100
AcDbText
  0
TEXT
  5
2FE
330
236
100
AcDbEntity
  8
0
  6
Continuous
 62
     7
100
AcDbText
 10
171.3646361944
 20
56.6668221421
 30
0.0
 40
0.6666666667
  1
61
  7
TEXTSTYLE_2
100
AcDbText
  0
TEXT
  5
2FF
330
236
100
AcDbEntity
  8
0
  6
Continuous
 62
     7
100
AcDbText
 10
171.3646361944
 20
55.6668221421
 30
0.0
 40
0.6666666667
  1
60
  7
TEXTSTYLE_2
100
AcDbText
  0
TEXT
  5
300
330
236
100
AcDbEntity
  8
0
  6
Continuous
 62
     7
100
AcDbText
 10
171.3646361944
 20
54.6668221421
 30
0.0
 40
0.6666666667
  1
46
  7
TEXTSTYLE_2
100
AcDbText
  0
LINE
  5
301
330
236
100
AcDbEntity
  8
0
  6
Continuous
 62
     7
100
AcDbLine
 10
144.0004279472
 20
64.00015547550001
 30
0.0
 11
144.0004279472
 21
46.6668221421
 31
0.0
  0
LINE
  5
302
330
236
100
AcDbEntity
  8
0
  6
Continuous
 62
     7
100
AcDbLine
 10
144.0004279472
 20
64.00015547550001
 30
0.0
 11
177.3337612805
 21
64.00015547550001
 31
0.0
  0
LINE
  5
303
330
236
100
AcDbEntity
  8
0
  6
Continuous
 62
     7
100
AcDbLine
 10
177.3337612805
 20
64.00015547550001
 30
0.0
 11
177.3337612805
 21
46.6668221421
 31
0.0
  0
LINE
  5
304
330
236
100
AcDbEntity
  8
0
  6
Continuous
 62
     7
100
AcDbLine
 10
144.0004279472
 20
46.6668221421
 30
0.0
 11
177.3337612805
 21
46.6668221421
 31
0.0
  0
LINE
  5
305
330
236
100
AcDbEntity
  8
0
  6
Continuous
 62
     7
100
AcDbLine
 10
145.3337612805
 20
54.0001554755
 30
0.0
 11
176.0004279472
 21
54.0001554755
 31
0.0
  0
LINE
  5
306
330
236
100
AcDbEntity
  8
0
  6
Continuous
 62
     7
100
AcDbLine
 10
145.3337612805
 20
61.0001554755
 30
0.0
 11
176.0004279472
 21
61.0001554755
 31
0.0
  0
LINE
  5
307
330
236
100
AcDbEntity
  8
0
  6
Continuous
 62
     7
100
AcDbLine
 10
144.8093345065
 20
52.37831997979999
 30
0.0
 11
144.4403137641
 21
52.0092992375
 31
0.0
  0
LINE
  5
308
330
236
100
AcDbEntity
  8
0
  6
Continuous
 62
     7
100
AcDbLine
 10
145.4760011731
 20
52.37831997979999
 30
0.0
 11
144.6779853827
 21
51.5803041894
 31
0.0
  0
LINE
  5
309
330
236
100
AcDbEntity
  8
0
  6
Continuous
 62
     7
100
AcDbLine
 10
146.1426678398
 20
52.37831997979999
 30
0.0
 11
145.3446520494
 21
51.5803041894
 31
0.0
  0
LINE
  5
30A
330
236
100
AcDbEntity
  8
0
  6
Continuous
 62
     7
100
AcDbLine
 10
146.8093345065
 20
52.37831997979999
 30
0.0
 11
146.011318716
 21
51.5803041894
 31
0.0
  0
LINE
  5
30B
330
236
100
AcDbEntity
  8
0
  6
Continuous
 62
     7
100
AcDbLine
 10
147.4760011731
 20
52.37831997979999
 30
0.0
 11
146.6779853827
 21
51.5803041894
 31
0.0
  0
LINE
  5
30C
330
236
100
AcDbEntity
  8
0
  6
Continuous
 62
     7
100
AcDbLine
 10
148.1426678398
 20
52.37831997979999
 30
0.0
 11
147.3446520494
 21
51.5803041894
 31
0.0
  0
LINE
  5
30D
330
236
100
AcDbEntity
  8
0
  6
Continuous
 62
     7
100
AcDbLine
 10
148.8093345065
 20
52.37831997979999
 30
0.0
 11
148.011318716
 21
51.5803041894
 31
0.0
  0
LINE
  5
30E
330
236
100
AcDbEntity
  8
0
  6
Continuous
 62
     7
100
AcDbLine
 10
149.4760011731
 20
52.37831997979999
 30
0.0
 11
148.6779853827
 21
51.5803041894
 31
0.0
  0
LINE
  5
30F
330
236
100
AcDbEntity
  8
0
  6
Continuous
 62
     7
100
AcDbLine
 10
150.1426678398
 20
52.37831997979999
 30
0.0
 11
149.3446520494
 21
51.5803041894
 31
0.0
  0
LINE
  5
310
330
236
100
AcDbEntity
  8
0
  6
Continuous
 62
     7
100
AcDbLine
 10
150.5861552739
 20
52.15514074729999
 30
0.0
 11
150.011318716
 21
51.5803041894
 31
0.0
  0
ELLIPSE
  5
311
330
236
100
AcDbEntity
  8
0
  6
Continuous
 62
     7
100
AcDbEllipse
 10
146.1458304294
 20
50.4311031824
 30
0.0
 11
1.0473539356
 21
0.0
 31
0.0
210
0.0
220
0.0
230
1.0
 40
0.4938647983
 41
0.0
 42
6.283185307179586
  0
ELLIPSE
  5
312
330
236
100
AcDbEntity
  8
0
  6
Continuous
 62
     7
100
AcDbEllipse
 10
146.1458304294
 20
49.09776984909999
 30
0.0
 11
1.0473539356
 21
0.0
 31
0.0
210
0.0
220
0.0
230
1.0
 40
0.4938647983
 41
0.0
 42
6.283185307179586
  0
ELLIPSE
  5
313
330
236
100
AcDbEntity
  8
0
  6
Continuous
 62
     7
100
AcDbEllipse
 10
146.1458304294
 20
47.7644365158
 30
0.0
 11
1.0473539356
 21
0.0
 31
0.0
210
0.0
220
0.0
230
1.0
 40
0.4938647983
 41
0.0
 42
6.283185307179586
  0
ELLIPSE
  5
314
330
236
100
AcDbEntity
  8
0
  6
Continuous
 62
     7
100
AcDbEllipse
 10
157.1644660105
 20
50.45062453949999
 30
0.0
 11
1.0473539356
 21
0.0
 31
0.0
210
0.0
220
0.0
230
1.0
 40
0.4938647983
 41
0.0
 42
6.283185307179586
  0
ENDBLK
  5
315
330
236
100
AcDbEntity
  8
0
  6
ByBlock
 62
     0
100
AcDbBlockEnd
  0
ENDSEC
  0
SECTION
  2
ENTITIES
  0
LINE
  5
42D
330
220
100
AcDbEntity
  8
DEFAULT_2
  6
HIDDEN
 62
     7
100
AcDbLine
 10
22.9074978809
 20
49.58712671869999
 30
0.0
 11
22.9636486248
 21
49.49267978249999
 31
0.0
  0
LWPOLYLINE
  5
42E
330
220
100
AcDbEntity
  8
DEFAULT_2
  6
HIDDEN
 62
     7
100
AcDbPolyline
 90
       11
 70
     0
 43
0.0
 10
22.9636486248
 20
49.49267978249999
 10
23.1085084903
 20
49.2487435667
 10
23.5188976625
 20
48.5555451801
 10
24.3357462612
 20
47.16683291919999
 10
25.1479039336
 20
45.7753564696
 10
25.9560430653
 20
44.38151268979999
 10
26.7608232728
 20
42.9856900769
 10
27.5629045316
 20
41.5882773632
 10
29.1616151887
 20
38.7902398916
 10
30.7574680537
 20
35.9905187851
 10
32.0124443994
 20
33.79219836780001
  0
LWPOLYLINE
  5
42F
330
220
100
AcDbEntity
  8
DEFAULT_2
  6
HIDDEN
 62
     7
100
AcDbPolyline
 90
        4
 70
     0
 43
0.0
 10
32.0900174657
 20
33.6565652718
 10
32.3557535941
 20
33.1922308847
 10
32.7311615212
 20
32.5371208972
 10
33.1070615393
 20
31.8823008252
  0
LINE
  5
437
330
220
100
AcDbEntity
  8
DEFAULT_2
  6
HIDDEN
 62
     7
100
AcDbLine
 10
51.5135395985
 20
29.9717167458
 30
0.0
 11
51.1538055864
 21
30.3314507578
 31
0.0
  0
LWPOLYLINE
  5
438
330
220
100
AcDbEntity
  8
DEFAULT_2
  6
HIDDEN
 62
     7
100
AcDbPolyline
 90
       50
 70
     0
 43
0.0
 10
51.4624917014
 20
46.4084204482
 10
51.4629009927
 20
46.4046905096
 10
51.46340048879999
 20
46.40097161739999
 10
51.46399055609999
 20
46.39726132159999
 10
51.4646700699
 20
46.3935663195
 10
51.4654384233
 20
46.38988875529999
 10
51.466296208
 20
46.3862257487
 10
51.46724164270001
 20
46.3825843897
 10
51.46827390310001
 20
46.37896668999999
 10
51.4693954476
 20
46.3753644246
 10
51.47060246239999
 20
46.3717898859
 10
51.471893925
 20
46.36824498310001
 10
51.473994298
 20
46.36297017109999
 10
51.4762795742
 20
46.3577727921
 10
51.478752619
 20
46.35264490329999
 10
51.4814030035
 20
46.3476063809
 10
51.4842396131
 20
46.342639968
 10
51.4872457243
 20
46.3377742742
 10
51.4904320656
 20
46.3329914764
 10
51.4937793288
 20
46.3283198803
 10
51.4972962638
 20
46.32374624869999
 10
51.50096463189999
 20
46.31929315149999
 10
51.5048015742
 20
46.3149396249
 10
51.50878054939999
 20
46.3107155089
 10
51.512919727
 20
46.30660128169999
 10
51.51719110560001
 20
46.30262446869999
 10
51.5216086607
 20
46.29877135850001
 10
51.5261480075
 20
46.2950624985
 10
51.53083189170001
 20
46.291479291
 10
51.5356273922
 20
46.28804688689999
 10
51.54055678289999
 20
46.2847492766
 10
51.5455874003
 20
46.28160824640001
 10
51.55073491989999
 20
46.27861355140001
 10
51.5559729439
 20
46.2757801235
 10
51.5613242768
 20
46.2730956821
 10
51.56675561229999
 20
46.2705770224
 10
51.5722875852
 20
46.2682145979
 10
51.5778889688
 20
46.26602181069999
 10
51.583572266
 20
46.2639934834
 10
51.5893142226
 20
46.26213769279999
 10
51.5951311835
 20
46.2604492144
 10
51.6009961787
 20
46.2589359949
 10
51.6069218682
 20
46.25759480470001
 10
51.612884951
 20
46.25643102549999
 10
51.6188904224
 20
46.2554435364
 10
51.6249225341
 20
46.25463484479999
 10
51.6309860376
 20
46.2540043389
 10
51.6370657095
 20
46.25355372579999
 10
51.6431619179
 20
46.2532830001
 10
51.6492629032
 20
46.25319274489999
  0
LWPOLYLINE
  5
439
330
220
100
AcDbEntity
  8
DEFAULT_2
  6
HIDDEN
 62
     7
100
AcDbPolyline
 90
       51
 70
     0
 43
0.0
 10
51.4621643551
 20
46.4121143197
 10
51.4618633279
 20
46.4177548683
 10
51.46176290319999
 20
46.4234025505
 10
51.4618633279
 20
46.4290502327
 10
51.4621643551
 20
46.43469078129999
 10
51.4626659547
 20
46.4403213966
 10
51.46336699159999
 20
46.44593067409999
 10
51.4642677642
 20
46.4515200631
 10
51.4653656631
 20
46.45707409809999
 10
51.4666618831
 20
46.4625982485
 10
51.4681518107
 20
46.46807333539999
 10
51.46983803939999
 20
46.4735084891
 10
51.4717135038
 20
46.47888128539999
 10
51.4737826077
 20
46.48420404529999
 10
51.4760354907
 20
46.48945166709999
 10
51.4784786685
 20
46.4946391034
 10
51.4810992639
 20
46.4997392162
 10
51.48390608279999
 20
46.50476897119999
 10
51.48688313970001
 20
46.50969988009999
 10
51.49004157939999
 20
46.5145502702
 10
51.4933623505
 20
46.5192910055
 10
51.4968588563
 20
46.5239411206
 10
51.5005091515
 20
46.52847152189999
 10
51.5043286941
 20
46.5329013201
 10
51.50829293880001
 20
46.5372021168
 10
51.51241908270001
 20
46.5413925155
 10
51.51668038109999
 20
46.54544540449999
 10
51.52109535850001
 20
46.54937836560001
 10
51.5256355622
 20
46.553166086
 10
51.5303203538
 20
46.5568246959
 10
51.5351201345
 20
46.5603311
 10
51.540054556
 20
46.5636996442
 10
51.5450934836
 20
46.566909765
 10
51.55025627699999
 20
46.5699737954
 10
51.5555129022
 20
46.5728739101
 10
51.560881831
 20
46.5756203075
 10
51.5663337728
 20
46.57819799600001
 10
51.57188572229999
 20
46.58061502479999
 10
51.57750975859999
 20
46.5828592239
 10
51.5832208376
 20
46.584936581
 10
51.58899300199999
 20
46.5868376338
 10
51.59483865310001
 20
46.5885664905
 10
51.6007343305
 20
46.59011618970001
 10
51.6066894235
 20
46.5914892268
 10
51.6126834665
 20
46.59268085229999
 10
51.6187224619
 20
46.5936922882
 10
51.6247892413
 20
46.59452063919999
 10
51.63088609979999
 20
46.5951662518
 10
51.636999816
 20
46.5956276721
 10
51.6431288701
 20
46.5959048131
 10
51.6492629032
 20
46.5959972105
  0
LWPOLYLINE
  5
43A
330
220
100
AcDbEntity
  8
DEFAULT_2
  6
HIDDEN
 62
     7
100
AcDbPolyline
 90
        5
 70
     0
 43
0.0
 10
51.46176290319999
 20
46.4234025505
 10
51.46180850970001
 20
46.4196522867
 10
51.46194524569999
 20
46.41590368430001
 10
51.4621729862
 20
46.4121593624
 10
51.4626659547
 20
46.4064837044
  0
LWPOLYLINE
  5
43D
330
220
100
AcDbEntity
  8
DEFAULT_2
  6
HIDDEN
 62
     7
100
AcDbPolyline
 90
       60
 70
     0
 43
0.0
 10
50.96176290319999
 20
46.40777330539999
 10
50.9619179483
 20
46.418493945
 10
50.96238306850001
 20
46.4292083488
 10
50.9631576501
 20
46.4399048355
 10
50.9642417567
 20
46.4505826051
 10
50.9656335396
 20
46.4612246456
 10
50.9673337075
 20
46.47183546039999
 10
50.9693385987
 20
46.4823929422
 10
50.97165014459999
 20
46.4929066467
 10
50.9742623249
 20
46.50334972119999
 10
50.97717881659999
 20
46.5137364138
 10
50.9803907614
 20
46.5240355785
 10
50.98390403239999
 20
46.53426569919999
 10
50.98770653649999
 20
46.54439187779999
 10
50.9918067066
 20
46.554436296
 10
50.99618891279999
 20
46.56436091689999
 10
51.0008644142
 20
46.5741910184
 10
51.00581384619999
 20
46.5838860914
 10
51.0110514552
 20
46.5934738638
 10
51.01655405369999
 20
46.6029120551
 10
51.02233892810001
 20
46.6122301716
 10
51.028379091
 20
46.6213848767
 10
51.0346948129
 20
46.6304067781
 10
51.0412554387
 20
46.63925219319999
 10
51.04808406229999
 20
46.6479521668
 10
51.05514659749999
 20
46.6564633576
 10
51.06246870159999
 20
46.6648166139
 10
51.0700131914
 20
46.6729695831
 10
51.07780793729999
 20
46.6809523289
 10
51.0858130793
 20
46.6887240809
 10
51.0940582726
 20
46.6963135895
 10
51.10250147479999
 20
46.70368219310001
 10
51.11117363109999
 20
46.71085687069999
 10
51.12003107279999
 20
46.7178015195
 10
51.129105488
 20
46.7245409675
 10
51.1383521838
 20
46.73104203729999
 10
51.1478030069
 20
46.73732711119999
 10
51.1574128746
 20
46.7433662147
 10
51.1672131846
 20
46.74917907869999
 10
51.1771591155
 20
46.7547391175
 10
51.1872810008
 20
46.76006329479999
 10
51.1975349338
 20
46.765128508
 10
51.2079495742
 20
46.7699489268
 10
51.21848257189999
 20
46.77450493640001
 10
51.2291603232
 20
46.7788079717
 10
51.23994265149999
 20
46.78284182419999
 10
51.2508531322
 20
46.786615335
 10
51.2618543417
 20
46.79011553939999
 10
51.2729665202
 20
46.7933489018
 10
51.2841555313
 20
46.7963054641
 10
51.29543782089999
 20
46.7989895991
 10
51.3067830053
 20
46.8013940522
 10
51.3182033367
 20
46.8035214497
 10
51.3296726237
 20
46.8053668794
 10
51.34119860600001
 20
46.80693161719999
 10
51.3527595032
 20
46.80821268449999
 10
51.3643582613
 20
46.8092104425
 10
51.3759782017
 20
46.80992340069999
 10
51.38761742439999
 20
46.8103514711
 10
51.3992629032
 20
46.81049417869999
  0
LWPOLYLINE
  5
43E
330
220
100
AcDbEntity
  8
DEFAULT_2
  6
HIDDEN
 62
     7
100
AcDbPolyline
 90
       60
 70
     0
 43
0.0
 10
50.961910473
 20
46.41838113619999
 10
50.96235297319999
 20
46.42898162829999
 10
50.9630905886
 20
46.4395726063
 10
50.9641222834
 20
46.4501387601
 10
50.9654485315
 20
46.4606830955
 10
50.96706697
 20
46.4711866161
 10
50.968979206
 20
46.48165776049999
 10
50.97118084689999
 20
46.4920718858
 10
50.9736769107
 20
46.5024496196
 10
50.9764590729
 20
46.5127543483
 10
50.979531069
 20
46.5229992212
 10
50.982884294
 20
46.53315552449999
 10
50.9865243099
 20
46.54323955159999
 10
50.9904397766
 20
46.55321985859999
 10
50.9946418704
 20
46.56312348399999
 10
50.99911320859999
 20
46.5729085055
 10
51.0038708086
 20
46.58261022709999
 10
51.0088909324
 20
46.59217875
 10
51.0141855943
 20
46.601636693
 10
51.0197344756
 20
46.61094776859999
 10
51.0255517146
 20
46.62013550060001
 10
51.03161414279999
 20
46.6291633339
 10
51.03794834729999
 20
46.6380694539
 10
51.044518799
 20
46.64680274859999
 10
51.0513520439
 20
46.6553975357
 10
51.05841173199999
 20
46.6638073231
 10
51.06571751819999
 20
46.6720555076
 10
51.0732388133
 20
46.6801076667
 10
51.0809965573
 20
46.68798624799999
 10
51.0889583987
 20
46.6956585264
 10
51.0971657574
 20
46.7031630587
 10
51.1055662749
 20
46.710450733
 10
51.1141871499
 20
46.71754493659999
 10
51.12298909689999
 20
46.72441319949999
 10
51.1319946807
 20
46.7310732647
 10
51.1411687309
 20
46.73749929729999
 10
51.15053551839999
 20
46.7437083421
 10
51.16005798149999
 20
46.7496759021
 10
51.1697802746
 20
46.7554286429
 10
51.1796458171
 20
46.7609321149
 10
51.1896749566
 20
46.7661978563
 10
51.1998340151
 20
46.7712083713
 10
51.2101417184
 20
46.7759730899
 10
51.2205658863
 20
46.7804773201
 10
51.2311307021
 20
46.78473137930001
 10
51.24179857319999
 20
46.7887199839
 10
51.25259637439999
 20
46.7924528492
 10
51.26348378180001
 20
46.7959156826
 10
51.27447258140001
 20
46.7991124163
 10
51.2855372483
 20
46.8020357756
 10
51.2966866537
 20
46.8046882755
 10
51.307898154
 20
46.8070646638
 10
51.3191850247
 20
46.8091676206
 10
51.33052028339999
 20
46.8109919417
 10
51.3419096914
 20
46.81253856439999
 10
51.3533336193
 20
46.8138048004
 10
51.36479071310001
 20
46.81479062859999
 10
51.3762687415
 20
46.81549505399999
 10
51.387762732
 20
46.8159178775
 10
51.3992629032
 20
46.81605883899999
  0
LWPOLYLINE
  5
466
330
220
100
AcDbEntity
  8
DEFAULT_2
  6
HIDDEN
 62
     7
100
AcDbPolyline
 90
       60
 70
     0
 43
0.0
 10
54.9616153334
 20
46.41838113619999
 10
54.9611728331
 20
46.42898162829999
 10
54.9604352177
 20
46.4395726063
 10
54.95940352299999
 20
46.4501387601
 10
54.95807727479999
 20
46.4606830955
 10
54.9564588364
 20
46.4711866161
 10
54.9545466003
 20
46.48165776049999
 10
54.9523449594
 20
46.4920718858
 10
54.94984889560001
 20
46.5024496196
 10
54.9470667334
 20
46.5127543483
 10
54.94399473729999
 20
46.5229992212
 10
54.94064151229999
 20
46.53315552449999
 10
54.93700149649999
 20
46.54323955159999
 10
54.9330860298
 20
46.55321985859999
 10
54.9288839359
 20
46.56312348399999
 10
54.9244125978
 20
46.5729085055
 10
54.9196549977
 20
46.58261022709999
 10
54.91463487399999
 20
46.59217875
 10
54.909340212
 20
46.601636693
 10
54.9037913308
 20
46.61094776859999
 10
54.8979740918
 20
46.62013550060001
 10
54.8919116636
 20
46.6291633339
 10
54.88557745899999
 20
46.6380694539
 10
54.8790070074
 20
46.64680274859999
 10
54.8721737625
 20
46.6553975357
 10
54.8651140743
 20
46.6638073231
 10
54.8578082882
 20
46.6720555076
 10
54.8502869931
 20
46.6801076667
 10
54.84252924899999
 20
46.68798624799999
 10
54.83456740770001
 20
46.6956585264
 10
54.82636004899999
 20
46.7031630587
 10
54.81795953149999
 20
46.710450733
 10
54.8093386564
 20
46.71754493659999
 10
54.8005367095
 20
46.72441319949999
 10
54.7915311256
 20
46.7310732647
 10
54.7823570755
 20
46.73749929729999
 10
54.7729902879
 20
46.7437083421
 10
54.7634678249
 20
46.7496759021
 10
54.75374553169999
 20
46.7554286429
 10
54.74387998930001
 20
46.7609321149
 10
54.73385084979999
 20
46.7661978563
 10
54.7236917912
 20
46.7712083713
 10
54.7133840879
 20
46.7759730899
 10
54.70295992
 20
46.7804773201
 10
54.6923951043
 20
46.78473137930001
 10
54.68172723310001
 20
46.7887199839
 10
54.670929432
 20
46.7924528492
 10
54.6600420246
 20
46.7959156826
 10
54.6490532249
 20
46.7991124163
 10
54.63798855810001
 20
46.8020357756
 10
54.6268391526
 20
46.8046882755
 10
54.6156276524
 20
46.8070646638
 10
54.6043407817
 20
46.8091676206
 10
54.593005523
 20
46.8109919417
 10
54.5816161149
 20
46.81253856439999
 10
54.570192187
 20
46.8138048004
 10
54.55873509319999
 20
46.81479062859999
 10
54.54725706479999
 20
46.81549505399999
 10
54.5357630743
 20
46.8159178775
 10
54.5242629032
 20
46.81605883899999
  0
LINE
  5
525
330
220
100
AcDbEntity
  8
DEFAULT_2
  6
HIDDEN
 62
     7
100
AcDbLine
 10
71.3633327438
 20
31.0053479318
 30
0.0
 11
54.9349150062
 21
30.4020975794
 31
0.0
  0
LINE
  5
535
330
220
100
AcDbEntity
  8
DEFAULT_2
  6
HIDDEN
 62
     7
100
AcDbLine
 10
51.6903162938
 20
29.8984934411
 30
0.0
 11
54.2332095126
 21
29.8984934411
 31
0.0
  0
LINE
  5
539
330
220
100
AcDbEntity
  8
DEFAULT_2
  6
HIDDEN
 62
     7
100
AcDbLine
 10
34.5601930582
 20
31.0053479319
 30
0.0
 11
50.9886108002
 21
30.4020975794
 31
0.0
  0
LINE
  5
5C4
330
220
100
AcDbEntity
  8
DEFAULT_2
  6
HIDDEN
 62
     7
100
AcDbLine
 10
54.5242629032
 20
46.00505243199999
 30
0.0
 11
51.3992629032
 21
46.00505243199999
 31
0.0
  0
LINE
  5
5C5
330
220
100
AcDbEntity
  8
DEFAULT_2
  6
HIDDEN
 62
     7
100
AcDbLine
 10
54.27426290319999
 20
46.25319274489999
 30
0.0
 11
51.6492629032
 21
46.25319274489999
 31
0.0
  0
LINE
  5
5C6
330
220
100
AcDbEntity
  8
DEFAULT_2
  6
HIDDEN
 62
     7
100
AcDbLine
 10
51.6492629032
 20
46.5959972105
 30
0.0
 11
54.27426290319999
 21
46.5959972105
 31
0.0
  0
LINE
  5
5C8
330
220
100
AcDbEntity
  8
DEFAULT_2
  6
HIDDEN
 62
     7
100
AcDbLine
 10
51.3992629032
 20
46.81605883899999
 30
0.0
 11
54.5242629032
 21
46.81605883899999
 31
0.0
  0
LWPOLYLINE
  5
5C9
330
220
100
AcDbEntity
  8
DEFAULT_2
  6
HIDDEN
 62
     7
100
AcDbPolyline
 90
       60
 70
     0
 43
0.0
 10
51.3992629032
 20
46.00505243199999
 10
51.38761742439999
 20
46.0051951396
 10
51.3759782017
 20
46.00562321
 10
51.3643582613
 20
46.00633616819999
 10
51.3527595032
 20
46.00733392619999
 10
51.34119860600001
 20
46.00861499359999
 10
51.3296726237
 20
46.0101797313
 10
51.3182033367
 20
46.01202516109999
 10
51.3067830053
 20
46.0141525586
 10
51.29543782089999
 20
46.0165570116
 10
51.2841555313
 20
46.0192411466
 10
51.2729665202
 20
46.0221977089
 10
51.2618543417
 20
46.02543107129999
 10
51.2508531322
 20
46.02893127569999
 10
51.23994265149999
 20
46.03270478659999
 10
51.2291603232
 20
46.036738639
 10
51.21848257189999
 20
46.0410416743
 10
51.2079495742
 20
46.0455976839
 10
51.1975349338
 20
46.05041810270001
 10
51.1872810008
 20
46.05548331589999
 10
51.1771591155
 20
46.06080749319999
 10
51.1672131846
 20
46.066367532
 10
51.1574128746
 20
46.07218039609999
 10
51.1478030069
 20
46.07821949949999
 10
51.1383521838
 20
46.0845045735
 10
51.129105488
 20
46.0910056432
 10
51.12003107279999
 20
46.0977450912
 10
51.11117363109999
 20
46.10468973999999
 10
51.10250147479999
 20
46.1118644176
 10
51.0940582726
 20
46.1192330212
 10
51.0858130793
 20
46.1268225299
 10
51.07780793729999
 20
46.13459428189999
 10
51.0700131914
 20
46.1425770276
 10
51.06246870159999
 20
46.1507299968
 10
51.05514659749999
 20
46.15908325310001
 10
51.04808406229999
 20
46.1675944439
 10
51.0412554387
 20
46.1762944175
 10
51.0346948129
 20
46.1851398326
 10
51.028379091
 20
46.194161734
 10
51.02233892810001
 20
46.2033164391
 10
51.01655405369999
 20
46.2126345557
 10
51.0110514552
 20
46.222072747
 10
51.00581384619999
 20
46.2316605193
 10
51.0008644142
 20
46.24135559239999
 10
50.99618891279999
 20
46.2511856938
 10
50.9918067066
 20
46.26111031479999
 10
50.98770653649999
 20
46.27115473289999
 10
50.98390403239999
 20
46.28128091159999
 10
50.9803907614
 20
46.2915110322
 10
50.97717881659999
 20
46.30181019699999
 10
50.9742623249
 20
46.31219688949999
 10
50.97165014459999
 20
46.32263996399999
 10
50.9693385987
 20
46.33315366859999
 10
50.9673337075
 20
46.34371115029999
 10
50.9656335396
 20
46.3543219651
 10
50.9642417567
 20
46.3649640056
 10
50.9631576501
 20
46.3756417752
 10
50.96238306850001
 20
46.38633826189999
 10
50.9619179483
 20
46.3970526657
 10
50.96176291899999
 20
46.40777330539999
  0
LWPOLYLINE
  5
5CA
330
220
100
AcDbEntity
  8
DEFAULT_2
  6
HIDDEN
 62
     7
100
AcDbPolyline
 90
      119
 70
     0
 43
0.0
 10
54.5242629032
 20
46.81049417869999
 10
54.53590838189999
 20
46.8103514711
 10
54.5475476047
 20
46.80992340069999
 10
54.559167545
 20
46.8092104425
 10
54.5707663031
 20
46.80821268449999
 10
54.5823272004
 20
46.80693161719999
 10
54.5938531827
 20
46.8053668794
 10
54.60532246959999
 20
46.8035214497
 10
54.616742801
 20
46.8013940522
 10
54.6280879855
 20
46.7989895991
 10
54.639370275
 20
46.7963054641
 10
54.6505592861
 20
46.7933489018
 10
54.6616714647
 20
46.79011553939999
 10
54.6726726741
 20
46.786615335
 10
54.68358315479999
 20
46.78284182419999
 10
54.6943654832
 20
46.7788079717
 10
54.7050432344
 20
46.77450493640001
 10
54.71557623209999
 20
46.7699489268
 10
54.72599087249999
 20
46.765128508
 10
54.7362448055
 20
46.76006329479999
 10
54.7463666908
 20
46.7547391175
 10
54.75631262180001
 20
46.74917907869999
 10
54.7661129318
 20
46.7433662147
 10
54.77572279949999
 20
46.73732711119999
 10
54.78517362249999
 20
46.73104203729999
 10
54.7944203184
 20
46.7245409675
 10
54.8034947335
 20
46.7178015195
 10
54.8123521752
 20
46.71085687069999
 10
54.8210243315
 20
46.70368219310001
 10
54.8294675338
 20
46.6963135895
 10
54.837712727
 20
46.6887240809
 10
54.845717869
 20
46.6809523289
 10
54.85351261499999
 20
46.6729695831
 10
54.8610571047
 20
46.6648166139
 10
54.8683792088
 20
46.6564633576
 10
54.8754417441
 20
46.6479521668
 10
54.8822703676
 20
46.63925219319999
 10
54.8888309934
 20
46.6304067781
 10
54.8951467154
 20
46.6213848767
 10
54.90118687819999
 20
46.6122301716
 10
54.9069717526
 20
46.6029120551
 10
54.9124743512
 20
46.5934738638
 10
54.9177119601
 20
46.5838860914
 10
54.9226613921
 20
46.5741910184
 10
54.9273368935
 20
46.56436091689999
 10
54.9317190998
 20
46.554436296
 10
54.93581926979999
 20
46.54439187779999
 10
54.9396217739
 20
46.53426569919999
 10
54.94313504489999
 20
46.5240355785
 10
54.9463469897
 20
46.5137364138
 10
54.94926348149999
 20
46.50334972119999
 10
54.9518756617
 20
46.4929066467
 10
54.9541872077
 20
46.4823929422
 10
54.9561920988
 20
46.47183546039999
 10
54.9578922667
 20
46.4612246456
 10
54.9592840496
 20
46.4505826051
 10
54.9603681562
 20
46.4399048355
 10
54.96114273779999
 20
46.4292083488
 10
54.961607858
 20
46.418493945
 10
54.9617628873
 20
46.40777330539999
 10
54.961607858
 20
46.3970526657
 10
54.96114273779999
 20
46.38633826189999
 10
54.9603681562
 20
46.3756417752
 10
54.9592840496
 20
46.3649640056
 10
54.9578922667
 20
46.3543219651
 10
54.9561920988
 20
46.34371115029999
 10
54.9541872077
 20
46.33315366859999
 10
54.9518756617
 20
46.32263996399999
 10
54.94926348149999
 20
46.31219688949999
 10
54.9463469897
 20
46.30181019699999
 10
54.94313504489999
 20
46.2915110322
 10
54.9396217739
 20
46.28128091159999
 10
54.93581926979999
 20
46.27115473289999
 10
54.9317190998
 20
46.26111031479999
 10
54.9273368935
 20
46.2511856938
 10
54.9226613921
 20
46.24135559239999
 10
54.9177119601
 20
46.2316605193
 10
54.9124743512
 20
46.222072747
 10
54.9069717526
 20
46.2126345557
 10
54.90118687819999
 20
46.2033164391
 10
54.8951467154
 20
46.194161734
 10
54.8888309934
 20
46.1851398326
 10
54.8822703676
 20
46.1762944175
 10
54.8754417441
 20
46.1675944439
 10
54.8683792088
 20
46.15908325310001
 10
54.8610571047
 20
46.1507299968
 10
54.85351261499999
 20
46.1425770276
 10
54.845717869
 20
46.13459428189999
 10
54.837712727
 20
46.1268225299
 10
54.8294675338
 20
46.1192330212
 10
54.8210243315
 20
46.1118644176
 10
54.8123521752
 20
46.10468973999999
 10
54.8034947335
 20
46.0977450912
 10
54.7944203184
 20
46.0910056432
 10
54.78517362249999
 20
46.0845045735
 10
54.77572279949999
 20
46.07821949949999
 10
54.7661129318
 20
46.07218039609999
 10
54.75631262180001
 20
46.066367532
 10
54.7463666908
 20
46.06080749319999
 10
54.7362448055
 20
46.05548331589999
 10
54.72599087249999
 20
46.05041810270001
 10
54.71557623209999
 20
46.0455976839
 10
54.7050432344
 20
46.0410416743
 10
54.6943654832
 20
46.036738639
 10
54.68358315479999
 20
46.03270478659999
 10
54.6726726741
 20
46.02893127569999
 10
54.6616714647
 20
46.02543107129999
 10
54.6505592861
 20
46.0221977089
 10
54.639370275
 20
46.0192411466
 10
54.6280879855
 20
46.0165570116
 10
54.616742801
 20
46.0141525586
 10
54.60532246959999
 20
46.01202516109999
 10
54.5938531827
 20
46.0101797313
 10
54.5823272004
 20
46.00861499359999
 10
54.5707663031
 20
46.00733392619999
 10
54.559167545
 20
46.00633616819999
 10
54.5475476047
 20
46.00562321
 10
54.53590838189999
 20
46.0051951396
 10
54.5242629032
 20
46.00505243199999
  0
LWPOLYLINE
  5
5CB
330
220
100
AcDbEntity
  8
DEFAULT_2
  6
HIDDEN
 62
     7
100
AcDbPolyline
 90
       46
 70
     0
 43
0.0
 10
51.6492629032
 20
46.2508078905
 10
51.6431288701
 20
46.2509002879
 10
51.636999816
 20
46.2511774289
 10
51.63088609979999
 20
46.2516388492
 10
51.6247892413
 20
46.2522844618
 10
51.6187224619
 20
46.2531128128
 10
51.6126834665
 20
46.2541242487
 10
51.6066894235
 20
46.2553158743
 10
51.6007343305
 20
46.2566889113
 10
51.59483865310001
 20
46.2582386105
 10
51.58899300199999
 20
46.2599674672
 10
51.5832208376
 20
46.26186852
 10
51.57750975859999
 20
46.2639458771
 10
51.57188572229999
 20
46.26619007619999
 10
51.5663337728
 20
46.26860710499999
 10
51.560881831
 20
46.2711847935
 10
51.5555129022
 20
46.2739311909
 10
51.55025627699999
 20
46.2768313056
 10
51.5450934836
 20
46.279895336
 10
51.540054556
 20
46.2831054568
 10
51.5351201345
 20
46.286474001
 10
51.5303203538
 20
46.2899804051
 10
51.5256355622
 20
46.2936390151
 10
51.52109535850001
 20
46.2974267354
 10
51.51668038109999
 20
46.30135969649999
 10
51.51241908270001
 20
46.3054125855
 10
51.50829293880001
 20
46.30960298419999
 10
51.5043286941
 20
46.31390378089999
 10
51.5005091515
 20
46.31833357909999
 10
51.4968588563
 20
46.3228639804
 10
51.4933623505
 20
46.32751409549999
 10
51.49004157939999
 20
46.33225483079999
 10
51.48688313970001
 20
46.3371052209
 10
51.48390608279999
 20
46.34203612979999
 10
51.4810992639
 20
46.34706588479999
 10
51.4784786685
 20
46.3521659976
 10
51.4760354907
 20
46.3573534339
 10
51.4737826077
 20
46.36260105569999
 10
51.4717135038
 20
46.3679238156
 10
51.46983803939999
 20
46.37329661189999
 10
51.4681518107
 20
46.3787317656
 10
51.4666618831
 20
46.38420685249999
 10
51.4653656631
 20
46.3897310029
 10
51.4642677642
 20
46.3952850379
 10
51.46336699159999
 20
46.40087442689999
 10
51.4626659547
 20
46.4064837044
  0
LWPOLYLINE
  5
5CC
330
220
100
AcDbEntity
  8
DEFAULT_2
  6
HIDDEN
 62
     7
100
AcDbPolyline
 90
       97
 70
     0
 43
0.0
 10
54.27426290319999
 20
46.5959972105
 10
54.2803969362
 20
46.5959048131
 10
54.2865259903
 20
46.5956276721
 10
54.2926397065
 20
46.5951662518
 10
54.29873656499999
 20
46.59452063919999
 10
54.30480334439999
 20
46.5936922882
 10
54.3108423398
 20
46.59268085229999
 10
54.3168363828
 20
46.5914892268
 10
54.3227914758
 20
46.59011618970001
 10
54.32868715319999
 20
46.5885664905
 10
54.33453280430001
 20
46.5868376338
 10
54.3403049687
 20
46.584936581
 10
54.3460160477
 20
46.5828592239
 10
54.351640084
 20
46.58061502479999
 10
54.3571920335
 20
46.57819799600001
 10
54.36264397529999
 20
46.5756203075
 10
54.3680129041
 20
46.5728739101
 10
54.3732695294
 20
46.5699737954
 10
54.37843232270001
 20
46.566909765
 10
54.38347125029999
 20
46.5636996442
 10
54.3884056718
 20
46.5603311
 10
54.3932054525
 20
46.5568246959
 10
54.3978902441
 20
46.553166086
 10
54.4024304479
 20
46.54937836560001
 10
54.4068454252
 20
46.54544540449999
 10
54.4111067237
 20
46.5413925155
 10
54.4152328676
 20
46.5372021168
 10
54.4191971122
 20
46.5329013201
 10
54.42301665489999
 20
46.52847152189999
 10
54.42666694999999
 20
46.5239411206
 10
54.4301634558
 20
46.5192910055
 10
54.4334842269
 20
46.5145502702
 10
54.4366426666
 20
46.50969988009999
 10
54.4396197235
 20
46.50476897119999
 10
54.44242654239999
 20
46.4997392162
 10
54.44504713779999
 20
46.4946391034
 10
54.44749031569999
 20
46.48945166709999
 10
54.4497431987
 20
46.48420404529999
 10
54.45181230260001
 20
46.47888128539999
 10
54.45368776689999
 20
46.4735084891
 10
54.4553739957
 20
46.46807333539999
 10
54.45686392319999
 20
46.4625982485
 10
54.4581601433
 20
46.45707409809999
 10
54.4592580421
 20
46.4515200631
 10
54.4601588147
 20
46.44593067409999
 10
54.46085985159999
 20
46.4403213966
 10
54.4613614513
 20
46.43469078129999
 10
54.4616624785
 20
46.4290502327
 10
54.4617629032
 20
46.4234025505
 10
54.4616624785
 20
46.4177548683
 10
54.4613614513
 20
46.4121143197
 10
54.46085985159999
 20
46.4064837044
 10
54.4601588147
 20
46.40087442689999
 10
54.4592580421
 20
46.3952850379
 10
54.4581601433
 20
46.3897310029
 10
54.45686392319999
 20
46.38420685249999
 10
54.4553739957
 20
46.3787317656
 10
54.45368776689999
 20
46.37329661189999
 10
54.45181230260001
 20
46.3679238156
 10
54.4497431987
 20
46.36260105569999
 10
54.44749031569999
 20
46.3573534339
 10
54.44504713779999
 20
46.3521659976
 10
54.44242654239999
 20
46.34706588479999
 10
54.4396197235
 20
46.34203612979999
 10
54.4366426666
 20
46.3371052209
 10
54.4334842269
 20
46.33225483079999
 10
54.4301634558
 20
46.32751409549999
 10
54.42666694999999
 20
46.3228639804
 10
54.42301665489999
 20
46.31833357909999
 10
54.4191971122
 20
46.31390378089999
 10
54.4152328676
 20
46.30960298419999
 10
54.4111067237
 20
46.3054125855
 10
54.4068454252
 20
46.30135969649999
 10
54.4024304479
 20
46.2974267354
 10
54.3978902441
 20
46.2936390151
 10
54.3932054525
 20
46.2899804051
 10
54.3884056718
 20
46.286474001
 10
54.38347125029999
 20
46.2831054568
 10
54.37843232270001
 20
46.279895336
 10
54.3732695294
 20
46.2768313056
 10
54.3680129041
 20
46.2739311909
 10
54.36264397529999
 20
46.2711847935
 10
54.3571920335
 20
46.26860710499999
 10
54.351640084
 20
46.26619007619999
 10
54.3460160477
 20
46.2639458771
 10
54.3403049687
 20
46.26186852
 10
54.33453280430001
 20
46.2599674672
 10
54.32868715319999
 20
46.2582386105
 10
54.3227914758
 20
46.2566889113
 10
54.3168363828
 20
46.2553158743
 10
54.3108423398
 20
46.2541242487
 10
54.30480334439999
 20
46.2531128128
 10
54.2987365651
 20
46.2522844618
 10
54.2926397065
 20
46.2516388492
 10
54.2865259903
 20
46.2511774289
 10
54.2803969362
 20
46.2509002879
 10
54.27426290319999
 20
46.2508078905
  0
LINE
  5
68A
330
220
100
AcDbEntity
  8
DEFAULT_2
  6
HIDDEN
 62
     7
100
AcDbLine
 10
72.8164642669
 20
31.8823008249
 30
0.0
 11
73.8335083406
 21
33.6565652718
 31
0.0
  0
LWPOLYLINE
  5
68B
330
220
100
AcDbEntity
  8
DEFAULT_2
  6
HIDDEN
 62
     7
100
AcDbPolyline
 90
       11
 70
     0
 43
0.0
 10
82.9598771815
 20
49.49267978249999
 10
82.815017316
 20
49.2487435667
 10
82.40462814389999
 20
48.5555451801
 10
81.58777954520001
 20
47.16683291919999
 10
80.77562187279999
 20
45.7753564696
 10
79.9674827411
 20
44.38151268979999
 10
79.1627025336
 20
42.9856900769
 10
78.3606212747
 20
41.5882773632
 10
76.7619106176
 20
38.7902398916
 10
75.1660577527
 20
35.9905187851
 10
73.9110814069
 20
33.79219836780001
  0
LINE
  5
68C
330
220
100
AcDbEntity
  8
DEFAULT_2
  6
HIDDEN
 62
     7
100
AcDbLine
 10
83.01602792549999
 20
49.58712671869999
 30
0.0
 11
82.9598771815
 21
49.49267978249999
 31
0.0
  0
LINE
  5
68D
330
220
100
AcDbEntity
  8
DEFAULT_2
  6
HIDDEN
 62
     7
100
AcDbLine
 10
54.4099862079
 20
29.9717167458
 30
0.0
 11
54.76972021989999
 21
30.3314507578
 31
0.0
  0
LINE
  5
14B5
330
220
100
AcDbEntity
  8
0
  6
Continuous
 62
     7
100
AcDbLine
 10
27.8936717849
 20
25.2366398398
 30
0.0
 11
20.9253825267
 21
49.53795244770001
 31
0.0
  0
LINE
  5
14B6
330
220
100
AcDbEntity
  8
0
  6
Continuous
 62
     7
100
AcDbLine
 10
76.62136540649999
 20
24.9646985163
 30
0.0
 11
76.6229392492
 21
24.964793925
 31
0.0
  0
LINE
  5
14B7
330
220
100
AcDbEntity
  8
0
  6
Continuous
 62
     7
100
AcDbLine
 10
76.5758852283
 20
24.9621906918
 30
0.0
 11
76.6215174753
 21
24.9647092947
 31
0.0
  0
LINE
  5
14B8
330
220
100
AcDbEntity
  8
0
  6
Continuous
 62
     7
100
AcDbLine
 10
76.62295599770001
 20
24.9647949403
 30
0.0
 11
76.6242812718
 21
24.9648439837
 31
0.0
  0
LINE
  5
14B9
330
220
100
AcDbEntity
  8
0
  6
Continuous
 62
     7
100
AcDbLine
 10
76.5230281606
 20
24.9603467454
 30
0.0
 11
76.5758852283
 21
24.9621906918
 31
0.0
  0
LWPOLYLINE
  5
14BA
330
220
100
AcDbEntity
  8
0
  6
Continuous
 62
     7
100
AcDbPolyline
 90
       13
 70
     0
 43
0.0
 10
29.40007010989999
 20
24.9603588353
 10
29.4587274516
 20
24.9589865249
 10
29.5230741686
 20
24.9579524292
 10
29.5930605493
 20
24.9571905994
 10
29.6687260816
 20
24.9566754218
 10
29.7504397078
 20
24.9563999347
 10
29.8385336415
 20
24.9563895644
 10
29.93264838
 20
24.956687318
 10
30.0323172922
 20
24.9573540013
 10
30.136999435
 20
24.9584783757
 10
30.2461030579
 20
24.9601686098
 10
30.35903697510001
 20
24.9625608624
 10
30.466293777
 20
24.9655414659
  0
LINE
  5
14BB
330
220
100
AcDbEntity
  8
0
  6
Continuous
 62
     7
100
AcDbLine
 10
29.4004976458
 20
24.9603467454
 30
0.0
 11
29.4027981463
 21
24.9602930875
 31
0.0
  0
LINE
  5
14BC
330
220
100
AcDbEntity
  8
0
  6
Continuous
 62
     7
100
AcDbLine
 10
29.3472978844
 20
24.96220552940001
 30
0.0
 11
29.4004976458
 21
24.9603467454
 31
0.0
  0
LINE
  5
14BD
330
220
100
AcDbEntity
  8
0
  6
Continuous
 62
     7
100
AcDbLine
 10
29.30199618
 20
24.9647101588
 30
0.0
 11
29.34764057800001
 21
24.9621906918
 31
0.0
  0
LINE
  5
14BE
330
220
100
AcDbEntity
  8
0
  6
Continuous
 62
     7
100
AcDbLine
 10
29.3005865571
 20
24.964793925
 30
0.0
 11
29.3021603998
 21
24.9646985163
 31
0.0
  0
LWPOLYLINE
  5
14BF
330
220
100
AcDbEntity
  8
0
  6
Continuous
 62
     7
100
AcDbPolyline
 90
        4
 70
     0
 43
0.0
 10
30.466290988
 20
24.9655413789
 10
30.7431013171
 20
24.9716650556
 10
31.0253496013
 20
24.9735875526
 10
31.2918206175
 20
24.9734604704
  0
LINE
  5
14C0
330
220
100
AcDbEntity
  8
0
  6
Continuous
 62
     7
100
AcDbLine
 10
76.6242742404
 20
24.9648437234
 30
0.0
 11
76.62479890739999
 21
24.9648504728
 31
0.0
  0
LWPOLYLINE
  5
14C1
330
220
100
AcDbEntity
  8
0
  6
Continuous
 62
     7
100
AcDbPolyline
 90
        4
 70
     0
 43
0.0
 10
74.6317051889
 20
24.9734604704
 10
74.898176205
 20
24.9735875526
 10
75.18042448920001
 20
24.9716650556
 10
75.45723481829999
 20
24.9655413789
  0
LINE
  5
14C2
330
220
100
AcDbEntity
  8
0
  6
Continuous
 62
     7
100
AcDbLine
 10
76.6247967445
 20
24.9648504679
 30
0.0
 11
77.66987873169999
 21
24.9650041787
 31
0.0
  0
LINE
  5
14C3
330
220
100
AcDbEntity
  8
0
  6
Continuous
 62
     7
100
AcDbLine
 10
55.7117715563
 20
24.8984934411
 30
0.0
 11
57.96175425
 21
24.8984934411
 31
0.0
  0
LWPOLYLINE
  5
14C4
330
220
100
AcDbEntity
  8
0
  6
Continuous
 62
     7
100
AcDbPolyline
 90
        9
 70
     0
 43
0.0
 10
52.96176329569999
 20
24.9718624154
 10
55.670620648
 20
24.971888777
 10
58.38917798539999
 20
24.9719680514
 10
61.1063928139
 20
24.9720993834
 10
63.8214184386
 20
24.9722811292
 10
66.5334017487
 20
24.9725109701
 10
69.241499269
 20
24.9727864462
 10
71.94487978810001
 20
24.9731046269
 10
74.63170692590001
 20
24.97346046760001
  0
LINE
  5
14C5
330
220
100
AcDbEntity
  8
0
  6
Continuous
 62
     7
100
AcDbLine
 10
28.2539882456
 20
24.965003881
 30
0.0
 11
29.2987290618
 21
24.9648504679
 31
0.0
  0
LWPOLYLINE
  5
14C6
330
220
100
AcDbEntity
  8
0
  6
Continuous
 62
     7
100
AcDbPolyline
 90
        9
 70
     0
 43
0.0
 10
31.2918188804
 20
24.97346046760001
 10
33.9786461158
 20
24.9731046269
 10
36.6820267329
 20
24.9727864462
 10
39.3901243513
 20
24.9725109701
 10
42.1021077598
 20
24.9722811292
 10
44.81713348289999
 20
24.9720993834
 10
47.53434840979999
 20
24.97196805130001
 10
50.2529058455
 20
24.971888777
 10
52.96176329569999
 20
24.9718624154
  0
LWPOLYLINE
  5
14C7
330
220
100
AcDbEntity
  8
0
  6
Continuous
 62
     7
100
AcDbPolyline
 90
        3
 70
     0
 43
0.0
 10
29.2987268647
 20
24.9648504728
 10
29.2992445346
 20
24.9648439837
 10
29.3005698086
 20
24.9647949403
  0
LWPOLYLINE
  5
14C8
330
220
100
AcDbEntity
  8
0
  6
Continuous
 62
     7
100
AcDbPolyline
 90
       15
 70
     0
 43
0.0
 10
75.4572320293
 20
24.9655414659
 10
75.56448883129999
 20
24.9625608624
 10
75.67742274850001
 20
24.9601686098
 10
75.7865263713
 20
24.9584783757
 10
75.8912085141
 20
24.9573540013
 10
75.9908774264
 20
24.956687318
 10
76.0849921649
 20
24.9563895644
 10
76.17308609850001
 20
24.9563999347
 10
76.2547997247
 20
24.9566754218
 10
76.3304652571
 20
24.9571905994
 10
76.4004516377
 20
24.9579524292
 10
76.4647983547
 20
24.9589865249
 10
76.52345569640001
 20
24.9603588353
 10
76.576227922
 20
24.96220552940001
 10
76.6215296264
 20
24.9647101588
  0
LINE
  5
14C9
330
220
100
AcDbEntity
  8
0
  6
Continuous
 62
     7
100
AcDbLine
 10
55.7117629032
 20
24.8984934411
 30
0.0
 11
55.7117629032
 21
24.9718899767
 31
0.0
  0
LINE
  5
14CA
330
220
100
AcDbEntity
  8
0
  6
Continuous
 62
     7
100
AcDbLine
 10
57.9617629032
 20
24.8984934411
 30
0.0
 11
57.9617629032
 21
24.9719555877
 31
0.0
  0
LINE
  5
14CB
330
220
100
AcDbEntity
  8
0
  6
Continuous
 62
     7
100
AcDbLine
 10
84.9851615518
 20
49.49267978249999
 30
0.0
 11
20.9383642545
 21
49.49267978249999
 31
0.0
  0
LINE
  5
14CC
330
220
100
AcDbEntity
  8
0
  6
Continuous
 62
     7
100
AcDbLine
 10
84.93806442369999
 20
49.6176797825
 30
0.0
 11
20.9854613827
 21
49.6176797825
 31
0.0
  0
LINE
  5
14CD
330
220
100
AcDbEntity
  8
0
  6
Continuous
 62
     7
100
AcDbLine
 10
78.0298540215
 20
25.2366398398
 30
0.0
 11
84.9981432797
 21
49.53795244770001
 31
0.0
  0
ARC
  5
1591
330
220
100
AcDbEntity
  8
DEFAULT_2
  6
HIDDEN
 62
     7
100
AcDbCircle
 10
71.2991161403
 20
32.7541693143
 30
0.0
 40
1.75
100
AcDbArc
 50
272.1029524756001
 51
330.1183175905
  0
ARC
  5
1592
330
220
100
AcDbEntity
  8
DEFAULT_2
  6
HIDDEN
 62
     7
100
AcDbCircle
 10
34.624409666
 20
32.7541693143
 30
0.0
 40
1.75
100
AcDbArc
 50
209.8816823911
 51
267.8970475244
  0
ARC
  5
159B
330
220
100
AcDbEntity
  8
DEFAULT_2
  6
HIDDEN
 62
     7
100
AcDbCircle
 10
54.944088806
 20
30.1522659533
 30
0.0
 40
0.25
100
AcDbArc
 50
92.10295218899998
 51
135.0
  0
ARC
  5
159C
330
220
100
AcDbEntity
  8
DEFAULT_2
  6
HIDDEN
 62
     7
100
AcDbCircle
 10
54.2332095126
 20
30.1484934411
 30
0.0
 40
0.25
100
AcDbArc
 50
270.0
 51
315.0
  0
ARC
  5
159D
330
220
100
AcDbEntity
  8
DEFAULT_2
  6
HIDDEN
 62
     7
100
AcDbCircle
 10
51.6903162938
 20
30.1484934411
 30
0.0
 40
0.25
100
AcDbArc
 50
225.0
 51
270.0
  0
ARC
  5
159E
330
220
100
AcDbEntity
  8
DEFAULT_2
  6
HIDDEN
 62
     7
100
AcDbCircle
 10
50.9794370003
 20
30.1522659533
 30
0.0
 40
0.25
100
AcDbArc
 50
45.0
 51
87.89704781100001
  0
ARC
  5
15A5
330
220
100
AcDbEntity
  8
DEFAULT_2
  6
HIDDEN
 62
     7
100
AcDbCircle
 10
83.06974610919999
 20
49.5551797825
 30
0.0
 40
0.0625
100
AcDbArc
 50
90.0
 51
149.2594736105
  0
ARC
  5
15A6
330
220
100
AcDbEntity
  8
DEFAULT_2
  6
HIDDEN
 62
     7
100
AcDbCircle
 10
22.8537796971
 20
49.5551797825
 30
0.0
 40
0.0625
100
AcDbArc
 50
30.7405263895
 51
90.0
  0
ARC
  5
15A9
330
220
100
AcDbEntity
  8
0
  6
Continuous
 62
     7
100
AcDbCircle
 10
28.2541449208
 20
25.3400038483
 30
0.0
 40
0.375
100
AcDbArc
 50
196.0
 51
269.975535079
  0
ARC
  5
15AA
330
220
100
AcDbEntity
  8
0
  6
Continuous
 62
     7
100
AcDbCircle
 10
77.6693808855
 20
25.3400038483
 30
0.0
 40
0.375
100
AcDbArc
 50
270.0760912485
 51
344.0
  0
ARC
  5
15AB
330
220
100
AcDbEntity
  8
0
  6
Continuous
 62
     7
100
AcDbCircle
 10
20.9854613827
 20
49.5551797825
 30
0.0
 40
0.0625
100
AcDbArc
 50
90.0
 51
196.0
  0
ARC
  5
15AC
330
220
100
AcDbEntity
  8
0
  6
Continuous
 62
     7
100
AcDbCircle
 10
84.93806442369999
 20
49.5551797825
 30
0.0
 40
0.0625
100
AcDbArc
 50
344.0
 51
90.0
  0
ENDSEC
  0
SECTION
  2
OBJECTS
  0
DICTIONARY
  5
C
330
0
100
AcDbDictionary
281
     1
  3
ACAD_COLOR
350
15E3
  3
ACAD_GROUP
350
D
  3
ACAD_LAYOUT
350
1A
  3
ACAD_MATERIAL
350
15B6
  3
ACAD_MLEADERSTYLE
350
1608
  3
ACAD_MLINESTYLE
350
17
  3
ACAD_PLOTSETTINGS
350
19
  3
ACAD_PLOTSTYLENAME
350
E
  3
ACAD_SCALELIST
350
15E6
  3
ACAD_TABLESTYLE
350
15E4
  3
ACAD_VISUALSTYLE
350
15CF
  3
ACDB_RECOMPOSE_DATA
350
160C
  3
AcDbVariableDictionary
350
163E
  0
DICTIONARY
  5
160D
330
8
100
AcDbDictionary
280
     1
281
     1
  0
DICTIONARY
  5
164D
330
10
100
AcDbDictionary
280
     1
281
     1
  3
ADSK_XREC_LAYER_RECONCILED
360
164E
  0
DICTIONARY
  5
164F
330
1FA
100
AcDbDictionary
280
     1
281
     1
  3
ADSK_XREC_LAYER_RECONCILED
360
1650
  0
DICTIONARY
  5
1651
330
1FB
100
AcDbDictionary
280
     1
281
     1
  3
ADSK_XREC_LAYER_RECONCILED
360
1652
  0
DICTIONARY
  5
1653
330
1FC
100
AcDbDictionary
280
     1
281
     1
  3
ADSK_XREC_LAYER_RECONCILED
360
1654
  0
DICTIONARY
  5
1655
330
1FD
100
AcDbDictionary
280
     1
281
     1
  3
ADSK_XREC_LAYER_RECONCILED
360
1656
  0
DICTIONARY
  5
1657
330
1FE
100
AcDbDictionary
280
     1
281
     1
  3
ADSK_XREC_LAYER_RECONCILED
360
1658
  0
DICTIONARY
  5
1659
330
1FF
100
AcDbDictionary
280
     1
281
     1
  3
ADSK_XREC_LAYER_RECONCILED
360
165A
  0
DICTIONARY
  5
165B
330
200
100
AcDbDictionary
280
     1
281
     1
  3
ADSK_XREC_LAYER_RECONCILED
360
165C
  0
DICTIONARY
  5
165D
330
201
100
AcDbDictionary
280
     1
281
     1
  3
ADSK_XREC_LAYER_RECONCILED
360
165E
  0
DICTIONARY
  5
165F
330
202
100
AcDbDictionary
280
     1
281
     1
  3
ADSK_XREC_LAYER_RECONCILED
360
1660
  0
DICTIONARY
  5
1661
330
203
100
AcDbDictionary
280
     1
281
     1
  3
ADSK_XREC_LAYER_RECONCILED
360
1662
  0
DICTIONARY
  5
1663
330
204
100
AcDbDictionary
280
     1
281
     1
  3
ADSK_XREC_LAYER_RECONCILED
360
1664
  0
DICTIONARY
  5
1665
330
205
100
AcDbDictionary
280
     1
281
     1
  3
ADSK_XREC_LAYER_RECONCILED
360
1666
  0
DICTIONARY
  5
1667
330
206
100
AcDbDictionary
280
     1
281
     1
  3
ADSK_XREC_LAYER_RECONCILED
360
1668
  0
DICTIONARY
  5
1669
330
207
100
AcDbDictionary
280
     1
281
     1
  3
ADSK_XREC_LAYER_RECONCILED
360
166A
  0
DICTIONARY
  5
166B
330
208
100
AcDbDictionary
280
     1
281
     1
  3
ADSK_XREC_LAYER_RECONCILED
360
166C
  0
DICTIONARY
  5
166D
330
209
100
AcDbDictionary
280
     1
281
     1
  3
ADSK_XREC_LAYER_RECONCILED
360
166E
  0
DICTIONARY
  5
166F
330
20A
100
AcDbDictionary
280
     1
281
     1
  3
ADSK_XREC_LAYER_RECONCILED
360
1670
  0
DICTIONARY
  5
1671
330
20B
100
AcDbDictionary
280
     1
281
     1
  3
ADSK_XREC_LAYER_RECONCILED
360
1672
  0
DICTIONARY
  5
1673
330
20C
100
AcDbDictionary
280
     1
281
     1
  3
ADSK_XREC_LAYER_RECONCILED
360
1674
  0
DICTIONARY
  5
1675
330
20D
100
AcDbDictionary
280
     1
281
     1
  3
ADSK_XREC_LAYER_RECONCILED
360
1676
  0
DICTIONARY
  5
1677
330
20E
100
AcDbDictionary
280
     1
281
     1
  3
ADSK_XREC_LAYER_RECONCILED
360
1678
  0
DICTIONARY
  5
1679
330
20F
100
AcDbDictionary
280
     1
281
     1
  3
ADSK_XREC_LAYER_RECONCILED
360
167A
  0
DICTIONARY
  5
167B
330
210
100
AcDbDictionary
280
     1
281
     1
  3
ADSK_XREC_LAYER_RECONCILED
360
167C
  0
DICTIONARY
  5
167D
330
211
100
AcDbDictionary
280
     1
281
     1
  3
ADSK_XREC_LAYER_RECONCILED
360
167E
  0
DICTIONARY
  5
167F
330
212
100
AcDbDictionary
280
     1
281
     1
  3
ADSK_XREC_LAYER_RECONCILED
360
1680
  0
DICTIONARY
  5
1681
330
213
100
AcDbDictionary
280
     1
281
     1
  3
ADSK_XREC_LAYER_RECONCILED
360
1682
  0
DICTIONARY
  5
1683
330
214
100
AcDbDictionary
280
     1
281
     1
  3
ADSK_XREC_LAYER_RECONCILED
360
1684
  0
DICTIONARY
  5
1685
330
215
100
AcDbDictionary
280
     1
281
     1
  3
ADSK_XREC_LAYER_RECONCILED
360
1686
  0
DICTIONARY
  5
1687
330
216
100
AcDbDictionary
280
     1
281
     1
  3
ADSK_XREC_LAYER_RECONCILED
360
1688
  0
DICTIONARY
  5
1689
330
217
100
AcDbDictionary
280
     1
281
     1
  3
ADSK_XREC_LAYER_RECONCILED
360
168A
  0
DICTIONARY
  5
15E3
102
{ACAD_REACTORS
330
C
102
}
330
C
100
AcDbDictionary
281
     1
  0
DICTIONARY
  5
D
102
{ACAD_REACTORS
330
C
102
}
330
C
100
AcDbDictionary
281
     1
  0
DICTIONARY
  5
1A
102
{ACAD_REACTORS
330
C
102
}
330
C
100
AcDbDictionary
281
     1
  3
Layout1
350
15B3
  3
Model
350
15B2
  0
DICTIONARY
  5
15B6
102
{ACAD_REACTORS
330
C
102
}
330
C
100
AcDbDictionary
281
     1
  3
ByBlock
350
15BF
  3
ByLayer
350
15B7
  3
Global
350
15C7
  0
DICTIONARY
  5
1608
102
{ACAD_REACTORS
330
C
102
}
330
C
100
AcDbDictionary
281
     1
  3
Standard
350
1609
  0
DICTIONARY
  5
17
102
{ACAD_REACTORS
330
C
102
}
330
C
100
AcDbDictionary
281
     1
  3
Standard
350
18
  0
DICTIONARY
  5
19
102
{ACAD_REACTORS
330
C
102
}
330
C
100
AcDbDictionary
281
     1
  0
ACDBDICTIONARYWDFLT
  5
E
102
{ACAD_REACTORS
330
C
102
}
330
C
100
AcDbDictionary
281
     1
  3
Normal
350
F
100
AcDbDictionaryWithDefault
340
F
  0
DICTIONARY
  5
15E6
102
{ACAD_REACTORS
330
C
102
}
330
C
100
AcDbDictionary
281
     1
  3
A0
350
15E7
  3
A1
350
15E8
  3
A2
350
15E9
  3
A3
350
15EA
  3
A4
350
15EB
  3
A5
350
15EC
  3
A6
350
15ED
  3
A7
350
15EE
  3
A8
350
15EF
  3
A9
350
15F0
  3
B0
350
15F1
  3
B1
350
15F2
  3
B2
350
15F3
  3
B3
350
15F4
  3
B4
350
15F5
  3
B5
350
15F6
  3
B6
350
15F7
  3
B7
350
15F8
  3
B8
350
15F9
  3
B9
350
15FA
  3
C0
350
15FB
  3
C1
350
15FC
  3
C2
350
15FD
  3
C3
350
15FE
  3
C4
350
15FF
  3
C5
350
1600
  3
C6
350
1601
  3
C7
350
1602
  3
C8
350
1603
  3
C9
350
1604
  3
D0
350
1605
  3
D1
350
1606
  3
D2
350
1607
  0
DICTIONARY
  5
15E4
102
{ACAD_REACTORS
330
C
102
}
330
C
100
AcDbDictionary
281
     1
  3
Standard
350
15E5
  0
DICTIONARY
  5
15CF
102
{ACAD_REACTORS
330
C
102
}
330
C
100
AcDbDictionary
281
     1
  3
2dWireframe
350
15D5
  3
3D Hidden
350
15D7
  3
3dWireframe
350
15D6
  3
Basic
350
15D4
  3
Brighten
350
15DB
  3
ColorChange
350
15DF
  3
Conceptual
350
15D8
  3
Dim
350
15DA
  3
EdgeColorOff
350
15E2
  3
Facepattern
350
15DE
  3
Flat
350
15D0
  3
FlatWithEdges
350
15D1
  3
Gouraud
350
15D2
  3
GouraudWithEdges
350
15D3
  3
JitterOff
350
15E0
  3
Linepattern
350
15DD
  3
OverhangOff
350
15E1
  3
Realistic
350
15D9
  3
Thicken
350
15DC
  0
XRECORD
  5
160C
102
{ACAD_REACTORS
330
C
102
}
330
C
100
AcDbXrecord
280
     1
 90
        1
330
15E5
  0
DICTIONARY
  5
163E
102
{ACAD_REACTORS
330
C
102
}
330
C
100
AcDbDictionary
281
     1
  3
CANNOSCALE
350
1641
  3
CMLEADERSTYLE
350
1640
  3
CTABLESTYLE
350
163F
  3
DIMASSOC
350
1644
  3
INDEXCTL
350
1643
  3
LAYEREVAL
350
1693
  3
LAYERNOTIFY
350
1694
  3
LIGHTINGUNITS
350
1692
  3
MSLTSCALE
350
1691
  3
SORTENTS
350
1642
  3
XCLIPFRAME
350
1645
  0
XRECORD
  5
164E
102
{ACAD_REACTORS
330
164D
102
}
330
164D
100
AcDbXrecord
280
     1
290
     1
  0
XRECORD
  5
1650
102
{ACAD_REACTORS
330
164F
102
}
330
164F
100
AcDbXrecord
280
     1
290
     1
  0
XRECORD
  5
1652
102
{ACAD_REACTORS
330
1651
102
}
330
1651
100
AcDbXrecord
280
     1
290
     1
  0
XRECORD
  5
1654
102
{ACAD_REACTORS
330
1653
102
}
330
1653
100
AcDbXrecord
280
     1
290
     1
  0
XRECORD
  5
1656
102
{ACAD_REACTORS
330
1655
102
}
330
1655
100
AcDbXrecord
280
     1
290
     1
  0
XRECORD
  5
1658
102
{ACAD_REACTORS
330
1657
102
}
330
1657
100
AcDbXrecord
280
     1
290
     1
  0
XRECORD
  5
165A
102
{ACAD_REACTORS
330
1659
102
}
330
1659
100
AcDbXrecord
280
     1
290
     1
  0
XRECORD
  5
165C
102
{ACAD_REACTORS
330
165B
102
}
330
165B
100
AcDbXrecord
280
     1
290
     1
  0
XRECORD
  5
165E
102
{ACAD_REACTORS
330
165D
102
}
330
165D
100
AcDbXrecord
280
     1
290
     1
  0
XRECORD
  5
1660
102
{ACAD_REACTORS
330
165F
102
}
330
165F
100
AcDbXrecord
280
     1
290
     1
  0
XRECORD
  5
1662
102
{ACAD_REACTORS
330
1661
102
}
330
1661
100
AcDbXrecord
280
     1
290
     1
  0
XRECORD
  5
1664
102
{ACAD_REACTORS
330
1663
102
}
330
1663
100
AcDbXrecord
280
     1
290
     1
  0
XRECORD
  5
1666
102
{ACAD_REACTORS
330
1665
102
}
330
1665
100
AcDbXrecord
280
     1
290
     1
  0
XRECORD
  5
1668
102
{ACAD_REACTORS
330
1667
102
}
330
1667
100
AcDbXrecord
280
     1
290
     1
  0
XRECORD
  5
166A
102
{ACAD_REACTORS
330
1669
102
}
330
1669
100
AcDbXrecord
280
     1
290
     1
  0
XRECORD
  5
166C
102
{ACAD_REACTORS
330
166B
102
}
330
166B
100
AcDbXrecord
280
     1
290
     1
  0
XRECORD
  5
166E
102
{ACAD_REACTORS
330
166D
102
}
330
166D
100
AcDbXrecord
280
     1
290
     1
  0
XRECORD
  5
1670
102
{ACAD_REACTORS
330
166F
102
}
330
166F
100
AcDbXrecord
280
     1
290
     1
  0
XRECORD
  5
1672
102
{ACAD_REACTORS
330
1671
102
}
330
1671
100
AcDbXrecord
280
     1
290
     1
  0
XRECORD
  5
1674
102
{ACAD_REACTORS
330
1673
102
}
330
1673
100
AcDbXrecord
280
     1
290
     1
  0
XRECORD
  5
1676
102
{ACAD_REACTORS
330
1675
102
}
330
1675
100
AcDbXrecord
280
     1
290
     1
  0
XRECORD
  5
1678
102
{ACAD_REACTORS
330
1677
102
}
330
1677
100
AcDbXrecord
280
     1
290
     1
  0
XRECORD
  5
167A
102
{ACAD_REACTORS
330
1679
102
}
330
1679
100
AcDbXrecord
280
     1
290
     1
  0
XRECORD
  5
167C
102
{ACAD_REACTORS
330
167B
102
}
330
167B
100
AcDbXrecord
280
     1
290
     1
  0
XRECORD
  5
167E
102
{ACAD_REACTORS
330
167D
102
}
330
167D
100
AcDbXrecord
280
     1
290
     1
  0
XRECORD
  5
1680
102
{ACAD_REACTORS
330
167F
102
}
330
167F
100
AcDbXrecord
280
     1
290
     1
  0
XRECORD
  5
1682
102
{ACAD_REACTORS
330
1681
102
}
330
1681
100
AcDbXrecord
280
     1
290
     1
  0
XRECORD
  5
1684
102
{ACAD_REACTORS
330
1683
102
}
330
1683
100
AcDbXrecord
280
     1
290
     1
  0
XRECORD
  5
1686
102
{ACAD_REACTORS
330
1685
102
}
330
1685
100
AcDbXrecord
280
     1
290
     1
  0
XRECORD
  5
1688
102
{ACAD_REACTORS
330
1687
102
}
330
1687
100
AcDbXrecord
280
     1
290
     1
  0
XRECORD
  5
168A
102
{ACAD_REACTORS
330
1689
102
}
330
1689
100
AcDbXrecord
280
     1
290
     1
  0
LAYOUT
  5
15B3
102
{ACAD_REACTORS
330
1A
102
}
330
1A
100
AcDbPlotSettings
  1

  2
none_device
  4
ANSI_B_(17.00_x_11.00_Inches)
  6

 40
0.0
 41
0.0
 42
0.0
 43
0.0
 44
431.8
 45
279.4
 46
0.0
 47
0.0
 48
0.0
 49
0.0
140
0.0
141
0.0
142
1.0
143
1.0
 70
     0
 72
     0
 73
     0
 74
     0
  7

 75
     0
147
1.0
 76
     0
 77
     2
 78
   300
148
0.0
149
0.0
100
AcDbLayout
  1
Layout1
 70
     1
 71
     1
 10
0.0
 20
0.0
 11
12.0
 21
9.0
 12
0.0
 22
0.0
 32
0.0
 14
1.000000000000000E+20
 24
1.000000000000000E+20
 34
1.000000000000000E+20
 15
-1.000000000000000E+20
 25
-1.000000000000000E+20
 35
-1.000000000000000E+20
146
0.0
 13
0.0
 23
0.0
 33
0.0
 16
1.0
 26
0.0
 36
0.0
 17
0.0
 27
1.0
 37
0.0
 76
     0
330
221
  0
LAYOUT
  5
15B2
102
{ACAD_REACTORS
330
1A
102
}
330
1A
100
AcDbPlotSettings
  1

  2
none_device
  4
ANSI_B_(17.00_x_11.00_Inches)
  6

 40
0.0
 41
0.0
 42
0.0
 43
0.0
 44
431.8
 45
279.4
 46
0.0
 47
0.0
 48
0.0
 49
0.0
140
0.0
141
0.0
142
1.0
143
1.0
 70
  1024
 72
     0
 73
     0
 74
     0
  7

 75
     0
147
1.0
 76
     0
 77
     2
 78
   300
148
0.0
149
0.0
100
AcDbLayout
  1
Model
 70
     0
 71
     0
 10
0.0
 20
0.0
 11
17.0
 21
11.0
 12
0.0
 22
0.0
 32
0.0
 14
0.0
 24
0.0
 34
0.0
 15
0.0
 25
0.0
 35
0.0
146
0.0
 13
0.0
 23
0.0
 33
0.0
 16
1.0
 26
0.0
 36
0.0
 17
0.0
 27
1.0
 37
0.0
 76
     0
330
220
331
1F4
  0
MATERIAL
  5
15BF
102
{ACAD_XDICTIONARY
360
15C0
102
}
102
{ACAD_REACTORS
330
15B6
102
}
330
15B6
100
AcDbMaterial
  1
ByBlock
 72
     0
 43
0.0208333333333333
 43
0.0
 43
0.0
 43
0.0
 43
0.0
 43
0.0208333333333333
 43
0.0
 43
0.0
 43
0.0
 43
0.0
 43
1.0
 43
0.0
 43
0.0
 43
0.0
 43
0.0
 43
1.0
 77
     0
 47
0.0208333333333333
 47
0.0
 47
0.0
 47
0.0
 47
0.0
 47
0.0208333333333333
 47
0.0
 47
0.0
 47
0.0
 47
0.0
 47
1.0
 47
0.0
 47
0.0
 47
0.0
 47
0.0
 47
1.0
171
     0
 49
0.0208333333333333
 49
0.0
 49
0.0
 49
0.0
 49
0.0
 49
0.0208333333333333
 49
0.0
 49
0.0
 49
0.0
 49
0.0
 49
1.0
 49
0.0
 49
0.0
 49
0.0
 49
0.0
 49
1.0
175
     0
142
0.0208333333333333
142
0.0
142
0.0
142
0.0
142
0.0
142
0.0208333333333333
142
0.0
142
0.0
142
0.0
142
0.0
142
1.0
142
0.0
142
0.0
142
0.0
142
0.0
142
1.0
179
     0
144
0.0208333333333333
144
0.0
144
0.0
144
0.0
144
0.0
144
0.0208333333333333
144
0.0
144
0.0
144
0.0
144
0.0
144
1.0
144
0.0
144
0.0
144
0.0
144
0.0
144
1.0
147
0.0208333333333333
147
0.0
147
0.0
147
0.0
147
0.0
147
0.0208333333333333
147
0.0
147
0.0
147
0.0
147
0.0
147
1.0
147
0.0
147
0.0
147
0.0
147
0.0
147
1.0
  0
MATERIAL
  5
15B7
102
{ACAD_XDICTIONARY
360
15B8
102
}
102
{ACAD_REACTORS
330
15B6
102
}
330
15B6
100
AcDbMaterial
  1
ByLayer
 72
     0
 43
0.0208333333333333
 43
0.0
 43
0.0
 43
0.0
 43
0.0
 43
0.0208333333333333
 43
0.0
 43
0.0
 43
0.0
 43
0.0
 43
1.0
 43
0.0
 43
0.0
 43
0.0
 43
0.0
 43
1.0
 77
     0
 47
0.0208333333333333
 47
0.0
 47
0.0
 47
0.0
 47
0.0
 47
0.0208333333333333
 47
0.0
 47
0.0
 47
0.0
 47
0.0
 47
1.0
 47
0.0
 47
0.0
 47
0.0
 47
0.0
 47
1.0
171
     0
 49
0.0208333333333333
 49
0.0
 49
0.0
 49
0.0
 49
0.0
 49
0.0208333333333333
 49
0.0
 49
0.0
 49
0.0
 49
0.0
 49
1.0
 49
0.0
 49
0.0
 49
0.0
 49
0.0
 49
1.0
175
     0
142
0.0208333333333333
142
0.0
142
0.0
142
0.0
142
0.0
142
0.0208333333333333
142
0.0
142
0.0
142
0.0
142
0.0
142
1.0
142
0.0
142
0.0
142
0.0
142
0.0
142
1.0
179
     0
144
0.0208333333333333
144
0.0
144
0.0
144
0.0
144
0.0
144
0.0208333333333333
144
0.0
144
0.0
144
0.0
144
0.0
144
1.0
144
0.0
144
0.0
144
0.0
144
0.0
144
1.0
147
0.0208333333333333
147
0.0
147
0.0
147
0.0
147
0.0
147
0.0208333333333333
147
0.0
147
0.0
147
0.0
147
0.0
147
1.0
147
0.0
147
0.0
147
0.0
147
0.0
147
1.0
  0
MATERIAL
  5
15C7
102
{ACAD_XDICTIONARY
360
15C8
102
}
102
{ACAD_REACTORS
330
15B6
102
}
330
15B6
100
AcDbMaterial
  1
Global
 72
     0
 43
0.0208333333333333
 43
0.0
 43
0.0
 43
0.0
 43
0.0
 43
0.0208333333333333
 43
0.0
 43
0.0
 43
0.0
 43
0.0
 43
1.0
 43
0.0
 43
0.0
 43
0.0
 43
0.0
 43
1.0
 77
     0
 47
0.0208333333333333
 47
0.0
 47
0.0
 47
0.0
 47
0.0
 47
0.0208333333333333
 47
0.0
 47
0.0
 47
0.0
 47
0.0
 47
1.0
 47
0.0
 47
0.0
 47
0.0
 47
0.0
 47
1.0
171
     0
 49
0.0208333333333333
 49
0.0
 49
0.0
 49
0.0
 49
0.0
 49
0.0208333333333333
 49
0.0
 49
0.0
 49
0.0
 49
0.0
 49
1.0
 49
0.0
 49
0.0
 49
0.0
 49
0.0
 49
1.0
175
     0
142
0.0208333333333333
142
0.0
142
0.0
142
0.0
142
0.0
142
0.0208333333333333
142
0.0
142
0.0
142
0.0
142
0.0
142
1.0
142
0.0
142
0.0
142
0.0
142
0.0
142
1.0
179
     0
144
0.0208333333333333
144
0.0
144
0.0
144
0.0
144
0.0
144
0.0208333333333333
144
0.0
144
0.0
144
0.0
144
0.0
144
1.0
144
0.0
144
0.0
144
0.0
144
0.0
144
1.0
147
0.0208333333333333
147
0.0
147
0.0
147
0.0
147
0.0
147
0.0208333333333333
147
0.0
147
0.0
147
0.0
147
0.0
147
1.0
147
0.0
147
0.0
147
0.0
147
0.0
147
1.0
  0
MLEADERSTYLE
  5
1609
102
{ACAD_REACTORS
330
1608
102
}
330
1608
100
AcDbMLeaderStyle
170
     2
171
     1
172
     0
 90
        2
 40
0.0
 41
0.0
173
     1
 91
-1056964608
340
14
 92
       -2
290
     1
 42
0.09
291
     1
 43
0.36
  3
Standard
 44
0.18
300

342
11
174
     1
178
     6
175
     1
176
     0
 93
-1056964608
 45
0.18
292
     0
297
     0
 46
0.18
 94
-1056964608
 47
1.0
 49
1.0
140
1.0
293
     1
141
0.0
294
     1
177
     0
142
1.0
295
     0
296
     0
143
0.125
1001
ACAD_MLEADERVER
1070
     2
  0
MLINESTYLE
  5
18
102
{ACAD_REACTORS
330
17
102
}
330
17
100
AcDbMlineStyle
  2
STANDARD
 70
     0
  3

 62
   256
 51
90.0
 52
90.0
 71
     2
 49
0.5
 62
   256
  6
BYLAYER
 49
-0.5
 62
   256
  6
BYLAYER
  0
ACDBPLACEHOLDER
  5
F
102
{ACAD_REACTORS
330
E
102
}
330
E
  0
SCALE
  5
15E7
102
{ACAD_REACTORS
330
15E6
102
}
330
15E6
100
AcDbScale
 70
     0
300
1:1
140
1.0
141
1.0
290
     1
  0
SCALE
  5
15E8
102
{ACAD_REACTORS
330
15E6
102
}
330
15E6
100
AcDbScale
 70
     0
300
1:2
140
1.0
141
2.0
290
     0
  0
SCALE
  5
15E9
102
{ACAD_REACTORS
330
15E6
102
}
330
15E6
100
AcDbScale
 70
     0
300
1:4
140
1.0
141
4.0
290
     0
  0
SCALE
  5
15EA
102
{ACAD_REACTORS
330
15E6
102
}
330
15E6
100
AcDbScale
 70
     0
300
1:5
140
1.0
141
5.0
290
     0
  0
SCALE
  5
15EB
102
{ACAD_REACTORS
330
15E6
102
}
330
15E6
100
AcDbScale
 70
     0
300
1:8
140
1.0
141
8.0
290
     0
  0
SCALE
  5
15EC
102
{ACAD_REACTORS
330
15E6
102
}
330
15E6
100
AcDbScale
 70
     0
300
1:10
140
1.0
141
10.0
290
     0
  0
SCALE
  5
15ED
102
{ACAD_REACTORS
330
15E6
102
}
330
15E6
100
AcDbScale
 70
     0
300
1:16
140
1.0
141
16.0
290
     0
  0
SCALE
  5
15EE
102
{ACAD_REACTORS
330
15E6
102
}
330
15E6
100
AcDbScale
 70
     0
300
1:20
140
1.0
141
20.0
290
     0
  0
SCALE
  5
15EF
102
{ACAD_REACTORS
330
15E6
102
}
330
15E6
100
AcDbScale
 70
     0
300
1:30
140
1.0
141
30.0
290
     0
  0
SCALE
  5
15F0
102
{ACAD_REACTORS
330
15E6
102
}
330
15E6
100
AcDbScale
 70
     0
300
1:40
140
1.0
141
40.0
290
     0
  0
SCALE
  5
15F1
102
{ACAD_REACTORS
330
15E6
102
}
330
15E6
100
AcDbScale
 70
     0
300
1:50
140
1.0
141
50.0
290
     0
  0
SCALE
  5
15F2
102
{ACAD_REACTORS
330
15E6
102
}
330
15E6
100
AcDbScale
 70
     0
300
1:100
140
1.0
141
100.0
290
     0
  0
SCALE
  5
15F3
102
{ACAD_REACTORS
330
15E6
102
}
330
15E6
100
AcDbScale
 70
     0
300
2:1
140
2.0
141
1.0
290
     0
  0
SCALE
  5
15F4
102
{ACAD_REACTORS
330
15E6
102
}
330
15E6
100
AcDbScale
 70
     0
300
4:1
140
4.0
141
1.0
290
     0
  0
SCALE
  5
15F5
102
{ACAD_REACTORS
330
15E6
102
}
330
15E6
100
AcDbScale
 70
     0
300
8:1
140
8.0
141
1.0
290
     0
  0
SCALE
  5
15F6
102
{ACAD_REACTORS
330
15E6
102
}
330
15E6
100
AcDbScale
 70
     0
300
10:1
140
10.0
141
1.0
290
     0
  0
SCALE
  5
15F7
102
{ACAD_REACTORS
330
15E6
102
}
330
15E6
100
AcDbScale
 70
     0
300
100:1
140
100.0
141
1.0
290
     0
  0
SCALE
  5
15F8
102
{ACAD_REACTORS
330
15E6
102
}
330
15E6
100
AcDbScale
 70
     0
300
1/128" = 1'-0"
140
0.0078125
141
12.0
290
     0
  0
SCALE
  5
15F9
102
{ACAD_REACTORS
330
15E6
102
}
330
15E6
100
AcDbScale
 70
     0
300
1/64" = 1'-0"
140
0.015625
141
12.0
290
     0
  0
SCALE
  5
15FA
102
{ACAD_REACTORS
330
15E6
102
}
330
15E6
100
AcDbScale
 70
     0
300
1/32" = 1'-0"
140
0.03125
141
12.0
290
     0
  0
SCALE
  5
15FB
102
{ACAD_REACTORS
330
15E6
102
}
330
15E6
100
AcDbScale
 70
     0
300
1/16" = 1'-0"
140
0.0625
141
12.0
290
     0
  0
SCALE
  5
15FC
102
{ACAD_REACTORS
330
15E6
102
}
330
15E6
100
AcDbScale
 70
     0
300
3/32" = 1'-0"
140
0.09375
141
12.0
290
     0
  0
SCALE
  5
15FD
102
{ACAD_REACTORS
330
15E6
102
}
330
15E6
100
AcDbScale
 70
     0
300
1/8" = 1'-0"
140
0.125
141
12.0
290
     0
  0
SCALE
  5
15FE
102
{ACAD_REACTORS
330
15E6
102
}
330
15E6
100
AcDbScale
 70
     0
300
3/16" = 1'-0"
140
0.1875
141
12.0
290
     0
  0
SCALE
  5
15FF
102
{ACAD_REACTORS
330
15E6
102
}
330
15E6
100
AcDbScale
 70
     0
300
1/4" = 1'-0"
140
0.25
141
12.0
290
     0
  0
SCALE
  5
1600
102
{ACAD_REACTORS
330
15E6
102
}
330
15E6
100
AcDbScale
 70
     0
300
3/8" = 1'-0"
140
0.375
141
12.0
290
     0
  0
SCALE
  5
1601
102
{ACAD_REACTORS
330
15E6
102
}
330
15E6
100
AcDbScale
 70
     0
300
1/2" = 1'-0"
140
0.5
141
12.0
290
     0
  0
SCALE
  5
1602
102
{ACAD_REACTORS
330
15E6
102
}
330
15E6
100
AcDbScale
 70
     0
300
3/4" = 1'-0"
140
0.75
141
12.0
290
     0
  0
SCALE
  5
1603
102
{ACAD_REACTORS
330
15E6
102
}
330
15E6
100
AcDbScale
 70
     0
300
1" = 1'-0"
140
1.0
141
12.0
290
     0
  0
SCALE
  5
1604
102
{ACAD_REACTORS
330
15E6
102
}
330
15E6
100
AcDbScale
 70
     0
300
1-1/2" = 1'-0"
140
1.5
141
12.0
290
     0
  0
SCALE
  5
1605
102
{ACAD_REACTORS
330
15E6
102
}
330
15E6
100
AcDbScale
 70
     0
300
3" = 1'-0"
140
3.0
141
12.0
290
     0
  0
SCALE
  5
1606
102
{ACAD_REACTORS
330
15E6
102
}
330
15E6
100
AcDbScale
 70
     0
300
6" = 1'-0"
140
6.0
141
12.0
290
     0
  0
SCALE
  5
1607
102
{ACAD_REACTORS
330
15E6
102
}
330
15E6
100
AcDbScale
 70
     0
300
1'-0" = 1'-0"
140
12.0
141
12.0
290
     0
  0
TABLESTYLE
  5
15E5
102
{ACAD_XDICTIONARY
360
160A
102
}
102
{ACAD_REACTORS
330
15E4
102
}
330
15E4
100
AcDbTableStyle
  3
Standard
 70
     0
 71
     0
 40
0.06
 41
0.06
280
     0
281
     0
  7
STANDARD
140
0.18
170
     2
 62
     0
 63
     7
283
     0
 90
      512
 91
        0
  1

274
    -2
284
     1
 64
     0
275
    -2
285
     1
 65
     0
276
    -2
286
     1
 66
     0
277
    -2
287
     1
 67
     0
278
    -2
288
     1
 68
     0
279
    -2
289
     1
 69
     0
  7
STANDARD
140
0.25
170
     5
 62
     0
 63
     7
283
     0
 90
      512
 91
        0
  1

274
    -2
284
     1
 64
     0
275
    -2
285
     1
 65
     0
276
    -2
286
     1
 66
     0
277
    -2
287
     1
 67
     0
278
    -2
288
     1
 68
     0
279
    -2
289
     1
 69
     0
  7
STANDARD
140
0.18
170
     5
 62
     0
 63
     7
283
     0
 90
      512
 91
        0
  1

274
    -2
284
     1
 64
     0
275
    -2
285
     1
 65
     0
276
    -2
286
     1
 66
     0
277
    -2
287
     1
 67
     0
278
    -2
288
     1
 68
     0
279
    -2
289
     1
 69
     0
  0
VISUALSTYLE
  5
15D5
102
{ACAD_XDICTIONARY
360
1620
102
}
102
{ACAD_REACTORS
330
15CF
102
}
330
15CF
100
AcDbVisualStyle
  2
2dWireframe
 70
     4
 71
     0
 72
     2
 73
     0
 90
        0
 40
-0.6
 41
-30.0
 62
     5
 63
     7
 74
     1
 91
        4
 64
     7
 65
   257
 75
     1
175
     1
 42
1.0
 92
        0
 66
   257
 43
1.0
 76
     1
 77
     6
 78
     2
 67
     7
 79
     5
170
     0
171
     0
290
     0
174
     0
 93
        1
 44
0.0
173
     0
291
     0
 45
0.0
  0
VISUALSTYLE
  5
15D7
102
{ACAD_XDICTIONARY
360
1624
102
}
102
{ACAD_REACTORS
330
15CF
102
}
330
15CF
100
AcDbVisualStyle
  2
3D Hidden
 70
     6
 71
     1
 72
     2
 73
     2
 90
        0
 40
-0.6
 41
-30.0
 62
     5
 63
     7
 74
     2
 91
        2
 64
     7
 65
   257
 75
     2
175
     1
 42
179.0
 92
        0
 66
   257
 43
1.0
 76
     1
 77
     6
 78
     2
 67
     7
 79
     3
170
     0
171
     0
290
     0
174
     0
 93
        1
 44
0.0
173
     0
291
     0
 45
0.0
  0
VISUALSTYLE
  5
15D6
102
{ACAD_XDICTIONARY
360
1622
102
}
102
{ACAD_REACTORS
330
15CF
102
}
330
15CF
100
AcDbVisualStyle
  2
3dWireframe
 70
     5
 71
     0
 72
     2
 73
     0
 90
        0
 40
-0.6
 41
-30.0
 62
     5
 63
     7
 74
     1
 91
        4
 64
     7
 65
   257
 75
     1
175
     1
 42
1.0
 92
        0
 66
   257
 43
1.0
 76
     1
 77
     6
 78
     2
 67
     7
 79
     5
170
     0
171
     0
290
     0
174
     0
 93
        1
 44
0.0
173
     0
291
     0
 45
0.0
  0
VISUALSTYLE
  5
15D4
102
{ACAD_XDICTIONARY
360
161E
102
}
102
{ACAD_REACTORS
330
15CF
102
}
330
15CF
100
AcDbVisualStyle
  2
Basic
 70
     7
 71
     1
 72
     0
 73
     1
 90
        0
 40
-0.6
 41
-30.0
 62
     5
 63
     7
 74
     0
 91
        4
 64
     7
 65
   257
 75
     1
175
     1
 42
1.0
 92
        8
 66
     7
 43
1.0
 76
     1
 77
     6
 78
     2
 67
     7
 79
     5
170
     0
171
     0
290
     0
174
     0
 93
        1
 44
0.0
173
     0
291
     1
 45
0.0
  0
VISUALSTYLE
  5
15DB
102
{ACAD_XDICTIONARY
360
162C
102
}
102
{ACAD_REACTORS
330
15CF
102
}
330
15CF
100
AcDbVisualStyle
  2
Brighten
 70
    12
 71
     2
 72
     2
 73
     0
 90
        0
 40
-0.6
 41
-30.0
 62
     5
 63
     7
 74
     1
 91
        4
 64
     7
 65
   257
 75
     1
175
     1
 42
1.0
 92
        8
 66
     7
 43
1.0
 76
     1
 77
     6
 78
     2
 67
     7
 79
     5
170
     0
171
     0
290
     0
174
     0
 93
        1
 44
50.0
173
     0
291
     1
 45
0.0
  0
VISUALSTYLE
  5
15DF
102
{ACAD_XDICTIONARY
360
1634
102
}
102
{ACAD_REACTORS
330
15CF
102
}
330
15CF
100
AcDbVisualStyle
  2
ColorChange
 70
    16
 71
     2
 72
     2
 73
     3
 90
        0
 40
-0.6
 41
-30.0
 62
     5
 63
     8
 74
     1
 91
        4
 64
     7
 65
   257
 75
     1
175
     1
 42
1.0
 92
        8
 66
     8
 43
1.0
 76
     1
 77
     6
 78
     2
 67
     7
 79
     5
170
     0
171
     0
290
     0
174
     0
 93
        1
 44
0.0
173
     0
291
     1
 45
0.0
  0
VISUALSTYLE
  5
15D8
102
{ACAD_XDICTIONARY
360
1626
102
}
102
{ACAD_REACTORS
330
15CF
102
}
330
15CF
100
AcDbVisualStyle
  2
Conceptual
 70
     9
 71
     3
 72
     2
 73
     0
 90
        0
 40
-0.6
 41
-30.0
 62
     5
 63
     7
 74
     2
 91
        2
 64
     7
 65
   257
 75
     1
175
     1
 42
179.0
 92
        8
 66
     7
 43
1.0
 76
     1
 77
     6
 78
     2
 67
     7
 79
     3
170
     0
171
     0
290
     0
174
     0
 93
        1
 44
0.0
173
     0
291
     0
 45
0.0
  0
VISUALSTYLE
  5
15DA
102
{ACAD_XDICTIONARY
360
162A
102
}
102
{ACAD_REACTORS
330
15CF
102
}
330
15CF
100
AcDbVisualStyle
  2
Dim
 70
    11
 71
     2
 72
     2
 73
     0
 90
        0
 40
-0.6
 41
-30.0
 62
     5
 63
     7
 74
     1
 91
        4
 64
     7
 65
   257
 75
     1
175
     1
 42
1.0
 92
        8
 66
     7
 43
1.0
 76
     1
 77
     6
 78
     2
 67
     7
 79
     5
170
     0
171
     0
290
     0
174
     0
 93
        1
 44
-50.0
173
     0
291
     1
 45
0.0
  0
VISUALSTYLE
  5
15E2
102
{ACAD_XDICTIONARY
360
163A
102
}
102
{ACAD_REACTORS
330
15CF
102
}
330
15CF
100
AcDbVisualStyle
  2
EdgeColorOff
 70
    22
 71
     2
 72
     2
 73
     0
 90
        0
 40
-0.6
 41
-30.0
 62
     5
 63
     7
 74
     1
 91
        4
 64
     7
 65
   257
 75
     1
175
     1
 42
1.0
 92
        8
 66
     7
 43
1.0
 76
     1
 77
     6
 78
     2
 67
     7
 79
     5
170
     0
171
     0
290
     0
174
     0
 93
        1
 44
0.0
173
     0
291
     1
 45
0.0
  0
VISUALSTYLE
  5
15DE
102
{ACAD_XDICTIONARY
360
1632
102
}
102
{ACAD_REACTORS
330
15CF
102
}
330
15CF
100
AcDbVisualStyle
  2
Facepattern
 70
    15
 71
     2
 72
     2
 73
     0
 90
        0
 40
-0.6
 41
-30.0
 62
     5
 63
     7
 74
     1
 91
        4
 64
     7
 65
   257
 75
     1
175
     1
 42
1.0
 92
        8
 66
     7
 43
1.0
 76
     1
 77
     6
 78
     2
 67
     7
 79
     5
170
     0
171
     0
290
     0
174
     0
 93
        1
 44
0.0
173
     0
291
     1
 45
0.0
  0
VISUALSTYLE
  5
15D0
102
{ACAD_XDICTIONARY
360
1616
102
}
102
{ACAD_REACTORS
330
15CF
102
}
330
15CF
100
AcDbVisualStyle
  2
Flat
 70
     0
 71
     2
 72
     1
 73
     1
 90
        2
 40
-0.6
 41
30.0
 62
     5
 63
     7
 74
     0
 91
        4
 64
     7
 65
   257
 75
     1
175
     1
 42
1.0
 92
        8
 66
     7
 43
1.0
 76
     1
 77
     6
 78
     2
 67
     7
 79
     5
170
     0
171
     0
290
     0
174
     0
 93
       13
 44
0.0
173
     0
291
     1
 45
0.0
  0
VISUALSTYLE
  5
15D1
102
{ACAD_XDICTIONARY
360
1618
102
}
102
{ACAD_REACTORS
330
15CF
102
}
330
15CF
100
AcDbVisualStyle
  2
FlatWithEdges
 70
     1
 71
     2
 72
     1
 73
     1
 90
        2
 40
-0.6
 41
30.0
 62
     5
 63
     7
 74
     1
 91
        4
 64
     7
 65
   257
 75
     1
175
     1
 42
1.0
 92
        0
 66
   257
 43
1.0
 76
     1
 77
     6
 78
     2
 67
     7
 79
     5
170
     0
171
     0
290
     0
174
     0
 93
       13
 44
0.0
173
     0
291
     1
 45
0.0
  0
VISUALSTYLE
  5
15D2
102
{ACAD_XDICTIONARY
360
161A
102
}
102
{ACAD_REACTORS
330
15CF
102
}
330
15CF
100
AcDbVisualStyle
  2
Gouraud
 70
     2
 71
     2
 72
     2
 73
     1
 90
        2
 40
-0.6
 41
30.0
 62
     5
 63
     7
 74
     0
 91
        4
 64
     7
 65
   257
 75
     1
175
     1
 42
1.0
 92
        0
 66
     7
 43
1.0
 76
     1
 77
     6
 78
     2
 67
     7
 79
     5
170
     0
171
     0
290
     0
174
     0
 93
       13
 44
0.0
173
     0
291
     1
 45
0.0
  0
VISUALSTYLE
  5
15D3
102
{ACAD_XDICTIONARY
360
161C
102
}
102
{ACAD_REACTORS
330
15CF
102
}
330
15CF
100
AcDbVisualStyle
  2
GouraudWithEdges
 70
     3
 71
     2
 72
     2
 73
     1
 90
        2
 40
-0.6
 41
30.0
 62
     5
 63
     7
 74
     1
 91
        4
 64
     7
 65
   257
 75
     1
175
     1
 42
1.0
 92
        0
 66
   257
 43
1.0
 76
     1
 77
     6
 78
     2
 67
     7
 79
     5
170
     0
171
     0
290
     0
174
     0
 93
       13
 44
0.0
173
     0
291
     1
 45
0.0
  0
VISUALSTYLE
  5
15E0
102
{ACAD_XDICTIONARY
360
1636
102
}
102
{ACAD_REACTORS
330
15CF
102
}
330
15CF
100
AcDbVisualStyle
  2
JitterOff
 70
    20
 71
     2
 72
     2
 73
     0
 90
        0
 40
-0.6
 41
-30.0
 62
     5
 63
     7
 74
     1
 91
        4
 64
     7
 65
   257
 75
     1
175
     1
 42
1.0
 92
       10
 66
     7
 43
1.0
 76
     1
 77
     6
 78
     2
 67
     7
 79
     5
170
     0
171
     0
290
     0
174
     0
 93
        1
 44
0.0
173
     0
291
     1
 45
0.0
  0
VISUALSTYLE
  5
15DD
102
{ACAD_XDICTIONARY
360
1630
102
}
102
{ACAD_REACTORS
330
15CF
102
}
330
15CF
100
AcDbVisualStyle
  2
Linepattern
 70
    14
 71
     2
 72
     2
 73
     0
 90
        0
 40
-0.6
 41
-30.0
 62
     5
 63
     7
 74
     1
 91
        4
 64
     7
 65
   257
 75
     7
175
     7
 42
1.0
 92
        8
 66
     7
 43
1.0
 76
     1
 77
     6
 78
     2
 67
     7
 79
     5
170
     0
171
     0
290
     0
174
     0
 93
        1
 44
0.0
173
     0
291
     1
 45
0.0
  0
VISUALSTYLE
  5
15E1
102
{ACAD_XDICTIONARY
360
1638
102
}
102
{ACAD_REACTORS
330
15CF
102
}
330
15CF
100
AcDbVisualStyle
  2
OverhangOff
 70
    21
 71
     2
 72
     2
 73
     0
 90
        0
 40
-0.6
 41
-30.0
 62
     5
 63
     7
 74
     1
 91
        4
 64
     7
 65
   257
 75
     1
175
     1
 42
1.0
 92
        9
 66
     7
 43
1.0
 76
     1
 77
     6
 78
     2
 67
     7
 79
     5
170
     0
171
     0
290
     0
174
     0
 93
        1
 44
0.0
173
     0
291
     1
 45
0.0
  0
VISUALSTYLE
  5
15D9
102
{ACAD_XDICTIONARY
360
1628
102
}
102
{ACAD_REACTORS
330
15CF
102
}
330
15CF
100
AcDbVisualStyle
  2
Realistic
 70
     8
 71
     2
 72
     2
 73
     0
 90
        0
 40
-0.6
 41
-30.0
 62
     5
 63
     7
 74
     1
 91
        0
 64
     7
 65
   257
 75
     1
175
     1
 42
1.0
 92
        8
 66
     8
 43
1.0
 76
     1
 77
     6
 78
     2
 67
     7
 79
     5
170
     0
171
     0
290
     0
174
     0
 93
       13
 44
0.0
173
     0
291
     0
 45
0.0
  0
VISUALSTYLE
  5
15DC
102
{ACAD_XDICTIONARY
360
162E
102
}
102
{ACAD_REACTORS
330
15CF
102
}
330
15CF
100
AcDbVisualStyle
  2
Thicken
 70
    13
 71
     2
 72
     2
 73
     0
 90
        0
 40
-0.6
 41
-30.0
 62
     5
 63
     7
 74
     1
 91
        4
 64
     7
 65
   257
 75
     1
175
     1
 42
1.0
 92
       12
 66
     7
 43
1.0
 76
     1
 77
     6
 78
     2
 67
     7
 79
     5
170
     0
171
     0
290
     0
174
     0
 93
        1
 44
0.0
173
     0
291
     1
 45
0.0
  0
DICTIONARYVAR
  5
1641
102
{ACAD_REACTORS
330
163E
102
}
330
163E
100
DictionaryVariables
280
     0
  1
1:1
  0
DICTIONARYVAR
  5
1640
102
{ACAD_REACTORS
330
163E
102
}
330
163E
100
DictionaryVariables
280
     0
  1
STANDARD
  0
DICTIONARYVAR
  5
163F
102
{ACAD_REACTORS
330
163E
102
}
330
163E
100
DictionaryVariables
280
     0
  1
STANDARD
  0
DICTIONARYVAR
  5
1644
102
{ACAD_REACTORS
330
163E
102
}
330
163E
100
DictionaryVariables
280
     0
  1
1
  0
DICTIONARYVAR
  5
1643
102
{ACAD_REACTORS
330
163E
102
}
330
163E
100
DictionaryVariables
280
     0
  1
0
  0
DICTIONARYVAR
  5
1693
102
{ACAD_REACTORS
330
163E
102
}
330
163E
100
DictionaryVariables
280
     0
  1
1
  0
DICTIONARYVAR
  5
1694
102
{ACAD_REACTORS
330
163E
102
}
330
163E
100
DictionaryVariables
280
     0
  1
15
  0
DICTIONARYVAR
  5
1692
102
{ACAD_REACTORS
330
163E
102
}
330
163E
100
DictionaryVariables
280
     0
  1
0
  0
DICTIONARYVAR
  5
1691
102
{ACAD_REACTORS
330
163E
102
}
330
163E
100
DictionaryVariables
280
     0
  1
0
  0
DICTIONARYVAR
  5
1642
102
{ACAD_REACTORS
330
163E
102
}
330
163E
100
DictionaryVariables
280
     0
  1
127
  0
DICTIONARYVAR
  5
1645
102
{ACAD_REACTORS
330
163E
102
}
330
163E
100
DictionaryVariables
280
     0
  1
2
  0
DICTIONARY
  5
15C0
330
15BF
100
AcDbDictionary
280
     1
281
     1
  3
BUMPTILE
360
15C2
  3
DIFFUSETILE
360
15C1
  3
OPACITYTILE
360
15C5
  3
REFLECTIONTILE
360
15C4
  3
REFRACTIONTILE
360
15C6
  3
SPECULARTILE
360
15C3
  0
DICTIONARY
  5
15B8
330
15B7
100
AcDbDictionary
280
     1
281
     1
  3
BUMPTILE
360
15BA
  3
DIFFUSETILE
360
15B9
  3
OPACITYTILE
360
15BD
  3
REFLECTIONTILE
360
15BC
  3
REFRACTIONTILE
360
15BE
  3
SPECULARTILE
360
15BB
  0
DICTIONARY
  5
15C8
330
15C7
100
AcDbDictionary
280
     1
281
     1
  3
BUMPTILE
360
15CA
  3
DIFFUSETILE
360
15C9
  3
OPACITYTILE
360
15CD
  3
REFLECTIONTILE
360
15CC
  3
REFRACTIONTILE
360
15CE
  3
SPECULARTILE
360
15CB
  0
DICTIONARY
  5
160A
330
15E5
100
AcDbDictionary
280
     1
281
     1
  3
ACAD_ROUNDTRIP_2008_TABLESTYLE_CELLSTYLEMAP
360
16A3
  0
DICTIONARY
  5
1620
330
15D5
100
AcDbDictionary
280
     1
281
     1
  3
ACAD_XREC_ROUNDTRIP
360
1621
  0
DICTIONARY
  5
1624
330
15D7
100
AcDbDictionary
280
     1
281
     1
  3
ACAD_XREC_ROUNDTRIP
360
1625
  0
DICTIONARY
  5
1622
330
15D6
100
AcDbDictionary
280
     1
281
     1
  3
ACAD_XREC_ROUNDTRIP
360
1623
  0
DICTIONARY
  5
161E
330
15D4
100
AcDbDictionary
280
     1
281
     1
  3
ACAD_XREC_ROUNDTRIP
360
161F
  0
DICTIONARY
  5
162C
330
15DB
100
AcDbDictionary
280
     1
281
     1
  3
ACAD_XREC_ROUNDTRIP
360
162D
  0
DICTIONARY
  5
1634
330
15DF
100
AcDbDictionary
280
     1
281
     1
  3
ACAD_XREC_ROUNDTRIP
360
1635
  0
DICTIONARY
  5
1626
330
15D8
100
AcDbDictionary
280
     1
281
     1
  3
ACAD_XREC_ROUNDTRIP
360
1627
  0
DICTIONARY
  5
162A
330
15DA
100
AcDbDictionary
280
     1
281
     1
  3
ACAD_XREC_ROUNDTRIP
360
162B
  0
DICTIONARY
  5
163A
330
15E2
100
AcDbDictionary
280
     1
281
     1
  3
ACAD_XREC_ROUNDTRIP
360
163B
  0
DICTIONARY
  5
1632
330
15DE
100
AcDbDictionary
280
     1
281
     1
  3
ACAD_XREC_ROUNDTRIP
360
1633
  0
DICTIONARY
  5
1616
330
15D0
100
AcDbDictionary
280
     1
281
     1
  3
ACAD_XREC_ROUNDTRIP
360
1617
  0
DICTIONARY
  5
1618
330
15D1
100
AcDbDictionary
280
     1
281
     1
  3
ACAD_XREC_ROUNDTRIP
360
1619
  0
DICTIONARY
  5
161A
330
15D2
100
AcDbDictionary
280
     1
281
     1
  3
ACAD_XREC_ROUNDTRIP
360
161B
  0
DICTIONARY
  5
161C
330
15D3
100
AcDbDictionary
280
     1
281
     1
  3
ACAD_XREC_ROUNDTRIP
360
161D
  0
DICTIONARY
  5
1636
330
15E0
100
AcDbDictionary
280
     1
281
     1
  3
ACAD_XREC_ROUNDTRIP
360
1637
  0
DICTIONARY
  5
1630
330
15DD
100
AcDbDictionary
280
     1
281
     1
  3
ACAD_XREC_ROUNDTRIP
360
1631
  0
DICTIONARY
  5
1638
330
15E1
100
AcDbDictionary
280
     1
281
     1
  3
ACAD_XREC_ROUNDTRIP
360
1639
  0
DICTIONARY
  5
1628
330
15D9
100
AcDbDictionary
280
     1
281
     1
  3
ACAD_XREC_ROUNDTRIP
360
1629
  0
DICTIONARY
  5
162E
330
15DC
100
AcDbDictionary
280
     1
281
     1
  3
ACAD_XREC_ROUNDTRIP
360
162F
  0
XRECORD
  5
15C2
102
{ACAD_REACTORS
330
15C0
102
}
330
15C0
100
AcDbXrecord
280
     1
270
     1
271
     1
  0
XRECORD
  5
15C1
102
{ACAD_REACTORS
330
15C0
102
}
330
15C0
100
AcDbXrecord
280
     1
270
     1
271
     1
  0
XRECORD
  5
15C5
102
{ACAD_REACTORS
330
15C0
102
}
330
15C0
100
AcDbXrecord
280
     1
270
     1
271
     1
  0
XRECORD
  5
15C4
102
{ACAD_REACTORS
330
15C0
102
}
330
15C0
100
AcDbXrecord
280
     1
270
     1
271
     1
  0
XRECORD
  5
15C6
102
{ACAD_REACTORS
330
15C0
102
}
330
15C0
100
AcDbXrecord
280
     1
270
     1
271
     1
  0
XRECORD
  5
15C3
102
{ACAD_REACTORS
330
15C0
102
}
330
15C0
100
AcDbXrecord
280
     1
270
     1
271
     1
  0
XRECORD
  5
15BA
102
{ACAD_REACTORS
330
15B8
102
}
330
15B8
100
AcDbXrecord
280
     1
270
     1
271
     1
  0
XRECORD
  5
15B9
102
{ACAD_REACTORS
330
15B8
102
}
330
15B8
100
AcDbXrecord
280
     1
270
     1
271
     1
  0
XRECORD
  5
15BD
102
{ACAD_REACTORS
330
15B8
102
}
330
15B8
100
AcDbXrecord
280
     1
270
     1
271
     1
  0
XRECORD
  5
15BC
102
{ACAD_REACTORS
330
15B8
102
}
330
15B8
100
AcDbXrecord
280
     1
270
     1
271
     1
  0
XRECORD
  5
15BE
102
{ACAD_REACTORS
330
15B8
102
}
330
15B8
100
AcDbXrecord
280
     1
270
     1
271
     1
  0
XRECORD
  5
15BB
102
{ACAD_REACTORS
330
15B8
102
}
330
15B8
100
AcDbXrecord
280
     1
270
     1
271
     1
  0
XRECORD
  5
15CA
102
{ACAD_REACTORS
330
15C8
102
}
330
15C8
100
AcDbXrecord
280
     1
270
     1
271
     1
  0
XRECORD
  5
15C9
102
{ACAD_REACTORS
330
15C8
102
}
330
15C8
100
AcDbXrecord
280
     1
270
     1
271
     1
  0
XRECORD
  5
15CD
102
{ACAD_REACTORS
330
15C8
102
}
330
15C8
100
AcDbXrecord
280
     1
270
     1
271
     1
  0
XRECORD
  5
15CC
102
{ACAD_REACTORS
330
15C8
102
}
330
15C8
100
AcDbXrecord
280
     1
270
     1
271
     1
  0
XRECORD
  5
15CE
102
{ACAD_REACTORS
330
15C8
102
}
330
15C8
100
AcDbXrecord
280
     1
270
     1
271
     1
  0
XRECORD
  5
15CB
102
{ACAD_REACTORS
330
15C8
102
}
330
15C8
100
AcDbXrecord
280
     1
270
     1
271
     1
  0
CELLSTYLEMAP
  5
16A3
102
{ACAD_REACTORS
330
160A
102
}
330
160A
100
AcDbCellStyleMap
 90
        3
300
CELLSTYLE
  1
TABLEFORMAT_BEGIN
 90
        5
170
     1
 91
        0
 92
    32768
 62
   257
 93
        1
300
CONTENTFORMAT
  1
CONTENTFORMAT_BEGIN
 90
        0
 91
        0
 92
      512
 93
        0
300

 40
0.0
140
1.0
 94
        5
 62
     0
340
11
144
0.25
309
CONTENTFORMAT_END
171
     0
 94
        0
309
TABLEFORMAT_END
  1
CELLSTYLE_BEGIN
 90
        1
 91
        1
300
_TITLE
309
CELLSTYLE_END
300
CELLSTYLE
  1
TABLEFORMAT_BEGIN
 90
        5
170
     1
 91
        0
 92
        0
 62
   257
 93
        1
300
CONTENTFORMAT
  1
CONTENTFORMAT_BEGIN
 90
        0
 91
        0
 92
      512
 93
        0
300

 40
0.0
140
1.0
 94
        5
 62
     0
340
11
144
0.18
309
CONTENTFORMAT_END
171
     0
 94
        0
309
TABLEFORMAT_END
  1
CELLSTYLE_BEGIN
 90
        2
 91
        1
300
_HEADER
309
CELLSTYLE_END
300
CELLSTYLE
  1
TABLEFORMAT_BEGIN
 90
        5
170
     1
 91
        0
 92
        0
 62
   257
 93
        1
300
CONTENTFORMAT
  1
CONTENTFORMAT_BEGIN
 90
        0
 91
        0
 92
      512
 93
        0
300

 40
0.0
140
1.0
 94
        2
 62
     0
340
11
144
0.18
309
CONTENTFORMAT_END
171
     0
 94
        0
309
TABLEFORMAT_END
  1
CELLSTYLE_BEGIN
 90
        3
 91
        2
300
_DATA
309
CELLSTYLE_END
  0
XRECORD
  5
1621
102
{ACAD_REACTORS
330
1620
102
}
330
1620
100
AcDbXrecord
280
     1
102
RTVSPropertyOp0
 70
     1
102
RTVSPropertyOp1
 70
     1
102
RTVSPropertyOp2
 70
     1
102
RTVSPropertyOp3
 70
     1
102
RTVSPropertyOp4
 70
     1
102
RTVSPropertyOp5
 70
     1
102
RTVSPropertyOp6
 70
     1
102
RTVSPropertyOp7
 70
     1
102
RTVSPropertyOp8
 70
     1
102
RTVSPropertyOp9
 70
     1
102
RTVSPropertyOp10
 70
     1
102
RTVSPropertyOp11
 70
     1
102
RTVSPropertyOp12
 70
     1
102
RTVSPropertyOp13
 70
     1
102
RTVSPropertyOp14
 70
     1
102
RTVSPropertyOp15
 70
     1
102
RTVSPropertyOp16
 70
     1
102
RTVSPropertyOp17
 70
     1
102
RTVSPropertyOp18
 70
     1
102
RTVSPropertyOp19
 70
     1
102
RTVSPropertyOp20
 70
     1
102
RTVSPropertyOp21
 70
     1
102
RTVSPropertyOp22
 70
     1
102
RTVSPropertyOp23
 70
     1
102
RTVSPropertyOp24
 70
     1
102
RTVSPropertyOp25
 70
     1
102
RTVSPropertyOp26
 70
     1
102
RTVSPropertyOp27
 70
     1
  0
XRECORD
  5
1625
102
{ACAD_REACTORS
330
1624
102
}
330
1624
100
AcDbXrecord
280
     1
102
RTVSPropertyOp0
 70
     1
102
RTVSPropertyOp1
 70
     1
102
RTVSPropertyOp2
 70
     1
102
RTVSPropertyOp3
 70
     1
102
RTVSPropertyOp4
 70
     1
102
RTVSPropertyOp5
 70
     1
102
RTVSPropertyOp6
 70
     1
102
RTVSPropertyOp7
 70
     1
102
RTVSPropertyOp8
 70
     1
102
RTVSPropertyOp9
 70
     1
102
RTVSPropertyOp10
 70
     1
102
RTVSPropertyOp11
 70
     1
102
RTVSPropertyOp12
 70
     1
102
RTVSPropertyOp13
 70
     1
102
RTVSPropertyOp14
 70
     1
102
RTVSPropertyOp15
 70
     1
102
RTVSPropertyOp16
 70
     1
102
RTVSPropertyOp17
 70
     1
102
RTVSPropertyOp18
 70
     1
102
RTVSPropertyOp19
 70
     1
102
RTVSPropertyOp20
 70
     1
102
RTVSPropertyOp21
 70
     1
102
RTVSPropertyOp22
 70
     1
102
RTVSPropertyOp23
 70
     1
102
RTVSPropertyOp24
 70
     1
102
RTVSPropertyOp25
 70
     1
102
RTVSPropertyOp26
 70
     1
102
RTVSPropertyOp27
 70
     1
  0
XRECORD
  5
1623
102
{ACAD_REACTORS
330
1622
102
}
330
1622
100
AcDbXrecord
280
     1
102
RTVSPropertyOp0
 70
     1
102
RTVSPropertyOp1
 70
     1
102
RTVSPropertyOp2
 70
     1
102
RTVSPropertyOp3
 70
     1
102
RTVSPropertyOp4
 70
     1
102
RTVSPropertyOp5
 70
     1
102
RTVSPropertyOp6
 70
     1
102
RTVSPropertyOp7
 70
     1
102
RTVSPropertyOp8
 70
     1
102
RTVSPropertyOp9
 70
     1
102
RTVSPropertyOp10
 70
     1
102
RTVSPropertyOp11
 70
     1
102
RTVSPropertyOp12
 70
     1
102
RTVSPropertyOp13
 70
     1
102
RTVSPropertyOp14
 70
     1
102
RTVSPropertyOp15
 70
     1
102
RTVSPropertyOp16
 70
     1
102
RTVSPropertyOp17
 70
     1
102
RTVSPropertyOp18
 70
     1
102
RTVSPropertyOp19
 70
     1
102
RTVSPropertyOp20
 70
     1
102
RTVSPropertyOp21
 70
     1
102
RTVSPropertyOp22
 70
     1
102
RTVSPropertyOp23
 70
     1
102
RTVSPropertyOp24
 70
     1
102
RTVSPropertyOp25
 70
     1
102
RTVSPropertyOp26
 70
     1
102
RTVSPropertyOp27
 70
     1
  0
XRECORD
  5
161F
102
{ACAD_REACTORS
330
161E
102
}
330
161E
100
AcDbXrecord
280
     1
102
RTVSPropertyOp0
 70
     1
102
RTVSPropertyOp1
 70
     1
102
RTVSPropertyOp2
 70
     1
102
RTVSPropertyOp3
 70
     1
102
RTVSPropertyOp4
 70
     1
102
RTVSPropertyOp5
 70
     1
102
RTVSPropertyOp6
 70
     1
102
RTVSPropertyOp7
 70
     1
102
RTVSPropertyOp8
 70
     1
102
RTVSPropertyOp9
 70
     1
102
RTVSPropertyOp10
 70
     1
102
RTVSPropertyOp11
 70
     1
102
RTVSPropertyOp12
 70
     1
102
RTVSPropertyOp13
 70
     1
102
RTVSPropertyOp14
 70
     1
102
RTVSPropertyOp15
 70
     1
102
RTVSPropertyOp16
 70
     1
102
RTVSPropertyOp17
 70
     1
102
RTVSPropertyOp18
 70
     1
102
RTVSPropertyOp19
 70
     1
102
RTVSPropertyOp20
 70
     1
102
RTVSPropertyOp21
 70
     1
102
RTVSPropertyOp22
 70
     1
102
RTVSPropertyOp23
 70
     1
102
RTVSPropertyOp24
 70
     1
102
RTVSPropertyOp25
 70
     1
102
RTVSPropertyOp26
 70
     1
102
RTVSPropertyOp27
 70
     1
  0
XRECORD
  5
162D
102
{ACAD_REACTORS
330
162C
102
}
330
162C
100
AcDbXrecord
280
     1
102
RTVSPropertyOp0
 70
     1
102
RTVSPropertyOp1
 70
     1
102
RTVSPropertyOp2
 70
     1
102
RTVSPropertyOp3
 70
     1
102
RTVSPropertyOp4
 70
     1
102
RTVSPropertyOp5
 70
     1
102
RTVSPropertyOp6
 70
     1
102
RTVSPropertyOp7
 70
     1
102
RTVSPropertyOp8
 70
     1
102
RTVSPropertyOp9
 70
     1
102
RTVSPropertyOp10
 70
     1
102
RTVSPropertyOp11
 70
     1
102
RTVSPropertyOp12
 70
     1
102
RTVSPropertyOp13
 70
     1
102
RTVSPropertyOp14
 70
     1
102
RTVSPropertyOp15
 70
     1
102
RTVSPropertyOp16
 70
     1
102
RTVSPropertyOp17
 70
     1
102
RTVSPropertyOp18
 70
     1
102
RTVSPropertyOp19
 70
     1
102
RTVSPropertyOp20
 70
     1
102
RTVSPropertyOp21
 70
     1
102
RTVSPropertyOp22
 70
     1
102
RTVSPropertyOp23
 70
     1
102
RTVSPropertyOp24
 70
     1
102
RTVSPropertyOp25
 70
     1
102
RTVSPropertyOp26
 70
     1
102
RTVSPropertyOp27
 70
     1
  0
XRECORD
  5
1635
102
{ACAD_REACTORS
330
1634
102
}
330
1634
100
AcDbXrecord
280
     1
102
RTVSPropertyOp0
 70
     1
102
RTVSPropertyOp1
 70
     1
102
RTVSPropertyOp2
 70
     1
102
RTVSPropertyOp3
 70
     1
102
RTVSPropertyOp4
 70
     1
102
RTVSPropertyOp5
 70
     1
102
RTVSPropertyOp6
 70
     1
102
RTVSPropertyOp7
 70
     1
102
RTVSPropertyOp8
 70
     1
102
RTVSPropertyOp9
 70
     1
102
RTVSPropertyOp10
 70
     1
102
RTVSPropertyOp11
 70
     1
102
RTVSPropertyOp12
 70
     1
102
RTVSPropertyOp13
 70
     1
102
RTVSPropertyOp14
 70
     1
102
RTVSPropertyOp15
 70
     1
102
RTVSPropertyOp16
 70
     1
102
RTVSPropertyOp17
 70
     1
102
RTVSPropertyOp18
 70
     1
102
RTVSPropertyOp19
 70
     1
102
RTVSPropertyOp20
 70
     1
102
RTVSPropertyOp21
 70
     1
102
RTVSPropertyOp22
 70
     1
102
RTVSPropertyOp23
 70
     1
102
RTVSPropertyOp24
 70
     1
102
RTVSPropertyOp25
 70
     1
102
RTVSPropertyOp26
 70
     1
102
RTVSPropertyOp27
 70
     1
  0
XRECORD
  5
1627
102
{ACAD_REACTORS
330
1626
102
}
330
1626
100
AcDbXrecord
280
     1
102
RTVSPropertyOp0
 70
     1
102
RTVSPropertyOp1
 70
     1
102
RTVSPropertyOp2
 70
     1
102
RTVSPropertyOp3
 70
     1
102
RTVSPropertyOp4
 70
     1
102
RTVSPropertyOp5
 70
     1
102
RTVSPropertyOp6
 70
     1
102
RTVSPropertyOp7
 70
     1
102
RTVSPropertyOp8
 70
     1
102
RTVSPropertyOp9
 70
     1
102
RTVSPropertyOp10
 70
     1
102
RTVSPropertyOp11
 70
     1
102
RTVSPropertyOp12
 70
     1
102
RTVSPropertyOp13
 70
     1
102
RTVSPropertyOp14
 70
     1
102
RTVSPropertyOp15
 70
     1
102
RTVSPropertyOp16
 70
     1
102
RTVSPropertyOp17
 70
     1
102
RTVSPropertyOp18
 70
     1
102
RTVSPropertyOp19
 70
     1
102
RTVSPropertyOp20
 70
     1
102
RTVSPropertyOp21
 70
     1
102
RTVSPropertyOp22
 70
     1
102
RTVSPropertyOp23
 70
     1
102
RTVSPropertyOp24
 70
     1
102
RTVSPropertyOp25
 70
     1
102
RTVSPropertyOp26
 70
     1
102
RTVSPropertyOp27
 70
     1
  0
XRECORD
  5
162B
102
{ACAD_REACTORS
330
162A
102
}
330
162A
100
AcDbXrecord
280
     1
102
RTVSPropertyOp0
 70
     1
102
RTVSPropertyOp1
 70
     1
102
RTVSPropertyOp2
 70
     1
102
RTVSPropertyOp3
 70
     1
102
RTVSPropertyOp4
 70
     1
102
RTVSPropertyOp5
 70
     1
102
RTVSPropertyOp6
 70
     1
102
RTVSPropertyOp7
 70
     1
102
RTVSPropertyOp8
 70
     1
102
RTVSPropertyOp9
 70
     1
102
RTVSPropertyOp10
 70
     1
102
RTVSPropertyOp11
 70
     1
102
RTVSPropertyOp12
 70
     1
102
RTVSPropertyOp13
 70
     1
102
RTVSPropertyOp14
 70
     1
102
RTVSPropertyOp15
 70
     1
102
RTVSPropertyOp16
 70
     1
102
RTVSPropertyOp17
 70
     1
102
RTVSPropertyOp18
 70
     1
102
RTVSPropertyOp19
 70
     1
102
RTVSPropertyOp20
 70
     1
102
RTVSPropertyOp21
 70
     1
102
RTVSPropertyOp22
 70
     1
102
RTVSPropertyOp23
 70
     1
102
RTVSPropertyOp24
 70
     1
102
RTVSPropertyOp25
 70
     1
102
RTVSPropertyOp26
 70
     1
102
RTVSPropertyOp27
 70
     1
  0
XRECORD
  5
163B
102
{ACAD_REACTORS
330
163A
102
}
330
163A
100
AcDbXrecord
280
     1
102
RTVSPropertyOp0
 70
     0
102
RTVSPropertyOp1
 70
     0
102
RTVSPropertyOp2
 70
     0
102
RTVSPropertyOp3
 70
     0
102
RTVSPropertyOp4
 70
     0
102
RTVSPropertyOp5
 70
     0
102
RTVSPropertyOp6
 70
     0
102
RTVSPropertyOp7
 70
     0
102
RTVSPropertyOp8
 70
     0
102
RTVSPropertyOp9
 70
     0
102
RTVSPropertyOp10
 70
     0
102
RTVSPropertyOp11
 70
     0
102
RTVSPropertyOp12
 70
     0
102
RTVSPropertyOp13
 70
     0
102
RTVSPropertyOp14
 70
     2
102
RTVSPropertyOp15
 70
     0
102
RTVSPropertyOp16
 70
     0
102
RTVSPropertyOp17
 70
     0
102
RTVSPropertyOp18
 70
     0
102
RTVSPropertyOp19
 70
     0
102
RTVSPropertyOp20
 70
     0
102
RTVSPropertyOp21
 70
     0
102
RTVSPropertyOp22
 70
     0
102
RTVSPropertyOp23
 70
     0
102
RTVSPropertyOp24
 70
     0
102
RTVSPropertyOp25
 70
     0
102
RTVSPropertyOp26
 70
     0
102
RTVSPropertyOp27
 70
     0
  0
XRECORD
  5
1633
102
{ACAD_REACTORS
330
1632
102
}
330
1632
100
AcDbXrecord
280
     1
102
RTVSPropertyOp0
 70
     1
102
RTVSPropertyOp1
 70
     1
102
RTVSPropertyOp2
 70
     1
102
RTVSPropertyOp3
 70
     1
102
RTVSPropertyOp4
 70
     1
102
RTVSPropertyOp5
 70
     1
102
RTVSPropertyOp6
 70
     1
102
RTVSPropertyOp7
 70
     1
102
RTVSPropertyOp8
 70
     1
102
RTVSPropertyOp9
 70
     1
102
RTVSPropertyOp10
 70
     1
102
RTVSPropertyOp11
 70
     1
102
RTVSPropertyOp12
 70
     1
102
RTVSPropertyOp13
 70
     1
102
RTVSPropertyOp14
 70
     1
102
RTVSPropertyOp15
 70
     1
102
RTVSPropertyOp16
 70
     1
102
RTVSPropertyOp17
 70
     1
102
RTVSPropertyOp18
 70
     1
102
RTVSPropertyOp19
 70
     1
102
RTVSPropertyOp20
 70
     1
102
RTVSPropertyOp21
 70
     1
102
RTVSPropertyOp22
 70
     1
102
RTVSPropertyOp23
 70
     1
102
RTVSPropertyOp24
 70
     1
102
RTVSPropertyOp25
 70
     1
102
RTVSPropertyOp26
 70
     1
102
RTVSPropertyOp27
 70
     1
  0
XRECORD
  5
1617
102
{ACAD_REACTORS
330
1616
102
}
330
1616
100
AcDbXrecord
280
     1
102
RTVSPropertyOp0
 70
     1
102
RTVSPropertyOp1
 70
     1
102
RTVSPropertyOp2
 70
     1
102
RTVSPropertyOp3
 70
     1
102
RTVSPropertyOp4
 70
     1
102
RTVSPropertyOp5
 70
     1
102
RTVSPropertyOp6
 70
     1
102
RTVSPropertyOp7
 70
     1
102
RTVSPropertyOp8
 70
     1
102
RTVSPropertyOp9
 70
     1
102
RTVSPropertyOp10
 70
     1
102
RTVSPropertyOp11
 70
     1
102
RTVSPropertyOp12
 70
     1
102
RTVSPropertyOp13
 70
     1
102
RTVSPropertyOp14
 70
     1
102
RTVSPropertyOp15
 70
     1
102
RTVSPropertyOp16
 70
     1
102
RTVSPropertyOp17
 70
     1
102
RTVSPropertyOp18
 70
     1
102
RTVSPropertyOp19
 70
     1
102
RTVSPropertyOp20
 70
     1
102
RTVSPropertyOp21
 70
     1
102
RTVSPropertyOp22
 70
     1
102
RTVSPropertyOp23
 70
     1
102
RTVSPropertyOp24
 70
     1
102
RTVSPropertyOp25
 70
     1
102
RTVSPropertyOp26
 70
     1
102
RTVSPropertyOp27
 70
     1
  0
XRECORD
  5
1619
102
{ACAD_REACTORS
330
1618
102
}
330
1618
100
AcDbXrecord
280
     1
102
RTVSPropertyOp0
 70
     1
102
RTVSPropertyOp1
 70
     1
102
RTVSPropertyOp2
 70
     1
102
RTVSPropertyOp3
 70
     1
102
RTVSPropertyOp4
 70
     1
102
RTVSPropertyOp5
 70
     1
102
RTVSPropertyOp6
 70
     1
102
RTVSPropertyOp7
 70
     1
102
RTVSPropertyOp8
 70
     1
102
RTVSPropertyOp9
 70
     1
102
RTVSPropertyOp10
 70
     1
102
RTVSPropertyOp11
 70
     1
102
RTVSPropertyOp12
 70
     1
102
RTVSPropertyOp13
 70
     1
102
RTVSPropertyOp14
 70
     1
102
RTVSPropertyOp15
 70
     1
102
RTVSPropertyOp16
 70
     1
102
RTVSPropertyOp17
 70
     1
102
RTVSPropertyOp18
 70
     1
102
RTVSPropertyOp19
 70
     1
102
RTVSPropertyOp20
 70
     1
102
RTVSPropertyOp21
 70
     1
102
RTVSPropertyOp22
 70
     1
102
RTVSPropertyOp23
 70
     1
102
RTVSPropertyOp24
 70
     1
102
RTVSPropertyOp25
 70
     1
102
RTVSPropertyOp26
 70
     1
102
RTVSPropertyOp27
 70
     1
  0
XRECORD
  5
161B
102
{ACAD_REACTORS
330
161A
102
}
330
161A
100
AcDbXrecord
280
     1
102
RTVSPropertyOp0
 70
     1
102
RTVSPropertyOp1
 70
     1
102
RTVSPropertyOp2
 70
     1
102
RTVSPropertyOp3
 70
     1
102
RTVSPropertyOp4
 70
     1
102
RTVSPropertyOp5
 70
     1
102
RTVSPropertyOp6
 70
     1
102
RTVSPropertyOp7
 70
     1
102
RTVSPropertyOp8
 70
     1
102
RTVSPropertyOp9
 70
     1
102
RTVSPropertyOp10
 70
     1
102
RTVSPropertyOp11
 70
     1
102
RTVSPropertyOp12
 70
     1
102
RTVSPropertyOp13
 70
     1
102
RTVSPropertyOp14
 70
     1
102
RTVSPropertyOp15
 70
     1
102
RTVSPropertyOp16
 70
     1
102
RTVSPropertyOp17
 70
     1
102
RTVSPropertyOp18
 70
     1
102
RTVSPropertyOp19
 70
     1
102
RTVSPropertyOp20
 70
     1
102
RTVSPropertyOp21
 70
     1
102
RTVSPropertyOp22
 70
     1
102
RTVSPropertyOp23
 70
     1
102
RTVSPropertyOp24
 70
     1
102
RTVSPropertyOp25
 70
     1
102
RTVSPropertyOp26
 70
     1
102
RTVSPropertyOp27
 70
     1
  0
XRECORD
  5
161D
102
{ACAD_REACTORS
330
161C
102
}
330
161C
100
AcDbXrecord
280
     1
102
RTVSPropertyOp0
 70
     1
102
RTVSPropertyOp1
 70
     1
102
RTVSPropertyOp2
 70
     1
102
RTVSPropertyOp3
 70
     1
102
RTVSPropertyOp4
 70
     1
102
RTVSPropertyOp5
 70
     1
102
RTVSPropertyOp6
 70
     1
102
RTVSPropertyOp7
 70
     1
102
RTVSPropertyOp8
 70
     1
102
RTVSPropertyOp9
 70
     1
102
RTVSPropertyOp10
 70
     1
102
RTVSPropertyOp11
 70
     1
102
RTVSPropertyOp12
 70
     1
102
RTVSPropertyOp13
 70
     1
102
RTVSPropertyOp14
 70
     1
102
RTVSPropertyOp15
 70
     1
102
RTVSPropertyOp16
 70
     1
102
RTVSPropertyOp17
 70
     1
102
RTVSPropertyOp18
 70
     1
102
RTVSPropertyOp19
 70
     1
102
RTVSPropertyOp20
 70
     1
102
RTVSPropertyOp21
 70
     1
102
RTVSPropertyOp22
 70
     1
102
RTVSPropertyOp23
 70
     1
102
RTVSPropertyOp24
 70
     1
102
RTVSPropertyOp25
 70
     1
102
RTVSPropertyOp26
 70
     1
102
RTVSPropertyOp27
 70
     1
  0
XRECORD
  5
1637
102
{ACAD_REACTORS
330
1636
102
}
330
1636
100
AcDbXrecord
280
     1
102
RTVSPropertyOp0
 70
     0
102
RTVSPropertyOp1
 70
     0
102
RTVSPropertyOp2
 70
     0
102
RTVSPropertyOp3
 70
     0
102
RTVSPropertyOp4
 70
     0
102
RTVSPropertyOp5
 70
     0
102
RTVSPropertyOp6
 70
     0
102
RTVSPropertyOp7
 70
     0
102
RTVSPropertyOp8
 70
     0
102
RTVSPropertyOp9
 70
     0
102
RTVSPropertyOp10
 70
     0
102
RTVSPropertyOp11
 70
     0
102
RTVSPropertyOp12
 70
     0
102
RTVSPropertyOp13
 70
     0
102
RTVSPropertyOp14
 70
     2
102
RTVSPropertyOp15
 70
     0
102
RTVSPropertyOp16
 70
     0
102
RTVSPropertyOp17
 70
     0
102
RTVSPropertyOp18
 70
     0
102
RTVSPropertyOp19
 70
     0
102
RTVSPropertyOp20
 70
     0
102
RTVSPropertyOp21
 70
     0
102
RTVSPropertyOp22
 70
     0
102
RTVSPropertyOp23
 70
     0
102
RTVSPropertyOp24
 70
     0
102
RTVSPropertyOp25
 70
     0
102
RTVSPropertyOp26
 70
     0
102
RTVSPropertyOp27
 70
     0
  0
XRECORD
  5
1631
102
{ACAD_REACTORS
330
1630
102
}
330
1630
100
AcDbXrecord
280
     1
102
RTVSPropertyOp0
 70
     1
102
RTVSPropertyOp1
 70
     1
102
RTVSPropertyOp2
 70
     1
102
RTVSPropertyOp3
 70
     1
102
RTVSPropertyOp4
 70
     1
102
RTVSPropertyOp5
 70
     1
102
RTVSPropertyOp6
 70
     1
102
RTVSPropertyOp7
 70
     1
102
RTVSPropertyOp8
 70
     1
102
RTVSPropertyOp9
 70
     1
102
RTVSPropertyOp10
 70
     1
102
RTVSPropertyOp11
 70
     1
102
RTVSPropertyOp12
 70
     1
102
RTVSPropertyOp13
 70
     1
102
RTVSPropertyOp14
 70
     1
102
RTVSPropertyOp15
 70
     1
102
RTVSPropertyOp16
 70
     1
102
RTVSPropertyOp17
 70
     1
102
RTVSPropertyOp18
 70
     1
102
RTVSPropertyOp19
 70
     1
102
RTVSPropertyOp20
 70
     1
102
RTVSPropertyOp21
 70
     1
102
RTVSPropertyOp22
 70
     1
102
RTVSPropertyOp23
 70
     1
102
RTVSPropertyOp24
 70
     1
102
RTVSPropertyOp25
 70
     1
102
RTVSPropertyOp26
 70
     1
102
RTVSPropertyOp27
 70
     1
  0
XRECORD
  5
1639
102
{ACAD_REACTORS
330
1638
102
}
330
1638
100
AcDbXrecord
280
     1
102
RTVSPropertyOp0
 70
     0
102
RTVSPropertyOp1
 70
     0
102
RTVSPropertyOp2
 70
     0
102
RTVSPropertyOp3
 70
     0
102
RTVSPropertyOp4
 70
     0
102
RTVSPropertyOp5
 70
     0
102
RTVSPropertyOp6
 70
     0
102
RTVSPropertyOp7
 70
     0
102
RTVSPropertyOp8
 70
     0
102
RTVSPropertyOp9
 70
     0
102
RTVSPropertyOp10
 70
     0
102
RTVSPropertyOp11
 70
     0
102
RTVSPropertyOp12
 70
     0
102
RTVSPropertyOp13
 70
     0
102
RTVSPropertyOp14
 70
     2
102
RTVSPropertyOp15
 70
     0
102
RTVSPropertyOp16
 70
     0
102
RTVSPropertyOp17
 70
     0
102
RTVSPropertyOp18
 70
     0
102
RTVSPropertyOp19
 70
     0
102
RTVSPropertyOp20
 70
     0
102
RTVSPropertyOp21
 70
     0
102
RTVSPropertyOp22
 70
     0
102
RTVSPropertyOp23
 70
     0
102
RTVSPropertyOp24
 70
     0
102
RTVSPropertyOp25
 70
     0
102
RTVSPropertyOp26
 70
     0
102
RTVSPropertyOp27
 70
     0
  0
XRECORD
  5
1629
102
{ACAD_REACTORS
330
1628
102
}
330
1628
100
AcDbXrecord
280
     1
102
RTVSPropertyOp0
 70
     1
102
RTVSPropertyOp1
 70
     1
102
RTVSPropertyOp2
 70
     1
102
RTVSPropertyOp3
 70
     1
102
RTVSPropertyOp4
 70
     1
102
RTVSPropertyOp5
 70
     1
102
RTVSPropertyOp6
 70
     1
102
RTVSPropertyOp7
 70
     1
102
RTVSPropertyOp8
 70
     1
102
RTVSPropertyOp9
 70
     1
102
RTVSPropertyOp10
 70
     1
102
RTVSPropertyOp11
 70
     1
102
RTVSPropertyOp12
 70
     1
102
RTVSPropertyOp13
 70
     1
102
RTVSPropertyOp14
 70
     1
102
RTVSPropertyOp15
 70
     1
102
RTVSPropertyOp16
 70
     1
102
RTVSPropertyOp17
 70
     1
102
RTVSPropertyOp18
 70
     1
102
RTVSPropertyOp19
 70
     1
102
RTVSPropertyOp20
 70
     1
102
RTVSPropertyOp21
 70
     1
102
RTVSPropertyOp22
 70
     1
102
RTVSPropertyOp23
 70
     1
102
RTVSPropertyOp24
 70
     1
102
RTVSPropertyOp25
 70
     1
102
RTVSPropertyOp26
 70
     1
102
RTVSPropertyOp27
 70
     1
  0
XRECORD
  5
162F
102
{ACAD_REACTORS
330
162E
102
}
330
162E
100
AcDbXrecord
280
     1
102
RTVSPropertyOp0
 70
     1
102
RTVSPropertyOp1
 70
     1
102
RTVSPropertyOp2
 70
     1
102
RTVSPropertyOp3
 70
     1
102
RTVSPropertyOp4
 70
     1
102
RTVSPropertyOp5
 70
     1
102
RTVSPropertyOp6
 70
     1
102
RTVSPropertyOp7
 70
     1
102
RTVSPropertyOp8
 70
     1
102
RTVSPropertyOp9
 70
     1
102
RTVSPropertyOp10
 70
     1
102
RTVSPropertyOp11
 70
     1
102
RTVSPropertyOp12
 70
     1
102
RTVSPropertyOp13
 70
     1
102
RTVSPropertyOp14
 70
     1
102
RTVSPropertyOp15
 70
     1
102
RTVSPropertyOp16
 70
     1
102
RTVSPropertyOp17
 70
     1
102
RTVSPropertyOp18
 70
     1
102
RTVSPropertyOp19
 70
     1
102
RTVSPropertyOp20
 70
     1
102
RTVSPropertyOp21
 70
     1
102
RTVSPropertyOp22
 70
     1
102
RTVSPropertyOp23
 70
     1
102
RTVSPropertyOp24
 70
     1
102
RTVSPropertyOp25
 70
     1
102
RTVSPropertyOp26
 70
     1
102
RTVSPropertyOp27
 70
     1
  0
ENDSEC
  0
EOF
