  0
SECTION
  2
HEADER
  9
$ACADVER
  1
AC1021
  9
$ACADMAINTVER
 70
    50
  9
$DWGCODEPAGE
  3
ANSI_1252
  9
$LASTSAVEDBY
  1
francoisbu
  9
$INSBASE
 10
0.0
 20
0.0
 30
0.0
  9
$EXTMIN
 10
20.91159545293363
 20
68.37939488402264
 30
-0.0015258207003583
  9
$EXTMAX
 10
85.01432224912509
 20
102.2530927035198
 30
0.0000000349246037
  9
$LIMMIN
 10
0.0
 20
0.0
  9
$LIMMAX
 10
181.3333333333
 20
117.3333333333
  9
$ORTHOMODE
 70
     0
  9
$REGENMODE
 70
     1
  9
$FILLMODE
 70
     1
  9
$QTEXTMODE
 70
     0
  9
$MIRRTEXT
 70
     0
  9
$LTSCALE
 40
9.973333333300001
  9
$ATTMODE
 70
     1
  9
$TEXTSIZE
 40
0.2
  9
$TRACEWID
 40
0.05
  9
$TEXTSTYLE
  7
STANDARD
  9
$CLAYER
  8
0
  9
$CELTYPE
  6
BYLAYER
  9
$CECOLOR
 62
   256
  9
$CELTSCALE
 40
1.0
  9
$DISPSILH
 70
     0
  9
$DIMSCALE
 40
1.0
  9
$DIMASZ
 40
2.0
  9
$DIMEXO
 40
0.0625
  9
$DIMDLI
 40
6.890666666699999
  9
$DIMRND
 40
0.0
  9
$DIMDLE
 40
0.0
  9
$DIMEXE
 40
0.125
  9
$DIMTP
 40
0.00001
  9
$DIMTM
 40
0.00001
  9
$DIMTXT
 40
1.333333333299999
  9
$DIMCEN
 40
1.631999999999999
  9
$DIMTSZ
 40
0.0
  9
$DIMTOL
 70
     1
  9
$DIMLIM
 70
     0
  9
$DIMTIH
 70
     1
  9
$DIMTOH
 70
     1
  9
$DIMSE1
 70
     0
  9
$DIMSE2
 70
     0
  9
$DIMTAD
 70
     0
  9
$DIMZIN
 70
     0
  9
$DIMBLK
  1
_FILLED
  9
$DIMASO
 70
     1
  9
$DIMSHO
 70
     1
  9
$DIMPOST
  1

  9
$DIMAPOST
  1

  9
$DIMALT
 70
     0
  9
$DIMALTD
 70
     2
  9
$DIMALTF
 40
25.4
  9
$DIMLFAC
 40
1.0
  9
$DIMTOFL
 70
     0
  9
$DIMTVP
 40
0.0
  9
$DIMTIX
 70
     0
  9
$DIMSOXD
 70
     0
  9
$DIMSAH
 70
     0
  9
$DIMBLK1
  1

  9
$DIMBLK2
  1

  9
$DIMSTYLE
  2
STANDARD
  9
$DIMCLRD
 70
     0
  9
$DIMCLRE
 70
     0
  9
$DIMCLRT
 70
     0
  9
$DIMTFAC
 40
1.0
  9
$DIMGAP
 40
0.09
  9
$DIMJUST
 70
     0
  9
$DIMSD1
 70
     0
  9
$DIMSD2
 70
     0
  9
$DIMTOLJ
 70
     1
  9
$DIMTZIN
 70
     0
  9
$DIMALTZ
 70
     0
  9
$DIMALTTZ
 70
     0
  9
$DIMUPT
 70
     0
  9
$DIMDEC
 70
     4
  9
$DIMTDEC
 70
     4
  9
$DIMALTU
 70
     2
  9
$DIMALTTD
 70
     2
  9
$DIMTXSTY
  7
STANDARD
  9
$DIMAUNIT
 70
     0
  9
$DIMADEC
 70
     0
  9
$DIMALTRND
 40
0.0
  9
$DIMAZIN
 70
     0
  9
$DIMDSEP
 70
    46
  9
$DIMATFIT
 70
     3
  9
$DIMFRAC
 70
     0
  9
$DIMLDRBLK
  1

  9
$DIMLUNIT
 70
     2
  9
$DIMLWD
 70
    -2
  9
$DIMLWE
 70
    -2
  9
$DIMTMOVE
 70
     0
  9
$DIMFXL
 40
1.0
  9
$DIMFXLON
 70
     0
  9
$DIMJOGANG
 40
0.7853981633974483
  9
$DIMTFILL
 70
     0
  9
$DIMTFILLCLR
 70
     0
  9
$DIMARCSYM
 70
     0
  9
$DIMLTYPE
  6

  9
$DIMLTEX1
  6

  9
$DIMLTEX2
  6

  9
$LUNITS
 70
     2
  9
$LUPREC
 70
     4
  9
$SKETCHINC
 40
0.1
  9
$FILLETRAD
 40
0.0
  9
$AUNITS
 70
     0
  9
$AUPREC
 70
     0
  9
$MENU
  1
.
  9
$ELEVATION
 40
0.0
  9
$PELEVATION
 40
0.0
  9
$THICKNESS
 40
0.0
  9
$LIMCHECK
 70
     0
  9
$CHAMFERA
 40
0.0
  9
$CHAMFERB
 40
0.0
  9
$CHAMFERC
 40
0.0
  9
$CHAMFERD
 40
0.0
  9
$SKPOLY
 70
     0
  9
$TDCREATE
 40
2456966.607491713
  9
$TDUCREATE
 40
2456966.815825047
  9
$TDUPDATE
 40
2456966.623122558
  9
$TDUUPDATE
 40
2456966.831455891
  9
$TDINDWG
 40
0.0016037269
  9
$TDUSRTIMER
 40
0.0016037269
  9
$USRTIMER
 70
     1
  9
$ANGBASE
 50
0.0
  9
$ANGDIR
 70
     0
  9
$PDMODE
 70
     3
  9
$PDSIZE
 40
0.03125
  9
$PLINEWID
 40
0.0
  9
$SPLFRAME
 70
     0
  9
$SPLINETYPE
 70
     6
  9
$SPLINESEGS
 70
     8
  9
$HANDSEED
  5
1698
  9
$SURFTAB1
 70
     6
  9
$SURFTAB2
 70
     6
  9
$SURFTYPE
 70
     6
  9
$SURFU
 70
     6
  9
$SURFV
 70
     6
  9
$UCSBASE
  2

  9
$UCSNAME
  2

  9
$UCSORG
 10
0.0
 20
0.0
 30
0.0
  9
$UCSXDIR
 10
1.0
 20
0.0
 30
0.0
  9
$UCSYDIR
 10
0.0
 20
1.0
 30
0.0
  9
$UCSORTHOREF
  2

  9
$UCSORTHOVIEW
 70
     0
  9
$UCSORGTOP
 10
0.0
 20
0.0
 30
0.0
  9
$UCSORGBOTTOM
 10
0.0
 20
0.0
 30
0.0
  9
$UCSORGLEFT
 10
0.0
 20
0.0
 30
0.0
  9
$UCSORGRIGHT
 10
0.0
 20
0.0
 30
0.0
  9
$UCSORGFRONT
 10
0.0
 20
0.0
 30
0.0
  9
$UCSORGBACK
 10
0.0
 20
0.0
 30
0.0
  9
$PUCSBASE
  2

  9
$PUCSNAME
  2

  9
$PUCSORG
 10
0.0
 20
0.0
 30
0.0
  9
$PUCSXDIR
 10
1.0
 20
0.0
 30
0.0
  9
$PUCSYDIR
 10
0.0
 20
1.0
 30
0.0
  9
$PUCSORTHOREF
  2

  9
$PUCSORTHOVIEW
 70
     0
  9
$PUCSORGTOP
 10
0.0
 20
0.0
 30
0.0
  9
$PUCSORGBOTTOM
 10
0.0
 20
0.0
 30
0.0
  9
$PUCSORGLEFT
 10
0.0
 20
0.0
 30
0.0
  9
$PUCSORGRIGHT
 10
0.0
 20
0.0
 30
0.0
  9
$PUCSORGFRONT
 10
0.0
 20
0.0
 30
0.0
  9
$PUCSORGBACK
 10
0.0
 20
0.0
 30
0.0
  9
$USERI1
 70
     0
  9
$USERI2
 70
     0
  9
$USERI3
 70
     0
  9
$USERI4
 70
     0
  9
$USERI5
 70
     0
  9
$USERR1
 40
0.0
  9
$USERR2
 40
0.0
  9
$USERR3
 40
0.0
  9
$USERR4
 40
0.0
  9
$USERR5
 40
0.0
  9
$WORLDVIEW
 70
     1
  9
$SHADEDGE
 70
     3
  9
$SHADEDIF
 70
    70
  9
$TILEMODE
 70
     1
  9
$MAXACTVP
 70
    64
  9
$PINSBASE
 10
0.0
 20
0.0
 30
0.0
  9
$PLIMCHECK
 70
     0
  9
$PEXTMIN
 10
1.000000000000000E+20
 20
1.000000000000000E+20
 30
1.000000000000000E+20
  9
$PEXTMAX
 10
-1.000000000000000E+20
 20
-1.000000000000000E+20
 30
-1.000000000000000E+20
  9
$PLIMMIN
 10
0.0
 20
0.0
  9
$PLIMMAX
 10
12.0
 20
9.0
  9
$UNITMODE
 70
     0
  9
$VISRETAIN
 70
     1
  9
$PLINEGEN
 70
     0
  9
$PSLTSCALE
 70
     1
  9
$TREEDEPTH
 70
  3020
  9
$CMLSTYLE
  2
Standard
  9
$CMLJUST
 70
     0
  9
$CMLSCALE
 40
1.0
  9
$PROXYGRAPHICS
 70
     1
  9
$MEASUREMENT
 70
     0
  9
$CELWEIGHT
370
    -1
  9
$ENDCAPS
280
     0
  9
$JOINSTYLE
280
     0
  9
$LWDISPLAY
290
     0
  9
$INSUNITS
 70
     1
  9
$HYPERLINKBASE
  1

  9
$STYLESHEET
  1

  9
$XEDIT
290
     1
  9
$CEPSNTYPE
380
     0
  9
$PSTYLEMODE
290
     1
  9
$FINGERPRINTGUID
  2
{AE8E2B7D-3705-4BF7-94C9-3D4DB3ABA4F9}
  9
$VERSIONGUID
  2
{82E12EFE-93F4-4443-AA23-2AAEC65AF770}
  9
$EXTNAMES
290
     1
  9
$PSVPSCALE
 40
0.0
  9
$OLESTARTUP
290
     0
  9
$SORTENTS
280
   127
  9
$INDEXCTL
280
     0
  9
$HIDETEXT
280
     0
  9
$XCLIPFRAME
290
     0
  9
$HALOGAP
280
     0
  9
$OBSCOLOR
 70
   257
  9
$OBSLTYPE
280
     0
  9
$INTERSECTIONDISPLAY
280
     0
  9
$INTERSECTIONCOLOR
 70
   257
  9
$DIMASSOC
280
     1
  9
$PROJECTNAME
  1

  9
$CAMERADISPLAY
290
     0
  9
$LENSLENGTH
 40
50.0
  9
$CAMERAHEIGHT
 40
0.0
  9
$STEPSPERSEC
 40
2.0
  9
$STEPSIZE
 40
6.0
  9
$3DDWFPREC
 40
2.0
  9
$PSOLWIDTH
 40
0.25
  9
$PSOLHEIGHT
 40
4.0
  9
$LOFTANG1
 40
1.570796326794896
  9
$LOFTANG2
 40
1.570796326794896
  9
$LOFTMAG1
 40
0.0
  9
$LOFTMAG2
 40
0.0
  9
$LOFTPARAM
 70
     7
  9
$LOFTNORMALS
280
     1
  9
$LATITUDE
 40
37.795
  9
$LONGITUDE
 40
-122.394
  9
$NORTHDIRECTION
 40
0.0
  9
$TIMEZONE
 70
 -8000
  9
$LIGHTGLYPHDISPLAY
280
     1
  9
$TILEMODELIGHTSYNCH
280
     1
  9
$CMATERIAL
347
15B7
  9
$SOLIDHIST
280
     1
  9
$SHOWHIST
280
     1
  9
$DWFFRAME
280
     2
  9
$DGNFRAME
280
     0
  9
$REALWORLDSCALE
290
     1
  9
$INTERFERECOLOR
 62
     1
  9
$INTERFEREOBJVS
345
15D9
  9
$INTERFEREVPVS
346
15D6
  9
$CSHADOW
280
     0
  9
$SHADOWPLANELOCATION
 40
0.0
  0
ENDSEC
  0
SECTION
  2
CLASSES
  0
CLASS
  1
ACDBDICTIONARYWDFLT
  2
AcDbDictionaryWithDefault
  3
ObjectDBX Classes
 90
        0
 91
        1
280
     0
281
     0
  0
CLASS
  1
MATERIAL
  2
AcDbMaterial
  3
ObjectDBX Classes
 90
     1153
 91
        3
280
     0
281
     0
  0
CLASS
  1
VISUALSTYLE
  2
AcDbVisualStyle
  3
ObjectDBX Classes
 90
     4095
 91
       19
280
     0
281
     0
  0
CLASS
  1
TABLESTYLE
  2
AcDbTableStyle
  3
ObjectDBX Classes
 90
     4095
 91
        1
280
     0
281
     0
  0
CLASS
  1
SCALE
  2
AcDbScale
  3
ObjectDBX Classes
 90
     1153
 91
       33
280
     0
281
     0
  0
CLASS
  1
MLEADERSTYLE
  2
AcDbMLeaderStyle
  3
ACDB_MLEADERSTYLE_CLASS
 90
     4095
 91
        1
280
     0
281
     0
  0
CLASS
  1
CELLSTYLEMAP
  2
AcDbCellStyleMap
  3
ObjectDBX Classes
 90
     1152
 91
        3
280
     0
281
     0
  0
CLASS
  1
DICTIONARYVAR
  2
AcDbDictionaryVar
  3
ObjectDBX Classes
 90
        0
 91
       11
280
     0
281
     0
  0
ENDSEC
  0
SECTION
  2
TABLES
  0
TABLE
  2
VPORT
  5
8
102
{ACAD_XDICTIONARY
360
160D
102
}
330
0
100
AcDbSymbolTable
 70
     1
  0
VPORT
  5
1F4
330
8
100
AcDbSymbolTableRecord
100
AcDbViewportTableRecord
  2
*ACTIVE
 70
     0
 10
0.0
 20
0.0
 11
1.0
 21
1.0
 12
52.96295885102935
 22
85.31624379377126
 13
0.0
 23
0.0
 14
1.0
 24
1.0
 15
0.0
 25
0.0
 16
0.0
 26
0.0
 36
1.0
 17
0.0
 27
0.0
 37
0.0
 40
34.48715564892105
 41
1.866847826086956
 42
50.0
 43
0.0
 44
0.0
 50
0.0
 51
0.0
 71
     0
 72
   100
 73
     1
 74
     1
 75
     0
 76
     0
 77
     0
 78
     0
281
     0
 65
     1
110
0.0
120
0.0
130
0.0
111
1.0
121
0.0
131
0.0
112
0.0
122
1.0
132
0.0
 79
     0
146
0.0
348
15D5
 60
     3
 61
     5
292
     1
282
     1
141
0.0
142
0.0
 63
   250
421
  3355443
  0
ENDTAB
  0
TABLE
  2
LTYPE
  5
5
330
0
100
AcDbSymbolTable
 70
     6
  0
LTYPE
  5
14
330
5
100
AcDbSymbolTableRecord
100
AcDbLinetypeTableRecord
  2
BYBLOCK
 70
     0
  3

 72
    65
 73
     0
 40
0.0
  0
LTYPE
  5
15
330
5
100
AcDbSymbolTableRecord
100
AcDbLinetypeTableRecord
  2
BYLAYER
 70
     0
  3

 72
    65
 73
     0
 40
0.0
  0
LTYPE
  5
16
330
5
100
AcDbSymbolTableRecord
100
AcDbLinetypeTableRecord
  2
CONTINUOUS
 70
     0
  3
Solid line
 72
    65
 73
     0
 40
0.0
  0
LTYPE
  5
1F5
330
5
100
AcDbSymbolTableRecord
100
AcDbLinetypeTableRecord
  2
CENTER
 70
     0
  3
____ _ ____ _ ____ _ ____ _ ____ _ ____ _ ____
 72
    65
 73
     4
 40
0.6
 49
0.375
 74
     0
 49
-0.075
 74
     0
 49
0.075
 74
     0
 49
-0.075
 74
     0
  0
LTYPE
  5
1F6
330
5
100
AcDbSymbolTableRecord
100
AcDbLinetypeTableRecord
  2
HIDDEN
 70
     0
  3
- - - - - - - - - - - - - - - - - - - -
 72
    65
 73
     2
 40
0.2
 49
0.1
 74
     0
 49
-0.1
 74
     0
  0
LTYPE
  5
1F7
330
5
100
AcDbSymbolTableRecord
100
AcDbLinetypeTableRecord
  2
PHANTOM
 70
     0
  3
_____ _ _ _____ _ _ _____ _ _ _____
 72
    65
 73
     6
 40
0.8
 49
0.45
 74
     0
 49
-0.05
 74
     0
 49
0.1
 74
     0
 49
-0.05
 74
     0
 49
0.1
 74
     0
 49
-0.05
 74
     0
  0
LTYPE
  5
1F8
330
5
100
AcDbSymbolTableRecord
100
AcDbLinetypeTableRecord
  2
DOT
 70
     0
  3
. . . . . . . . . . . . . . . . . . . .
 72
    65
 73
     2
 40
0.2
 49
0.1
 74
     0
 49
-0.1
 74
     0
  0
LTYPE
  5
1F9
330
5
100
AcDbSymbolTableRecord
100
AcDbLinetypeTableRecord
  2
DASHED
 70
     0
  3
- - - - - - - - - - - - - - - - - - - -
 72
    65
 73
     2
 40
0.2
 49
0.1
 74
     0
 49
-0.1
 74
     0
  0
ENDTAB
  0
TABLE
  2
LAYER
  5
2
330
0
100
AcDbSymbolTable
 70
    31
  0
LAYER
  5
10
102
{ACAD_XDICTIONARY
360
164D
102
}
330
2
100
AcDbSymbolTableRecord
100
AcDbLayerTableRecord
  2
0
 70
     0
 62
     7
  6
CONTINUOUS
370
    -3
390
F
347
15C7
  0
LAYER
  5
1FA
102
{ACAD_XDICTIONARY
360
164F
102
}
330
2
100
AcDbSymbolTableRecord
100
AcDbLayerTableRecord
  2
DEFAULT_1
 70
     0
 62
     7
  6
CENTER
370
    -3
390
F
347
15C7
  0
LAYER
  5
1FB
102
{ACAD_XDICTIONARY
360
1651
102
}
330
2
100
AcDbSymbolTableRecord
100
AcDbLayerTableRecord
  2
DEFAULT_2
 70
     0
 62
     7
  6
HIDDEN
370
    -3
390
F
347
15C7
  0
LAYER
  5
1FC
102
{ACAD_XDICTIONARY
360
1653
102
}
330
2
100
AcDbSymbolTableRecord
100
AcDbLayerTableRecord
  2
DEFAULT_3
 70
     0
 62
     7
  6
PHANTOM
370
    -3
390
F
347
15C7
  0
LAYER
  5
1FD
102
{ACAD_XDICTIONARY
360
1655
102
}
330
2
100
AcDbSymbolTableRecord
100
AcDbLayerTableRecord
  2
1_CURVES
 70
     0
 62
     7
  6
CONTINUOUS
370
    -3
390
F
347
15C7
  0
LAYER
  5
1FE
102
{ACAD_XDICTIONARY
360
1657
102
}
330
2
100
AcDbSymbolTableRecord
100
AcDbLayerTableRecord
  2
1_CURVES_CONDUIT
 70
     0
 62
     7
  6
CONTINUOUS
370
    -3
390
F
347
15C7
  0
LAYER
  5
1FF
102
{ACAD_XDICTIONARY
360
1659
102
}
330
2
100
AcDbSymbolTableRecord
100
AcDbLayerTableRecord
  2
1_CURVES_DOT
 70
     0
 62
     7
  6
CONTINUOUS
370
    -3
390
F
347
15C7
  0
LAYER
  5
200
102
{ACAD_XDICTIONARY
360
165B
102
}
330
2
100
AcDbSymbolTableRecord
100
AcDbLayerTableRecord
  2
1_CURVES_JETS
 70
     0
 62
     7
  6
CONTINUOUS
370
    -3
390
F
347
15C7
  0
LAYER
  5
201
102
{ACAD_XDICTIONARY
360
165D
102
}
330
2
100
AcDbSymbolTableRecord
100
AcDbLayerTableRecord
  2
1_CURVES_PATINS
 70
     0
 62
     7
  6
CONTINUOUS
370
    -3
390
F
347
15C7
  0
LAYER
  5
202
102
{ACAD_XDICTIONARY
360
165F
102
}
330
2
100
AcDbSymbolTableRecord
100
AcDbLayerTableRecord
  2
1_CURVES_SPEC_FRONT
 70
     0
 62
     7
  6
CONTINUOUS
370
    -3
390
F
347
15C7
  0
LAYER
  5
203
102
{ACAD_XDICTIONARY
360
1661
102
}
330
2
100
AcDbSymbolTableRecord
100
AcDbLayerTableRecord
  2
1_CURVES_SPEC_RIGHT
 70
     0
 62
     7
  6
CONTINUOUS
370
    -3
390
F
347
15C7
  0
LAYER
  5
204
102
{ACAD_XDICTIONARY
360
1663
102
}
330
2
100
AcDbSymbolTableRecord
100
AcDbLayerTableRecord
  2
2_PLANES
 70
     0
 62
     7
  6
CONTINUOUS
370
    -3
390
F
347
15C7
  0
LAYER
  5
205
102
{ACAD_XDICTIONARY
360
1665
102
}
330
2
100
AcDbSymbolTableRecord
100
AcDbLayerTableRecord
  2
2_PLANES_JETS
 70
     0
 62
     7
  6
CONTINUOUS
370
    -3
390
F
347
15C7
  0
LAYER
  5
206
102
{ACAD_XDICTIONARY
360
1667
102
}
330
2
100
AcDbSymbolTableRecord
100
AcDbLayerTableRecord
  2
3_POINTS
 70
     0
 62
     7
  6
CONTINUOUS
370
    -3
390
F
347
15C7
  0
LAYER
  5
207
102
{ACAD_XDICTIONARY
360
1669
102
}
330
2
100
AcDbSymbolTableRecord
100
AcDbLayerTableRecord
  2
3_POINTS_JETS
 70
     0
 62
     7
  6
CONTINUOUS
370
    -3
390
F
347
15C7
  0
LAYER
  5
208
102
{ACAD_XDICTIONARY
360
166B
102
}
330
2
100
AcDbSymbolTableRecord
100
AcDbLayerTableRecord
  2
4_CSYS
 70
     0
 62
     7
  6
CONTINUOUS
370
    -3
390
F
347
15C7
  0
LAYER
  5
209
102
{ACAD_XDICTIONARY
360
166D
102
}
330
2
100
AcDbSymbolTableRecord
100
AcDbLayerTableRecord
  2
5_AXIS
 70
     0
 62
     7
  6
CONTINUOUS
370
    -3
390
F
347
15C7
  0
LAYER
  5
20A
102
{ACAD_XDICTIONARY
360
166F
102
}
330
2
100
AcDbSymbolTableRecord
100
AcDbLayerTableRecord
  2
5_AXIS_JETS
 70
     0
 62
     7
  6
CONTINUOUS
370
    -3
390
F
347
15C7
  0
LAYER
  5
20B
102
{ACAD_XDICTIONARY
360
1671
102
}
330
2
100
AcDbSymbolTableRecord
100
AcDbLayerTableRecord
  2
6_AIRE_CONDUIT
 70
     0
 62
     7
  6
CONTINUOUS
370
    -3
390
F
347
15C7
  0
LAYER
  5
20C
102
{ACAD_XDICTIONARY
360
1673
102
}
330
2
100
AcDbSymbolTableRecord
100
AcDbLayerTableRecord
  2
6_SURFACES
 70
     0
 62
     7
  6
CONTINUOUS
370
    -3
390
F
347
15C7
  0
LAYER
  5
20D
102
{ACAD_XDICTIONARY
360
1675
102
}
330
2
100
AcDbSymbolTableRecord
100
AcDbLayerTableRecord
  2
6_SURFACES_AIRE
 70
     0
 62
     7
  6
CONTINUOUS
370
    -3
390
F
347
15C7
  0
LAYER
  5
20E
102
{ACAD_XDICTIONARY
360
1677
102
}
330
2
100
AcDbSymbolTableRecord
100
AcDbLayerTableRecord
  2
6_SURFACES_OFFSET_FIBRE_ACRYLIQ
 70
     0
 62
     7
  6
CONTINUOUS
370
    -3
390
F
347
15C7
  0
LAYER
  5
20F
102
{ACAD_XDICTIONARY
360
1679
102
}
330
2
100
AcDbSymbolTableRecord
100
AcDbLayerTableRecord
  2
6_SURFACES_POUR_CONDUIT
 70
     0
 62
     7
  6
CONTINUOUS
370
    -3
390
F
347
15C7
  0
LAYER
  5
210
102
{ACAD_XDICTIONARY
360
167B
102
}
330
2
100
AcDbSymbolTableRecord
100
AcDbLayerTableRecord
  2
6_SURFACES_POUR_HFL
 70
     0
 62
     7
  6
CONTINUOUS
370
    -3
390
F
347
15C7
  0
LAYER
  5
211
102
{ACAD_XDICTIONARY
360
167D
102
}
330
2
100
AcDbSymbolTableRecord
100
AcDbLayerTableRecord
  2
6_SURFACES_POUR_TROP_PLEIN
 70
     0
 62
     7
  6
CONTINUOUS
370
    -3
390
F
347
15C7
  0
LAYER
  5
212
102
{ACAD_XDICTIONARY
360
167F
102
}
330
2
100
AcDbSymbolTableRecord
100
AcDbLayerTableRecord
  2
6_SURFACES_TOOLING
 70
     0
 62
     7
  6
CONTINUOUS
370
    -3
390
F
347
15C7
  0
LAYER
  5
213
102
{ACAD_XDICTIONARY
360
1681
102
}
330
2
100
AcDbSymbolTableRecord
100
AcDbLayerTableRecord
  2
7_NOTES
 70
     0
 62
     7
  6
CONTINUOUS
370
    -3
390
F
347
15C7
  0
LAYER
  5
214
102
{ACAD_XDICTIONARY
360
1683
102
}
330
2
100
AcDbSymbolTableRecord
100
AcDbLayerTableRecord
  2
8_TOL_GEOM
 70
     0
 62
     7
  6
CONTINUOUS
370
    -3
390
F
347
15C7
  0
LAYER
  5
215
102
{ACAD_XDICTIONARY
360
1685
102
}
330
2
100
AcDbSymbolTableRecord
100
AcDbLayerTableRecord
  2
DEGAGEMENT_SERIGRAPHIE
 70
     0
 62
     7
  6
CONTINUOUS
370
    -3
390
F
347
15C7
  0
LAYER
  5
216
102
{ACAD_XDICTIONARY
360
1687
102
}
330
2
100
AcDbSymbolTableRecord
100
AcDbLayerTableRecord
  2
NONE
 70
     0
 62
     7
  6
CONTINUOUS
370
    -3
390
F
347
15C7
  0
LAYER
  5
217
102
{ACAD_XDICTIONARY
360
1689
102
}
330
2
100
AcDbSymbolTableRecord
100
AcDbLayerTableRecord
  2
XSEC_DATUMS
 70
     0
 62
     7
  6
CONTINUOUS
370
    -3
390
F
347
15C7
  0
ENDTAB
  0
TABLE
  2
STYLE
  5
3
330
0
100
AcDbSymbolTable
 70
     8
  0
STYLE
  5
11
330
3
100
AcDbSymbolTableRecord
100
AcDbTextStyleTableRecord
  2
STANDARD
 70
     0
 40
0.0
 41
0.8
 50
0.0
 71
     0
 42
0.2
  3
txt
  4

  0
STYLE
  5
218
330
3
100
AcDbSymbolTableRecord
100
AcDbTextStyleTableRecord
  2
TEXTSTYLE_1
 70
     0
 40
0.0
 41
0.8
 50
0.0
 71
     0
 42
0.2
  3
gdt
  4

  0
STYLE
  5
219
330
3
100
AcDbSymbolTableRecord
100
AcDbTextStyleTableRecord
  2
TEXTSTYLE_2
 70
     0
 40
0.0
 41
1.0
 50
0.0
 71
     0
 42
0.2
  3
trium.ttf
  4

  0
STYLE
  5
21A
330
3
100
AcDbSymbolTableRecord
100
AcDbTextStyleTableRecord
  2
TEXTSTYLE_3
 70
     0
 40
0.0
 41
1.0
 50
0.0
 71
     0
 42
0.2
  3
trium.ttf
  4

  0
STYLE
  5
21B
330
3
100
AcDbSymbolTableRecord
100
AcDbTextStyleTableRecord
  2
TEXTSTYLE_4
 70
     0
 40
0.0
 41
1.0
 50
0.0
 71
     0
 42
0.2
  3
txt_____.ttf
  4

1001
ACAD
1000
txt
1071
        2
  0
STYLE
  5
21C
330
3
100
AcDbSymbolTableRecord
100
AcDbTextStyleTableRecord
  2
TEXTSTYLE_5
 70
     0
 40
0.0
 41
1.0
 50
0.0
 71
     0
 42
0.2
  3
txt
  4

  0
STYLE
  5
21D
330
3
100
AcDbSymbolTableRecord
100
AcDbTextStyleTableRecord
  2
TEXTSTYLE_6
 70
     0
 40
0.0
 41
1.0
 50
0.0
 71
     0
 42
0.2
  3
trium.ttf
  4

  0
STYLE
  5
21E
330
3
100
AcDbSymbolTableRecord
100
AcDbTextStyleTableRecord
  2
TEXTSTYLE_7
 70
     0
 40
0.0
 41
0.8
 50
0.0
 71
     0
 42
0.2
  3
txt
  4

  0
ENDTAB
  0
TABLE
  2
VIEW
  5
6
330
0
100
AcDbSymbolTable
 70
     0
  0
ENDTAB
  0
TABLE
  2
UCS
  5
7
330
0
100
AcDbSymbolTable
 70
     0
  0
ENDTAB
  0
TABLE
  2
APPID
  5
9
330
0
100
AcDbSymbolTable
 70
     2
  0
APPID
  5
21F
330
9
100
AcDbSymbolTableRecord
100
AcDbRegAppTableRecord
  2
ACAD
 70
     0
  0
APPID
  5
163D
330
9
100
AcDbSymbolTableRecord
100
AcDbRegAppTableRecord
  2
ACAD_MLEADERVER
 70
     0
  0
ENDTAB
  0
TABLE
  2
DIMSTYLE
  5
A
330
0
100
AcDbSymbolTable
 70
     4
100
AcDbDimStyleTable
 71
     0
  0
DIMSTYLE
105
237
330
A
100
AcDbSymbolTableRecord
100
AcDbDimStyleTableRecord
  2
STANDARD
 70
     0
 41
2.0
 44
0.125
 47
0.00001
 48
0.00001
 71
     1
 78
     4
140
1.333333333299999
271
     5
272
     5
284
     4
340
11
341
222
342
222
343
222
344
222
  0
DIMSTYLE
105
238
330
A
100
AcDbSymbolTableRecord
100
AcDbDimStyleTableRecord
  2
DIMSTYLE_1
 70
     0
 41
2.0
 44
0.125
 47
0.00001
 48
0.00001
 78
     4
140
1.333333333299999
147
0.0625
271
     3
272
     3
284
     4
340
11
341
222
342
222
343
222
344
222
  0
DIMSTYLE
105
239
330
A
100
AcDbSymbolTableRecord
100
AcDbDimStyleTableRecord
  2
DIMSTYLE_2
 70
     0
 41
2.0
 44
0.125
 47
1.0
 48
1.0
 78
     4
140
1.333333333299999
271
     0
272
     0
284
     4
340
11
341
222
342
222
343
222
344
222
  0
DIMSTYLE
105
23A
330
A
100
AcDbSymbolTableRecord
100
AcDbDimStyleTableRecord
  2
DIMSTYLE_3
 70
     0
 41
2.0
 44
0.125
 47
0.5
 48
0.5
 78
     4
140
1.333333333299999
271
     0
272
     0
284
     4
340
11
341
222
342
222
343
222
344
222
  0
ENDTAB
  0
TABLE
  2
BLOCK_RECORD
  5
1
330
0
100
AcDbSymbolTable
 70
    21
  0
BLOCK_RECORD
  5
220
330
1
100
AcDbSymbolTableRecord
100
AcDbBlockTableRecord
  2
*Model_Space
340
15B2
 70
     0
280
     1
281
     0
  0
BLOCK_RECORD
  5
221
330
1
100
AcDbSymbolTableRecord
100
AcDbBlockTableRecord
  2
*Paper_Space
340
15B3
 70
     0
280
     1
281
     0
  0
BLOCK_RECORD
  5
222
330
1
100
AcDbSymbolTableRecord
100
AcDbBlockTableRecord
  2
_FILLED
340
0
102
{BLKREFS
331
31F
331
320
331
328
331
329
331
331
331
332
331
33A
331
33B
331
343
331
344
331
34C
331
34D
331
355
331
356
331
35E
331
35F
331
367
331
368
331
371
331
372
331
37B
331
37C
331
384
331
385
331
38E
331
38F
102
}
 70
     0
280
     1
281
     0
  0
BLOCK_RECORD
  5
232
330
1
100
AcDbSymbolTableRecord
100
AcDbBlockTableRecord
  2
SYMBOL_0_BL4
340
0
 70
     0
280
     1
281
     0
  0
BLOCK_RECORD
  5
233
330
1
100
AcDbSymbolTableRecord
100
AcDbBlockTableRecord
  2
SYMBOL_5_BL3
340
0
 70
     0
280
     1
281
     0
  0
BLOCK_RECORD
  5
234
330
1
100
AcDbSymbolTableRecord
100
AcDbBlockTableRecord
  2
SYMBOL_4_BL2
340
0
 70
     0
280
     1
281
     0
  0
BLOCK_RECORD
  5
235
330
1
100
AcDbSymbolTableRecord
100
AcDbBlockTableRecord
  2
SYMBOL_2_BL1
340
0
 70
     0
280
     1
281
     0
  0
BLOCK_RECORD
  5
236
330
1
100
AcDbSymbolTableRecord
100
AcDbBlockTableRecord
  2
SYMBOL_8_BL0
340
0
 70
     0
280
     1
281
     0
  0
ENDTAB
  0
ENDSEC
  0
SECTION
  2
BLOCKS
  0
BLOCK
  5
20
330
220
100
AcDbEntity
  8
0
100
AcDbBlockBegin
  2
*Model_Space
 70
     0
 10
0.0
 20
0.0
 30
0.0
  3
*Model_Space
  1

  0
ENDBLK
  5
21
330
220
100
AcDbEntity
  8
0
100
AcDbBlockEnd
  0
BLOCK
  5
1C
330
221
100
AcDbEntity
 67
     1
  8
0
100
AcDbBlockBegin
  2
*Paper_Space
 70
     0
 10
0.0
 20
0.0
 30
0.0
  3
*Paper_Space
  1

  0
ENDBLK
  5
1D
330
221
100
AcDbEntity
 67
     1
  8
0
100
AcDbBlockEnd
  0
BLOCK
  5
316
330
222
100
AcDbEntity
  8
0
100
AcDbBlockBegin
  2
_FILLED
 70
     0
 10
0.0
 20
0.0
 30
0.0
  3
_FILLED
  1

  0
SOLID
  5
317
330
222
100
AcDbEntity
  8
0
  6
ByBlock
 62
     0
100
AcDbTrace
 10
0.0
 20
0.0
 30
0.0
 11
-1.0
 21
0.1666666667
 31
0.0
 12
-1.0
 22
-0.1666666667
 32
0.0
 13
-1.0
 23
-0.1666666667
 33
0.0
  0
ENDBLK
  5
318
330
222
100
AcDbEntity
  8
0
  6
ByBlock
 62
     0
100
AcDbBlockEnd
  0
BLOCK
  5
23B
330
232
100
AcDbEntity
  8
0
  6
Continuous
 62
     7
100
AcDbBlockBegin
  2
SYMBOL_0_BL4
 70
     0
 10
127.5868681454
 20
55.4010909351
 30
0.0
  3
SYMBOL_0_BL4
  1

  0
TEXT
  5
23C
330
232
100
AcDbEntity
  8
0
  6
Continuous
 62
     7
100
AcDbText
 10
121.2728078436
 20
57.6461249209
 30
0.0
 40
1.1626666667
  1
INTERNAL USE 
 50
10.0
  7
TEXTSTYLE_3
100
AcDbText
  0
TEXT
  5
23D
330
232
100
AcDbEntity
  8
0
  6
Continuous
 62
     7
100
AcDbText
 10
120.5291236396
 20
55.64460374319999
 30
0.0
 40
1.1626666667
  1
DOCUMENT ONLY
 50
10.0
  7
TEXTSTYLE_3
100
AcDbText
  0
TEXT
  5
23E
330
232
100
AcDbEntity
  8
0
  6
Continuous
 62
     7
100
AcDbText
 10
126.3138512029
 20
55.3961756927
 30
0.0
 40
1.1626666667
  1
 
 50
10.0
  7
TEXTSTYLE_5
100
AcDbText
  0
TEXT
  5
23F
330
232
100
AcDbEntity
  8
0
  6
Continuous
 62
     7
100
AcDbText
 10
117.8692033199
 20
51.21908128640001
 30
0.0
 40
1.1626666667
  1
DOCUMENT POUR USAGE
 50
10.0
  7
TEXTSTYLE_3
100
AcDbText
  0
TEXT
  5
240
330
232
100
AcDbEntity
  8
0
  6
Continuous
 62
     7
100
AcDbText
 10
118.2983027659
 20
49.202332826
 30
0.0
 40
1.1626666667
  1
A L'INTERNE SEULEMENT
 50
10.0
  7
TEXTSTYLE_3
100
AcDbText
  0
LINE
  5
241
330
232
100
AcDbEntity
  8
0
  6
Continuous
 62
     7
100
AcDbLine
 10
141.4434198687
 20
51.0575573171
 30
0.0
 11
141.4501788014
 21
51.06431624979999
 31
0.0
  0
LINE
  5
242
330
232
100
AcDbEntity
  8
0
  6
Continuous
 62
     7
100
AcDbLine
 10
140.7108503023
 20
50.9283855373
 30
0.0
 11
141.3597317474
 21
51.5772669825
 31
0.0
  0
LINE
  5
243
330
232
100
AcDbEntity
  8
0
  6
Continuous
 62
     7
100
AcDbLine
 10
139.9782807359
 20
50.7992137575
 30
0.0
 11
141.2692846935
 21
52.0902177151
 31
0.0
  0
LINE
  5
244
330
232
100
AcDbEntity
  8
0
  6
Continuous
 62
     7
100
AcDbLine
 10
139.2457111695
 20
50.6700419777
 30
0.0
 11
141.1788376395
 21
52.6031684478
 31
0.0
  0
LINE
  5
245
330
232
100
AcDbEntity
  8
0
  6
Continuous
 62
     7
100
AcDbLine
 10
138.513141603
 20
50.54087019789999
 30
0.0
 11
141.0883905856
 21
53.1161191805
 31
0.0
  0
LINE
  5
246
330
232
100
AcDbEntity
  8
0
  6
Continuous
 62
     7
100
AcDbLine
 10
137.7805720366
 20
50.4116984181
 30
0.0
 11
139.3215758514
 21
51.9527022329
 31
0.0
  0
LINE
  5
247
330
232
100
AcDbEntity
  8
0
  6
Continuous
 62
     7
100
AcDbLine
 10
139.9189210441
 20
52.5500474256
 30
0.0
 11
140.9979435316
 21
53.6290699131
 31
0.0
  0
LINE
  5
248
330
232
100
AcDbEntity
  8
0
  6
Continuous
 62
     7
100
AcDbLine
 10
137.0480024702
 20
50.2825266383
 30
0.0
 11
138.589006285
 21
51.82353045310001
 31
0.0
  0
LINE
  5
249
330
232
100
AcDbEntity
  8
0
  6
Continuous
 62
     7
100
AcDbLine
 10
139.8284739902
 20
53.0629981583
 30
0.0
 11
140.9074964777
 21
54.1420206458
 31
0.0
  0
LINE
  5
24A
330
232
100
AcDbEntity
  8
0
  6
Continuous
 62
     7
100
AcDbLine
 10
136.3154329038
 20
50.1533548585
 30
0.0
 11
137.8564367186
 21
51.6943586733
 31
0.0
  0
LINE
  5
24B
330
232
100
AcDbEntity
  8
0
  6
Continuous
 62
     7
100
AcDbLine
 10
139.7380269362
 20
53.575948891
 30
0.0
 11
140.8170494238
 21
54.6549713785
 31
0.0
  0
LINE
  5
24C
330
232
100
AcDbEntity
  8
0
  6
Continuous
 62
     7
100
AcDbLine
 10
135.5828633374
 20
50.0241830787
 30
0.0
 11
137.1238671522
 21
51.56518689350001
 31
0.0
  0
LINE
  5
24D
330
232
100
AcDbEntity
  8
0
  6
Continuous
 62
     7
100
AcDbLine
 10
139.6475798823
 20
54.08889962359999
 30
0.0
 11
140.7266023698
 21
55.1679221111
 31
0.0
  0
LINE
  5
24E
330
232
100
AcDbEntity
  8
0
  6
Continuous
 62
     7
100
AcDbLine
 10
134.850293771
 20
49.8950112989
 30
0.0
 11
136.3912975857
 21
51.4360151137
 31
0.0
  0
LINE
  5
24F
330
232
100
AcDbEntity
  8
0
  6
Continuous
 62
     7
100
AcDbLine
 10
139.5571328284
 20
54.6018503563
 30
0.0
 11
140.6361553159
 21
55.6808728438
 31
0.0
  0
LINE
  5
250
330
232
100
AcDbEntity
  8
0
  6
Continuous
 62
     7
100
AcDbLine
 10
134.1177242045
 20
49.7658395191
 30
0.0
 11
135.6587280193
 21
51.3068433339
 31
0.0
  0
LINE
  5
251
330
232
100
AcDbEntity
  8
0
  6
Continuous
 62
     7
100
AcDbLine
 10
139.4666857744
 20
55.11480108899999
 30
0.0
 11
140.5457082619
 21
56.1938235765
 31
0.0
  0
LINE
  5
252
330
232
100
AcDbEntity
  8
0
  6
Continuous
 62
     7
100
AcDbLine
 10
133.3851546381
 20
49.6366677393
 30
0.0
 11
134.9261584529
 21
51.1776715541
 31
0.0
  0
LINE
  5
253
330
232
100
AcDbEntity
  8
0
  6
Continuous
 62
     7
100
AcDbLine
 10
139.3762387205
 20
55.6277518216
 30
0.0
 11
140.455261208
 21
56.7067743091
 31
0.0
  0
LINE
  5
254
330
232
100
AcDbEntity
  8
0
  6
Continuous
 62
     7
100
AcDbLine
 10
132.6525850717
 20
49.5074959595
 30
0.0
 11
134.1935888865
 21
51.0484997743
 31
0.0
  0
LINE
  5
255
330
232
100
AcDbEntity
  8
0
  6
Continuous
 62
     7
100
AcDbLine
 10
139.2857916665
 20
56.1407025543
 30
0.0
 11
140.364814154
 21
57.2197250418
 31
0.0
  0
LINE
  5
256
330
232
100
AcDbEntity
  8
0
  6
Continuous
 62
     7
100
AcDbLine
 10
131.9200155053
 20
49.3783241797
 30
0.0
 11
133.4610193201
 21
50.91932799439999
 31
0.0
  0
LINE
  5
257
330
232
100
AcDbEntity
  8
0
  6
Continuous
 62
     7
100
AcDbLine
 10
139.1953446126
 20
56.653653287
 30
0.0
 11
140.2743671001
 21
57.73267577449999
 31
0.0
  0
LINE
  5
258
330
232
100
AcDbEntity
  8
0
  6
Continuous
 62
     7
100
AcDbLine
 10
131.1874459389
 20
49.24915239989999
 30
0.0
 11
132.7284497536
 21
50.7901562146
 31
0.0
  0
LINE
  5
259
330
232
100
AcDbEntity
  8
0
  6
Continuous
 62
     7
100
AcDbLine
 10
138.8924650128
 20
56.9541714737
 30
0.0
 11
140.1839200462
 21
58.24562650709999
 31
0.0
  0
LINE
  5
25A
330
232
100
AcDbEntity
  8
0
  6
Continuous
 62
     7
100
AcDbLine
 10
130.4548763725
 20
49.1199806201
 30
0.0
 11
131.9958801872
 21
50.66098443479999
 31
0.0
  0
LINE
  5
25B
330
232
100
AcDbEntity
  8
0
  6
Continuous
 62
     7
100
AcDbLine
 10
138.1598954463
 20
56.82499969390001
 30
0.0
 11
140.0934729922
 21
58.7585772398
 31
0.0
  0
LINE
  5
25C
330
232
100
AcDbEntity
  8
0
  6
Continuous
 62
     7
100
AcDbLine
 10
129.722306806
 20
48.99080884029999
 30
0.0
 11
131.2633106208
 21
50.53181265500001
 31
0.0
  0
LINE
  5
25D
330
232
100
AcDbEntity
  8
0
  6
Continuous
 62
     7
100
AcDbLine
 10
137.4273258799
 20
56.6958279141
 30
0.0
 11
138.4546681782
 21
57.7231702124
 31
0.0
  0
LINE
  5
25E
330
232
100
AcDbEntity
  8
0
  6
Continuous
 62
     7
100
AcDbLine
 10
138.9240034508
 20
58.192505485
 30
0.0
 11
140.0030259383
 21
59.2715279725
 31
0.0
  0
LINE
  5
25F
330
232
100
AcDbEntity
  8
0
  6
Continuous
 62
     7
100
AcDbLine
 10
128.9897372396
 20
48.8616370604
 30
0.0
 11
130.5307410544
 21
50.4026408752
 31
0.0
  0
LINE
  5
260
330
232
100
AcDbEntity
  8
0
  6
Continuous
 62
     7
100
AcDbLine
 10
136.6947563135
 20
56.5666561343
 30
0.0
 11
137.7220984022
 21
57.593998223
 31
0.0
  0
LINE
  5
261
330
232
100
AcDbEntity
  8
0
  6
Continuous
 62
     7
100
AcDbLine
 10
138.8335563968
 20
58.7054562176
 30
0.0
 11
139.9125788843
 21
59.7844787052
 31
0.0
  0
LINE
  5
262
330
232
100
AcDbEntity
  8
0
  6
Continuous
 62
     7
100
AcDbLine
 10
128.2571676732
 20
48.73246528060001
 30
0.0
 11
129.798171488
 21
50.2734690954
 31
0.0
  0
LINE
  5
263
330
232
100
AcDbEntity
  8
0
  6
Continuous
 62
     7
100
AcDbLine
 10
135.9621867471
 20
56.4374843545
 30
0.0
 11
136.9895286261
 21
57.46482623359999
 31
0.0
  0
LINE
  5
264
330
232
100
AcDbEntity
  8
0
  6
Continuous
 62
     7
100
AcDbLine
 10
138.7431093429
 20
59.2184069503
 30
0.0
 11
139.8221318304
 21
60.2974294378
 31
0.0
  0
LINE
  5
265
330
232
100
AcDbEntity
  8
0
  6
Continuous
 62
     7
100
AcDbLine
 10
127.5245981068
 20
48.6032935008
 30
0.0
 11
129.0656019216
 21
50.1442973156
 31
0.0
  0
LINE
  5
266
330
232
100
AcDbEntity
  8
0
  6
Continuous
 62
     7
100
AcDbLine
 10
135.2296171807
 20
56.3083125747
 30
0.0
 11
136.2569588501
 21
57.3356542442
 31
0.0
  0
LINE
  5
267
330
232
100
AcDbEntity
  8
0
  6
Continuous
 62
     7
100
AcDbLine
 10
138.6526622889
 20
59.731357683
 30
0.0
 11
139.7316847764
 21
60.8103801705
 31
0.0
  0
LINE
  5
268
330
232
100
AcDbEntity
  8
0
  6
Continuous
 62
     7
100
AcDbLine
 10
126.7920285404
 20
48.474121721
 30
0.0
 11
128.3330323551
 21
50.01512553579999
 31
0.0
  0
LINE
  5
269
330
232
100
AcDbEntity
  8
0
  6
Continuous
 62
     7
100
AcDbLine
 10
134.4970476142
 20
56.1791407949
 30
0.0
 11
135.5243890741
 21
57.2064822547
 31
0.0
  0
LINE
  5
26A
330
232
100
AcDbEntity
  8
0
  6
Continuous
 62
     7
100
AcDbLine
 10
138.562215235
 20
60.2443084156
 30
0.0
 11
139.6412377225
 21
61.32333090319999
 31
0.0
  0
LINE
  5
26B
330
232
100
AcDbEntity
  8
0
  6
Continuous
 62
     7
100
AcDbLine
 10
126.0594589739
 20
48.34494994119999
 30
0.0
 11
127.6004627887
 21
49.885953756
 31
0.0
  0
LINE
  5
26C
330
232
100
AcDbEntity
  8
0
  6
Continuous
 62
     7
100
AcDbLine
 10
133.7644780478
 20
56.0499690151
 30
0.0
 11
134.7918192979999
 21
57.0773102653
 31
0.0
  0
LINE
  5
26D
330
232
100
AcDbEntity
  8
0
  6
Continuous
 62
     7
100
AcDbLine
 10
138.471768181
 20
60.7572591483
 30
0.0
 11
139.5507906686
 21
61.83628163579999
 31
0.0
  0
LINE
  5
26E
330
232
100
AcDbEntity
  8
0
  6
Continuous
 62
     7
100
AcDbLine
 10
125.3268894075
 20
48.2157781614
 30
0.0
 11
126.8678932223
 21
49.75678197619999
 31
0.0
  0
LINE
  5
26F
330
232
100
AcDbEntity
  8
0
  6
Continuous
 62
     7
100
AcDbLine
 10
133.0319084814
 20
55.9207972353
 30
0.0
 11
134.059249522
 21
56.94813827589999
 31
0.0
  0
LINE
  5
270
330
232
100
AcDbEntity
  8
0
  6
Continuous
 62
     7
100
AcDbLine
 10
138.3813211271
 20
61.270209881
 30
0.0
 11
139.4603436146
 21
62.34923236850001
 31
0.0
  0
LINE
  5
271
330
232
100
AcDbEntity
  8
0
  6
Continuous
 62
     7
100
AcDbLine
 10
124.5943198411
 20
48.0866063816
 30
0.0
 11
126.1353236559
 21
49.62761019640001
 31
0.0
  0
LINE
  5
272
330
232
100
AcDbEntity
  8
0
  6
Continuous
 62
     7
100
AcDbLine
 10
132.299338915
 20
55.7916254555
 30
0.0
 11
133.326679746
 21
56.81896628649999
 31
0.0
  0
LINE
  5
273
330
232
100
AcDbEntity
  8
0
  6
Continuous
 62
     7
100
AcDbLine
 10
138.2908740731
 20
61.7831606137
 30
0.0
 11
139.3698965607
 21
62.86218310119999
 31
0.0
  0
LINE
  5
274
330
232
100
AcDbEntity
  8
0
  6
Continuous
 62
     7
100
AcDbLine
 10
123.8617502747
 20
47.9574346018
 30
0.0
 11
125.4027540895
 21
49.49843841659999
 31
0.0
  0
LINE
  5
275
330
232
100
AcDbEntity
  8
0
  6
Continuous
 62
     7
100
AcDbLine
 10
131.5667693486
 20
55.6624536757
 30
0.0
 11
132.59410997
 21
56.6897942971
 31
0.0
  0
LINE
  5
276
330
232
100
AcDbEntity
  8
0
  6
Continuous
 62
     7
100
AcDbLine
 10
138.2004270192
 20
62.2961113463
 30
0.0
 11
139.2794495067
 21
63.3751338338
 31
0.0
  0
LINE
  5
277
330
232
100
AcDbEntity
  8
0
  6
Continuous
 62
     7
100
AcDbLine
 10
123.1291807083
 20
47.828262822
 30
0.0
 11
124.6701845231
 21
49.36926663680001
 31
0.0
  0
LINE
  5
278
330
232
100
AcDbEntity
  8
0
  6
Continuous
 62
     7
100
AcDbLine
 10
130.8341997822
 20
55.53328189590001
 30
0.0
 11
131.8615401939
 21
56.5606223077
 31
0.0
  0
LINE
  5
279
330
232
100
AcDbEntity
  8
0
  6
Continuous
 62
     7
100
AcDbLine
 10
138.0255509178
 20
62.7246330315
 30
0.0
 11
139.1890024528
 21
63.8880845665
 31
0.0
  0
LINE
  5
27A
330
232
100
AcDbEntity
  8
0
  6
Continuous
 62
     7
100
AcDbLine
 10
122.3966111419
 20
47.6990910422
 30
0.0
 11
123.9376149566
 21
49.240094857
 31
0.0
  0
LINE
  5
27B
330
232
100
AcDbEntity
  8
0
  6
Continuous
 62
     7
100
AcDbLine
 10
130.1016302157
 20
55.4041101161
 30
0.0
 11
131.1289704179
 21
56.4314503182
 31
0.0
  0
LINE
  5
27C
330
232
100
AcDbEntity
  8
0
  6
Continuous
 62
     7
100
AcDbLine
 10
137.2929813514
 20
62.5954612517
 30
0.0
 11
138.8339851661
 21
64.1364650665
 31
0.0
  0
LINE
  5
27D
330
232
100
AcDbEntity
  8
0
  6
Continuous
 62
     7
100
AcDbLine
 10
121.6640415754
 20
47.5699192624
 30
0.0
 11
123.2050453902
 21
49.1109230772
 31
0.0
  0
LINE
  5
27E
330
232
100
AcDbEntity
  8
0
  6
Continuous
 62
     7
100
AcDbLine
 10
129.3690606493
 20
55.2749383363
 30
0.0
 11
130.3964006419
 21
56.3022783288
 31
0.0
  0
LINE
  5
27F
330
232
100
AcDbEntity
  8
0
  6
Continuous
 62
     7
100
AcDbLine
 10
136.5604117849
 20
62.4662894719
 30
0.0
 11
138.1014155997
 21
64.0072932867
 31
0.0
  0
LINE
  5
280
330
232
100
AcDbEntity
  8
0
  6
Continuous
 62
     7
100
AcDbLine
 10
120.931472009
 20
47.4407474826
 30
0.0
 11
122.4724758238
 21
48.9817512974
 31
0.0
  0
LINE
  5
281
330
232
100
AcDbEntity
  8
0
  6
Continuous
 62
     7
100
AcDbLine
 10
128.6364910829
 20
55.14576655649999
 30
0.0
 11
129.6638308658
 21
56.17310633939999
 31
0.0
  0
LINE
  5
282
330
232
100
AcDbEntity
  8
0
  6
Continuous
 62
     7
100
AcDbLine
 10
135.8278422185
 20
62.3371176921
 30
0.0
 11
137.3688460333
 21
63.87812150689999
 31
0.0
  0
LINE
  5
283
330
232
100
AcDbEntity
  8
0
  6
Continuous
 62
     7
100
AcDbLine
 10
120.1989024426
 20
47.31157570279999
 30
0.0
 11
121.7399062574
 21
48.85257951759999
 31
0.0
  0
LINE
  5
284
330
232
100
AcDbEntity
  8
0
  6
Continuous
 62
     7
100
AcDbLine
 10
127.9039215165
 20
55.0165947767
 30
0.0
 11
128.9312610898
 21
56.04393435
 31
0.0
  0
LINE
  5
285
330
232
100
AcDbEntity
  8
0
  6
Continuous
 62
     7
100
AcDbLine
 10
135.0952726521
 20
62.20794591229999
 30
0.0
 11
136.6362764669
 21
63.74894972709999
 31
0.0
  0
LINE
  5
286
330
232
100
AcDbEntity
  8
0
  6
Continuous
 62
     7
100
AcDbLine
 10
119.4663328762
 20
47.182403923
 30
0.0
 11
121.007336691
 21
48.72340773779999
 31
0.0
  0
LINE
  5
287
330
232
100
AcDbEntity
  8
0
  6
Continuous
 62
     7
100
AcDbLine
 10
127.1713519501
 20
54.88742299689999
 30
0.0
 11
128.1986913138
 21
55.9147623606
 31
0.0
  0
LINE
  5
288
330
232
100
AcDbEntity
  8
0
  6
Continuous
 62
     7
100
AcDbLine
 10
134.3627030857
 20
62.0787741325
 30
0.0
 11
135.9037069005
 21
63.61977794729999
 31
0.0
  0
LINE
  5
289
330
232
100
AcDbEntity
  8
0
  6
Continuous
 62
     7
100
AcDbLine
 10
118.7337633098
 20
47.05323214319999
 30
0.0
 11
120.2747671245
 21
48.5942359579
 31
0.0
  0
LINE
  5
28A
330
232
100
AcDbEntity
  8
0
  6
Continuous
 62
     7
100
AcDbLine
 10
126.4387823837
 20
54.7582512171
 30
0.0
 11
127.4661215378
 21
55.7855903712
 31
0.0
  0
LINE
  5
28B
330
232
100
AcDbEntity
  8
0
  6
Continuous
 62
     7
100
AcDbLine
 10
133.6301335193
 20
61.9496023527
 30
0.0
 11
135.1711373341
 21
63.4906061675
 31
0.0
  0
LINE
  5
28C
330
232
100
AcDbEntity
  8
0
  6
Continuous
 62
     7
100
AcDbLine
 10
118.0011937433
 20
46.9240603634
 30
0.0
 11
119.5421975581
 21
48.46506417810001
 31
0.0
  0
LINE
  5
28D
330
232
100
AcDbEntity
  8
0
  6
Continuous
 62
     7
100
AcDbLine
 10
125.7062128172
 20
54.62907943729999
 30
0.0
 11
126.7335517617
 21
55.6564183817
 31
0.0
  0
LINE
  5
28E
330
232
100
AcDbEntity
  8
0
  6
Continuous
 62
     7
100
AcDbLine
 10
132.8975639529
 20
61.8204305729
 30
0.0
 11
134.4385677676
 21
63.3614343877
 31
0.0
  0
LINE
  5
28F
330
232
100
AcDbEntity
  8
0
  6
Continuous
 62
     7
100
AcDbLine
 10
117.2686241769
 20
46.7948885836
 30
0.0
 11
118.8096279917
 21
48.3358923983
 31
0.0
  0
LINE
  5
290
330
232
100
AcDbEntity
  8
0
  6
Continuous
 62
     7
100
AcDbLine
 10
124.9736432508
 20
54.49990765739999
 30
0.0
 11
126.0009819857
 21
55.5272463923
 31
0.0
  0
LINE
  5
291
330
232
100
AcDbEntity
  8
0
  6
Continuous
 62
     7
100
AcDbLine
 10
132.1649943864
 20
61.69125879310001
 30
0.0
 11
133.7059982012
 21
63.2322626079
 31
0.0
  0
LINE
  5
292
330
232
100
AcDbEntity
  8
0
  6
Continuous
 62
     7
100
AcDbLine
 10
116.5360546105
 20
46.6657168038
 30
0.0
 11
118.0770584253
 21
48.2067206185
 31
0.0
  0
LINE
  5
293
330
232
100
AcDbEntity
  8
0
  6
Continuous
 62
     7
100
AcDbLine
 10
124.2410736844
 20
54.3707358776
 30
0.0
 11
125.2684122097
 21
55.3980744029
 31
0.0
  0
LINE
  5
294
330
232
100
AcDbEntity
  8
0
  6
Continuous
 62
     7
100
AcDbLine
 10
131.43242482
 20
61.5620870133
 30
0.0
 11
132.9734286348
 21
63.10309082799999
 31
0.0
  0
LINE
  5
295
330
232
100
AcDbEntity
  8
0
  6
Continuous
 62
     7
100
AcDbLine
 10
115.984733838
 20
46.7177938178
 30
0.0
 11
117.3444888589
 21
48.0775488387
 31
0.0
  0
LINE
  5
296
330
232
100
AcDbEntity
  8
0
  6
Continuous
 62
     7
100
AcDbLine
 10
123.508504118
 20
54.2415640978
 30
0.0
 11
124.5358424336
 21
55.2689024135
 31
0.0
  0
LINE
  5
297
330
232
100
AcDbEntity
  8
0
  6
Continuous
 62
     7
100
AcDbLine
 10
130.6998552536
 20
61.43291523350001
 30
0.0
 11
132.2408590684
 21
62.97391904819999
 31
0.0
  0
LINE
  5
298
330
232
100
AcDbEntity
  8
0
  6
Continuous
 62
     7
100
AcDbLine
 10
115.894286784
 20
47.23074455049999
 30
0.0
 11
116.9733092716
 21
48.30976703800001
 31
0.0
  0
LINE
  5
299
330
232
100
AcDbEntity
  8
0
  6
Continuous
 62
     7
100
AcDbLine
 10
122.7759345516
 20
54.112392318
 30
0.0
 11
123.8032726576
 21
55.1397304241
 31
0.0
  0
LINE
  5
29A
330
232
100
AcDbEntity
  8
0
  6
Continuous
 62
     7
100
AcDbLine
 10
129.9672856872
 20
61.3037434537
 30
0.0
 11
131.508289502
 21
62.8447472684
 31
0.0
  0
LINE
  5
29B
330
232
100
AcDbEntity
  8
0
  6
Continuous
 62
     7
100
AcDbLine
 10
115.8038397301
 20
47.7436952832
 30
0.0
 11
116.8828622176
 21
48.82271777069999
 31
0.0
  0
LINE
  5
29C
330
232
100
AcDbEntity
  8
0
  6
Continuous
 62
     7
100
AcDbLine
 10
122.0433649851
 20
53.98322053819999
 30
0.0
 11
123.0707028816
 21
55.0105584347
 31
0.0
  0
LINE
  5
29D
330
232
100
AcDbEntity
  8
0
  6
Continuous
 62
     7
100
AcDbLine
 10
129.2347161208
 20
61.1745716739
 30
0.0
 11
130.7757199355
 21
62.71557548859999
 31
0.0
  0
LINE
  5
29E
330
232
100
AcDbEntity
  8
0
  6
Continuous
 62
     7
100
AcDbLine
 10
115.7133926762
 20
48.2566460159
 30
0.0
 11
116.7924151637
 21
49.3356685034
 31
0.0
  0
LINE
  5
29F
330
232
100
AcDbEntity
  8
0
  6
Continuous
 62
     7
100
AcDbLine
 10
121.3107954187
 20
53.8540487584
 30
0.0
 11
122.3381331056
 21
54.88138644520001
 31
0.0
  0
LINE
  5
2A0
330
232
100
AcDbEntity
  8
0
  6
Continuous
 62
     7
100
AcDbLine
 10
128.5021465544
 20
61.045399894
 30
0.0
 11
130.0431503691
 21
62.5864037088
 31
0.0
  0
LINE
  5
2A1
330
232
100
AcDbEntity
  8
0
  6
Continuous
 62
     7
100
AcDbLine
 10
115.6229456222
 20
48.76959674850001
 30
0.0
 11
116.7019681097
 21
49.848619236
 31
0.0
  0
LINE
  5
2A2
330
232
100
AcDbEntity
  8
0
  6
Continuous
 62
     7
100
AcDbLine
 10
120.5782258523
 20
53.72487697859999
 30
0.0
 11
121.6055633295
 21
54.7522144558
 31
0.0
  0
LINE
  5
2A3
330
232
100
AcDbEntity
  8
0
  6
Continuous
 62
     7
100
AcDbLine
 10
127.7695769879
 20
60.9162281142
 30
0.0
 11
129.3105808027
 21
62.45723192899999
 31
0.0
  0
LINE
  5
2A4
330
232
100
AcDbEntity
  8
0
  6
Continuous
 62
     7
100
AcDbLine
 10
115.5324985683
 20
49.2825474812
 30
0.0
 11
116.6115210558
 21
50.36156996869999
 31
0.0
  0
LINE
  5
2A5
330
232
100
AcDbEntity
  8
0
  6
Continuous
 62
     7
100
AcDbLine
 10
119.8456562859
 20
53.5957051988
 30
0.0
 11
120.8729935535
 21
54.6230424664
 31
0.0
  0
LINE
  5
2A6
330
232
100
AcDbEntity
  8
0
  6
Continuous
 62
     7
100
AcDbLine
 10
127.0370074215
 20
60.7870563344
 30
0.0
 11
128.5780112363
 21
62.3280601492
 31
0.0
  0
LINE
  5
2A7
330
232
100
AcDbEntity
  8
0
  6
Continuous
 62
     7
100
AcDbLine
 10
115.4420515143
 20
49.7954982139
 30
0.0
 11
116.5210740018
 21
50.8745207014
 31
0.0
  0
LINE
  5
2A8
330
232
100
AcDbEntity
  8
0
  6
Continuous
 62
     7
100
AcDbLine
 10
119.1130867195
 20
53.46653341899999
 30
0.0
 11
120.1404237775
 21
54.493870477
 31
0.0
  0
LINE
  5
2A9
330
232
100
AcDbEntity
  8
0
  6
Continuous
 62
     7
100
AcDbLine
 10
126.3044378551
 20
60.6578845546
 30
0.0
 11
127.8454416699
 21
62.1988883694
 31
0.0
  0
LINE
  5
2AA
330
232
100
AcDbEntity
  8
0
  6
Continuous
 62
     7
100
AcDbLine
 10
115.3516044604
 20
50.30844894649999
 30
0.0
 11
116.4306269479
 21
51.38747143399999
 31
0.0
  0
LINE
  5
2AB
330
232
100
AcDbEntity
  8
0
  6
Continuous
 62
     7
100
AcDbLine
 10
118.3805171531
 20
53.3373616392
 30
0.0
 11
119.4078540014
 21
54.3646984876
 31
0.0
  0
LINE
  5
2AC
330
232
100
AcDbEntity
  8
0
  6
Continuous
 62
     7
100
AcDbLine
 10
125.5718682887
 20
60.5287127748
 30
0.0
 11
127.1128721035
 21
62.0697165896
 31
0.0
  0
LINE
  5
2AD
330
232
100
AcDbEntity
  8
0
  6
Continuous
 62
     7
100
AcDbLine
 10
115.2611574064
 20
50.82139967919999
 30
0.0
 11
116.340179894
 21
51.90042216670001
 31
0.0
  0
LINE
  5
2AE
330
232
100
AcDbEntity
  8
0
  6
Continuous
 62
     7
100
AcDbLine
 10
117.6479475866
 20
53.20818985939999
 30
0.0
 11
118.6752842254
 21
54.23552649819999
 31
0.0
  0
LINE
  5
2AF
330
232
100
AcDbEntity
  8
0
  6
Continuous
 62
     7
100
AcDbLine
 10
124.8392987223
 20
60.399540995
 30
0.0
 11
126.380302537
 21
61.9405448098
 31
0.0
  0
LINE
  5
2B0
330
232
100
AcDbEntity
  8
0
  6
Continuous
 62
     7
100
AcDbLine
 10
115.1707103525
 20
51.3343504119
 30
0.0
 11
116.24973284
 21
52.41337289939999
 31
0.0
  0
LINE
  5
2B1
330
232
100
AcDbEntity
  8
0
  6
Continuous
 62
     7
100
AcDbLine
 10
116.9153780202
 20
53.0790180796
 30
0.0
 11
117.9427144494
 21
54.1063545088
 31
0.0
  0
LINE
  5
2B2
330
232
100
AcDbEntity
  8
0
  6
Continuous
 62
     7
100
AcDbLine
 10
124.1067291558
 20
60.2703692152
 30
0.0
 11
125.6477329706
 21
61.81137302999999
 31
0.0
  0
LINE
  5
2B3
330
232
100
AcDbEntity
  8
0
  6
Continuous
 62
     7
100
AcDbLine
 10
115.0802632986
 20
51.8473011445
 30
0.0
 11
116.1592857861
 21
52.9263236321
 31
0.0
  0
LINE
  5
2B4
330
232
100
AcDbEntity
  8
0
  6
Continuous
 62
     7
100
AcDbLine
 10
116.1828084538
 20
52.9498462998
 30
0.0
 11
117.2101446734
 21
53.9771825193
 31
0.0
  0
LINE
  5
2B5
330
232
100
AcDbEntity
  8
0
  6
Continuous
 62
     7
100
AcDbLine
 10
123.3741595894
 20
60.1411974354
 30
0.0
 11
124.9151634042
 21
61.6822012502
 31
0.0
  0
LINE
  5
2B6
330
232
100
AcDbEntity
  8
0
  6
Continuous
 62
     7
100
AcDbLine
 10
114.9898162446
 20
52.3602518772
 30
0.0
 11
116.4775748973
 21
53.84801052989999
 31
0.0
  0
LINE
  5
2B7
330
232
100
AcDbEntity
  8
0
  6
Continuous
 62
     7
100
AcDbLine
 10
122.641590023
 20
60.0120256556
 30
0.0
 11
124.1825938378
 21
61.5530294704
 31
0.0
  0
LINE
  5
2B8
330
232
100
AcDbEntity
  8
0
  6
Continuous
 62
     7
100
AcDbLine
 10
114.8993691907
 20
52.8732026099
 30
0.0
 11
115.9783916782
 21
53.95222509739999
 31
0.0
  0
LINE
  5
2B9
330
232
100
AcDbEntity
  8
0
  6
Continuous
 62
     7
100
AcDbLine
 10
121.9090204566
 20
59.8828538758
 30
0.0
 11
123.4500242714
 21
61.4238576906
 31
0.0
  0
LINE
  5
2BA
330
232
100
AcDbEntity
  8
0
  6
Continuous
 62
     7
100
AcDbLine
 10
114.8089221367
 20
53.3861533425
 30
0.0
 11
115.8879446242
 21
54.4651758301
 31
0.0
  0
LINE
  5
2BB
330
232
100
AcDbEntity
  8
0
  6
Continuous
 62
     7
100
AcDbLine
 10
121.1764508902
 20
59.753682096
 30
0.0
 11
122.717454705
 21
61.2946859108
 31
0.0
  0
LINE
  5
2BC
330
232
100
AcDbEntity
  8
0
  6
Continuous
 62
     7
100
AcDbLine
 10
114.7184750828
 20
53.89910407520001
 30
0.0
 11
115.7974975703
 21
54.9781265627
 31
0.0
  0
LINE
  5
2BD
330
232
100
AcDbEntity
  8
0
  6
Continuous
 62
     7
100
AcDbLine
 10
120.4438813238
 20
59.6245103162
 30
0.0
 11
121.9848851385
 21
61.165514131
 31
0.0
  0
LINE
  5
2BE
330
232
100
AcDbEntity
  8
0
  6
Continuous
 62
     7
100
AcDbLine
 10
114.6280280288
 20
54.41205480789999
 30
0.0
 11
115.7070505164
 21
55.4910772954
 31
0.0
  0
LINE
  5
2BF
330
232
100
AcDbEntity
  8
0
  6
Continuous
 62
     7
100
AcDbLine
 10
119.7113117573
 20
59.49533853640001
 30
0.0
 11
121.2523155721
 21
61.0363423512
 31
0.0
  0
LINE
  5
2C0
330
232
100
AcDbEntity
  8
0
  6
Continuous
 62
     7
100
AcDbLine
 10
114.5375809749
 20
54.9250055405
 30
0.0
 11
115.6166034624
 21
56.0040280281
 31
0.0
  0
LINE
  5
2C1
330
232
100
AcDbEntity
  8
0
  6
Continuous
 62
     7
100
AcDbLine
 10
118.9787421909
 20
59.3661667566
 30
0.0
 11
120.5197460057
 21
60.9071705714
 31
0.0
  0
LINE
  5
2C2
330
232
100
AcDbEntity
  8
0
  6
Continuous
 62
     7
100
AcDbLine
 10
114.4471339209
 20
55.43795627319999
 30
0.0
 11
115.5261564085
 21
56.5169787607
 31
0.0
  0
LINE
  5
2C3
330
232
100
AcDbEntity
  8
0
  6
Continuous
 62
     7
100
AcDbLine
 10
118.2461726245
 20
59.23699497680001
 30
0.0
 11
119.7871764393
 21
60.77799879149999
 31
0.0
  0
LINE
  5
2C4
330
232
100
AcDbEntity
  8
0
  6
Continuous
 62
     7
100
AcDbLine
 10
114.356686867
 20
55.9509070059
 30
0.0
 11
115.4357093545
 21
57.0299294934
 31
0.0
  0
LINE
  5
2C5
330
232
100
AcDbEntity
  8
0
  6
Continuous
 62
     7
100
AcDbLine
 10
117.5136030581
 20
59.107823197
 30
0.0
 11
119.0546068729
 21
60.6488270117
 31
0.0
  0
LINE
  5
2C6
330
232
100
AcDbEntity
  8
0
  6
Continuous
 62
     7
100
AcDbLine
 10
114.2662398131
 20
56.4638577386
 30
0.0
 11
115.3452623006
 21
57.54288022609999
 31
0.0
  0
LINE
  5
2C7
330
232
100
AcDbEntity
  8
0
  6
Continuous
 62
     7
100
AcDbLine
 10
116.7810334917
 20
58.9786514172
 30
0.0
 11
118.3220373064
 21
60.51965523189999
 31
0.0
  0
LINE
  5
2C8
330
232
100
AcDbEntity
  8
0
  6
Continuous
 62
     7
100
AcDbLine
 10
114.1757927591
 20
56.9768084712
 30
0.0
 11
115.2548152466
 21
58.0558309587
 31
0.0
  0
LINE
  5
2C9
330
232
100
AcDbEntity
  8
0
  6
Continuous
 62
     7
100
AcDbLine
 10
116.0484639252
 20
58.8494796374
 30
0.0
 11
117.58946774
 21
60.3904834521
 31
0.0
  0
LINE
  5
2CA
330
232
100
AcDbEntity
  8
0
  6
Continuous
 62
     7
100
AcDbLine
 10
114.0853457052
 20
57.4897592039
 30
0.0
 11
115.1643681927
 21
58.5687816914
 31
0.0
  0
LINE
  5
2CB
330
232
100
AcDbEntity
  8
0
  6
Continuous
 62
     7
100
AcDbLine
 10
115.3158943588
 20
58.7203078575
 30
0.0
 11
116.8568981736
 21
60.26131167229999
 31
0.0
  0
LINE
  5
2CC
330
232
100
AcDbEntity
  8
0
  6
Continuous
 62
     7
100
AcDbLine
 10
113.9948986512
 20
58.00270993659999
 30
0.0
 11
116.1243286072
 21
60.1321398925
 31
0.0
  0
LINE
  5
2CD
330
232
100
AcDbEntity
  8
0
  6
Continuous
 62
     7
100
AcDbLine
 10
113.9044515973
 20
58.5156606692
 30
0.0
 11
115.3917590408
 21
60.00296811270001
 31
0.0
  0
LINE
  5
2CE
330
232
100
AcDbEntity
  8
0
  6
Continuous
 62
     7
100
AcDbLine
 10
113.8140045433
 20
59.02861140189999
 30
0.0
 11
114.6591894744
 21
59.8737963329
 31
0.0
  0
LINE
  5
2CF
330
232
100
AcDbEntity
  8
0
  6
Continuous
 62
     7
100
AcDbLine
 10
113.7235574894
 20
59.5415621346
 30
0.0
 11
113.9266199079
 21
59.7446245531
 31
0.0
  0
ENDBLK
  5
2D0
330
232
100
AcDbEntity
  8
0
  6
ByBlock
 62
     0
100
AcDbBlockEnd
  0
BLOCK
  5
2D1
330
233
100
AcDbEntity
  8
0
  6
Continuous
 62
     7
100
AcDbBlockBegin
  2
SYMBOL_5_BL3
 70
     0
 10
53.1149315402
 20
72.85138168500001
 30
0.0
  3
SYMBOL_5_BL3
  1

  0
TEXT
  5
2D2
330
233
100
AcDbEntity
  8
0
  6
Continuous
 62
     7
100
AcDbText
 10
52.5865362729
 20
72.184714759
 30
0.0
 40
1.333333852099999
  1
L
  7
TEXTSTYLE_2
100
AcDbText
  0
ELLIPSE
  5
2D3
330
233
100
AcDbEntity
  8
0
  6
Continuous
 62
     7
100
AcDbEllipse
 10
53.1149315402
 20
72.85138168500001
 30
0.0
 11
-1.942887567899999
 21
0.0
 31
0.0
210
0.0
220
0.0
230
1.0
 40
0.6606458385
 41
0.0
 42
6.283185307179586
  0
ENDBLK
  5
2D4
330
233
100
AcDbEntity
  8
0
  6
ByBlock
 62
     0
100
AcDbBlockEnd
  0
BLOCK
  5
2D5
330
234
100
AcDbEntity
  8
0
  6
Continuous
 62
     7
100
AcDbBlockBegin
  2
SYMBOL_4_BL2
 70
     0
 10
41.4479652582
 20
97.00153928010001
 30
0.0
  3
SYMBOL_4_BL2
  1

  0
TEXT
  5
2D6
330
234
100
AcDbEntity
  8
0
  6
Continuous
 62
     7
100
AcDbText
 10
40.95976650319999
 20
96.2771557027
 30
0.0
 40
1.333333852099999
  1
L
 50
5.0
  7
TEXTSTYLE_2
100
AcDbText
  0
TEXT
  5
2D7
330
234
100
AcDbEntity
  8
0
  6
Continuous
 62
     7
100
AcDbText
 10
37.2881195132
 20
95.96838645
 30
0.0
 40
1.333333852099999
  1
5
 50
5.0
  7
TEXTSTYLE_2
100
AcDbText
  0
TEXT
  5
2D8
330
234
100
AcDbEntity
  8
0
  6
Continuous
 62
     7
100
AcDbText
 10
44.70568595109999
 20
96.6173394243
 30
0.0
 40
1.333333852099999
  1
4
 50
5.0
  7
TEXTSTYLE_2
100
AcDbText
  0
ELLIPSE
  5
2D9
330
234
100
AcDbEntity
  8
0
  6
Continuous
 62
     7
100
AcDbEllipse
 10
41.4280472159
 20
96.98733844180001
 30
0.0
 11
-1.9354942941
 21
-0.1693338091
 31
0.0
210
0.0
220
0.0
230
1.0
 40
0.6606458385
 41
0.0
 42
6.283185307179586
  0
ENDBLK
  5
2DA
330
234
100
AcDbEntity
  8
0
  6
ByBlock
 62
     0
100
AcDbBlockEnd
  0
BLOCK
  5
2DB
330
235
100
AcDbEntity
  8
0
  6
Continuous
 62
     7
100
AcDbBlockBegin
  2
SYMBOL_2_BL1
 70
     0
 10
64.7461302513
 20
97.10891137870001
 30
0.0
  3
SYMBOL_2_BL1
  1

  0
TEXT
  5
2DC
330
235
100
AcDbEntity
  8
0
  6
Continuous
 62
     7
100
AcDbText
 10
64.1395604442
 20
96.48030763969998
 30
0.0
 40
1.333333852099999
  1
L
 50
355.0
  7
TEXTSTYLE_2
100
AcDbText
  0
TEXT
  5
2DD
330
235
100
AcDbEntity
  8
0
  6
Continuous
 62
     7
100
AcDbText
 10
60.4700768041
 20
96.81380409450001
 30
0.0
 40
1.333333852099999
  1
4
 50
355.0
  7
TEXTSTYLE_2
100
AcDbText
  0
TEXT
  5
2DE
330
235
100
AcDbEntity
  8
0
  6
Continuous
 62
     7
100
AcDbText
 10
67.88764324199999
 20
96.1648511203
 30
0.0
 40
1.333333852099999
  1
5
 50
355.0
  7
TEXTSTYLE_2
100
AcDbText
  0
ELLIPSE
  5
2DF
330
235
100
AcDbEntity
  8
0
  6
Continuous
 62
     7
100
AcDbEllipse
 10
64.72404885909999
 20
97.0983850148
 30
0.0
 11
-1.9354942941
 21
0.1693338091
 31
0.0
210
0.0
220
0.0
230
1.0
 40
0.6606458385
 41
0.0
 42
6.283185307179586
  0
ENDBLK
  5
2E0
330
235
100
AcDbEntity
  8
0
  6
ByBlock
 62
     0
100
AcDbBlockEnd
  0
BLOCK
  5
2E1
330
236
100
AcDbEntity
  8
0
  6
Continuous
 62
     7
100
AcDbBlockBegin
  2
SYMBOL_8_BL0
 70
     0
 10
160.6670946139
 20
55.3334888088
 30
0.0
  3
SYMBOL_8_BL0
  1

  0
TEXT
  5
2E2
330
236
100
AcDbEntity
  8
0
  6
Continuous
 62
     7
100
AcDbText
 10
144.4193095377
 20
63.10692219989999
 30
0.0
 40
0.5
  1
Infomations Techniques/Technical Infomations
  7
TEXTSTYLE_2
100
AcDbText
  0
TEXT
  5
2E3
330
236
100
AcDbEntity
  8
0
  6
Continuous
 62
     7
100
AcDbText
 10
144.6670946139
 20
61.6668221421
 30
0.0
 40
0.6666666667
  1
NOMBRE DE JETS:     
  7
TEXTSTYLE_2
100
AcDbText
  0
TEXT
  5
2E4
330
236
100
AcDbEntity
  8
0
  6
Continuous
 62
     7
100
AcDbText
 10
154.5115390583
 20
61.6668221421
 30
0.0
 40
0.6666666667
  1
38
  7
TEXTSTYLE_2
100
AcDbText
  0
TEXT
  5
2E5
330
236
100
AcDbEntity
  8
0
  6
Continuous
 62
     7
100
AcDbText
 10
144.6670946139
 20
60.6668221421
 30
0.0
 40
0.6666666667
  1
 
  7
TEXTSTYLE_2
100
AcDbText
  0
TEXT
  5
2E6
330
236
100
AcDbEntity
  8
0
  6
Continuous
 62
     7
100
AcDbText
 10
144.6670946139
 20
59.6668221421
 30
0.0
 40
0.6666666667
  1
NIVEAU D'EAU              GALLONS(US)        LITRES        GALLONS(UK)
  7
TEXTSTYLE_2
100
AcDbText
  0
TEXT
  5
2E7
330
236
100
AcDbEntity
  8
0
  6
Continuous
 62
     7
100
AcDbText
 10
144.6670946139
 20
58.6668221421
 30
0.0
 40
0.6666666667
  1
PLEIN
  7
TEXTSTYLE_2
100
AcDbText
  0
TEXT
  5
2E8
330
236
100
AcDbEntity
  8
0
  6
Continuous
 62
     7
100
AcDbText
 10
144.6670946139
 20
57.6668221421
 30
0.0
 40
0.6666666667
  1
HAUT T.PLEIN
  7
TEXTSTYLE_2
100
AcDbText
  0
TEXT
  5
2E9
330
236
100
AcDbEntity
  8
0
  6
Continuous
 62
     7
100
AcDbText
 10
144.6670946139
 20
56.6668221421
 30
0.0
 40
0.6666666667
  1
MILIEU T.PLEIN
  7
TEXTSTYLE_2
100
AcDbText
  0
TEXT
  5
2EA
330
236
100
AcDbEntity
  8
0
  6
Continuous
 62
     7
100
AcDbText
 10
144.6670946139
 20
55.6668221421
 30
0.0
 40
0.6666666667
  1
BAS T.PLEIN
  7
TEXTSTYLE_2
100
AcDbText
  0
TEXT
  5
2EB
330
236
100
AcDbEntity
  8
0
  6
Continuous
 62
     7
100
AcDbText
 10
144.6670946139
 20
54.6668221421
 30
0.0
 40
0.6666666667
  1
3" EN BAS T.PLEIN
  7
TEXTSTYLE_2
100
AcDbText
  0
TEXT
  5
2EC
330
236
100
AcDbEntity
  8
0
  6
Continuous
 62
     7
100
AcDbText
 10
144.6670946139
 20
53.6668221421
 30
0.0
 40
0.6666666667
  1
 
  7
TEXTSTYLE_2
100
AcDbText
  0
TEXT
  5
2ED
330
236
100
AcDbEntity
  8
0
  6
Continuous
 62
     7
100
AcDbText
 10
144.4669331082
 20
53.12003521729999
 30
0.0
 40
0.5
  1
Legende/Legend
  7
TEXTSTYLE_2
100
AcDbText
  0
TEXT
  5
2EE
330
236
100
AcDbEntity
  8
0
  6
Continuous
 62
     7
100
AcDbText
 10
150.9957680523
 20
51.6087702396
 30
0.0
 40
0.6666666667
  1
ZONE DE ROBINETTERIE
  7
TEXTSTYLE_2
100
AcDbText
  0
TEXT
  5
2EF
330
236
100
AcDbEntity
  8
0
  6
Continuous
 62
     7
100
AcDbText
 10
145.9160434854
 20
50.1135257252
 30
0.0
 40
0.6666666667
  1
L   :  SYSTEME LED       DC   :  DOUBLE DOSSIER CHAUFFANT
  7
TEXTSTYLE_2
100
AcDbText
  0
TEXT
  5
2F0
330
236
100
AcDbEntity
  8
0
  6
Continuous
 62
     7
100
AcDbText
 10
145.9160434854
 20
48.78019239189999
 30
0.0
 40
0.6666666667
  1
C   :  CONTROLE
  7
TEXTSTYLE_2
100
AcDbText
  0
TEXT
  5
2F1
330
236
100
AcDbEntity
  8
0
  6
Continuous
 62
     7
100
AcDbText
 10
145.9160434854
 20
47.44685905859999
 30
0.0
 40
0.6666666667
  1
T   :  MOTEUR
  7
TEXTSTYLE_2
100
AcDbText
  0
TEXT
  5
2F2
330
236
100
AcDbEntity
  8
0
  6
Continuous
 62
     7
100
AcDbText
 10
157.4997913132
 20
58.6668221421
 30
0.0
 40
0.6666666667
  1
98
  7
TEXTSTYLE_2
100
AcDbText
  0
TEXT
  5
2F3
330
236
100
AcDbEntity
  8
0
  6
Continuous
 62
     7
100
AcDbText
 10
157.4997913132
 20
57.6668221421
 30
0.0
 40
0.6666666667
  1
75
  7
TEXTSTYLE_2
100
AcDbText
  0
TEXT
  5
2F4
330
236
100
AcDbEntity
  8
0
  6
Continuous
 62
     7
100
AcDbText
 10
157.4997913132
 20
56.6668221421
 30
0.0
 40
0.6666666667
  1
73
  7
TEXTSTYLE_2
100
AcDbText
  0
TEXT
  5
2F5
330
236
100
AcDbEntity
  8
0
  6
Continuous
 62
     7
100
AcDbText
 10
157.4997913132
 20
55.6668221421
 30
0.0
 40
0.6666666667
  1
72
  7
TEXTSTYLE_2
100
AcDbText
  0
TEXT
  5
2F6
330
236
100
AcDbEntity
  8
0
  6
Continuous
 62
     7
100
AcDbText
 10
157.4997913132
 20
54.6668221421
 30
0.0
 40
0.6666666667
  1
55
  7
TEXTSTYLE_2
100
AcDbText
  0
TEXT
  5
2F7
330
236
100
AcDbEntity
  8
0
  6
Continuous
 62
     7
100
AcDbText
 10
164.4199972569
 20
58.68390154430001
 30
0.0
 40
0.6666666667
  1
371
  7
TEXTSTYLE_2
100
AcDbText
  0
TEXT
  5
2F8
330
236
100
AcDbEntity
  8
0
  6
Continuous
 62
     7
100
AcDbText
 10
164.4199972569
 20
57.68390154430001
 30
0.0
 40
0.6666666667
  1
282
  7
TEXTSTYLE_2
100
AcDbText
  0
TEXT
  5
2F9
330
236
100
AcDbEntity
  8
0
  6
Continuous
 62
     7
100
AcDbText
 10
164.4199972569
 20
56.6839015443
 30
0.0
 40
0.6666666667
  1
278
  7
TEXTSTYLE_2
100
AcDbText
  0
TEXT
  5
2FA
330
236
100
AcDbEntity
  8
0
  6
Continuous
 62
     7
100
AcDbText
 10
164.4199972569
 20
55.68390154430001
 30
0.0
 40
0.6666666667
  1
273
  7
TEXTSTYLE_2
100
AcDbText
  0
TEXT
  5
2FB
330
236
100
AcDbEntity
  8
0
  6
Continuous
 62
     7
100
AcDbText
 10
164.4199972569
 20
54.6839015443
 30
0.0
 40
0.6666666667
  1
208
  7
TEXTSTYLE_2
100
AcDbText
  0
TEXT
  5
2FC
330
236
100
AcDbEntity
  8
0
  6
Continuous
 62
     7
100
AcDbText
 10
171.3646361944
 20
58.6668221421
 30
0.0
 40
0.6666666667
  1
82
  7
TEXTSTYLE_2
100
AcDbText
  0
TEXT
  5
2FD
330
236
100
AcDbEntity
  8
0
  6
Continuous
 62
     7
100
AcDbText
 10
171.3646361944
 20
57.6668221421
 30
0.0
 40
0.6666666667
  1
62
  7
TEXTSTYLE_2
100
AcDbText
  0
TEXT
  5
2FE
330
236
100
AcDbEntity
  8
0
  6
Continuous
 62
     7
100
AcDbText
 10
171.3646361944
 20
56.6668221421
 30
0.0
 40
0.6666666667
  1
61
  7
TEXTSTYLE_2
100
AcDbText
  0
TEXT
  5
2FF
330
236
100
AcDbEntity
  8
0
  6
Continuous
 62
     7
100
AcDbText
 10
171.3646361944
 20
55.6668221421
 30
0.0
 40
0.6666666667
  1
60
  7
TEXTSTYLE_2
100
AcDbText
  0
TEXT
  5
300
330
236
100
AcDbEntity
  8
0
  6
Continuous
 62
     7
100
AcDbText
 10
171.3646361944
 20
54.6668221421
 30
0.0
 40
0.6666666667
  1
46
  7
TEXTSTYLE_2
100
AcDbText
  0
LINE
  5
301
330
236
100
AcDbEntity
  8
0
  6
Continuous
 62
     7
100
AcDbLine
 10
144.0004279472
 20
64.00015547550001
 30
0.0
 11
144.0004279472
 21
46.6668221421
 31
0.0
  0
LINE
  5
302
330
236
100
AcDbEntity
  8
0
  6
Continuous
 62
     7
100
AcDbLine
 10
144.0004279472
 20
64.00015547550001
 30
0.0
 11
177.3337612805
 21
64.00015547550001
 31
0.0
  0
LINE
  5
303
330
236
100
AcDbEntity
  8
0
  6
Continuous
 62
     7
100
AcDbLine
 10
177.3337612805
 20
64.00015547550001
 30
0.0
 11
177.3337612805
 21
46.6668221421
 31
0.0
  0
LINE
  5
304
330
236
100
AcDbEntity
  8
0
  6
Continuous
 62
     7
100
AcDbLine
 10
144.0004279472
 20
46.6668221421
 30
0.0
 11
177.3337612805
 21
46.6668221421
 31
0.0
  0
LINE
  5
305
330
236
100
AcDbEntity
  8
0
  6
Continuous
 62
     7
100
AcDbLine
 10
145.3337612805
 20
54.0001554755
 30
0.0
 11
176.0004279472
 21
54.0001554755
 31
0.0
  0
LINE
  5
306
330
236
100
AcDbEntity
  8
0
  6
Continuous
 62
     7
100
AcDbLine
 10
145.3337612805
 20
61.0001554755
 30
0.0
 11
176.0004279472
 21
61.0001554755
 31
0.0
  0
LINE
  5
307
330
236
100
AcDbEntity
  8
0
  6
Continuous
 62
     7
100
AcDbLine
 10
144.8093345065
 20
52.37831997979999
 30
0.0
 11
144.4403137641
 21
52.0092992375
 31
0.0
  0
LINE
  5
308
330
236
100
AcDbEntity
  8
0
  6
Continuous
 62
     7
100
AcDbLine
 10
145.4760011731
 20
52.37831997979999
 30
0.0
 11
144.6779853827
 21
51.5803041894
 31
0.0
  0
LINE
  5
309
330
236
100
AcDbEntity
  8
0
  6
Continuous
 62
     7
100
AcDbLine
 10
146.1426678398
 20
52.37831997979999
 30
0.0
 11
145.3446520494
 21
51.5803041894
 31
0.0
  0
LINE
  5
30A
330
236
100
AcDbEntity
  8
0
  6
Continuous
 62
     7
100
AcDbLine
 10
146.8093345065
 20
52.37831997979999
 30
0.0
 11
146.011318716
 21
51.5803041894
 31
0.0
  0
LINE
  5
30B
330
236
100
AcDbEntity
  8
0
  6
Continuous
 62
     7
100
AcDbLine
 10
147.4760011731
 20
52.37831997979999
 30
0.0
 11
146.6779853827
 21
51.5803041894
 31
0.0
  0
LINE
  5
30C
330
236
100
AcDbEntity
  8
0
  6
Continuous
 62
     7
100
AcDbLine
 10
148.1426678398
 20
52.37831997979999
 30
0.0
 11
147.3446520494
 21
51.5803041894
 31
0.0
  0
LINE
  5
30D
330
236
100
AcDbEntity
  8
0
  6
Continuous
 62
     7
100
AcDbLine
 10
148.8093345065
 20
52.37831997979999
 30
0.0
 11
148.011318716
 21
51.5803041894
 31
0.0
  0
LINE
  5
30E
330
236
100
AcDbEntity
  8
0
  6
Continuous
 62
     7
100
AcDbLine
 10
149.4760011731
 20
52.37831997979999
 30
0.0
 11
148.6779853827
 21
51.5803041894
 31
0.0
  0
LINE
  5
30F
330
236
100
AcDbEntity
  8
0
  6
Continuous
 62
     7
100
AcDbLine
 10
150.1426678398
 20
52.37831997979999
 30
0.0
 11
149.3446520494
 21
51.5803041894
 31
0.0
  0
LINE
  5
310
330
236
100
AcDbEntity
  8
0
  6
Continuous
 62
     7
100
AcDbLine
 10
150.5861552739
 20
52.15514074729999
 30
0.0
 11
150.011318716
 21
51.5803041894
 31
0.0
  0
ELLIPSE
  5
311
330
236
100
AcDbEntity
  8
0
  6
Continuous
 62
     7
100
AcDbEllipse
 10
146.1458304294
 20
50.4311031824
 30
0.0
 11
1.0473539356
 21
0.0
 31
0.0
210
0.0
220
0.0
230
1.0
 40
0.4938647983
 41
0.0
 42
6.283185307179586
  0
ELLIPSE
  5
312
330
236
100
AcDbEntity
  8
0
  6
Continuous
 62
     7
100
AcDbEllipse
 10
146.1458304294
 20
49.09776984909999
 30
0.0
 11
1.0473539356
 21
0.0
 31
0.0
210
0.0
220
0.0
230
1.0
 40
0.4938647983
 41
0.0
 42
6.283185307179586
  0
ELLIPSE
  5
313
330
236
100
AcDbEntity
  8
0
  6
Continuous
 62
     7
100
AcDbEllipse
 10
146.1458304294
 20
47.7644365158
 30
0.0
 11
1.0473539356
 21
0.0
 31
0.0
210
0.0
220
0.0
230
1.0
 40
0.4938647983
 41
0.0
 42
6.283185307179586
  0
ELLIPSE
  5
314
330
236
100
AcDbEntity
  8
0
  6
Continuous
 62
     7
100
AcDbEllipse
 10
157.1644660105
 20
50.45062453949999
 30
0.0
 11
1.0473539356
 21
0.0
 31
0.0
210
0.0
220
0.0
230
1.0
 40
0.4938647983
 41
0.0
 42
6.283185307179586
  0
ENDBLK
  5
315
330
236
100
AcDbEntity
  8
0
  6
ByBlock
 62
     0
100
AcDbBlockEnd
  0
ENDSEC
  0
SECTION
  2
ENTITIES
  0
LWPOLYLINE
  5
14CE
330
220
100
AcDbEntity
  8
0
  6
Continuous
 62
     7
100
AcDbPolyline
 90
       10
 70
     0
 43
0.0
 10
20.9229613827
 20
85.31469101189999
 10
20.9429951952
 20
83.90843258009999
 10
21.0037266473
 20
82.4921334661
 10
21.1050952762
 20
81.07838327260001
 10
21.2469963046
 20
79.6684211203
 10
21.4293028613
 20
78.26347421520001
 10
21.651851883
 20
76.8647923213
 10
21.9144137027
 20
75.47363898250001
 10
22.2167330003
 20
74.0912843118
 10
22.5558584153
 20
72.72905437029999
  0
LWPOLYLINE
  5
14CF
330
220
100
AcDbEntity
  8
0
  6
Continuous
 62
     7
100
AcDbPolyline
 90
        9
 70
     0
 43
0.0
 10
20.9383642545
 20
85.31469101189999
 10
20.964019778
 20
86.9056931463
 10
21.0409815492
 20
88.49522839950001
 10
21.169113308
 20
90.08078036139998
 10
21.3483101352
 20
91.66130857030001
 10
21.5783463509
 20
93.234677437
 10
21.858865963
 20
94.7987782575
 10
22.1896537177
 20
96.35257796639999
 10
22.5701595491
 20
97.8935749949
  0
LWPOLYLINE
  5
14D0
330
220
100
AcDbEntity
  8
0
  6
Continuous
 62
     7
100
AcDbPolyline
 90
       10
 70
     0
 43
0.0
 10
22.5558584153
 20
97.90032765340001
 10
22.2169492082
 20
96.5390223984
 10
21.9146012098
 20
95.1566639774
 10
21.6520094363
 20
93.76549581350001
 10
21.4294315684
 20
92.3667978735
 10
21.2470978401
 20
90.96184319729999
 10
21.1051716945
 20
89.5518849427
 10
21.0037781466
 20
88.1381475927
 10
20.9430213917
 20
86.7218672271
 10
20.9229613827
 20
85.31469101189999
  0
LWPOLYLINE
  5
14D1
330
220
100
AcDbEntity
  8
0
  6
Continuous
 62
     7
100
AcDbPolyline
 90
       15
 70
     0
 43
0.0
 10
22.5701595491
 20
97.8935749949
 10
22.6091227125
 20
98.02057429360001
 10
22.6580556697
 20
98.1442510759
 10
22.7165533158
 20
98.2635282148
 10
22.7840872219
 20
98.37747038469998
 10
22.8606283018
 20
98.4860539025
 10
22.9459077071
 20
98.58873617250001
 10
23.0392703851
 20
98.6846155281
 10
23.1400095411
 20
98.7729615275
 10
23.2481960125
 20
98.85374256510001
 10
23.3632452428
 20
98.926323841
 10
23.4841957773
 20
98.9899755905
 10
23.610252522
 20
99.04423022819999
 10
23.7413923162
 20
99.08895071399999
 10
23.8767645862
 20
99.12364894319999
  0
LWPOLYLINE
  5
14D2
330
220
100
AcDbEntity
  8
0
  6
Continuous
 62
     7
100
AcDbPolyline
 90
       16
 70
     0
 43
0.0
 10
22.5558584153
 20
72.72905437029999
 10
22.588746676
 20
72.6196940914
 10
22.6333273303
 20
72.50242453359999
 10
22.6864872918
 20
72.3888840906
 10
22.7479819242
 20
72.27959320949999
 10
22.8175344084
 20
72.1750709342
 10
22.8948384568
 20
72.07582372720001
 10
22.9795627614
 20
71.9823393442
 10
23.0713502098
 20
71.89508925270001
 10
23.1698018319
 20
71.8145409725
 10
23.2744661037
 20
71.7411559403
 10
23.384859506
 20
71.6753661157
 10
23.5004684904
 20
71.6175729534
 10
23.6207525946
 20
71.56814570849999
 10
23.7451646163
 20
71.5274164562
 10
23.8628563262
 20
71.49787333569999
  0
LWPOLYLINE
  5
14D3
330
220
100
AcDbEntity
  8
0
  6
Continuous
 62
     7
100
AcDbPolyline
 90
        9
 70
     0
 43
0.0
 10
22.5701595491
 20
72.7358070289
 10
22.1896537177
 20
74.2768040574
 10
21.858865963
 20
75.8306037663
 10
21.5783463509
 20
77.3947045868
 10
21.3483101352
 20
78.9680734535
 10
21.169113308
 20
80.54860166240001
 10
21.0409815492
 20
82.1341536243
 10
20.964019778
 20
83.72368887749999
 10
20.9383642545
 20
85.31469101189999
  0
LINE
  5
14D4
330
220
100
AcDbEntity
  8
0
  6
Continuous
 62
     7
100
AcDbLine
 10
23.1744683979
 20
80.5541794013
 30
0.0
 11
23.3367259966
 21
79.012489023
 31
0.0
  0
LINE
  5
14D5
330
220
100
AcDbEntity
  8
0
  6
Continuous
 62
     7
100
AcDbLine
 10
23.2390164986
 20
79.9407913153
 30
0.0
 11
23.3365531601
 21
79.01391933229999
 31
0.0
  0
LINE
  5
14D6
330
220
100
AcDbEntity
  8
0
  6
Continuous
 62
     7
100
AcDbLine
 10
23.0578132038
 20
82.11873034699999
 30
0.0
 11
23.1745042323
 21
80.5536988214
 31
0.0
  0
LINE
  5
14D7
330
220
100
AcDbEntity
  8
0
  6
Continuous
 62
     7
100
AcDbLine
 10
22.9873013859
 20
83.70623124640001
 30
0.0
 11
23.0578209714
 21
82.1185554664
 31
0.0
  0
LINE
  5
14D8
330
220
100
AcDbEntity
  8
0
  6
Continuous
 62
     7
100
AcDbLine
 10
22.9636486248
 20
85.31469101189999
 30
0.0
 11
22.9873030438
 21
83.7061939207
 31
0.0
  0
LINE
  5
14D9
330
220
100
AcDbEntity
  8
0
  6
Continuous
 62
     7
100
AcDbLine
 10
22.9873030544
 20
86.92318846319999
 30
0.0
 11
22.9636486248
 21
85.31469101189999
 31
0.0
  0
LINE
  5
14DA
330
220
100
AcDbEntity
  8
0
  6
Continuous
 62
     7
100
AcDbLine
 10
23.0578210136
 20
88.51082726719999
 30
0.0
 11
22.9873013965
 21
86.9231511373
 31
0.0
  0
LINE
  5
14DB
330
220
100
AcDbEntity
  8
0
  6
Continuous
 62
     7
100
AcDbLine
 10
23.1745043265
 20
90.075684251
 30
0.0
 11
23.057813246
 21
88.51065238709999
 31
0.0
  0
LINE
  5
14DC
330
220
100
AcDbEntity
  8
0
  6
Continuous
 62
     7
100
AcDbLine
 10
23.3365533266
 20
91.6154640699
 30
0.0
 11
23.1744684922
 21
90.07520367179999
 31
0.0
  0
LINE
  5
14DD
330
220
100
AcDbEntity
  8
0
  6
Continuous
 62
     7
100
AcDbLine
 10
23.5435095196
 20
93.1310376957
 30
0.0
 11
23.3365533266
 21
91.6154640699
 31
0.0
  0
LWPOLYLINE
  5
14DE
330
220
100
AcDbEntity
  8
0
  6
Continuous
 62
     7
100
AcDbPolyline
 90
        4
 70
     0
 43
0.0
 10
23.79464852739999
 20
94.6208093347
 10
23.5437313927
 20
93.13249258229999
 10
23.3367261629
 20
91.61689437680001
 10
23.1745043265
 20
90.075684251
  0
LINE
  5
14DF
330
220
100
AcDbEntity
  8
0
  6
Continuous
 62
     7
100
AcDbLine
 10
23.71606325550001
 20
94.15468024069999
 30
0.0
 11
23.5435095196
 21
93.1310376957
 31
0.0
  0
LINE
  5
14E0
330
220
100
AcDbEntity
  8
0
  6
Continuous
 62
     7
100
AcDbLine
 10
24.0888702709
 20
96.0819605768
 30
0.0
 11
23.7945931518
 21
94.6204808743
 31
0.0
  0
LINE
  5
14E1
330
220
100
AcDbEntity
  8
0
  6
Continuous
 62
     7
100
AcDbLine
 10
24.4256563842
 20
97.51528788040001
 30
0.0
 11
24.0888140465
 21
96.08172129129998
 31
0.0
  0
LINE
  5
14E2
330
220
100
AcDbEntity
  8
0
  6
Continuous
 62
     7
100
AcDbLine
 10
24.4434039666
 20
97.57384663000001
 30
0.0
 11
24.4256563842
 21
97.51528788040001
 31
0.0
  0
LINE
  5
14E3
330
220
100
AcDbEntity
  8
0
  6
Continuous
 62
     7
100
AcDbLine
 10
24.44335869170001
 20
97.57371925290001
 30
0.0
 11
24.4256565396
 21
97.5152884591
 31
0.0
  0
LWPOLYLINE
  5
14E4
330
220
100
AcDbEntity
  8
0
  6
Continuous
 62
     7
100
AcDbPolyline
 90
       10
 70
     0
 43
0.0
 10
24.4665993833
 20
72.9989351355
 10
24.4952168514
 20
72.94443431890001
 10
24.5291342044
 20
72.89241602629999
 10
24.5684122934
 20
72.84300691350001
 10
24.61290699840001
 20
72.7966546634
 10
24.6626515104
 20
72.753615051
 10
24.7174265038
 20
72.7143856272
 10
24.7772298622
 20
72.67929296510001
 10
24.8420091569
 20
72.64875428979999
 10
24.9114898029
 20
72.6233087267
  0
LWPOLYLINE
  5
14E5
330
220
100
AcDbEntity
  8
0
  6
Continuous
 62
     7
100
AcDbPolyline
 90
        9
 70
     0
 43
0.0
 10
24.4664793573
 20
72.999192776
 10
24.4949496844
 20
72.94489002270001
 10
24.5287990735
 20
72.89288128069999
 10
24.5680457762
 20
72.84342659
 10
24.6128577811
 20
72.7967014111
 10
24.6629961688
 20
72.7533436158
 10
24.7180451261
 20
72.7139841357
 10
24.7777534263
 20
72.67901682109999
 10
24.8423533008
 20
72.6486105309
  0
LINE
  5
14E6
330
220
100
AcDbEntity
  8
0
  6
Continuous
 62
     7
100
AcDbLine
 10
24.44335778260001
 20
73.0556653605
 30
0.0
 11
24.4665993833
 21
72.9989351355
 31
0.0
  0
LINE
  5
14E7
330
220
100
AcDbEntity
  8
0
  6
Continuous
 62
     7
100
AcDbLine
 10
24.4256563445
 20
73.11409399289999
 30
0.0
 11
24.4434030585
 21
73.0555379805
 31
0.0
  0
LINE
  5
14E8
330
220
100
AcDbEntity
  8
0
  6
Continuous
 62
     7
100
AcDbLine
 10
24.0888135489
 20
74.5476630143
 30
0.0
 11
24.4256567493
 21
73.11409248529999
 31
0.0
  0
LINE
  5
14E9
330
220
100
AcDbEntity
  8
0
  6
Continuous
 62
     7
100
AcDbLine
 10
23.7945927831
 20
76.0089031441
 30
0.0
 11
24.0888697729
 21
74.5474237304
 31
0.0
  0
LINE
  5
14EA
330
220
100
AcDbEntity
  8
0
  6
Continuous
 62
     7
100
AcDbLine
 10
23.5435092613
 20
77.49834602189999
 30
0.0
 11
23.7160627238
 21
76.4747048549
 31
0.0
  0
LWPOLYLINE
  5
14EB
330
220
100
AcDbEntity
  8
0
  6
Continuous
 62
     7
100
AcDbPolyline
 90
        3
 70
     0
 43
0.0
 10
23.3367259966
 20
79.012489023
 10
23.5437311348
 20
77.4968911326
 10
23.7946481589
 20
76.0085746819
  0
LINE
  5
14EC
330
220
100
AcDbEntity
  8
0
  6
Continuous
 62
     7
100
AcDbLine
 10
23.3365531601
 20
79.01391933229999
 30
0.0
 11
23.5435092613
 21
77.49834602189999
 31
0.0
  0
LWPOLYLINE
  5
14ED
330
220
100
AcDbEntity
  8
0
  6
Continuous
 62
     7
100
AcDbPolyline
 90
       10
 70
     0
 43
0.0
 10
24.8420098381
 20
97.9806292235
 10
24.7772306166
 20
97.95009077919999
 10
24.717427335
 20
97.91499833370002
 10
24.6626524198
 20
97.87576911610001
 10
24.6129079594
 20
97.83272968
 10
24.5684132813
 20
97.7863775724
 10
24.5291351927
 20
97.73696855799999
 10
24.4952178219
 20
97.68495031909999
 10
24.466600328
 20
97.6304495179
 10
24.44335869170001
 20
97.57371925290001
  0
LWPOLYLINE
  5
14EE
330
220
100
AcDbEntity
  8
0
  6
Continuous
 62
     7
100
AcDbPolyline
 90
        9
 70
     0
 43
0.0
 10
24.8423540286
 20
97.9807730008
 10
24.7777542362
 20
97.95036695100002
 10
24.7180460025
 20
97.91539985280001
 10
24.6629970985
 20
97.87604056639999
 10
24.6128587452
 20
97.83268293549999
 10
24.5680467584
 20
97.78595789030001
 10
24.5288000566
 20
97.73650329709999
 10
24.4949506546
 20
97.68449461530002
 10
24.4664802999
 20
97.63019187319999
  0
LWPOLYLINE
  5
14EF
330
220
100
AcDbEntity
  8
0
  6
Continuous
 62
     7
100
AcDbPolyline
 90
        9
 70
     0
 43
0.0
 10
33.1070615392
 20
85.314691037
 10
33.1147052227
 20
84.52803185070001
 10
33.1416474481
 20
83.6453825513
 10
33.19558895650001
 20
82.6523291744
 10
33.2874873588
 20
81.5286176827
 10
33.4308589182
 20
80.26640183239999
 10
33.6202587076
 20
78.9903141946
 10
33.852036197
 20
77.73225219789999
 10
34.1254133214
 20
76.4933213029
  0
LWPOLYLINE
  5
14F0
330
220
100
AcDbEntity
  8
0
  6
Continuous
 62
     7
100
AcDbPolyline
 90
        8
 70
     0
 43
0.0
 10
34.125413325
 20
94.1360607534
 10
33.84470009000001
 20
92.8607859116
 10
33.6080662835
 20
91.56527807999999
 10
33.41634588090001
 20
90.2506522066
 10
33.2701087475
 20
88.9161841858
 10
33.1707482404
 20
87.57578862569999
 10
33.1208844307
 20
86.37185594219999
 10
33.1070615393
 20
85.314691037
  0
LINE
  5
14F1
330
220
100
AcDbEntity
  8
0
  6
Continuous
 62
     7
100
AcDbLine
 10
80.93901972880001
 20
72.6036737198
 30
0.0
 11
81.01219660300001
 21
72.6233585683
 31
0.0
  0
LWPOLYLINE
  5
14F2
330
220
100
AcDbEntity
  8
0
  6
Continuous
 62
     7
100
AcDbPolyline
 90
        3
 70
     0
 43
0.0
 10
80.93902253600001
 20
72.60367440669999
 10
81.01203535339999
 20
72.6233074705
 10
81.08151596979999
 20
72.6487528002
  0
LWPOLYLINE
  5
14F3
330
220
100
AcDbEntity
  8
0
  6
Continuous
 62
     7
100
AcDbPolyline
 90
       16
 70
     0
 43
0.0
 10
82.06066948049999
 20
71.49787333579999
 10
82.1774475027
 20
71.52715423149999
 10
82.3018766691
 20
71.56781551849999
 10
82.4221843021
 20
71.6171762596
 10
82.5378219243
 20
71.67490455779999
 10
82.6482494142
 20
71.74063174189999
 10
82.75295370770001
 20
71.8139574329
 10
82.85145133849999
 20
71.89445067520001
 10
82.94329052470001
 20
71.9816510314
 10
83.02807125920001
 20
72.0750912509
 10
83.10543513669999
 20
72.1742995393
 10
83.17504972989999
 20
72.2787874716
 10
83.23660754050001
 20
72.3880471731
 10
83.28983145409999
 20
72.5015585649
 10
83.33447720729999
 20
72.6188019481
 10
83.3676673911
 20
72.72905437039999
  0
LWPOLYLINE
  5
14F4
330
220
100
AcDbEntity
  8
0
  6
Continuous
 62
     7
100
AcDbPolyline
 90
       13
 70
     0
 43
0.0
 10
82.04676122010001
 20
71.50573308060001
 10
79.66734161569999
 20
71.0147019722
 10
77.27402188310001
 20
70.5639132181
 10
74.87344009490001
 20
70.1549729118
 10
72.4722752173
 20
69.7890233018
 10
70.07236129119999
 20
69.4661294645
 10
67.659312661
 20
69.18448836270001
 10
65.2220751336
 20
68.9436507173
 10
62.77432040399999
 20
68.7457830844
 10
60.33017555489999
 20
68.5921128004
 10
57.8855201139
 20
68.48220990999999
 10
55.4321319099
 20
68.41588453029999
 10
52.9617629032
 20
68.3935731963
  0
LWPOLYLINE
  5
14F5
330
220
100
AcDbEntity
  8
0
  6
Continuous
 62
     7
100
AcDbPolyline
 90
       15
 70
     0
 43
0.0
 10
23.8767645862
 20
71.50573308060001
 10
23.7413921309
 20
71.54043136510001
 10
23.610249535
 20
71.5851529459
 10
23.4841940738
 20
71.6394072466
 10
23.3632456272
 20
71.7030579609
 10
23.2481962111
 20
71.7756393222
 10
23.140007881
 20
71.85642184079999
 10
23.0392696547
 20
71.9447671889
 10
22.9459082362
 20
72.0406452631
 10
22.8606283389
 20
72.1433280729
 10
22.7840863681
 20
72.2519129582
 10
22.7165530534
 20
72.36585429439999
 10
22.6580563511
 20
72.485129407
 10
22.60912303
 20
72.60880682459999
 10
22.5701595491
 20
72.7358070289
  0
LWPOLYLINE
  5
14F6
330
220
100
AcDbEntity
  8
0
  6
Continuous
 62
     7
100
AcDbPolyline
 90
       15
 70
     0
 43
0.0
 10
34.1254132893
 20
76.49332129459999
 10
34.143479931
 20
76.4276579785
 10
34.1666413273
 20
76.36200829839999
 10
34.1945347513
 20
76.29894326129999
 10
34.2271763683
 20
76.23933108840001
 10
34.2644770292
 20
76.18352762579999
 10
34.3055454383
 20
76.1328726909
 10
34.349376953
 20
76.08841989609999
 10
34.3960802742
 20
76.04964347020001
 10
34.4441739498
 20
76.0171680864
 10
34.4923148011
 20
75.99112301939999
 10
34.5397085406
 20
75.9710759094
 10
34.585834444
 20
75.956251662
 10
34.6300900771
 20
75.9459270145
 10
34.67220034469999
 20
75.9393676398
  0
LWPOLYLINE
  5
14F7
330
220
100
AcDbEntity
  8
0
  6
Continuous
 62
     7
100
AcDbPolyline
 90
       13
 70
     0
 43
0.0
 10
23.8628563262
 20
71.49787333569999
 10
26.2678842407
 20
71.00151103189999
 10
28.6865826722
 20
70.5463642058
 10
31.1076786303
 20
70.1347698332
 10
33.5310222256
 20
69.76666648300001
 10
35.9564535197
 20
69.4419935656
 10
38.3838175355
 20
69.1606901279
 10
40.8129241595
 20
68.92271707759999
 10
43.24343978229999
 20
68.7280754985
 10
45.67499501439999
 20
68.5767615189
 10
48.1072152181
 20
68.4687584552
 10
50.5397385586
 20
68.40404137170001
 10
52.96176289259999
 20
68.3825942204
  0
LWPOLYLINE
  5
14F8
330
220
100
AcDbEntity
  8
0
  6
Continuous
 62
     7
100
AcDbPolyline
 90
       13
 70
     0
 43
0.0
 10
24.9845195471
 20
72.6036708931
 10
26.93056207010001
 20
72.1887626819
 10
29.0300194166
 20
71.7794060785
 10
31.2500130324
 20
71.3854782973
 10
33.5580147781
 20
71.01556990289999
 10
35.9235018546
 20
70.67672099229999
 10
38.3284115197
 20
70.3735257061
 10
40.75824998949999
 20
70.10999474409999
 10
43.1984776187
 20
69.8899114141
 10
45.6377510643
 20
69.716230995
 10
48.0761364057
 20
69.59064550079999
 10
50.5165477665
 20
69.51455219510001
 10
52.9617629032
 20
69.4890398717
  0
LWPOLYLINE
  5
14F9
330
220
100
AcDbEntity
  8
0
  6
Continuous
 62
     7
100
AcDbPolyline
 90
       14
 70
     0
 43
0.0
 10
24.9845183752
 20
72.60367118000001
 10
26.7503369643
 20
72.22568820869999
 10
28.5682259374
 20
71.86626614569999
 10
30.3814857861
 20
71.5350237131
 10
32.1358139325
 20
71.23884325529999
 10
33.9235766933
 20
70.9605659442
 10
35.9961373735
 20
70.66695338560001
 10
38.3122840515
 20
70.37541961959999
 10
40.75152951889999
 20
70.1106632476
 10
43.25172075859999
 20
69.8856195951
 10
45.7677918514
 20
69.7083062008
 10
48.2550959895
 20
69.58336390859999
 10
50.6684203378
 20
69.5114825517
 10
52.9617629032
 20
69.4890398718
  0
LINE
  5
14FA
330
220
100
AcDbEntity
  8
0
  6
Continuous
 62
     7
100
AcDbLine
 10
24.9113285849
 20
72.623359815
 30
0.0
 11
24.9845195471
 21
72.6036708931
 31
0.0
  0
LWPOLYLINE
  5
14FB
330
220
100
AcDbEntity
  8
0
  6
Continuous
 62
     7
100
AcDbPolyline
 90
       13
 70
     0
 43
0.0
 10
52.9617629032
 20
69.4890398717
 10
55.40697795779999
 20
69.5145521933
 10
57.84738923689999
 20
69.590645494
 10
60.2857744965
 20
69.71623097990001
 10
62.7250478601
 20
69.88991138760001
 10
65.1652754081
 20
70.1099947035
 10
67.59511379930001
 20
70.37352564889999
 10
70.00002338979999
 20
70.6767209166
 10
72.36551039770001
 20
71.01556980720001
 10
74.67351208460001
 20
71.3854781809
 10
76.8935056575
 20
71.77940594209999
 10
78.99296298109999
 20
72.18876252779999
 10
80.93901972880001
 20
72.6036737198
  0
LWPOLYLINE
  5
14FC
330
220
100
AcDbEntity
  8
0
  6
Continuous
 62
     7
100
AcDbPolyline
 90
       14
 70
     0
 43
0.0
 10
52.9617629032
 20
69.4890398718
 10
55.2551055026
 20
69.51148255239999
 10
57.6684298634
 20
69.58336391039999
 10
60.15573398869999
 20
69.7083062028
 10
62.6718050397
 20
69.8856195944
 10
65.17199620470001
 20
70.11066323939999
 10
67.61124155890001
 20
70.3754195966
 10
69.9273880754
 20
70.66695333760001
 10
71.9999485669
 20
70.96056586279999
 10
73.78771119609999
 20
71.23884314539999
 10
75.5420393058
 20
71.53502358770001
 10
77.35529915969999
 20
71.86626601100001
 10
79.1731881251
 20
72.2256880612
 10
80.93902253600001
 20
72.60367440669999
  0
LWPOLYLINE
  5
14FD
330
220
100
AcDbEntity
  8
0
  6
Continuous
 62
     7
100
AcDbPolyline
 90
       13
 70
     0
 43
0.0
 10
52.96176289259999
 20
68.3825942204
 10
55.3828584751
 20
68.40402491899999
 10
57.81537089899999
 20
68.4687250912
 10
60.2475664488
 20
68.5767101385
 10
62.679090398
 20
68.7280046317
 10
65.1095766405
 20
68.9226258666
 10
67.53866492510001
 20
69.1605784452
 10
69.9660283969
 20
69.4418633143
 10
72.3914740654
 20
69.76651938359999
 10
74.8148416449
 20
70.1346080319
 10
77.235966514
 20
70.5461893227
 10
79.6546953008
 20
71.00132435350001
 10
82.06066948049999
 20
71.49787333579999
  0
LWPOLYLINE
  5
14FE
330
220
100
AcDbEntity
  8
0
  6
Continuous
 62
     7
100
AcDbPolyline
 90
       13
 70
     0
 43
0.0
 10
52.9617629032
 20
68.3935731963
 10
50.49139389649999
 20
68.41588453029999
 10
48.0380056925
 20
68.48220990999999
 10
45.5933502514
 20
68.5921128004
 10
43.1492054024
 20
68.7457830844
 10
40.7014506727
 20
68.9436507172
 10
38.2642131454
 20
69.18448836270001
 10
35.8511645151
 20
69.4661294645
 10
33.45125058900001
 20
69.7890233018
 10
31.0500857114
 20
70.1549729118
 10
28.6495039232
 20
70.5639132181
 10
26.2561841907
 20
71.0147019722
 10
23.8767645862
 20
71.50573308060001
  0
LWPOLYLINE
  5
14FF
330
220
100
AcDbEntity
  8
0
  6
Continuous
 62
     7
100
AcDbPolyline
 90
        8
 70
     0
 43
0.0
 10
71.25132559890001
 20
75.93936776699999
 10
68.7459276969
 20
75.6631884119
 10
66.2001068287
 20
75.4294286569
 10
63.61219200749999
 20
75.23860085379999
 10
60.9803400951
 20
75.09120337359999
 10
58.3037293309
 20
74.9876398816
 10
55.5965955057
 20
74.92799730699999
 10
52.9617629032
 20
74.9100067038
  0
LWPOLYLINE
  5
1500
330
220
100
AcDbEntity
  8
0
  6
Continuous
 62
     7
100
AcDbPolyline
 90
        9
 70
     0
 43
0.0
 10
34.6722003577
 20
75.93936774149999
 10
37.07842433230001
 20
75.67324058050001
 10
39.5218633198
 20
75.4462502664
 10
42.0040325928
 20
75.2588461503
 10
44.5269578827
 20
75.1114548383
 10
47.0151793607
 20
75.00705987999999
 10
49.2369066258
 20
74.94674973790001
 10
51.20652080470001
 20
74.9178302425
 10
52.9617629032
 20
74.9100067038
  0
LINE
  5
1501
330
220
100
AcDbEntity
  8
0
  6
Continuous
 62
     7
100
AcDbLine
 10
22.6162852935
 20
72.74501815419999
 30
0.0
 11
22.5558584153
 21
72.72905437029999
 31
0.0
  0
LINE
  5
1502
330
220
100
AcDbEntity
  8
DEFAULT_1
  6
CENTER
 62
     7
100
AcDbLine
 10
56.8367629032
 20
81.06469101189999
 30
0.0
 11
54.64509623649999
 21
81.06469101189999
 31
0.0
  0
LINE
  5
1503
330
220
100
AcDbEntity
  8
DEFAULT_1
  6
CENTER
 62
     7
100
AcDbLine
 10
56.8367629032
 20
81.06469101189999
 30
0.0
 11
59.02842956979999
 21
81.06469101189999
 31
0.0
  0
LINE
  5
1504
330
220
100
AcDbEntity
  8
0
  6
Continuous
 62
     7
100
AcDbLine
 10
50.96176290319999
 20
99.75612724290002
 30
0.0
 11
50.96176290319999
 21
99.77798923320001
 31
0.0
  0
LINE
  5
1505
330
220
100
AcDbEntity
  8
0
  6
Continuous
 62
     7
100
AcDbLine
 10
51.3992629032
 20
99.5425335532
 30
0.0
 11
51.3992629032
 21
99.5480982135
 31
0.0
  0
LINE
  5
1506
330
220
100
AcDbEntity
  8
0
  6
Continuous
 62
     7
100
AcDbLine
 10
51.6492629032
 20
99.77667592370002
 30
0.0
 11
51.6492629032
 21
99.77429106930001
 31
0.0
  0
LWPOLYLINE
  5
1507
330
220
100
AcDbEntity
  8
0
  6
Continuous
 62
     7
100
AcDbPolyline
 90
       31
 70
     0
 43
0.0
 10
50.96176290319999
 20
99.75612724290002
 10
50.9619179483
 20
99.76067788450002
 10
50.9631576501
 20
99.76976626830001
 10
50.9656335396
 20
99.77881599079999
 10
50.9693385987
 20
99.78780139959999
 10
50.9742623249
 20
99.79669702450001
 10
50.9803907614
 20
99.80547765
 10
50.98770653649999
 20
99.81411838639999
 10
50.99618891279999
 20
99.82259474060001
 10
51.00581384619999
 20
99.83088268540001
 10
51.01655405369999
 20
99.8389587279
 10
51.028379091
 20
99.8467999754
 10
51.0412554387
 20
99.8543842013
 10
51.05514659749999
 20
99.86168990719999
 10
51.0700131914
 20
99.86869638420001
 10
51.0858130793
 20
99.8753837717
 10
51.10250147479999
 20
99.88173311370001
 10
51.12003107279999
 20
99.8877264122
 10
51.1383521838
 20
99.89334667850002
 10
51.1574128746
 20
99.8985779814
 10
51.1771591155
 20
99.90340549229999
 10
51.1975349338
 20
99.90781552690002
 10
51.21848257189999
 20
99.91179558459998
 10
51.23994265149999
 20
99.91533438350002
 10
51.2618543417
 20
99.9184218925
 10
51.2841555313
 20
99.9210493596
 10
51.3067830053
 20
99.92320933709999
 10
51.3296726237
 20
99.9248957022
 10
51.3527595032
 20
99.92610367479999
 10
51.3759782017
 20
99.92682983080001
 10
51.3992629032
 20
99.92707211169999
  0
LWPOLYLINE
  5
1508
330
220
100
AcDbEntity
  8
0
  6
Continuous
 62
     7
100
AcDbPolyline
 90
       22
 70
     0
 43
0.0
 10
50.9886108002
 20
85.31469101189999
 10
50.99421859939999
 20
85.4630907808
 10
51.0107161878
 20
85.6087099259
 10
51.03801868499999
 20
85.75272743440001
 10
51.0759642827
 20
85.89429009439999
 10
51.12435594549999
 20
86.03265885459999
 10
51.18291674219999
 20
86.1670376826
 10
51.2513293276
 20
86.2966964659
 10
51.3292332443
 20
86.4209394567
 10
51.4161953796
 20
86.53906685129999
 10
51.5117749892
 20
86.6504608171
 10
51.6154393626
 20
86.75448167709999
 10
51.7266059764
 20
86.8505358894
 10
51.84469523109999
 20
86.93810868479999
 10
51.9690232599
 20
87.01668435749999
 10
52.09891728310001
 20
87.08582891959999
 10
52.2336214354
 20
87.14513326569999
 10
52.3723527066
 20
87.19425533459999
 10
52.5142408938
 20
87.2328989825
 10
52.6609188087
 20
87.26124679040001
 10
52.8110072871
 20
87.27855840129999
 10
52.9617629032
 20
87.28433254249999
  0
LWPOLYLINE
  5
1509
330
220
100
AcDbEntity
  8
0
  6
Continuous
 62
     7
100
AcDbPolyline
 90
       31
 70
     0
 43
0.0
 10
50.96176290319999
 20
99.77798923320001
 10
50.9623624817
 20
99.78693579639999
 10
50.9641595739
 20
99.79585783760001
 10
50.9671492542
 20
99.80473090229999
 10
50.9713233278
 20
99.81353066990001
 10
50.9766703542
 20
99.8222330209
 10
50.98317567729999
 20
99.83081410270001
 10
50.99082146659999
 20
99.83925039530001
 10
50.9995867654
 20
99.84751877530001
 10
51.0094475488
 20
99.85559657959999
 10
51.020376789
 20
99.8634616676
 10
51.0323445297
 20
99.87109248160001
 10
51.0453179681
 20
99.878468106
 10
51.059261545
 20
99.8855683248
 10
51.07413704199999
 20
99.89237367690002
 10
51.0899036864
 20
99.8988655091
 10
51.10651826289999
 20
99.90502602780001
 10
51.1239352321
 20
99.91083834760001
 10
51.1421068553
 20
99.9162865371
 10
51.1609833253
 20
99.9213556633
 10
51.1805129032
 20
99.92603183219999
 10
51.2006420595
 20
99.93030222649998
 10
51.2213156218
 20
99.93415514150001
 10
51.2424769252
 20
99.9375800167
 10
51.2640679681
 20
99.9405674645
 10
51.2860295709
 20
99.94310929680001
 10
51.3083015384
 20
99.9451985464
 10
51.3308228247
 20
99.9468294869
 10
51.3535317005
 20
99.9479976481
 10
51.37636592229999
 20
99.94869982790001
 10
51.3992629032
 20
99.94893410190002
  0
LWPOLYLINE
  5
150A
330
220
100
AcDbEntity
  8
0
  6
Continuous
 62
     7
100
AcDbPolyline
 90
       34
 70
     0
 43
0.0
 10
55.76544858850001
 20
99.91113985520001
 10
55.7525315366
 20
99.8532330511
 10
55.7406219389
 20
99.80045180350002
 10
55.7296059451
 20
99.75224181649998
 10
55.7194738785
 20
99.70813017799999
 10
55.71009319209999
 20
99.6677214632
 10
55.69990133000001
 20
99.63179367020002
 10
55.6835125041
 20
99.59835547639999
 10
55.65902145129999
 20
99.5643632454
 10
55.62605570329999
 20
99.5305209548
 10
55.5861342681
 20
99.49861570719999
 10
55.53935726069999
 20
99.46847221929999
 10
55.48550832340001
 20
99.4398530135
 10
55.42583444379999
 20
99.41336252280001
 10
55.3598484908
 20
99.3887219471
 10
55.2887761104
 20
99.36635447070001
 10
55.2122415984
 20
99.3461242995
 10
55.1305348474
 20
99.32812219540002
 10
55.04423413649999
 20
99.3125081446
 10
54.9539612509
 20
99.2994207281
 10
54.860145543
 20
99.28895908260001
 10
54.76329599069999
 20
99.28121021670001
 10
54.6649231688
 20
99.2763174799
 10
54.5658165975
 20
99.2743198918
 10
54.4568755122
 20
99.27461224540001
 10
54.33669155689999
 20
99.27524775729999
 10
54.2069348725
 20
99.2758566001
 10
54.06696105159999
 20
99.27645005009999
 10
53.91598460109999
 20
99.27700301690002
 10
53.7531121339
 20
99.277508459
 10
53.57736625979999
 20
99.27794451229999
 10
53.3876833696
 20
99.27828881209999
 10
53.1829039059
 20
99.27851778979999
 10
52.9617629032
 20
99.27860455180001
  0
LWPOLYLINE
  5
150B
330
220
100
AcDbEntity
  8
0
  6
Continuous
 62
     7
100
AcDbPolyline
 90
       13
 70
     0
 43
0.0
 10
55.1044942615
 20
99.8476066933
 10
55.0911681784
 20
99.78795065959999
 10
55.0853712808
 20
99.7616401309
 10
55.07721072899999
 20
99.73790788750001
 10
55.06399295779999
 20
99.7160743453
 10
55.0448937408
 20
99.69478501040001
 10
55.01989200949999
 20
99.67405538540001
 10
54.98961212899999
 20
99.654517652
 10
54.9542533406
 20
99.6362926863
 10
54.91426293069999
 20
99.6196043966
 10
54.8700491062
 20
99.60462892610001
 10
54.8220726113
 20
99.59153672799999
 10
54.8057709394
 20
99.5880133772
  0
LINE
  5
150C
330
220
100
AcDbEntity
  8
0
  6
Continuous
 62
     7
100
AcDbLine
 10
55.1200560123
 20
99.91708703530001
 30
0.0
 11
55.1044942615
 21
99.8476066933
 31
0.0
  0
LINE
  5
150D
330
220
100
AcDbEntity
  8
0
  6
Continuous
 62
     7
100
AcDbLine
 10
55.1381241068
 20
99.99777549299999
 30
0.0
 11
55.1200560123
 21
99.91708703530001
 31
0.0
  0
LWPOLYLINE
  5
150E
330
220
100
AcDbEntity
  8
0
  6
Continuous
 62
     7
100
AcDbPolyline
 90
        6
 70
     0
 43
0.0
 10
55.1381241068
 20
99.99777549299999
 10
55.16535974039999
 20
100.112331518
 10
55.1954864113
 20
100.2316583928
 10
55.2291085889
 20
100.3689271975
 10
55.2673190583
 20
100.5397936439
 10
55.3099941584
 20
100.7479791313
  0
LWPOLYLINE
  5
150F
330
220
100
AcDbEntity
  8
0
  6
Continuous
 62
     7
100
AcDbPolyline
 90
       22
 70
     0
 43
0.0
 10
52.9617629032
 20
83.3450494813
 10
52.8130656876
 20
83.35066682989999
 10
52.66698457020001
 20
83.3672088558
 10
52.52242514999999
 20
83.39459621729998
 10
52.38027990239999
 20
83.43266586750001
 10
52.2413297117
 20
83.4812108488
 10
52.10640780439999
 20
83.5399362839
 10
51.9762826858
 20
83.6084998966
 10
51.8516668291
 20
83.68651698409999
 10
51.7332815938
 20
83.77352267010001
 10
51.62174320670001
 20
83.86905500340001
 10
51.51767827850001
 20
83.9725668174
 10
51.4216678176
 20
84.08346542
 10
51.33420214960001
 20
84.20117269509999
 10
51.25576750229999
 20
84.32502378779998
 10
51.1867782351
 20
84.45436050979999
 10
51.1276125652
 20
84.58847308899999
 10
51.07859821369999
 20
84.72661962969999
 10
51.0400265488
 20
84.86795761899999
 10
51.0117275556
 20
85.0140600467
 10
50.9944098816
 20
85.1637851699
 10
50.9886108002
 20
85.31469101189999
  0
LINE
  5
1510
330
220
100
AcDbEntity
  8
DEFAULT_1
  6
CENTER
 62
     7
100
AcDbLine
 10
52.9617629032
 20
89.5421910119
 30
0.0
 11
52.9617629032
 21
87.3505243452
 31
0.0
  0
LINE
  5
1511
330
220
100
AcDbEntity
  8
DEFAULT_1
  6
CENTER
 62
     7
100
AcDbLine
 10
52.9617629032
 20
85.31469101189999
 30
0.0
 11
52.9617629032
 21
80.89452744479999
 31
0.0
  0
LINE
  5
1512
330
220
100
AcDbEntity
  8
DEFAULT_1
  6
CENTER
 62
     7
100
AcDbLine
 10
52.9617629032
 20
85.31469101189999
 30
0.0
 11
52.9617629032
 21
87.3505243452
 31
0.0
  0
LINE
  5
1513
330
220
100
AcDbEntity
  8
DEFAULT_1
  6
CENTER
 62
     7
100
AcDbLine
 10
52.9617629032
 20
89.5421910119
 30
0.0
 11
52.9617629032
 21
89.734854579
 31
0.0
  0
LINE
  5
1514
330
220
100
AcDbEntity
  8
DEFAULT_1
  6
CENTER
 62
     7
100
AcDbLine
 10
52.9617629032
 20
89.734854579
 30
0.0
 11
52.9617629032
 21
91.73385767860001
 31
0.0
  0
LINE
  5
1515
330
220
100
AcDbEntity
  8
0
  6
Continuous
 62
     7
100
AcDbLine
 10
54.27426290319999
 20
99.77667592370002
 30
0.0
 11
54.27426290319999
 21
99.77429106930001
 31
0.0
  0
LINE
  5
1516
330
220
100
AcDbEntity
  8
0
  6
Continuous
 62
     7
100
AcDbLine
 10
54.5242629032
 20
99.5425335532
 30
0.0
 11
54.5242629032
 21
99.5480982135
 31
0.0
  0
LWPOLYLINE
  5
1517
330
220
100
AcDbEntity
  8
0
  6
Continuous
 62
     7
100
AcDbPolyline
 90
       22
 70
     0
 43
0.0
 10
54.9349150062
 20
85.31469101189999
 10
54.9293072069
 20
85.16629124300001
 10
54.91280961850001
 20
85.0206720979
 10
54.8855071213
 20
84.87665458939998
 10
54.8475615237
 20
84.73509192939999
 10
54.7991698608
 20
84.59672316909999
 10
54.7406090641
 20
84.46234434119999
 10
54.6721964787
 20
84.33268555789998
 10
54.59429256199999
 20
84.20844256709999
 10
54.5073304267
 20
84.09031517249999
 10
54.41175081709999
 20
83.97892120669999
 10
54.30808644369999
 20
83.8749003466
 10
54.19691982989999
 20
83.7788461344
 10
54.0788305752
 20
83.69127333899999
 10
53.9545025464
 20
83.6126976663
 10
53.8246085232
 20
83.5435531042
 10
53.6899043709
 20
83.48424875810001
 10
53.5511730997
 20
83.4351266892
 10
53.4092849125
 20
83.39648304129999
 10
53.2626069976
 20
83.3681352334
 10
53.1125185192
 20
83.3508236225
 10
52.9617629032
 20
83.3450494813
  0
LWPOLYLINE
  5
1518
330
220
100
AcDbEntity
  8
0
  6
Continuous
 62
     7
100
AcDbPolyline
 90
       25
 70
     0
 43
0.0
 10
54.4617629032
 20
99.7193070488
 10
54.4613614513
 20
99.7145154791
 10
54.4601588147
 20
99.7097444277
 10
54.4581601433
 20
99.70501432479998
 10
54.4553739957
 20
99.7003454256
 10
54.45181230260001
 20
99.69575772299998
 10
54.44749031569999
 20
99.6912708622
 10
54.44242654239999
 20
99.6869040566
 10
54.4366426666
 20
99.68267600570001
 10
54.4301634558
 20
99.67860481450001
 10
54.42301665489999
 20
99.67470791650001
 10
54.4152328676
 20
99.6710019988
 10
54.4068454252
 20
99.6675029308
 10
54.3978902441
 20
99.66422569590001
 10
54.3884056718
 20
99.6611843279
 10
54.37843232270001
 20
99.6583918503
 10
54.3680129041
 20
99.6558602209
 10
54.3571920335
 20
99.6536002805
 10
54.3460160477
 20
99.6516217067
 10
54.33453280430001
 20
99.6499329719
 10
54.3227914758
 20
99.6485413075
 10
54.3108423398
 20
99.64745267280001
 10
54.2987365651
 20
99.64667172959998
 10
54.2865259903
 20
99.646201822
 10
54.27426290319999
 20
99.64604496219999
  0
LWPOLYLINE
  5
1519
330
220
100
AcDbEntity
  8
0
  6
Continuous
 62
     7
100
AcDbPolyline
 90
        4
 70
     0
 43
0.0
 10
55.9375004675
 20
100.7388665909
 10
55.8791388089
 20
100.4489206017
 10
55.82343530380001
 20
100.1787374868
 10
55.76544017909999
 20
99.9111399699
  0
LINE
  5
151A
330
220
100
AcDbEntity
  8
0
  6
Continuous
 62
     7
100
AcDbLine
 10
54.9349150062
 20
85.31469101189999
 30
0.0
 11
54.76731211069999
 21
85.31469101189999
 31
0.0
  0
LINE
  5
151B
330
220
100
AcDbEntity
  8
DEFAULT_1
  6
CENTER
 62
     7
100
AcDbLine
 10
52.9617629032
 20
85.31469101189999
 30
0.0
 11
51.1562136956
 21
85.31469101189999
 31
0.0
  0
LINE
  5
151C
330
220
100
AcDbEntity
  8
DEFAULT_1
  6
CENTER
 62
     7
100
AcDbLine
 10
50.9886108002
 20
85.31469101189999
 30
0.0
 11
48.5415993361
 21
85.31469101189999
 31
0.0
  0
LINE
  5
151D
330
220
100
AcDbEntity
  8
0
  6
Continuous
 62
     7
100
AcDbLine
 10
50.9886108002
 20
85.31469101189999
 30
0.0
 11
51.1562136956
 21
85.31469101189999
 31
0.0
  0
LINE
  5
151E
330
220
100
AcDbEntity
  8
DEFAULT_1
  6
CENTER
 62
     7
100
AcDbLine
 10
52.9617629032
 20
85.31469101189999
 30
0.0
 11
54.76731211069999
 21
85.31469101189999
 31
0.0
  0
LINE
  5
151F
330
220
100
AcDbEntity
  8
DEFAULT_1
  6
CENTER
 62
     7
100
AcDbLine
 10
54.9349150062
 20
85.31469101189999
 30
0.0
 11
57.38192647029999
 21
85.31469101189999
 31
0.0
  0
LWPOLYLINE
  5
1520
330
220
100
AcDbEntity
  8
0
  6
Continuous
 62
     7
100
AcDbPolyline
 90
        6
 70
     0
 43
0.0
 10
50.7854016995
 20
99.99777549299999
 10
50.7581659779
 20
100.1123320673
 10
50.72803926289999
 20
100.2316594887
 10
50.6944171074
 20
100.3689284565
 10
50.65620675329999
 20
100.5397941898
 10
50.61353187249999
 20
100.7479780191
  0
LINE
  5
1521
330
220
100
AcDbEntity
  8
0
  6
Continuous
 62
     7
100
AcDbLine
 10
50.7947731592
 20
99.95591975309999
 30
0.0
 11
50.7854016995
 21
99.99777549299999
 31
0.0
  0
LINE
  5
1522
330
220
100
AcDbEntity
  8
0
  6
Continuous
 62
     7
100
AcDbLine
 10
50.8190411439
 20
99.84756488409999
 30
0.0
 11
50.7947731592
 21
99.95591975309999
 31
0.0
  0
LINE
  5
1523
330
220
100
AcDbEntity
  8
0
  6
Continuous
 62
     7
100
AcDbLine
 10
50.8323623284
 20
99.78790935740001
 30
0.0
 11
50.8190411439
 21
99.84756488409999
 31
0.0
  0
LWPOLYLINE
  5
1524
330
220
100
AcDbEntity
  8
0
  6
Continuous
 62
     7
100
AcDbPolyline
 90
        4
 70
     0
 43
0.0
 10
50.1580684252
 20
99.91113973540002
 10
50.099199897
 20
100.1829620423
 10
50.0436147463
 20
100.4527461952
 10
49.9860272205
 20
100.7388622791
  0
LWPOLYLINE
  5
1525
330
220
100
AcDbEntity
  8
0
  6
Continuous
 62
     7
100
AcDbPolyline
 90
       31
 70
     0
 43
0.0
 10
54.9617629032
 20
99.77798923320001
 10
54.9611633246
 20
99.78693579639999
 10
54.9593662324
 20
99.79585783760001
 10
54.95637655220001
 20
99.80473090229999
 10
54.9522024785
 20
99.81353066990001
 10
54.94685545220001
 20
99.8222330209
 10
54.94035012899999
 20
99.83081410270001
 10
54.9327043398
 20
99.83925039530001
 10
54.9239390409
 20
99.84751877530001
 10
54.9140782575
 20
99.85559657959999
 10
54.90314901729999
 20
99.8634616676
 10
54.8911812766
 20
99.87109248160001
 10
54.8782078382
 20
99.878468106
 10
54.8642642613
 20
99.8855683248
 10
54.8493887643
 20
99.89237367690002
 10
54.8336221199
 20
99.8988655091
 10
54.8170075434
 20
99.90502602780001
 10
54.7995905742
 20
99.91083834760001
 10
54.78141895100001
 20
99.9162865371
 10
54.762542481
 20
99.9213556633
 10
54.74301290319999
 20
99.92603183219999
 10
54.7228837468
 20
99.93030222649998
 10
54.7022101845
 20
99.93415514150001
 10
54.6810488811
 20
99.9375800167
 10
54.6594578382
 20
99.9405674645
 10
54.6374962354
 20
99.94310929680001
 10
54.6152242679
 20
99.9451985464
 10
54.59270298159999
 20
99.9468294869
 10
54.56999410579999
 20
99.9479976481
 10
54.547159884
 20
99.94869982790001
 10
54.5242629032
 20
99.94893410190002
  0
LINE
  5
1526
330
220
100
AcDbEntity
  8
0
  6
Continuous
 62
     7
100
AcDbLine
 10
54.9617629032
 20
99.77798923320001
 30
0.0
 11
54.9617629032
 21
99.75612724290002
 31
0.0
  0
LINE
  5
1527
330
220
100
AcDbEntity
  8
DEFAULT_1
  6
CENTER
 62
     7
100
AcDbLine
 10
56.8367629032
 20
81.06469101189999
 30
0.0
 11
56.8367629032
 21
78.87302434520001
 31
0.0
  0
LINE
  5
1528
330
220
100
AcDbEntity
  8
DEFAULT_1
  6
CENTER
 62
     7
100
AcDbLine
 10
56.8367629032
 20
81.06469101189999
 30
0.0
 11
56.8367629032
 21
83.25635767859999
 31
0.0
  0
LWPOLYLINE
  5
1529
330
220
100
AcDbEntity
  8
0
  6
Continuous
 62
     7
100
AcDbPolyline
 90
       22
 70
     0
 43
0.0
 10
52.9617629032
 20
87.28433254249999
 10
53.1104601187
 20
87.27871519389999
 10
53.2565412361
 20
87.26217316799999
 10
53.40110065640001
 20
87.23478580650001
 10
53.543245904
 20
87.19671615629998
 10
53.6821960947
 20
87.148171175
 10
53.817118002
 20
87.0894457398
 10
53.94724312060001
 20
87.0208821271
 10
54.07185897729999
 20
86.94286503959999
 10
54.1902442126
 20
86.8558593536
 10
54.30178259979999
 20
86.76032702030001
 10
54.4058475279
 20
86.65681520639999
 10
54.50185798869999
 20
86.5459166039
 10
54.5893236567
 20
86.42820932879999
 10
54.66775830399999
 20
86.3043582361
 10
54.7367475712
 20
86.175021514
 10
54.7959132411
 20
86.04090893490001
 10
54.8449275926
 20
85.90276239419999
 10
54.8834992575
 20
85.76142440479999
 10
54.91179825079999
 20
85.61532197709999
 10
54.9291159247
 20
85.4655968539
 10
54.9349150062
 20
85.31469101189999
  0
LINE
  5
152A
330
220
100
AcDbEntity
  8
DEFAULT_1
  6
CENTER
 62
     7
100
AcDbLine
 10
52.9617629032
 20
89.5421910119
 30
0.0
 11
50.77009623649999
 21
89.5421910119
 31
0.0
  0
LINE
  5
152B
330
220
100
AcDbEntity
  8
DEFAULT_1
  6
CENTER
 62
     7
100
AcDbLine
 10
52.9617629032
 20
89.5421910119
 30
0.0
 11
55.15342956979999
 21
89.5421910119
 31
0.0
  0
LWPOLYLINE
  5
152C
330
220
100
AcDbEntity
  8
0
  6
Continuous
 62
     7
100
AcDbPolyline
 90
        8
 70
     0
 43
0.0
 10
52.9617629032
 20
95.71937532019999
 10
50.32689520119999
 20
95.70138424639999
 10
47.6198707073
 20
95.6417443231
 10
44.9432923491
 20
95.53818371959998
 10
42.31142930489999
 20
95.39078737409999
 10
39.7234902237
 20
95.1999592509
 10
37.1776377101
 20
94.96619765940002
 10
34.672200243
 20
94.6900142435
  0
LWPOLYLINE
  5
152D
330
220
100
AcDbEntity
  8
0
  6
Continuous
 62
     7
100
AcDbPolyline
 90
        8
 70
     0
 43
0.0
 10
52.9617629032
 20
95.71937532019999
 10
55.5966305925
 20
95.70138424659999
 10
58.3036550737
 20
95.6417443239
 10
60.9802334197
 20
95.53818372139998
 10
63.61209645229999
 20
95.39078737729999
 10
66.2000355222
 20
95.1999592559
 10
68.74588802479999
 20
94.96619766669999
 10
71.2513253967
 20
94.6900142634
  0
LWPOLYLINE
  5
152E
330
220
100
AcDbEntity
  8
0
  6
Continuous
 62
     7
100
AcDbPolyline
 90
       15
 70
     0
 43
0.0
 10
34.6722002174
 20
94.69001444559999
 10
34.6300420045
 20
94.6834608286
 10
34.5857260704
 20
94.67312738169999
 10
34.5395687525
 20
94.6582654502
 10
34.49211637280001
 20
94.63816240479999
 10
34.4439426344
 20
94.6121272104
 10
34.3957762761
 20
94.57958933350001
 10
34.3492048975
 20
94.54082567649999
 10
34.3052949128
 20
94.4962539808
 10
34.2642251782
 20
94.4456320867
 10
34.2269822424
 20
94.38981887270001
 10
34.1944372792
 20
94.33024137110001
 10
34.1664969451
 20
94.2671260728
 10
34.1433578472
 20
94.20147242129999
 10
34.1254132509
 20
94.13606074689999
  0
LWPOLYLINE
  5
152F
330
220
100
AcDbEntity
  8
0
  6
Continuous
 62
     7
100
AcDbPolyline
 90
       34
 70
     0
 43
0.0
 10
52.9617629032
 20
99.27860455180001
 10
52.7442742021
 20
99.27852113629999
 10
52.542781878
 20
99.27829964909999
 10
52.3560568787
 20
99.27796615950001
 10
52.1829721125
 20
99.27754333540001
 10
52.0224930839
 20
99.2770528303
 10
51.8736668826
 20
99.27651478120001
 10
51.735654112
 20
99.27594598959998
 10
51.6077007794
 20
99.27534536479999
 10
51.48919099229999
 20
99.27474027930001
 10
51.3803329169
 20
99.2742208688
 10
51.28085440149999
 20
99.27558879060001
 10
51.1825990974
 20
99.2798420036
 10
51.0853174002
 20
99.28694398840001
 10
50.9910308856
 20
99.29675687719999
 10
50.9005067693
 20
99.3091373765
 10
50.81403771499999
 20
99.32400377989999
 10
50.73153763829999
 20
99.34134952030001
 10
50.65378853350001
 20
99.36099368309999
 10
50.5815457083
 20
99.38272103830001
 10
50.5150619099
 20
99.40645663620001
 10
50.4534561967
 20
99.43254431559999
 10
50.398569717
 20
99.46024716129999
 10
50.3501275956
 20
99.4897883293
 10
50.3082117506
 20
99.5211907905
 10
50.2735601153
 20
99.55404760540002
 10
50.24675347529999
 20
99.58780670520001
 10
50.2279048247
 20
99.62170461319999
 10
50.21552198770001
 20
99.6583706786
 10
50.2059185071
 20
99.70005435899999
 10
50.1953765248
 20
99.74591451549999
 10
50.18392099779999
 20
99.79602552240001
 10
50.1715261585
 20
99.85090205879998
 10
50.1580701114
 20
99.91113975840001
  0
LWPOLYLINE
  5
1530
330
220
100
AcDbEntity
  8
0
  6
Continuous
 62
     7
100
AcDbPolyline
 90
       15
 70
     0
 43
0.0
 10
71.2513254359
 20
94.6900145364
 10
71.2934838173
 20
94.68346088950001
 10
71.33779975659999
 20
94.6731274358
 10
71.3839570797
 20
94.6582654976
 10
71.43140946409999
 20
94.6381624458
 10
71.4795832243
 20
94.6121272341
 10
71.527749561
 20
94.57958936959999
 10
71.57432094939998
 20
94.540825704
 10
71.6182309489
 20
94.496253992
 10
71.65930068729998
 20
94.445632089
 10
71.69654359899999
 20
94.3898189082
 10
71.7290885794
 20
94.33024138150001
 10
71.7570289203
 20
94.26712606850001
 10
71.7801680034
 20
94.201472451
 10
71.79811260130001
 20
94.13606077510001
  0
LWPOLYLINE
  5
1531
330
220
100
AcDbEntity
  8
0
  6
Continuous
 62
     7
100
AcDbPolyline
 90
       12
 70
     0
 43
0.0
 10
51.11776623819999
 20
99.58800898079999
 10
51.10144232859999
 20
99.5915387634
 10
51.0534802151
 20
99.60463344909999
 10
51.00927196729999
 20
99.6196064565
 10
50.9692804681
 20
99.6362898359
 10
50.9339236493
 20
99.65451160850001
 10
50.9036458655
 20
99.67404654420001
 10
50.8786495886
 20
99.69476779540002
 10
50.8595519626
 20
99.71604777759999
 10
50.84632671739999
 20
99.73787593620002
 10
50.8381642634
 20
99.7616026426
 10
50.8323623284
 20
99.78790935740001
  0
LINE
  5
1532
330
220
100
AcDbEntity
  8
0
  6
Continuous
 62
     7
100
AcDbLine
 10
51.63561632869999
 20
99.77650848180001
 30
0.0
 11
51.6492629032
 21
99.77667592370002
 31
0.0
  0
LWPOLYLINE
  5
1533
330
220
100
AcDbEntity
  8
0
  6
Continuous
 62
     7
100
AcDbPolyline
 90
       27
 70
     0
 43
0.0
 10
51.6492629032
 20
99.77429106930001
 10
51.63657818829999
 20
99.7741381566
 10
51.6239527583
 20
99.7736804494
 10
51.6114481377
 20
99.77292122850002
 10
51.59912538819999
 20
99.77186611530001
 10
51.5870435184
 20
99.7705229608
 10
51.5752596115
 20
99.7689018063
 10
51.5638338777
 20
99.76701580110001
 10
51.55282313499999
 20
99.7648806613
 10
51.5422822718
 20
99.76251502780002
 10
51.532256572
 20
99.7599386939
 10
51.522799982
 20
99.7571773725
 10
51.5139589737
 20
99.7542596014
 10
51.505774505
 20
99.75121738070001
 10
51.49827372779999
 20
99.74808291270001
 10
51.49148945060001
 20
99.7448966984
 10
51.48544350619999
 20
99.7417021598
 10
51.4801438995
 20
99.7385436949
 10
51.4755823635
 20
99.73546365870001
 10
51.4717538789
 20
99.73251536740001
 10
51.46862877060001
 20
99.7297440001
 10
51.46616632609999
 20
99.72719285250001
 10
51.4643228652
 20
99.7249119415
 10
51.4630270137
 20
99.72292430389998
 10
51.46222277020001
 20
99.72128034589999
 10
51.4618497356
 20
99.72008527200001
 10
51.46176290319999
 20
99.7193070488
  0
LWPOLYLINE
  5
1534
330
220
100
AcDbEntity
  8
0
  6
Continuous
 62
     7
100
AcDbPolyline
 90
       31
 70
     0
 43
0.0
 10
54.5242629032
 20
99.5425335532
 10
54.5467110481
 20
99.54278307370001
 10
54.5691057401
 20
99.54353153940001
 10
54.591400532
 20
99.54477913959999
 10
54.6135458074
 20
99.54652625200001
 10
54.6354892896
 20
99.5487731915
 10
54.65719146609999
 20
99.5515221041
 10
54.6786102713
 20
99.5547761667
 10
54.6996916367
 20
99.55853769610001
 10
54.7203979016
 20
99.56281303090001
 10
54.7406977885
 20
99.56761275219999
 10
54.7605560612
 20
99.572950473
 10
54.7799115314
 20
99.57883613559999
 10
54.7987395037
 20
99.5852948487
 10
54.8170011893
 20
99.5923552722
 10
54.8346397323
 20
99.6000473417
 10
54.85154485319999
 20
99.60838192549999
 10
54.8676004784
 20
99.61736367520002
 10
54.8826532727
 20
99.62696515559999
 10
54.8965099848
 20
99.6371009791
 10
54.908950444
 20
99.64759841919999
 10
54.91987250850001
 20
99.65829284219999
 10
54.92933798140001
 20
99.66912320649999
 10
54.93734677159999
 20
99.6799249328
 10
54.9440752372
 20
99.6907525523
 10
54.9496059243
 20
99.701569168
 10
54.95404247079999
 20
99.7124156423
 10
54.95743685109999
 20
99.7232708748
 10
54.95984734989999
 20
99.7341989198
 10
54.9612823502
 20
99.7451246063
 10
54.9617629032
 20
99.75612724290002
  0
LWPOLYLINE
  5
1535
330
220
100
AcDbEntity
  8
0
  6
Continuous
 62
     7
100
AcDbPolyline
 90
       13
 70
     0
 43
0.0
 10
52.9617629032
 20
101.1403421521
 10
50.51654784850001
 20
101.1148298305
 10
48.0761365694
 20
101.0387365298
 10
45.63775130979999
 20
100.9131510439
 10
43.1984779461
 20
100.7394706361
 10
40.75825039809999
 20
100.5193873203
 10
38.3284120069
 20
100.2558563748
 10
35.9235024164
 20
99.95266110719999
 10
33.5580154087
 20
99.61381221659999
 10
31.2500137219
 20
99.24390384290001
 10
29.0300201492
 20
98.8499760818
 10
26.9305628257
 20
98.44061949610001
 10
24.9845061623
 20
98.0257083218
  0
LWPOLYLINE
  5
1536
330
220
100
AcDbEntity
  8
0
  6
Continuous
 62
     7
100
AcDbPolyline
 90
       14
 70
     0
 43
0.0
 10
52.9617629032
 20
101.140342152
 10
50.6684203032
 20
101.1178994714
 10
48.2550959418
 20
101.0460181133
 10
45.7677918159
 20
100.9210758209
 10
43.2517207646
 20
100.7437624292
 10
40.75152959959999
 20
100.5187187842
 10
38.3122842459
 20
100.253962427
 10
35.99613773050001
 20
99.96242868620001
 10
33.9235772399
 20
99.66881616110001
 10
32.1358146114
 20
99.39053887860001
 10
30.3814865016
 20
99.09435843629999
 10
28.5682266472
 20
98.76311601290002
 10
26.7503376816
 20
98.40369396260001
 10
24.9845033649
 20
98.0257076374
  0
LINE
  5
1537
330
220
100
AcDbEntity
  8
0
  6
Continuous
 62
     7
100
AcDbLine
 10
54.5242629032
 20
99.5425335532
 30
0.0
 11
51.3992629032
 21
99.5425335532
 31
0.0
  0
LINE
  5
1538
330
220
100
AcDbEntity
  8
0
  6
Continuous
 62
     7
100
AcDbLine
 10
54.5242629032
 20
99.5480982135
 30
0.0
 11
51.3992629032
 21
99.5480982135
 31
0.0
  0
LINE
  5
1539
330
220
100
AcDbEntity
  8
0
  6
Continuous
 62
     7
100
AcDbLine
 10
54.27426290319999
 20
99.60670788280001
 30
0.0
 11
51.6492629032
 21
99.60670788280001
 31
0.0
  0
LINE
  5
153A
330
220
100
AcDbEntity
  8
0
  6
Continuous
 62
     7
100
AcDbLine
 10
54.27426290319999
 20
99.64604496219999
 30
0.0
 11
51.6492629032
 21
99.64604496219999
 31
0.0
  0
LINE
  5
153B
330
220
100
AcDbEntity
  8
0
  6
Continuous
 62
     7
100
AcDbLine
 10
51.6492629032
 20
99.77429106930001
 30
0.0
 11
54.27426290319999
 21
99.77429106930001
 31
0.0
  0
LINE
  5
153C
330
220
100
AcDbEntity
  8
0
  6
Continuous
 62
     7
100
AcDbLine
 10
51.6492629032
 20
99.77667592370002
 30
0.0
 11
54.27426290319999
 21
99.77667592370002
 31
0.0
  0
LINE
  5
153D
330
220
100
AcDbEntity
  8
0
  6
Continuous
 62
     7
100
AcDbLine
 10
51.3992629032
 20
99.8352855929
 30
0.0
 11
54.5242629032
 21
99.8352855929
 31
0.0
  0
LINE
  5
153E
330
220
100
AcDbEntity
  8
0
  6
Continuous
 62
     7
100
AcDbLine
 10
51.3992629032
 20
99.92707211169999
 30
0.0
 11
54.5242629032
 21
99.92707211169999
 31
0.0
  0
LINE
  5
153F
330
220
100
AcDbEntity
  8
0
  6
Continuous
 62
     7
100
AcDbLine
 10
51.3992629032
 20
99.94893410190002
 30
0.0
 11
54.5242629032
 21
99.94893410190002
 31
0.0
  0
LWPOLYLINE
  5
1540
330
220
100
AcDbEntity
  8
0
  6
Continuous
 62
     7
100
AcDbPolyline
 90
       31
 70
     0
 43
0.0
 10
54.5242629032
 20
99.92707211169999
 10
54.5475476047
 20
99.92682983080001
 10
54.5707663031
 20
99.92610367479999
 10
54.5938531827
 20
99.9248957022
 10
54.616742801
 20
99.92320933709999
 10
54.639370275
 20
99.9210493596
 10
54.6616714647
 20
99.9184218925
 10
54.68358315479999
 20
99.91533438350002
 10
54.7050432344
 20
99.91179558459998
 10
54.72599087249999
 20
99.90781552690002
 10
54.7463666908
 20
99.90340549229999
 10
54.7661129318
 20
99.8985779814
 10
54.78517362249999
 20
99.89334667850002
 10
54.8034947335
 20
99.8877264122
 10
54.8210243315
 20
99.88173311370001
 10
54.837712727
 20
99.8753837717
 10
54.85351261499999
 20
99.86869638420001
 10
54.8683792088
 20
99.86168990719999
 10
54.8822703676
 20
99.8543842013
 10
54.8951467154
 20
99.8467999754
 10
54.9069717526
 20
99.8389587279
 10
54.9177119601
 20
99.83088268540001
 10
54.9273368935
 20
99.82259474060001
 10
54.93581926979999
 20
99.81411838639999
 10
54.94313504489999
 20
99.80547765
 10
54.94926348149999
 20
99.79669702450001
 10
54.9541872077
 20
99.78780139959999
 10
54.9578922667
 20
99.77881599079999
 10
54.9603681562
 20
99.76976626830001
 10
54.961607858
 20
99.76067788450002
 10
54.9617629032
 20
99.75612724290002
  0
LWPOLYLINE
  5
1541
330
220
100
AcDbEntity
  8
0
  6
Continuous
 62
     7
100
AcDbPolyline
 90
       57
 70
     0
 43
0.0
 10
51.3992629032
 20
99.5480982135
 10
51.3786679343
 20
99.54832387340001
 10
51.3581254747
 20
99.5490006816
 10
51.3377142056
 20
99.55012639290002
 10
51.3174955374
 20
99.5516975976
 10
51.2975345166
 20
99.5537092642
 10
51.27789345930001
 20
99.55615510420001
 10
51.2586343293
 20
99.5590274043
 10
51.2398176735
 20
99.56231713360001
 10
51.22150271399999
 20
99.56601393870002
 10
51.20374707399999
 20
99.5701061883
 10
51.1866066227
 20
99.574581006
 10
51.170135292
 20
99.5794243119
 10
51.1543849089
 20
99.5846208666
 10
51.1394050318
 20
99.5901543191
 10
51.1252427947
 20
99.59600725850002
 10
51.1119427589
 20
99.6021612686
 10
51.0995467729
 20
99.60859698600001
 10
51.0880938405
 20
99.61529416049998
 10
51.07761999810001
 20
99.62223171979999
 10
51.0681582017
 20
99.6293878348
 10
51.05973822270001
 20
99.63673998879999
 10
51.05238655439999
 20
99.64426504850001
 10
51.0461263289
 20
99.6519393362
 10
51.04097724369999
 20
99.659738705
 10
51.0369555006
 20
99.6676386142
 10
51.0340737537
 20
99.6756142068
 10
51.0323410707
 20
99.68364038770001
 10
51.0317629032
 20
99.6916919026
 10
51.0323410705
 20
99.69974341750001
 10
51.0340737534
 20
99.70776959840002
 10
51.0369555
 20
99.71574519100002
 10
51.040977243
 20
99.7236451002
 10
51.046126328
 20
99.73144446900001
 10
51.05238655339999
 20
99.7391187568
 10
51.0597382215
 20
99.7466438164
 10
51.0681582003
 20
99.7539959705
 10
51.0776199966
 20
99.76115208549998
 10
51.0880938388
 20
99.76808964479999
 10
51.0995467711
 20
99.7747868194
 10
51.11194275689999
 20
99.7812225368
 10
51.1252427926
 20
99.78737654700001
 10
51.1394050295
 20
99.79322948650001
 10
51.15438490649999
 20
99.798762939
 10
51.1701352895
 20
99.8039594937
 10
51.18660661999999
 20
99.8088027997
 10
51.20374707119999
 20
99.81327761740001
 10
51.22150271119999
 20
99.81736986709998
 10
51.2398176707
 20
99.8210666722
 10
51.2586343264
 20
99.8243564016
 10
51.2778934562
 20
99.82722870180001
 10
51.2975345136
 20
99.82967454190001
 10
51.31749553409999
 20
99.83168620850001
 10
51.3377142028
 20
99.8332574133
 10
51.3581254714
 20
99.83438312469999
 10
51.37866792989999
 20
99.83505993299999
 10
51.3992629032
 20
99.8352855929
  0
LWPOLYLINE
  5
1542
330
220
100
AcDbEntity
  8
0
  6
Continuous
 62
     7
100
AcDbPolyline
 90
       57
 70
     0
 43
0.0
 10
54.5242629032
 20
99.8352855929
 10
54.5448578764
 20
99.83505993299999
 10
54.5654003349
 20
99.83438312469999
 10
54.5858116035
 20
99.8332574133
 10
54.6060302722
 20
99.83168620850001
 10
54.6259912927
 20
99.82967454190001
 10
54.6456323501
 20
99.82722870180001
 10
54.66489147989999
 20
99.8243564016
 10
54.68370813569999
 20
99.8210666722
 10
54.70202309520001
 20
99.81736986709998
 10
54.7197787351
 20
99.81327761740001
 10
54.7369191863
 20
99.8088027997
 10
54.7533905168
 20
99.8039594937
 10
54.76914089979999
 20
99.798762939
 10
54.7841207768
 20
99.79322948650001
 10
54.7982830137
 20
99.78737654700001
 10
54.81158304939999
 20
99.7812225368
 10
54.82397903529999
 20
99.7747868194
 10
54.8354319676
 20
99.76808964479999
 10
54.84590580969999
 20
99.76115208549998
 10
54.855367606
 20
99.7539959705
 10
54.86378758479999
 20
99.7466438164
 10
54.8711392529
 20
99.7391187568
 10
54.8773994783
 20
99.73144446900001
 10
54.8825485633
 20
99.7236451002
 10
54.8865703063
 20
99.71574519100002
 10
54.8894520529
 20
99.70776959840002
 10
54.8911847359
 20
99.69974341750001
 10
54.89176290319999
 20
99.6916919026
 10
54.89118473569999
 20
99.68364038770001
 10
54.8894520526
 20
99.6756142068
 10
54.8865703058
 20
99.6676386142
 10
54.8825485626
 20
99.659738705
 10
54.8773994775
 20
99.6519393362
 10
54.8711392519
 20
99.64426504850001
 10
54.86378758359999
 20
99.63673998879999
 10
54.8553676046
 20
99.6293878348
 10
54.84590580819999
 20
99.62223171979999
 10
54.8354319659
 20
99.61529416049998
 10
54.8239790334
 20
99.60859698600001
 10
54.8115830474
 20
99.6021612686
 10
54.7982830116
 20
99.59600725850002
 10
54.78412077449999
 20
99.5901543191
 10
54.7691408974
 20
99.5846208666
 10
54.7533905143
 20
99.5794243119
 10
54.7369191837
 20
99.574581006
 10
54.7197787324
 20
99.5701061883
 10
54.7020230924
 20
99.56601393870002
 10
54.68370813279999
 20
99.56231713360001
 10
54.66489147699999
 20
99.5590274043
 10
54.64563234699999
 20
99.55615510420001
 10
54.6259912897
 20
99.5537092642
 10
54.60603026890001
 20
99.5516975976
 10
54.5858116007
 20
99.55012639290002
 10
54.56540033159999
 20
99.5490006816
 10
54.5448578721
 20
99.54832387340001
 10
54.5242629032
 20
99.5480982135
  0
LWPOLYLINE
  5
1543
330
220
100
AcDbEntity
  8
0
  6
Continuous
 62
     7
100
AcDbPolyline
 90
       31
 70
     0
 43
0.0
 10
51.3992629032
 20
99.5425335532
 10
51.3768147582
 20
99.54278307370001
 10
51.3544200663
 20
99.54353153940001
 10
51.3321252744
 20
99.54477913959999
 10
51.3099799989
 20
99.54652625200001
 10
51.28803651670001
 20
99.5487731915
 10
51.2663343403
 20
99.5515221041
 10
51.244915535
 20
99.5547761667
 10
51.2238341696
 20
99.55853769610001
 10
51.20312790479999
 20
99.56281303090001
 10
51.1828280179
 20
99.56761275219999
 10
51.16296974509999
 20
99.572950473
 10
51.14361427489999
 20
99.57883613559999
 10
51.1247863026
 20
99.5852948487
 10
51.10652461699999
 20
99.5923552722
 10
51.08888607399999
 20
99.6000473417
 10
51.0719809532
 20
99.60838192549999
 10
51.0559253279
 20
99.61736367520002
 10
51.0408725337
 20
99.62696515559999
 10
51.02701582149999
 20
99.6371009791
 10
51.01457536229999
 20
99.64759841919999
 10
51.0036532978
 20
99.65829284219999
 10
50.99418782499999
 20
99.66912320649999
 10
50.9861790347
 20
99.6799249328
 10
50.97945056909999
 20
99.6907525523
 10
50.973919882
 20
99.701569168
 10
50.9694833356
 20
99.7124156423
 10
50.96608895520001
 20
99.7232708748
 10
50.9636784564
 20
99.7341989198
 10
50.9622434561
 20
99.7451246063
 10
50.96176290319999
 20
99.75612724290002
  0
LWPOLYLINE
  5
1544
330
220
100
AcDbEntity
  8
0
  6
Continuous
 62
     7
100
AcDbPolyline
 90
       27
 70
     0
 43
0.0
 10
54.27426290319999
 20
99.77429106930001
 10
54.2869476181
 20
99.7741381566
 10
54.299573048
 20
99.7736804494
 10
54.3120776686
 20
99.77292122850002
 10
54.3244004181
 20
99.77186611530001
 10
54.3364822879
 20
99.7705229608
 10
54.34826619479999
 20
99.7689018063
 10
54.3596919286
 20
99.76701580110001
 10
54.37070267140001
 20
99.7648806613
 10
54.38124353460001
 20
99.76251502780002
 10
54.39126923439999
 20
99.7599386939
 10
54.4007258244
 20
99.7571773725
 10
54.4095668326
 20
99.7542596014
 10
54.4177513013
 20
99.75121738070001
 10
54.4252520786
 20
99.74808291270001
 10
54.4320363558
 20
99.7448966984
 10
54.4380823001
 20
99.7417021598
 10
54.4433819068
 20
99.7385436949
 10
54.44794344279999
 20
99.73546365870001
 10
54.4517719275
 20
99.73251536740001
 10
54.4548970357
 20
99.7297440001
 10
54.4573594803
 20
99.72719285250001
 10
54.4592029412
 20
99.7249119415
 10
54.4604987926
 20
99.72292430389998
 10
54.4613030362
 20
99.72128034589999
 10
54.46167607069999
 20
99.72008527200001
 10
54.4617629032
 20
99.7193070488
  0
LWPOLYLINE
  5
1545
330
220
100
AcDbEntity
  8
0
  6
Continuous
 62
     7
100
AcDbPolyline
 90
       50
 70
     0
 43
0.0
 10
51.6492629032
 20
99.60670788280001
 10
51.63561636549999
 20
99.60687532370002
 10
51.6220120233
 20
99.60737755810001
 10
51.6085166995
 20
99.60821249530001
 10
51.5951813981
 20
99.6093769548
 10
51.58205973680001
 20
99.6108662774
 10
51.5692032609
 20
99.6126746072
 10
51.55666277439999
 20
99.6147947999
 10
51.54448776109999
 20
99.61721848899999
 10
51.53272627359999
 20
99.6199361086
 10
51.5214247302
 20
99.6229369331
 10
51.5106277365
 20
99.626209119
 10
51.50037790649999
 20
99.6297397512
 10
51.4907156938
 20
99.63351489540002
 10
51.481679233
 20
99.63751965180001
 10
51.473304189
 20
99.64173821440001
 10
51.4656236165
 20
99.64615393370001
 10
51.4586678291
 20
99.65074938149999
 10
51.4524642796
 20
99.65550642069999
 10
51.4470374522
 20
99.6604062763
 10
51.44240876539999
 20
99.6654296095
 10
51.4385964877
 20
99.67055659440001
 10
51.43561566529999
 20
99.67576699590001
 10
51.4334780628
 20
99.68104024959998
 10
51.43219211699999
 20
99.686355543
 10
51.43176290319999
 20
99.69169189790001
 10
51.43219211529999
 20
99.69702825290001
 10
51.4334780595
 20
99.70234354639998
 10
51.4356156602
 20
99.7076168002
 10
51.43859648100001
 20
99.71282720179999
 10
51.4424087571
 20
99.7179541869
 10
51.4470374423
 20
99.72297752040001
 10
51.4524642681
 20
99.72787737620002
 10
51.45866781609999
 20
99.73263441569999
 10
51.4656236021
 20
99.73722986390001
 10
51.4733041732
 20
99.7416455835
 10
51.4816792158
 20
99.7458641465
 10
51.4907156753
 20
99.7498689034
 10
51.5003778868
 20
99.753644048
 10
51.5106277157
 20
99.75717468070001
 10
51.52142470840001
 20
99.76044686709998
 10
51.53272625079999
 20
99.76344769219998
 10
51.5444877375
 20
99.7661653123
 10
51.5566627502
 20
99.76858900200001
 10
51.5692032355
 20
99.7707091953
 10
51.5820597119
 20
99.77251752589999
 10
51.5951813701
 20
99.77400684879999
 10
51.608516676
 20
99.77517130930001
 10
51.6220119943
 20
99.77600624690001
 10
51.63561632869999
 20
99.77650848180001
  0
LWPOLYLINE
  5
1546
330
220
100
AcDbEntity
  8
0
  6
Continuous
 62
     7
100
AcDbPolyline
 90
       51
 70
     0
 43
0.0
 10
54.27426290319999
 20
99.77667592370002
 10
54.2879094776
 20
99.77650848180001
 10
54.30151381199999
 20
99.77600624690001
 10
54.31500913029999
 20
99.77517130930001
 10
54.3283444362
 20
99.77400684879999
 10
54.3414660943
 20
99.77251752589999
 10
54.3543225708
 20
99.7707091953
 10
54.36686305609999
 20
99.76858900200001
 10
54.3790380688
 20
99.7661653123
 10
54.3907995555
 20
99.76344769219998
 10
54.4021010979
 20
99.76044686709998
 10
54.4128980906
 20
99.75717468070001
 10
54.4231479195
 20
99.753644048
 10
54.432810131
 20
99.7498689034
 10
54.4418465905
 20
99.7458641466
 10
54.4502216331
 20
99.7416455835
 10
54.45790220420001
 20
99.73722986390001
 10
54.4648579902
 20
99.73263441569999
 10
54.4710615382
 20
99.72787737620002
 10
54.47648836399999
 20
99.72297752040001
 10
54.4811170492
 20
99.7179541869
 10
54.48492932529999
 20
99.71282720179999
 10
54.4879101461
 20
99.7076168002
 10
54.49004774689999
 20
99.70234354639998
 10
54.491333691
 20
99.69702825290001
 10
54.4917629032
 20
99.69169189799998
 10
54.4913336893
 20
99.686355543
 10
54.49004774350001
 20
99.68104024959998
 10
54.4879101411
 20
99.67576699590001
 10
54.48492931859999
 20
99.67055659450002
 10
54.4811170409
 20
99.6654296095
 10
54.4764883542
 20
99.6604062763
 10
54.47106152679999
 20
99.65550642069999
 10
54.46485797729999
 20
99.65074938149999
 10
54.4579021898
 20
99.64615393370001
 10
54.45022161729999
 20
99.64173821450001
 10
54.4418465734
 20
99.63751965180001
 10
54.4328101126
 20
99.63351489540002
 10
54.4231478999
 20
99.62973975129999
 10
54.41289806989999
 20
99.626209119
 10
54.4021010762
 20
99.62293693319999
 10
54.3907995328
 20
99.6199361086
 10
54.37903804520001
 20
99.61721848899999
 10
54.3668630319
 20
99.6147947999
 10
54.35432254550001
 20
99.6126746072
 10
54.3414660696
 20
99.6108662774
 10
54.32834440829999
 20
99.6093769548
 10
54.3150091068
 20
99.60821249540002
 10
54.3015137831
 20
99.60737755810001
 10
54.2879094409
 20
99.60687532370002
 10
54.27426290319999
 20
99.60670788280001
  0
LWPOLYLINE
  5
1547
330
220
100
AcDbEntity
  8
0
  6
Continuous
 62
     7
100
AcDbPolyline
 90
       25
 70
     0
 43
0.0
 10
51.6492629032
 20
99.64604496219999
 10
51.636999816
 20
99.646201822
 10
51.6247892413
 20
99.64667172959998
 10
51.6126834665
 20
99.64745267280001
 10
51.6007343305
 20
99.6485413075
 10
51.58899300199999
 20
99.6499329719
 10
51.57750975859999
 20
99.6516217067
 10
51.5663337728
 20
99.6536002805
 10
51.5555129022
 20
99.6558602209
 10
51.5450934836
 20
99.6583918503
 10
51.5351201345
 20
99.6611843279
 10
51.5256355622
 20
99.66422569590001
 10
51.51668038109999
 20
99.6675029308
 10
51.50829293880001
 20
99.6710019988
 10
51.5005091515
 20
99.67470791650001
 10
51.4933623505
 20
99.67860481450001
 10
51.48688313970001
 20
99.68267600570001
 10
51.4810992639
 20
99.6869040566
 10
51.4760354907
 20
99.6912708622
 10
51.4717135038
 20
99.69575772299998
 10
51.4681518107
 20
99.7003454256
 10
51.4653656631
 20
99.70501432479998
 10
51.46336699159999
 20
99.7097444277
 10
51.4621643551
 20
99.7145154791
 10
51.46176290319999
 20
99.7193070488
  0
LWPOLYLINE
  5
1548
330
220
100
AcDbEntity
  8
0
  6
Continuous
 62
     7
100
AcDbPolyline
 90
        8
 70
     0
 43
0.0
 10
72.8164642669
 20
85.31469101189999
 10
72.7965554096
 20
84.0467154887
 10
72.7337893004
 20
82.7410837282
 10
72.6287797809
 20
81.45424414909999
 10
72.48226909
 20
80.18752705469999
 10
72.2945935723
 20
78.9383800952
 10
72.0662975133
 20
77.7066453342
 10
71.7981124768
 20
76.49332129840001
  0
LWPOLYLINE
  5
1549
330
220
100
AcDbEntity
  8
0
  6
Continuous
 62
     7
100
AcDbPolyline
 90
       15
 70
     0
 43
0.0
 10
71.7981125476
 20
76.49332128010001
 10
71.7801504486
 20
76.4278534191
 10
71.7569920528
 20
76.36216304220001
 10
71.72915635799999
 20
76.29927846560001
 10
71.6967206392
 20
76.23985650929999
 10
71.6594589617
 20
76.18396513970001
 10
71.6184704921
 20
76.1333961138
 10
71.5745151653
 20
76.08873511919999
 10
71.52783993439999
 20
76.04986056060001
 10
71.4796793518
 20
76.01731297659999
 10
71.4314717403
 20
75.9912494709
 10
71.383992968
 20
75.97112986029999
 10
71.33783035430001
 20
75.95626305409999
 10
71.2934994019
 20
75.9459241726
 10
71.25132563850001
 20
75.93936755979999
  0
LWPOLYLINE
  5
154A
330
220
100
AcDbEntity
  8
0
  6
Continuous
 62
     7
100
AcDbPolyline
 90
        3
 70
     0
 43
0.0
 10
24.9845033649
 20
98.0257076374
 10
24.9114904545
 20
98.0060745509
 10
24.8420098381
 20
97.9806292235
  0
LINE
  5
154B
330
220
100
AcDbEntity
  8
0
  6
Continuous
 62
     7
100
AcDbLine
 10
24.9845061623
 20
98.0257083218
 30
0.0
 11
24.9113292045
 21
98.00602345299999
 31
0.0
  0
LWPOLYLINE
  5
154C
330
220
100
AcDbEntity
  8
0
  6
Continuous
 62
     7
100
AcDbPolyline
 90
       13
 70
     0
 43
0.0
 10
23.8767645862
 20
99.12364894319999
 10
26.2561841907
 20
99.6146800516
 10
28.6495039232
 20
100.0654688057
 10
31.0500857114
 20
100.474409112
 10
33.45125058900001
 20
100.840358722
 10
35.8511645151
 20
101.1632525593
 10
38.2642131454
 20
101.4448936611
 10
40.7014506727
 20
101.6857313066
 10
43.1492054024
 20
101.8835989395
 10
45.5933502514
 20
102.0372692234
 10
48.0380056925
 20
102.1471721138
 10
50.49139389649999
 20
102.2134974935
 10
52.9617629032
 20
102.2358088275
  0
LWPOLYLINE
  5
154D
330
220
100
AcDbEntity
  8
0
  6
Continuous
 62
     7
100
AcDbPolyline
 90
       13
 70
     0
 43
0.0
 10
52.9617629011
 20
102.2467878034
 10
50.5406673197
 20
102.2253571046
 10
48.1081548968
 20
102.1606569323
 10
45.67595934809999
 20
102.0526718848
 10
43.24443539989999
 20
101.9013773915
 10
40.81394915839999
 20
101.7067561566
 10
38.3848608749
 20
101.4688035779
 10
35.9574974042
 20
101.1875187088
 10
33.5320517368
 20
100.8628626396
 10
31.1086841583
 20
100.4947739914
 10
28.6875592903
 20
100.0831927008
 10
26.2688305045
 20
99.62805767010001
 10
23.8628563258
 20
99.131508688
  0
LWPOLYLINE
  5
154E
330
220
100
AcDbEntity
  8
0
  6
Continuous
 62
     7
100
AcDbPolyline
 90
       13
 70
     0
 43
0.0
 10
52.9617629032
 20
102.2358088275
 10
55.4321319099
 20
102.2134974935
 10
57.8855201139
 20
102.1471721138
 10
60.33017555489999
 20
102.0372692234
 10
62.77432040399999
 20
101.8835989394
 10
65.2220751336
 20
101.6857313066
 10
67.659312661
 20
101.4448936611
 10
70.07236129119999
 20
101.1632525593
 10
72.4722752173
 20
100.840358722
 10
74.87344009490001
 20
100.474409112
 10
77.27402188310001
 20
100.0654688057
 10
79.66734161569999
 20
99.6146800516
 10
82.04676122010001
 20
99.12364894319999
  0
LWPOLYLINE
  5
154F
330
220
100
AcDbEntity
  8
0
  6
Continuous
 62
     7
100
AcDbPolyline
 90
       13
 70
     0
 43
0.0
 10
80.9390065953
 20
98.02571106010001
 10
78.99296372149999
 20
98.44061934489999
 10
76.8935063757
 20
98.84997594799999
 10
74.673512761
 20
99.2439037287
 10
72.3655110169
 20
99.6138121226
 10
70.0000239419
 20
99.95266103290001
 10
67.5951142783
 20
100.2558563186
 10
65.1652758099
 20
100.5193872803
 10
62.7250481821
 20
100.7394706101
 10
60.2857747378
 20
100.9131510291
 10
57.8473893979
 20
101.0387365231
 10
55.4069780384
 20
101.1148298288
 10
52.9617629032
 20
101.1403421521
  0
LWPOLYLINE
  5
1550
330
220
100
AcDbEntity
  8
0
  6
Continuous
 62
     7
100
AcDbPolyline
 90
       14
 70
     0
 43
0.0
 10
80.9390078076
 20
98.0257107633
 10
79.1731888283
 20
98.40369381790001
 10
77.35529985560001
 20
98.7631158806
 10
75.5420400073
 20
99.09435831299999
 10
73.7877118617
 20
99.39053877040002
 10
71.9999491029
 20
99.6688160811
 10
69.92738842529999
 20
99.9624286393
 10
67.61124174939999
 20
100.2539624048
 10
65.1719962837
 20
100.5187187765
 10
62.6718050454
 20
100.7437624289
 10
60.1557339538
 20
100.9210758231
 10
57.66842981649999
 20
101.0460181152
 10
55.2551054686
 20
101.1178994721
 10
52.9617629032
 20
101.140342152
  0
LWPOLYLINE
  5
1551
330
220
100
AcDbEntity
  8
0
  6
Continuous
 62
     7
100
AcDbPolyline
 90
       10
 70
     0
 43
0.0
 10
81.08151596979999
 20
72.6487528002
 10
81.14629519260001
 20
72.679291247
 10
81.2060984758
 20
72.7143836952
 10
81.26087339239999
 20
72.7536129153
 10
81.3106178539
 20
72.7966523537
 10
81.35511253289999
 20
72.84300446350001
 10
81.3943906219
 20
72.89241347939999
 10
81.42830799290001
 20
72.9444317194
 10
81.4569254867
 20
72.9989325209
 10
81.48016712270001
 20
73.0556627856
  0
LWPOLYLINE
  5
1552
330
220
100
AcDbEntity
  8
0
  6
Continuous
 62
     7
100
AcDbPolyline
 90
        9
 70
     0
 43
0.0
 10
81.0811717798
 20
72.64860902310001
 10
81.14577157319999
 20
72.6790150753
 10
81.2054798081
 20
72.7139821759
 10
81.2605287132
 20
72.7533414647
 10
81.3106670676
 20
72.7966990978
 10
81.3554790553
 20
72.843424145
 10
81.3947257577
 20
72.8928787398
 10
81.42857515999999
 20
72.94488742279999
 10
81.4570455147
 20
72.99919016539999
  0
LWPOLYLINE
  5
1553
330
220
100
AcDbEntity
  8
0
  6
Continuous
 62
     7
100
AcDbPolyline
 90
       16
 70
     0
 43
0.0
 10
23.8628563258
 20
99.131508688
 10
23.7460783037
 20
99.1022277923
 10
23.6216491373
 20
99.0615665053
 10
23.5013415042
 20
99.01220576420001
 10
23.385703882
 20
98.954477466
 10
23.2752763921
 20
98.8887502819
 10
23.1705720987
 20
98.81542459090001
 10
23.07207446780001
 20
98.7349313486
 10
22.9802352816
 20
98.6477309924
 10
22.8954545472
 20
98.55429077290001
 10
22.8180906697
 20
98.45508248450002
 10
22.7484760764
 20
98.35059455219999
 10
22.6869182658
 20
98.24133485069999
 10
22.6336943522
 20
98.12782345889999
 10
22.589048599
 20
98.01058007569999
 10
22.5558584153
 20
97.90032765340001
  0
LWPOLYLINE
  5
1554
330
220
100
AcDbEntity
  8
0
  6
Continuous
 62
     7
100
AcDbPolyline
 90
       13
 70
     0
 43
0.0
 10
82.06066948010001
 20
99.13150868809999
 10
79.65564156460001
 20
99.62787099209998
 10
77.23694313199999
 20
100.0830178183
 10
74.81584717289999
 20
100.4946121911
 10
72.39250357649999
 20
100.8627155414
 10
69.9670722814
 20
101.1873884588
 10
67.53970826449999
 20
101.4686918966
 10
65.1106016395
 20
101.7066649469
 10
62.6800860156
 20
101.9013065259
 10
60.24853078239999
 20
102.0526205054
 10
57.8163105777
 20
102.160623569
 10
55.3837872361
 20
102.2253406523
 10
52.9617629011
 20
102.2467878034
  0
LWPOLYLINE
  5
1555
330
220
100
AcDbEntity
  8
0
  6
Continuous
 62
     7
100
AcDbPolyline
 90
       15
 70
     0
 43
0.0
 10
82.04676122010001
 20
99.12364894319999
 10
82.18213367549999
 20
99.08895065870002
 10
82.31327627129999
 20
99.04422907790001
 10
82.4393317326
 20
98.9899747772
 10
82.56028017910001
 20
98.92632406290001
 10
82.67532959520002
 20
98.85374270159999
 10
82.78351792530001
 20
98.772960183
 10
82.88425615159999
 20
98.68461483490001
 10
82.97761757020001
 20
98.5887367607
 10
83.0628974675
 20
98.4860539509
 10
83.1394394383
 20
98.37746906559999
 10
83.206972753
 20
98.26352772940001
 10
83.2654694552
 20
98.1442526168
 10
83.31440277629999
 20
98.02057519919999
 10
83.35336625720001
 20
97.8935749949
  0
LINE
  5
1556
330
220
100
AcDbEntity
  8
0
  6
Continuous
 62
     7
100
AcDbLine
 10
81.01219721019999
 20
98.00602223490001
 30
0.0
 11
80.9390065953
 21
98.02571106010001
 31
0.0
  0
LWPOLYLINE
  5
1557
330
220
100
AcDbEntity
  8
0
  6
Continuous
 62
     7
100
AcDbPolyline
 90
        8
 70
     0
 43
0.0
 10
71.7981124798
 20
94.13606074370001
 10
72.0651505422
 20
92.92838096610001
 10
72.2926687466
 20
91.70246575120001
 10
72.47994828439999
 20
90.459284986
 10
72.62644372369999
 20
89.19875755540001
 10
72.73183499649999
 20
87.91828167290001
 10
72.7953868594
 20
86.61921671729999
 10
72.8164642664
 20
85.31469101189999
  0
LINE
  5
1558
330
220
100
AcDbEntity
  8
0
  6
Continuous
 62
     7
100
AcDbLine
 10
82.7490574071
 20
90.0752026364
 30
0.0
 11
82.58679980750001
 21
91.6168930192
 31
0.0
  0
LINE
  5
1559
330
220
100
AcDbEntity
  8
0
  6
Continuous
 62
     7
100
AcDbLine
 10
82.68450930609999
 20
90.68859072389999
 30
0.0
 11
82.586972644
 21
91.61546270989999
 31
0.0
  0
LINE
  5
155A
330
220
100
AcDbEntity
  8
0
  6
Continuous
 62
     7
100
AcDbLine
 10
82.865712602
 20
88.51065168629999
 30
0.0
 11
82.74902157280001
 21
90.07568321639999
 31
0.0
  0
LINE
  5
155B
330
220
100
AcDbEntity
  8
0
  6
Continuous
 62
     7
100
AcDbLine
 10
82.93622442029999
 20
86.9231507822
 30
0.0
 11
82.8657048344
 21
88.51082656690001
 31
0.0
  0
LINE
  5
155C
330
220
100
AcDbEntity
  8
0
  6
Continuous
 62
     7
100
AcDbLine
 10
82.9598771815
 20
85.31469101189999
 30
0.0
 11
82.93622276239998
 21
86.9231881079
 31
0.0
  0
LINE
  5
155D
330
220
100
AcDbEntity
  8
0
  6
Continuous
 62
     7
100
AcDbLine
 10
82.93622275189999
 20
83.70619356270001
 30
0.0
 11
82.9598771815
 21
85.31469101189999
 31
0.0
  0
LINE
  5
155E
330
220
100
AcDbEntity
  8
0
  6
Continuous
 62
     7
100
AcDbLine
 10
82.86570479300001
 20
82.11855476069999
 30
0.0
 11
82.9362244098
 21
83.70623088859998
 31
0.0
  0
LINE
  5
155F
330
220
100
AcDbEntity
  8
0
  6
Continuous
 62
     7
100
AcDbLine
 10
82.7490214804
 20
80.5536977789
 30
0.0
 11
82.8657125606
 21
82.11872964079999
 31
0.0
  0
LINE
  5
1560
330
220
100
AcDbEntity
  8
0
  6
Continuous
 62
     7
100
AcDbLine
 10
82.58697248069999
 20
79.01391796189999
 30
0.0
 11
82.74905731469999
 21
80.554178358
 31
0.0
  0
LINE
  5
1561
330
220
100
AcDbEntity
  8
0
  6
Continuous
 62
     7
100
AcDbLine
 10
82.38001628819999
 20
77.49834433779999
 30
0.0
 11
82.58697248069999
 21
79.01391796189999
 31
0.0
  0
LINE
  5
1562
330
220
100
AcDbEntity
  8
0
  6
Continuous
 62
     7
100
AcDbLine
 10
82.12893265659999
 20
76.008901161
 30
0.0
 11
82.38001628819999
 21
77.49834433779999
 31
0.0
  0
LWPOLYLINE
  5
1563
330
220
100
AcDbEntity
  8
0
  6
Continuous
 62
     7
100
AcDbPolyline
 90
        4
 70
     0
 43
0.0
 10
82.12887728110001
 20
76.0085727006
 10
82.37979441510001
 20
77.4968894513
 10
82.5867996444
 20
79.0124876549
 10
82.7490214804
 20
80.5536977789
  0
LINE
  5
1564
330
220
100
AcDbEntity
  8
0
  6
Continuous
 62
     7
100
AcDbLine
 10
81.8346555383
 20
74.5474214602
 30
0.0
 11
82.12893265659999
 21
76.008901161
 31
0.0
  0
LINE
  5
1565
330
220
100
AcDbEntity
  8
0
  6
Continuous
 62
     7
100
AcDbLine
 10
81.4978694154
 20
73.1140941112
 30
0.0
 11
81.83471176270002
 21
74.5476607456
 31
0.0
  0
LINE
  5
1566
330
220
100
AcDbEntity
  8
0
  6
Continuous
 62
     7
100
AcDbLine
 10
81.48016712270001
 20
73.0556627856
 30
0.0
 11
81.4978692556
 21
73.1140935163
 31
0.0
  0
LINE
  5
1567
330
220
100
AcDbEntity
  8
0
  6
Continuous
 62
     7
100
AcDbLine
 10
81.48012184789999
 20
73.0555354087
 30
0.0
 11
81.4978694154
 21
73.1140941112
 31
0.0
  0
LWPOLYLINE
  5
1568
330
220
100
AcDbEntity
  8
0
  6
Continuous
 62
     7
100
AcDbPolyline
 90
        3
 70
     0
 43
0.0
 10
82.58679980750001
 20
91.6168930192
 10
82.37979466810001
 20
93.13249091370002
 10
82.1288776425
 20
94.6208073684
  0
LINE
  5
1569
330
220
100
AcDbEntity
  8
0
  6
Continuous
 62
     7
100
AcDbLine
 10
82.586972644
 20
91.61546270989999
 30
0.0
 11
82.38001654159999
 21
93.1310360244
 31
0.0
  0
LWPOLYLINE
  5
156A
330
220
100
AcDbEntity
  8
0
  6
Continuous
 62
     7
100
AcDbPolyline
 90
       10
 70
     0
 43
0.0
 10
85.0005644237
 20
85.31469101189999
 10
84.9805306112
 20
86.7209494437
 10
84.919799159
 20
88.13724855770001
 10
84.81843053010001
 20
89.55099875120001
 10
84.6765295017
 20
90.9609609035
 10
84.49422294500001
 20
92.3659078086
 10
84.27167392340001
 20
93.7645897025
 10
84.0091121036
 20
95.15574304129998
 10
83.706792806
 20
96.53809771200002
 10
83.36766739099999
 20
97.9003276535
  0
LWPOLYLINE
  5
156B
330
220
100
AcDbEntity
  8
0
  6
Continuous
 62
     7
100
AcDbPolyline
 90
        9
 70
     0
 43
0.0
 10
84.9851615518
 20
85.31469101189999
 10
84.95950602829999
 20
83.72368887749999
 10
84.88254425719999
 20
82.1341536243
 10
84.7544124983
 20
80.54860166240001
 10
84.5752156712
 20
78.9680734535
 10
84.3451794555
 20
77.3947045868
 10
84.06465984329999
 20
75.8306037663
 10
83.73387208869999
 20
74.2768040574
 10
83.35336625720001
 20
72.7358070289
  0
LWPOLYLINE
  5
156C
330
220
100
AcDbEntity
  8
0
  6
Continuous
 62
     7
100
AcDbPolyline
 90
       10
 70
     0
 43
0.0
 10
83.3676673911
 20
72.72905437039999
 10
83.7065765982
 20
74.09035962539999
 10
84.00892459659999
 20
75.47271804640001
 10
84.2715163701
 20
76.86388621029999
 10
84.49409423789999
 20
78.2625841503
 10
84.67642796619999
 20
79.66753882649999
 10
84.8183541118
 20
81.07749708109999
 10
84.91974765970001
 20
82.49123443109999
 10
84.9805044146
 20
83.90751479669999
 10
85.0005644237
 20
85.31469101189999
  0
LWPOLYLINE
  5
156D
330
220
100
AcDbEntity
  8
0
  6
Continuous
 62
     7
100
AcDbPolyline
 90
       15
 70
     0
 43
0.0
 10
83.35336625720001
 20
72.7358070289
 10
83.31440309379999
 20
72.6088077302
 10
83.2654701366
 20
72.4851309479
 10
83.20697249060001
 20
72.365853809
 10
83.1394385844
 20
72.2519116391
 10
83.0628975045
 20
72.1433281213
 10
82.97761809929999
 20
72.0406458513
 10
82.8842554212
 20
71.94476649569999
 10
82.78351626520001
 20
71.85642049630001
 10
82.67532979390001
 20
71.7756394587
 10
82.5602805635
 20
71.70305818279999
 10
82.43933002899998
 20
71.6394064333
 10
82.3132732844
 20
71.5851517956
 10
82.1821334902
 20
71.54043130979999
 10
82.04676122010001
 20
71.50573308060001
  0
LWPOLYLINE
  5
156E
330
220
100
AcDbEntity
  8
0
  6
Continuous
 62
     7
100
AcDbPolyline
 90
       10
 70
     0
 43
0.0
 10
81.45692641270001
 20
97.63044692340001
 10
81.4283089441
 20
97.68494774030001
 10
81.39439159060001
 20
97.73696603290002
 10
81.35511350100001
 20
97.78637514559999
 10
81.3106187954
 20
97.83272739510001
 10
81.2608742831
 20
97.87576700649999
 10
81.20609928970001
 20
97.91499642879999
 10
81.1462959316
 20
97.95008908920001
 10
81.0815166375
 20
97.98062776240001
 10
81.01203599219999
 20
98.0060733232
  0
LWPOLYLINE
  5
156F
330
220
100
AcDbEntity
  8
0
  6
Continuous
 62
     7
100
AcDbPolyline
 90
        9
 70
     0
 43
0.0
 10
81.4570464388
 20
97.63018928280001
 10
81.4285761112
 20
97.68449203639999
 10
81.3947267216
 20
97.73650077840001
 10
81.35548001830001
 20
97.7859554689
 10
81.3106680129
 20
97.83268064719999
 10
81.2605296249
 20
97.8760384415
 10
81.2054806675
 20
97.9153979203
 10
81.1457723674
 20
97.95036523330001
 10
81.08117249340001
 20
97.98077152139999
  0
LINE
  5
1570
330
220
100
AcDbEntity
  8
0
  6
Continuous
 62
     7
100
AcDbLine
 10
81.48016801389999
 20
97.57371669780001
 30
0.0
 11
81.45692641270001
 21
97.63044692340001
 31
0.0
  0
LINE
  5
1571
330
220
100
AcDbEntity
  8
0
  6
Continuous
 62
     7
100
AcDbLine
 10
81.4978694558
 20
97.51528805360001
 30
0.0
 11
81.480122738
 21
97.57384407780001
 31
0.0
  0
LWPOLYLINE
  5
1572
330
220
100
AcDbEntity
  8
0
  6
Continuous
 62
     7
100
AcDbPolyline
 90
        9
 70
     0
 43
0.0
 10
83.35336625720001
 20
97.8935749949
 10
83.73387208869999
 20
96.35257796639999
 10
84.06465984329999
 20
94.7987782575
 10
84.3451794555
 20
93.234677437
 10
84.5752156712
 20
91.66130857030001
 10
84.7544124983
 20
90.08078036139998
 10
84.88254425719999
 20
88.49522839950001
 10
84.95950602829999
 20
86.9056931463
 10
84.9851615518
 20
85.31469101189999
  0
LINE
  5
1573
330
220
100
AcDbEntity
  8
0
  6
Continuous
 62
     7
100
AcDbLine
 10
81.83471225079999
 20
96.08171903989999
 30
0.0
 11
81.497869052
 21
97.51528955719999
 31
0.0
  0
LINE
  5
1574
330
220
100
AcDbEntity
  8
0
  6
Continuous
 62
     7
100
AcDbLine
 10
82.1289330183
 20
94.6204789062
 30
0.0
 11
81.8346560268
 21
96.08195832379999
 31
0.0
  0
LINE
  5
1575
330
220
100
AcDbEntity
  8
0
  6
Continuous
 62
     7
100
AcDbLine
 10
82.38001654159999
 20
93.1310360244
 30
0.0
 11
82.20746307549999
 21
94.1546772092
 31
0.0
  0
LWPOLYLINE
  5
1576
330
220
100
AcDbEntity
  8
0
  6
Continuous
 62
     7
100
AcDbPolyline
 90
       16
 70
     0
 43
0.0
 10
83.36766739099999
 20
97.9003276535
 10
83.33477913039999
 20
98.0096879324
 10
83.29019847599999
 20
98.12695749020001
 10
83.2370385145
 20
98.2404979332
 10
83.1755438821
 20
98.3497888143
 10
83.10599139789999
 20
98.45431108959999
 10
83.02868734950001
 20
98.5535582966
 10
82.94396304500001
 20
98.6470426796
 10
82.85217559649998
 20
98.7342927711
 10
82.7537239745
 20
98.81484105129999
 10
82.6490597027
 20
98.8882260835
 10
82.5386663003
 20
98.95401590809999
 10
82.423057316
 20
99.0118090704
 10
82.30277321169999
 20
99.0612363153
 10
82.17836119000001
 20
99.1019655676
 10
82.06066948010001
 20
99.13150868809999
  0
CIRCLE
  5
1595
330
220
100
AcDbEntity
  8
DEFAULT_2
  6
HIDDEN
 62
     7
100
AcDbCircle
 10
56.8367629032
 20
81.06469101189999
 30
0.0
 40
1.125
  0
CIRCLE
  5
1596
330
220
100
AcDbEntity
  8
DEFAULT_2
  6
HIDDEN
 62
     7
100
AcDbCircle
 10
52.9617629032
 20
89.5421910119
 30
0.0
 40
1.125
  0
CIRCLE
  5
1598
330
220
100
AcDbEntity
  8
DEFAULT_2
  6
HIDDEN
 62
     7
100
AcDbCircle
 10
52.9617629032
 20
89.5421910119
 30
0.0
 40
0.9849999999999999
  0
CIRCLE
  5
1599
330
220
100
AcDbEntity
  8
DEFAULT_2
  6
HIDDEN
 62
     7
100
AcDbCircle
 10
56.8367629032
 20
81.06469101189999
 30
0.0
 40
0.9375
  0
CIRCLE
  5
15AD
330
220
100
AcDbEntity
  8
0
  6
Continuous
 62
     7
100
AcDbCircle
 10
52.9617629032
 20
85.31469101189999
 30
0.0
 40
1.448223304699999
  0
ENDSEC
  0
SECTION
  2
OBJECTS
  0
DICTIONARY
  5
C
330
0
100
AcDbDictionary
281
     1
  3
ACAD_COLOR
350
15E3
  3
ACAD_GROUP
350
D
  3
ACAD_LAYOUT
350
1A
  3
ACAD_MATERIAL
350
15B6
  3
ACAD_MLEADERSTYLE
350
1608
  3
ACAD_MLINESTYLE
350
17
  3
ACAD_PLOTSETTINGS
350
19
  3
ACAD_PLOTSTYLENAME
350
E
  3
ACAD_SCALELIST
350
15E6
  3
ACAD_TABLESTYLE
350
15E4
  3
ACAD_VISUALSTYLE
350
15CF
  3
ACDB_RECOMPOSE_DATA
350
160C
  3
AcDbVariableDictionary
350
163E
  0
DICTIONARY
  5
160D
330
8
100
AcDbDictionary
280
     1
281
     1
  0
DICTIONARY
  5
164D
330
10
100
AcDbDictionary
280
     1
281
     1
  3
ADSK_XREC_LAYER_RECONCILED
360
164E
  0
DICTIONARY
  5
164F
330
1FA
100
AcDbDictionary
280
     1
281
     1
  3
ADSK_XREC_LAYER_RECONCILED
360
1650
  0
DICTIONARY
  5
1651
330
1FB
100
AcDbDictionary
280
     1
281
     1
  3
ADSK_XREC_LAYER_RECONCILED
360
1652
  0
DICTIONARY
  5
1653
330
1FC
100
AcDbDictionary
280
     1
281
     1
  3
ADSK_XREC_LAYER_RECONCILED
360
1654
  0
DICTIONARY
  5
1655
330
1FD
100
AcDbDictionary
280
     1
281
     1
  3
ADSK_XREC_LAYER_RECONCILED
360
1656
  0
DICTIONARY
  5
1657
330
1FE
100
AcDbDictionary
280
     1
281
     1
  3
ADSK_XREC_LAYER_RECONCILED
360
1658
  0
DICTIONARY
  5
1659
330
1FF
100
AcDbDictionary
280
     1
281
     1
  3
ADSK_XREC_LAYER_RECONCILED
360
165A
  0
DICTIONARY
  5
165B
330
200
100
AcDbDictionary
280
     1
281
     1
  3
ADSK_XREC_LAYER_RECONCILED
360
165C
  0
DICTIONARY
  5
165D
330
201
100
AcDbDictionary
280
     1
281
     1
  3
ADSK_XREC_LAYER_RECONCILED
360
165E
  0
DICTIONARY
  5
165F
330
202
100
AcDbDictionary
280
     1
281
     1
  3
ADSK_XREC_LAYER_RECONCILED
360
1660
  0
DICTIONARY
  5
1661
330
203
100
AcDbDictionary
280
     1
281
     1
  3
ADSK_XREC_LAYER_RECONCILED
360
1662
  0
DICTIONARY
  5
1663
330
204
100
AcDbDictionary
280
     1
281
     1
  3
ADSK_XREC_LAYER_RECONCILED
360
1664
  0
DICTIONARY
  5
1665
330
205
100
AcDbDictionary
280
     1
281
     1
  3
ADSK_XREC_LAYER_RECONCILED
360
1666
  0
DICTIONARY
  5
1667
330
206
100
AcDbDictionary
280
     1
281
     1
  3
ADSK_XREC_LAYER_RECONCILED
360
1668
  0
DICTIONARY
  5
1669
330
207
100
AcDbDictionary
280
     1
281
     1
  3
ADSK_XREC_LAYER_RECONCILED
360
166A
  0
DICTIONARY
  5
166B
330
208
100
AcDbDictionary
280
     1
281
     1
  3
ADSK_XREC_LAYER_RECONCILED
360
166C
  0
DICTIONARY
  5
166D
330
209
100
AcDbDictionary
280
     1
281
     1
  3
ADSK_XREC_LAYER_RECONCILED
360
166E
  0
DICTIONARY
  5
166F
330
20A
100
AcDbDictionary
280
     1
281
     1
  3
ADSK_XREC_LAYER_RECONCILED
360
1670
  0
DICTIONARY
  5
1671
330
20B
100
AcDbDictionary
280
     1
281
     1
  3
ADSK_XREC_LAYER_RECONCILED
360
1672
  0
DICTIONARY
  5
1673
330
20C
100
AcDbDictionary
280
     1
281
     1
  3
ADSK_XREC_LAYER_RECONCILED
360
1674
  0
DICTIONARY
  5
1675
330
20D
100
AcDbDictionary
280
     1
281
     1
  3
ADSK_XREC_LAYER_RECONCILED
360
1676
  0
DICTIONARY
  5
1677
330
20E
100
AcDbDictionary
280
     1
281
     1
  3
ADSK_XREC_LAYER_RECONCILED
360
1678
  0
DICTIONARY
  5
1679
330
20F
100
AcDbDictionary
280
     1
281
     1
  3
ADSK_XREC_LAYER_RECONCILED
360
167A
  0
DICTIONARY
  5
167B
330
210
100
AcDbDictionary
280
     1
281
     1
  3
ADSK_XREC_LAYER_RECONCILED
360
167C
  0
DICTIONARY
  5
167D
330
211
100
AcDbDictionary
280
     1
281
     1
  3
ADSK_XREC_LAYER_RECONCILED
360
167E
  0
DICTIONARY
  5
167F
330
212
100
AcDbDictionary
280
     1
281
     1
  3
ADSK_XREC_LAYER_RECONCILED
360
1680
  0
DICTIONARY
  5
1681
330
213
100
AcDbDictionary
280
     1
281
     1
  3
ADSK_XREC_LAYER_RECONCILED
360
1682
  0
DICTIONARY
  5
1683
330
214
100
AcDbDictionary
280
     1
281
     1
  3
ADSK_XREC_LAYER_RECONCILED
360
1684
  0
DICTIONARY
  5
1685
330
215
100
AcDbDictionary
280
     1
281
     1
  3
ADSK_XREC_LAYER_RECONCILED
360
1686
  0
DICTIONARY
  5
1687
330
216
100
AcDbDictionary
280
     1
281
     1
  3
ADSK_XREC_LAYER_RECONCILED
360
1688
  0
DICTIONARY
  5
1689
330
217
100
AcDbDictionary
280
     1
281
     1
  3
ADSK_XREC_LAYER_RECONCILED
360
168A
  0
DICTIONARY
  5
15E3
102
{ACAD_REACTORS
330
C
102
}
330
C
100
AcDbDictionary
281
     1
  0
DICTIONARY
  5
D
102
{ACAD_REACTORS
330
C
102
}
330
C
100
AcDbDictionary
281
     1
  0
DICTIONARY
  5
1A
102
{ACAD_REACTORS
330
C
102
}
330
C
100
AcDbDictionary
281
     1
  3
Layout1
350
15B3
  3
Model
350
15B2
  0
DICTIONARY
  5
15B6
102
{ACAD_REACTORS
330
C
102
}
330
C
100
AcDbDictionary
281
     1
  3
ByBlock
350
15BF
  3
ByLayer
350
15B7
  3
Global
350
15C7
  0
DICTIONARY
  5
1608
102
{ACAD_REACTORS
330
C
102
}
330
C
100
AcDbDictionary
281
     1
  3
Standard
350
1609
  0
DICTIONARY
  5
17
102
{ACAD_REACTORS
330
C
102
}
330
C
100
AcDbDictionary
281
     1
  3
Standard
350
18
  0
DICTIONARY
  5
19
102
{ACAD_REACTORS
330
C
102
}
330
C
100
AcDbDictionary
281
     1
  0
ACDBDICTIONARYWDFLT
  5
E
102
{ACAD_REACTORS
330
C
102
}
330
C
100
AcDbDictionary
281
     1
  3
Normal
350
F
100
AcDbDictionaryWithDefault
340
F
  0
DICTIONARY
  5
15E6
102
{ACAD_REACTORS
330
C
102
}
330
C
100
AcDbDictionary
281
     1
  3
A0
350
15E7
  3
A1
350
15E8
  3
A2
350
15E9
  3
A3
350
15EA
  3
A4
350
15EB
  3
A5
350
15EC
  3
A6
350
15ED
  3
A7
350
15EE
  3
A8
350
15EF
  3
A9
350
15F0
  3
B0
350
15F1
  3
B1
350
15F2
  3
B2
350
15F3
  3
B3
350
15F4
  3
B4
350
15F5
  3
B5
350
15F6
  3
B6
350
15F7
  3
B7
350
15F8
  3
B8
350
15F9
  3
B9
350
15FA
  3
C0
350
15FB
  3
C1
350
15FC
  3
C2
350
15FD
  3
C3
350
15FE
  3
C4
350
15FF
  3
C5
350
1600
  3
C6
350
1601
  3
C7
350
1602
  3
C8
350
1603
  3
C9
350
1604
  3
D0
350
1605
  3
D1
350
1606
  3
D2
350
1607
  0
DICTIONARY
  5
15E4
102
{ACAD_REACTORS
330
C
102
}
330
C
100
AcDbDictionary
281
     1
  3
Standard
350
15E5
  0
DICTIONARY
  5
15CF
102
{ACAD_REACTORS
330
C
102
}
330
C
100
AcDbDictionary
281
     1
  3
2dWireframe
350
15D5
  3
3D Hidden
350
15D7
  3
3dWireframe
350
15D6
  3
Basic
350
15D4
  3
Brighten
350
15DB
  3
ColorChange
350
15DF
  3
Conceptual
350
15D8
  3
Dim
350
15DA
  3
EdgeColorOff
350
15E2
  3
Facepattern
350
15DE
  3
Flat
350
15D0
  3
FlatWithEdges
350
15D1
  3
Gouraud
350
15D2
  3
GouraudWithEdges
350
15D3
  3
JitterOff
350
15E0
  3
Linepattern
350
15DD
  3
OverhangOff
350
15E1
  3
Realistic
350
15D9
  3
Thicken
350
15DC
  0
XRECORD
  5
160C
102
{ACAD_REACTORS
330
C
102
}
330
C
100
AcDbXrecord
280
     1
 90
        1
330
15E5
  0
DICTIONARY
  5
163E
102
{ACAD_REACTORS
330
C
102
}
330
C
100
AcDbDictionary
281
     1
  3
CANNOSCALE
350
1641
  3
CMLEADERSTYLE
350
1640
  3
CTABLESTYLE
350
163F
  3
DIMASSOC
350
1644
  3
INDEXCTL
350
1643
  3
LAYEREVAL
350
168E
  3
LAYERNOTIFY
350
168F
  3
LIGHTINGUNITS
350
168D
  3
MSLTSCALE
350
168C
  3
SORTENTS
350
1642
  3
XCLIPFRAME
350
1645
  0
XRECORD
  5
164E
102
{ACAD_REACTORS
330
164D
102
}
330
164D
100
AcDbXrecord
280
     1
290
     1
  0
XRECORD
  5
1650
102
{ACAD_REACTORS
330
164F
102
}
330
164F
100
AcDbXrecord
280
     1
290
     1
  0
XRECORD
  5
1652
102
{ACAD_REACTORS
330
1651
102
}
330
1651
100
AcDbXrecord
280
     1
290
     1
  0
XRECORD
  5
1654
102
{ACAD_REACTORS
330
1653
102
}
330
1653
100
AcDbXrecord
280
     1
290
     1
  0
XRECORD
  5
1656
102
{ACAD_REACTORS
330
1655
102
}
330
1655
100
AcDbXrecord
280
     1
290
     1
  0
XRECORD
  5
1658
102
{ACAD_REACTORS
330
1657
102
}
330
1657
100
AcDbXrecord
280
     1
290
     1
  0
XRECORD
  5
165A
102
{ACAD_REACTORS
330
1659
102
}
330
1659
100
AcDbXrecord
280
     1
290
     1
  0
XRECORD
  5
165C
102
{ACAD_REACTORS
330
165B
102
}
330
165B
100
AcDbXrecord
280
     1
290
     1
  0
XRECORD
  5
165E
102
{ACAD_REACTORS
330
165D
102
}
330
165D
100
AcDbXrecord
280
     1
290
     1
  0
XRECORD
  5
1660
102
{ACAD_REACTORS
330
165F
102
}
330
165F
100
AcDbXrecord
280
     1
290
     1
  0
XRECORD
  5
1662
102
{ACAD_REACTORS
330
1661
102
}
330
1661
100
AcDbXrecord
280
     1
290
     1
  0
XRECORD
  5
1664
102
{ACAD_REACTORS
330
1663
102
}
330
1663
100
AcDbXrecord
280
     1
290
     1
  0
XRECORD
  5
1666
102
{ACAD_REACTORS
330
1665
102
}
330
1665
100
AcDbXrecord
280
     1
290
     1
  0
XRECORD
  5
1668
102
{ACAD_REACTORS
330
1667
102
}
330
1667
100
AcDbXrecord
280
     1
290
     1
  0
XRECORD
  5
166A
102
{ACAD_REACTORS
330
1669
102
}
330
1669
100
AcDbXrecord
280
     1
290
     1
  0
XRECORD
  5
166C
102
{ACAD_REACTORS
330
166B
102
}
330
166B
100
AcDbXrecord
280
     1
290
     1
  0
XRECORD
  5
166E
102
{ACAD_REACTORS
330
166D
102
}
330
166D
100
AcDbXrecord
280
     1
290
     1
  0
XRECORD
  5
1670
102
{ACAD_REACTORS
330
166F
102
}
330
166F
100
AcDbXrecord
280
     1
290
     1
  0
XRECORD
  5
1672
102
{ACAD_REACTORS
330
1671
102
}
330
1671
100
AcDbXrecord
280
     1
290
     1
  0
XRECORD
  5
1674
102
{ACAD_REACTORS
330
1673
102
}
330
1673
100
AcDbXrecord
280
     1
290
     1
  0
XRECORD
  5
1676
102
{ACAD_REACTORS
330
1675
102
}
330
1675
100
AcDbXrecord
280
     1
290
     1
  0
XRECORD
  5
1678
102
{ACAD_REACTORS
330
1677
102
}
330
1677
100
AcDbXrecord
280
     1
290
     1
  0
XRECORD
  5
167A
102
{ACAD_REACTORS
330
1679
102
}
330
1679
100
AcDbXrecord
280
     1
290
     1
  0
XRECORD
  5
167C
102
{ACAD_REACTORS
330
167B
102
}
330
167B
100
AcDbXrecord
280
     1
290
     1
  0
XRECORD
  5
167E
102
{ACAD_REACTORS
330
167D
102
}
330
167D
100
AcDbXrecord
280
     1
290
     1
  0
XRECORD
  5
1680
102
{ACAD_REACTORS
330
167F
102
}
330
167F
100
AcDbXrecord
280
     1
290
     1
  0
XRECORD
  5
1682
102
{ACAD_REACTORS
330
1681
102
}
330
1681
100
AcDbXrecord
280
     1
290
     1
  0
XRECORD
  5
1684
102
{ACAD_REACTORS
330
1683
102
}
330
1683
100
AcDbXrecord
280
     1
290
     1
  0
XRECORD
  5
1686
102
{ACAD_REACTORS
330
1685
102
}
330
1685
100
AcDbXrecord
280
     1
290
     1
  0
XRECORD
  5
1688
102
{ACAD_REACTORS
330
1687
102
}
330
1687
100
AcDbXrecord
280
     1
290
     1
  0
XRECORD
  5
168A
102
{ACAD_REACTORS
330
1689
102
}
330
1689
100
AcDbXrecord
280
     1
290
     1
  0
LAYOUT
  5
15B3
102
{ACAD_REACTORS
330
1A
102
}
330
1A
100
AcDbPlotSettings
  1

  2
none_device
  4
ANSI_B_(17.00_x_11.00_Inches)
  6

 40
0.0
 41
0.0
 42
0.0
 43
0.0
 44
431.8
 45
279.4
 46
0.0
 47
0.0
 48
0.0
 49
0.0
140
0.0
141
0.0
142
1.0
143
1.0
 70
     0
 72
     0
 73
     0
 74
     0
  7

 75
     0
147
1.0
 76
     0
 77
     2
 78
   300
148
0.0
149
0.0
100
AcDbLayout
  1
Layout1
 70
     1
 71
     1
 10
0.0
 20
0.0
 11
12.0
 21
9.0
 12
0.0
 22
0.0
 32
0.0
 14
1.000000000000000E+20
 24
1.000000000000000E+20
 34
1.000000000000000E+20
 15
-1.000000000000000E+20
 25
-1.000000000000000E+20
 35
-1.000000000000000E+20
146
0.0
 13
0.0
 23
0.0
 33
0.0
 16
1.0
 26
0.0
 36
0.0
 17
0.0
 27
1.0
 37
0.0
 76
     0
330
221
  0
LAYOUT
  5
15B2
102
{ACAD_REACTORS
330
1A
102
}
330
1A
100
AcDbPlotSettings
  1

  2
none_device
  4
ANSI_B_(17.00_x_11.00_Inches)
  6

 40
0.0
 41
0.0
 42
0.0
 43
0.0
 44
431.8
 45
279.4
 46
0.0
 47
0.0
 48
0.0
 49
0.0
140
0.0
141
0.0
142
1.0
143
1.0
 70
  1024
 72
     0
 73
     0
 74
     0
  7

 75
     0
147
1.0
 76
     0
 77
     2
 78
   300
148
0.0
149
0.0
100
AcDbLayout
  1
Model
 70
     0
 71
     0
 10
0.0
 20
0.0
 11
17.0
 21
11.0
 12
0.0
 22
0.0
 32
0.0
 14
0.0
 24
0.0
 34
0.0
 15
0.0
 25
0.0
 35
0.0
146
0.0
 13
0.0
 23
0.0
 33
0.0
 16
1.0
 26
0.0
 36
0.0
 17
0.0
 27
1.0
 37
0.0
 76
     0
330
220
331
1F4
  0
MATERIAL
  5
15BF
102
{ACAD_XDICTIONARY
360
15C0
102
}
102
{ACAD_REACTORS
330
15B6
102
}
330
15B6
100
AcDbMaterial
  1
ByBlock
 72
     0
 43
0.0208333333333333
 43
0.0
 43
0.0
 43
0.0
 43
0.0
 43
0.0208333333333333
 43
0.0
 43
0.0
 43
0.0
 43
0.0
 43
1.0
 43
0.0
 43
0.0
 43
0.0
 43
0.0
 43
1.0
 77
     0
 47
0.0208333333333333
 47
0.0
 47
0.0
 47
0.0
 47
0.0
 47
0.0208333333333333
 47
0.0
 47
0.0
 47
0.0
 47
0.0
 47
1.0
 47
0.0
 47
0.0
 47
0.0
 47
0.0
 47
1.0
171
     0
 49
0.0208333333333333
 49
0.0
 49
0.0
 49
0.0
 49
0.0
 49
0.0208333333333333
 49
0.0
 49
0.0
 49
0.0
 49
0.0
 49
1.0
 49
0.0
 49
0.0
 49
0.0
 49
0.0
 49
1.0
175
     0
142
0.0208333333333333
142
0.0
142
0.0
142
0.0
142
0.0
142
0.0208333333333333
142
0.0
142
0.0
142
0.0
142
0.0
142
1.0
142
0.0
142
0.0
142
0.0
142
0.0
142
1.0
179
     0
144
0.0208333333333333
144
0.0
144
0.0
144
0.0
144
0.0
144
0.0208333333333333
144
0.0
144
0.0
144
0.0
144
0.0
144
1.0
144
0.0
144
0.0
144
0.0
144
0.0
144
1.0
147
0.0208333333333333
147
0.0
147
0.0
147
0.0
147
0.0
147
0.0208333333333333
147
0.0
147
0.0
147
0.0
147
0.0
147
1.0
147
0.0
147
0.0
147
0.0
147
0.0
147
1.0
  0
MATERIAL
  5
15B7
102
{ACAD_XDICTIONARY
360
15B8
102
}
102
{ACAD_REACTORS
330
15B6
102
}
330
15B6
100
AcDbMaterial
  1
ByLayer
 72
     0
 43
0.0208333333333333
 43
0.0
 43
0.0
 43
0.0
 43
0.0
 43
0.0208333333333333
 43
0.0
 43
0.0
 43
0.0
 43
0.0
 43
1.0
 43
0.0
 43
0.0
 43
0.0
 43
0.0
 43
1.0
 77
     0
 47
0.0208333333333333
 47
0.0
 47
0.0
 47
0.0
 47
0.0
 47
0.0208333333333333
 47
0.0
 47
0.0
 47
0.0
 47
0.0
 47
1.0
 47
0.0
 47
0.0
 47
0.0
 47
0.0
 47
1.0
171
     0
 49
0.0208333333333333
 49
0.0
 49
0.0
 49
0.0
 49
0.0
 49
0.0208333333333333
 49
0.0
 49
0.0
 49
0.0
 49
0.0
 49
1.0
 49
0.0
 49
0.0
 49
0.0
 49
0.0
 49
1.0
175
     0
142
0.0208333333333333
142
0.0
142
0.0
142
0.0
142
0.0
142
0.0208333333333333
142
0.0
142
0.0
142
0.0
142
0.0
142
1.0
142
0.0
142
0.0
142
0.0
142
0.0
142
1.0
179
     0
144
0.0208333333333333
144
0.0
144
0.0
144
0.0
144
0.0
144
0.0208333333333333
144
0.0
144
0.0
144
0.0
144
0.0
144
1.0
144
0.0
144
0.0
144
0.0
144
0.0
144
1.0
147
0.0208333333333333
147
0.0
147
0.0
147
0.0
147
0.0
147
0.0208333333333333
147
0.0
147
0.0
147
0.0
147
0.0
147
1.0
147
0.0
147
0.0
147
0.0
147
0.0
147
1.0
  0
MATERIAL
  5
15C7
102
{ACAD_XDICTIONARY
360
15C8
102
}
102
{ACAD_REACTORS
330
15B6
102
}
330
15B6
100
AcDbMaterial
  1
Global
 72
     0
 43
0.0208333333333333
 43
0.0
 43
0.0
 43
0.0
 43
0.0
 43
0.0208333333333333
 43
0.0
 43
0.0
 43
0.0
 43
0.0
 43
1.0
 43
0.0
 43
0.0
 43
0.0
 43
0.0
 43
1.0
 77
     0
 47
0.0208333333333333
 47
0.0
 47
0.0
 47
0.0
 47
0.0
 47
0.0208333333333333
 47
0.0
 47
0.0
 47
0.0
 47
0.0
 47
1.0
 47
0.0
 47
0.0
 47
0.0
 47
0.0
 47
1.0
171
     0
 49
0.0208333333333333
 49
0.0
 49
0.0
 49
0.0
 49
0.0
 49
0.0208333333333333
 49
0.0
 49
0.0
 49
0.0
 49
0.0
 49
1.0
 49
0.0
 49
0.0
 49
0.0
 49
0.0
 49
1.0
175
     0
142
0.0208333333333333
142
0.0
142
0.0
142
0.0
142
0.0
142
0.0208333333333333
142
0.0
142
0.0
142
0.0
142
0.0
142
1.0
142
0.0
142
0.0
142
0.0
142
0.0
142
1.0
179
     0
144
0.0208333333333333
144
0.0
144
0.0
144
0.0
144
0.0
144
0.0208333333333333
144
0.0
144
0.0
144
0.0
144
0.0
144
1.0
144
0.0
144
0.0
144
0.0
144
0.0
144
1.0
147
0.0208333333333333
147
0.0
147
0.0
147
0.0
147
0.0
147
0.0208333333333333
147
0.0
147
0.0
147
0.0
147
0.0
147
1.0
147
0.0
147
0.0
147
0.0
147
0.0
147
1.0
  0
MLEADERSTYLE
  5
1609
102
{ACAD_REACTORS
330
1608
102
}
330
1608
100
AcDbMLeaderStyle
170
     2
171
     1
172
     0
 90
        2
 40
0.0
 41
0.0
173
     1
 91
-1056964608
340
14
 92
       -2
290
     1
 42
0.09
291
     1
 43
0.36
  3
Standard
 44
0.18
300

342
11
174
     1
178
     6
175
     1
176
     0
 93
-1056964608
 45
0.18
292
     0
297
     0
 46
0.18
 94
-1056964608
 47
1.0
 49
1.0
140
1.0
293
     1
141
0.0
294
     1
177
     0
142
1.0
295
     0
296
     0
143
0.125
1001
ACAD_MLEADERVER
1070
     2
  0
MLINESTYLE
  5
18
102
{ACAD_REACTORS
330
17
102
}
330
17
100
AcDbMlineStyle
  2
STANDARD
 70
     0
  3

 62
   256
 51
90.0
 52
90.0
 71
     2
 49
0.5
 62
   256
  6
BYLAYER
 49
-0.5
 62
   256
  6
BYLAYER
  0
ACDBPLACEHOLDER
  5
F
102
{ACAD_REACTORS
330
E
102
}
330
E
  0
SCALE
  5
15E7
102
{ACAD_REACTORS
330
15E6
102
}
330
15E6
100
AcDbScale
 70
     0
300
1:1
140
1.0
141
1.0
290
     1
  0
SCALE
  5
15E8
102
{ACAD_REACTORS
330
15E6
102
}
330
15E6
100
AcDbScale
 70
     0
300
1:2
140
1.0
141
2.0
290
     0
  0
SCALE
  5
15E9
102
{ACAD_REACTORS
330
15E6
102
}
330
15E6
100
AcDbScale
 70
     0
300
1:4
140
1.0
141
4.0
290
     0
  0
SCALE
  5
15EA
102
{ACAD_REACTORS
330
15E6
102
}
330
15E6
100
AcDbScale
 70
     0
300
1:5
140
1.0
141
5.0
290
     0
  0
SCALE
  5
15EB
102
{ACAD_REACTORS
330
15E6
102
}
330
15E6
100
AcDbScale
 70
     0
300
1:8
140
1.0
141
8.0
290
     0
  0
SCALE
  5
15EC
102
{ACAD_REACTORS
330
15E6
102
}
330
15E6
100
AcDbScale
 70
     0
300
1:10
140
1.0
141
10.0
290
     0
  0
SCALE
  5
15ED
102
{ACAD_REACTORS
330
15E6
102
}
330
15E6
100
AcDbScale
 70
     0
300
1:16
140
1.0
141
16.0
290
     0
  0
SCALE
  5
15EE
102
{ACAD_REACTORS
330
15E6
102
}
330
15E6
100
AcDbScale
 70
     0
300
1:20
140
1.0
141
20.0
290
     0
  0
SCALE
  5
15EF
102
{ACAD_REACTORS
330
15E6
102
}
330
15E6
100
AcDbScale
 70
     0
300
1:30
140
1.0
141
30.0
290
     0
  0
SCALE
  5
15F0
102
{ACAD_REACTORS
330
15E6
102
}
330
15E6
100
AcDbScale
 70
     0
300
1:40
140
1.0
141
40.0
290
     0
  0
SCALE
  5
15F1
102
{ACAD_REACTORS
330
15E6
102
}
330
15E6
100
AcDbScale
 70
     0
300
1:50
140
1.0
141
50.0
290
     0
  0
SCALE
  5
15F2
102
{ACAD_REACTORS
330
15E6
102
}
330
15E6
100
AcDbScale
 70
     0
300
1:100
140
1.0
141
100.0
290
     0
  0
SCALE
  5
15F3
102
{ACAD_REACTORS
330
15E6
102
}
330
15E6
100
AcDbScale
 70
     0
300
2:1
140
2.0
141
1.0
290
     0
  0
SCALE
  5
15F4
102
{ACAD_REACTORS
330
15E6
102
}
330
15E6
100
AcDbScale
 70
     0
300
4:1
140
4.0
141
1.0
290
     0
  0
SCALE
  5
15F5
102
{ACAD_REACTORS
330
15E6
102
}
330
15E6
100
AcDbScale
 70
     0
300
8:1
140
8.0
141
1.0
290
     0
  0
SCALE
  5
15F6
102
{ACAD_REACTORS
330
15E6
102
}
330
15E6
100
AcDbScale
 70
     0
300
10:1
140
10.0
141
1.0
290
     0
  0
SCALE
  5
15F7
102
{ACAD_REACTORS
330
15E6
102
}
330
15E6
100
AcDbScale
 70
     0
300
100:1
140
100.0
141
1.0
290
     0
  0
SCALE
  5
15F8
102
{ACAD_REACTORS
330
15E6
102
}
330
15E6
100
AcDbScale
 70
     0
300
1/128" = 1'-0"
140
0.0078125
141
12.0
290
     0
  0
SCALE
  5
15F9
102
{ACAD_REACTORS
330
15E6
102
}
330
15E6
100
AcDbScale
 70
     0
300
1/64" = 1'-0"
140
0.015625
141
12.0
290
     0
  0
SCALE
  5
15FA
102
{ACAD_REACTORS
330
15E6
102
}
330
15E6
100
AcDbScale
 70
     0
300
1/32" = 1'-0"
140
0.03125
141
12.0
290
     0
  0
SCALE
  5
15FB
102
{ACAD_REACTORS
330
15E6
102
}
330
15E6
100
AcDbScale
 70
     0
300
1/16" = 1'-0"
140
0.0625
141
12.0
290
     0
  0
SCALE
  5
15FC
102
{ACAD_REACTORS
330
15E6
102
}
330
15E6
100
AcDbScale
 70
     0
300
3/32" = 1'-0"
140
0.09375
141
12.0
290
     0
  0
SCALE
  5
15FD
102
{ACAD_REACTORS
330
15E6
102
}
330
15E6
100
AcDbScale
 70
     0
300
1/8" = 1'-0"
140
0.125
141
12.0
290
     0
  0
SCALE
  5
15FE
102
{ACAD_REACTORS
330
15E6
102
}
330
15E6
100
AcDbScale
 70
     0
300
3/16" = 1'-0"
140
0.1875
141
12.0
290
     0
  0
SCALE
  5
15FF
102
{ACAD_REACTORS
330
15E6
102
}
330
15E6
100
AcDbScale
 70
     0
300
1/4" = 1'-0"
140
0.25
141
12.0
290
     0
  0
SCALE
  5
1600
102
{ACAD_REACTORS
330
15E6
102
}
330
15E6
100
AcDbScale
 70
     0
300
3/8" = 1'-0"
140
0.375
141
12.0
290
     0
  0
SCALE
  5
1601
102
{ACAD_REACTORS
330
15E6
102
}
330
15E6
100
AcDbScale
 70
     0
300
1/2" = 1'-0"
140
0.5
141
12.0
290
     0
  0
SCALE
  5
1602
102
{ACAD_REACTORS
330
15E6
102
}
330
15E6
100
AcDbScale
 70
     0
300
3/4" = 1'-0"
140
0.75
141
12.0
290
     0
  0
SCALE
  5
1603
102
{ACAD_REACTORS
330
15E6
102
}
330
15E6
100
AcDbScale
 70
     0
300
1" = 1'-0"
140
1.0
141
12.0
290
     0
  0
SCALE
  5
1604
102
{ACAD_REACTORS
330
15E6
102
}
330
15E6
100
AcDbScale
 70
     0
300
1-1/2" = 1'-0"
140
1.5
141
12.0
290
     0
  0
SCALE
  5
1605
102
{ACAD_REACTORS
330
15E6
102
}
330
15E6
100
AcDbScale
 70
     0
300
3" = 1'-0"
140
3.0
141
12.0
290
     0
  0
SCALE
  5
1606
102
{ACAD_REACTORS
330
15E6
102
}
330
15E6
100
AcDbScale
 70
     0
300
6" = 1'-0"
140
6.0
141
12.0
290
     0
  0
SCALE
  5
1607
102
{ACAD_REACTORS
330
15E6
102
}
330
15E6
100
AcDbScale
 70
     0
300
1'-0" = 1'-0"
140
12.0
141
12.0
290
     0
  0
TABLESTYLE
  5
15E5
102
{ACAD_XDICTIONARY
360
160A
102
}
102
{ACAD_REACTORS
330
15E4
102
}
330
15E4
100
AcDbTableStyle
  3
Standard
 70
     0
 71
     0
 40
0.06
 41
0.06
280
     0
281
     0
  7
STANDARD
140
0.18
170
     2
 62
     0
 63
     7
283
     0
 90
      512
 91
        0
  1

274
    -2
284
     1
 64
     0
275
    -2
285
     1
 65
     0
276
    -2
286
     1
 66
     0
277
    -2
287
     1
 67
     0
278
    -2
288
     1
 68
     0
279
    -2
289
     1
 69
     0
  7
STANDARD
140
0.25
170
     5
 62
     0
 63
     7
283
     0
 90
      512
 91
        0
  1

274
    -2
284
     1
 64
     0
275
    -2
285
     1
 65
     0
276
    -2
286
     1
 66
     0
277
    -2
287
     1
 67
     0
278
    -2
288
     1
 68
     0
279
    -2
289
     1
 69
     0
  7
STANDARD
140
0.18
170
     5
 62
     0
 63
     7
283
     0
 90
      512
 91
        0
  1

274
    -2
284
     1
 64
     0
275
    -2
285
     1
 65
     0
276
    -2
286
     1
 66
     0
277
    -2
287
     1
 67
     0
278
    -2
288
     1
 68
     0
279
    -2
289
     1
 69
     0
  0
VISUALSTYLE
  5
15D5
102
{ACAD_XDICTIONARY
360
1620
102
}
102
{ACAD_REACTORS
330
15CF
102
}
330
15CF
100
AcDbVisualStyle
  2
2dWireframe
 70
     4
 71
     0
 72
     2
 73
     0
 90
        0
 40
-0.6
 41
-30.0
 62
     5
 63
     7
 74
     1
 91
        4
 64
     7
 65
   257
 75
     1
175
     1
 42
1.0
 92
        0
 66
   257
 43
1.0
 76
     1
 77
     6
 78
     2
 67
     7
 79
     5
170
     0
171
     0
290
     0
174
     0
 93
        1
 44
0.0
173
     0
291
     0
 45
0.0
  0
VISUALSTYLE
  5
15D7
102
{ACAD_XDICTIONARY
360
1624
102
}
102
{ACAD_REACTORS
330
15CF
102
}
330
15CF
100
AcDbVisualStyle
  2
3D Hidden
 70
     6
 71
     1
 72
     2
 73
     2
 90
        0
 40
-0.6
 41
-30.0
 62
     5
 63
     7
 74
     2
 91
        2
 64
     7
 65
   257
 75
     2
175
     1
 42
179.0
 92
        0
 66
   257
 43
1.0
 76
     1
 77
     6
 78
     2
 67
     7
 79
     3
170
     0
171
     0
290
     0
174
     0
 93
        1
 44
0.0
173
     0
291
     0
 45
0.0
  0
VISUALSTYLE
  5
15D6
102
{ACAD_XDICTIONARY
360
1622
102
}
102
{ACAD_REACTORS
330
15CF
102
}
330
15CF
100
AcDbVisualStyle
  2
3dWireframe
 70
     5
 71
     0
 72
     2
 73
     0
 90
        0
 40
-0.6
 41
-30.0
 62
     5
 63
     7
 74
     1
 91
        4
 64
     7
 65
   257
 75
     1
175
     1
 42
1.0
 92
        0
 66
   257
 43
1.0
 76
     1
 77
     6
 78
     2
 67
     7
 79
     5
170
     0
171
     0
290
     0
174
     0
 93
        1
 44
0.0
173
     0
291
     0
 45
0.0
  0
VISUALSTYLE
  5
15D4
102
{ACAD_XDICTIONARY
360
161E
102
}
102
{ACAD_REACTORS
330
15CF
102
}
330
15CF
100
AcDbVisualStyle
  2
Basic
 70
     7
 71
     1
 72
     0
 73
     1
 90
        0
 40
-0.6
 41
-30.0
 62
     5
 63
     7
 74
     0
 91
        4
 64
     7
 65
   257
 75
     1
175
     1
 42
1.0
 92
        8
 66
     7
 43
1.0
 76
     1
 77
     6
 78
     2
 67
     7
 79
     5
170
     0
171
     0
290
     0
174
     0
 93
        1
 44
0.0
173
     0
291
     1
 45
0.0
  0
VISUALSTYLE
  5
15DB
102
{ACAD_XDICTIONARY
360
162C
102
}
102
{ACAD_REACTORS
330
15CF
102
}
330
15CF
100
AcDbVisualStyle
  2
Brighten
 70
    12
 71
     2
 72
     2
 73
     0
 90
        0
 40
-0.6
 41
-30.0
 62
     5
 63
     7
 74
     1
 91
        4
 64
     7
 65
   257
 75
     1
175
     1
 42
1.0
 92
        8
 66
     7
 43
1.0
 76
     1
 77
     6
 78
     2
 67
     7
 79
     5
170
     0
171
     0
290
     0
174
     0
 93
        1
 44
50.0
173
     0
291
     1
 45
0.0
  0
VISUALSTYLE
  5
15DF
102
{ACAD_XDICTIONARY
360
1634
102
}
102
{ACAD_REACTORS
330
15CF
102
}
330
15CF
100
AcDbVisualStyle
  2
ColorChange
 70
    16
 71
     2
 72
     2
 73
     3
 90
        0
 40
-0.6
 41
-30.0
 62
     5
 63
     8
 74
     1
 91
        4
 64
     7
 65
   257
 75
     1
175
     1
 42
1.0
 92
        8
 66
     8
 43
1.0
 76
     1
 77
     6
 78
     2
 67
     7
 79
     5
170
     0
171
     0
290
     0
174
     0
 93
        1
 44
0.0
173
     0
291
     1
 45
0.0
  0
VISUALSTYLE
  5
15D8
102
{ACAD_XDICTIONARY
360
1626
102
}
102
{ACAD_REACTORS
330
15CF
102
}
330
15CF
100
AcDbVisualStyle
  2
Conceptual
 70
     9
 71
     3
 72
     2
 73
     0
 90
        0
 40
-0.6
 41
-30.0
 62
     5
 63
     7
 74
     2
 91
        2
 64
     7
 65
   257
 75
     1
175
     1
 42
179.0
 92
        8
 66
     7
 43
1.0
 76
     1
 77
     6
 78
     2
 67
     7
 79
     3
170
     0
171
     0
290
     0
174
     0
 93
        1
 44
0.0
173
     0
291
     0
 45
0.0
  0
VISUALSTYLE
  5
15DA
102
{ACAD_XDICTIONARY
360
162A
102
}
102
{ACAD_REACTORS
330
15CF
102
}
330
15CF
100
AcDbVisualStyle
  2
Dim
 70
    11
 71
     2
 72
     2
 73
     0
 90
        0
 40
-0.6
 41
-30.0
 62
     5
 63
     7
 74
     1
 91
        4
 64
     7
 65
   257
 75
     1
175
     1
 42
1.0
 92
        8
 66
     7
 43
1.0
 76
     1
 77
     6
 78
     2
 67
     7
 79
     5
170
     0
171
     0
290
     0
174
     0
 93
        1
 44
-50.0
173
     0
291
     1
 45
0.0
  0
VISUALSTYLE
  5
15E2
102
{ACAD_XDICTIONARY
360
163A
102
}
102
{ACAD_REACTORS
330
15CF
102
}
330
15CF
100
AcDbVisualStyle
  2
EdgeColorOff
 70
    22
 71
     2
 72
     2
 73
     0
 90
        0
 40
-0.6
 41
-30.0
 62
     5
 63
     7
 74
     1
 91
        4
 64
     7
 65
   257
 75
     1
175
     1
 42
1.0
 92
        8
 66
     7
 43
1.0
 76
     1
 77
     6
 78
     2
 67
     7
 79
     5
170
     0
171
     0
290
     0
174
     0
 93
        1
 44
0.0
173
     0
291
     1
 45
0.0
  0
VISUALSTYLE
  5
15DE
102
{ACAD_XDICTIONARY
360
1632
102
}
102
{ACAD_REACTORS
330
15CF
102
}
330
15CF
100
AcDbVisualStyle
  2
Facepattern
 70
    15
 71
     2
 72
     2
 73
     0
 90
        0
 40
-0.6
 41
-30.0
 62
     5
 63
     7
 74
     1
 91
        4
 64
     7
 65
   257
 75
     1
175
     1
 42
1.0
 92
        8
 66
     7
 43
1.0
 76
     1
 77
     6
 78
     2
 67
     7
 79
     5
170
     0
171
     0
290
     0
174
     0
 93
        1
 44
0.0
173
     0
291
     1
 45
0.0
  0
VISUALSTYLE
  5
15D0
102
{ACAD_XDICTIONARY
360
1616
102
}
102
{ACAD_REACTORS
330
15CF
102
}
330
15CF
100
AcDbVisualStyle
  2
Flat
 70
     0
 71
     2
 72
     1
 73
     1
 90
        2
 40
-0.6
 41
30.0
 62
     5
 63
     7
 74
     0
 91
        4
 64
     7
 65
   257
 75
     1
175
     1
 42
1.0
 92
        8
 66
     7
 43
1.0
 76
     1
 77
     6
 78
     2
 67
     7
 79
     5
170
     0
171
     0
290
     0
174
     0
 93
       13
 44
0.0
173
     0
291
     1
 45
0.0
  0
VISUALSTYLE
  5
15D1
102
{ACAD_XDICTIONARY
360
1618
102
}
102
{ACAD_REACTORS
330
15CF
102
}
330
15CF
100
AcDbVisualStyle
  2
FlatWithEdges
 70
     1
 71
     2
 72
     1
 73
     1
 90
        2
 40
-0.6
 41
30.0
 62
     5
 63
     7
 74
     1
 91
        4
 64
     7
 65
   257
 75
     1
175
     1
 42
1.0
 92
        0
 66
   257
 43
1.0
 76
     1
 77
     6
 78
     2
 67
     7
 79
     5
170
     0
171
     0
290
     0
174
     0
 93
       13
 44
0.0
173
     0
291
     1
 45
0.0
  0
VISUALSTYLE
  5
15D2
102
{ACAD_XDICTIONARY
360
161A
102
}
102
{ACAD_REACTORS
330
15CF
102
}
330
15CF
100
AcDbVisualStyle
  2
Gouraud
 70
     2
 71
     2
 72
     2
 73
     1
 90
        2
 40
-0.6
 41
30.0
 62
     5
 63
     7
 74
     0
 91
        4
 64
     7
 65
   257
 75
     1
175
     1
 42
1.0
 92
        0
 66
     7
 43
1.0
 76
     1
 77
     6
 78
     2
 67
     7
 79
     5
170
     0
171
     0
290
     0
174
     0
 93
       13
 44
0.0
173
     0
291
     1
 45
0.0
  0
VISUALSTYLE
  5
15D3
102
{ACAD_XDICTIONARY
360
161C
102
}
102
{ACAD_REACTORS
330
15CF
102
}
330
15CF
100
AcDbVisualStyle
  2
GouraudWithEdges
 70
     3
 71
     2
 72
     2
 73
     1
 90
        2
 40
-0.6
 41
30.0
 62
     5
 63
     7
 74
     1
 91
        4
 64
     7
 65
   257
 75
     1
175
     1
 42
1.0
 92
        0
 66
   257
 43
1.0
 76
     1
 77
     6
 78
     2
 67
     7
 79
     5
170
     0
171
     0
290
     0
174
     0
 93
       13
 44
0.0
173
     0
291
     1
 45
0.0
  0
VISUALSTYLE
  5
15E0
102
{ACAD_XDICTIONARY
360
1636
102
}
102
{ACAD_REACTORS
330
15CF
102
}
330
15CF
100
AcDbVisualStyle
  2
JitterOff
 70
    20
 71
     2
 72
     2
 73
     0
 90
        0
 40
-0.6
 41
-30.0
 62
     5
 63
     7
 74
     1
 91
        4
 64
     7
 65
   257
 75
     1
175
     1
 42
1.0
 92
       10
 66
     7
 43
1.0
 76
     1
 77
     6
 78
     2
 67
     7
 79
     5
170
     0
171
     0
290
     0
174
     0
 93
        1
 44
0.0
173
     0
291
     1
 45
0.0
  0
VISUALSTYLE
  5
15DD
102
{ACAD_XDICTIONARY
360
1630
102
}
102
{ACAD_REACTORS
330
15CF
102
}
330
15CF
100
AcDbVisualStyle
  2
Linepattern
 70
    14
 71
     2
 72
     2
 73
     0
 90
        0
 40
-0.6
 41
-30.0
 62
     5
 63
     7
 74
     1
 91
        4
 64
     7
 65
   257
 75
     7
175
     7
 42
1.0
 92
        8
 66
     7
 43
1.0
 76
     1
 77
     6
 78
     2
 67
     7
 79
     5
170
     0
171
     0
290
     0
174
     0
 93
        1
 44
0.0
173
     0
291
     1
 45
0.0
  0
VISUALSTYLE
  5
15E1
102
{ACAD_XDICTIONARY
360
1638
102
}
102
{ACAD_REACTORS
330
15CF
102
}
330
15CF
100
AcDbVisualStyle
  2
OverhangOff
 70
    21
 71
     2
 72
     2
 73
     0
 90
        0
 40
-0.6
 41
-30.0
 62
     5
 63
     7
 74
     1
 91
        4
 64
     7
 65
   257
 75
     1
175
     1
 42
1.0
 92
        9
 66
     7
 43
1.0
 76
     1
 77
     6
 78
     2
 67
     7
 79
     5
170
     0
171
     0
290
     0
174
     0
 93
        1
 44
0.0
173
     0
291
     1
 45
0.0
  0
VISUALSTYLE
  5
15D9
102
{ACAD_XDICTIONARY
360
1628
102
}
102
{ACAD_REACTORS
330
15CF
102
}
330
15CF
100
AcDbVisualStyle
  2
Realistic
 70
     8
 71
     2
 72
     2
 73
     0
 90
        0
 40
-0.6
 41
-30.0
 62
     5
 63
     7
 74
     1
 91
        0
 64
     7
 65
   257
 75
     1
175
     1
 42
1.0
 92
        8
 66
     8
 43
1.0
 76
     1
 77
     6
 78
     2
 67
     7
 79
     5
170
     0
171
     0
290
     0
174
     0
 93
       13
 44
0.0
173
     0
291
     0
 45
0.0
  0
VISUALSTYLE
  5
15DC
102
{ACAD_XDICTIONARY
360
162E
102
}
102
{ACAD_REACTORS
330
15CF
102
}
330
15CF
100
AcDbVisualStyle
  2
Thicken
 70
    13
 71
     2
 72
     2
 73
     0
 90
        0
 40
-0.6
 41
-30.0
 62
     5
 63
     7
 74
     1
 91
        4
 64
     7
 65
   257
 75
     1
175
     1
 42
1.0
 92
       12
 66
     7
 43
1.0
 76
     1
 77
     6
 78
     2
 67
     7
 79
     5
170
     0
171
     0
290
     0
174
     0
 93
        1
 44
0.0
173
     0
291
     1
 45
0.0
  0
DICTIONARYVAR
  5
1641
102
{ACAD_REACTORS
330
163E
102
}
330
163E
100
DictionaryVariables
280
     0
  1
1:1
  0
DICTIONARYVAR
  5
1640
102
{ACAD_REACTORS
330
163E
102
}
330
163E
100
DictionaryVariables
280
     0
  1
STANDARD
  0
DICTIONARYVAR
  5
163F
102
{ACAD_REACTORS
330
163E
102
}
330
163E
100
DictionaryVariables
280
     0
  1
STANDARD
  0
DICTIONARYVAR
  5
1644
102
{ACAD_REACTORS
330
163E
102
}
330
163E
100
DictionaryVariables
280
     0
  1
1
  0
DICTIONARYVAR
  5
1643
102
{ACAD_REACTORS
330
163E
102
}
330
163E
100
DictionaryVariables
280
     0
  1
0
  0
DICTIONARYVAR
  5
168E
102
{ACAD_REACTORS
330
163E
102
}
330
163E
100
DictionaryVariables
280
     0
  1
1
  0
DICTIONARYVAR
  5
168F
102
{ACAD_REACTORS
330
163E
102
}
330
163E
100
DictionaryVariables
280
     0
  1
15
  0
DICTIONARYVAR
  5
168D
102
{ACAD_REACTORS
330
163E
102
}
330
163E
100
DictionaryVariables
280
     0
  1
0
  0
DICTIONARYVAR
  5
168C
102
{ACAD_REACTORS
330
163E
102
}
330
163E
100
DictionaryVariables
280
     0
  1
0
  0
DICTIONARYVAR
  5
1642
102
{ACAD_REACTORS
330
163E
102
}
330
163E
100
DictionaryVariables
280
     0
  1
127
  0
DICTIONARYVAR
  5
1645
102
{ACAD_REACTORS
330
163E
102
}
330
163E
100
DictionaryVariables
280
     0
  1
2
  0
DICTIONARY
  5
15C0
330
15BF
100
AcDbDictionary
280
     1
281
     1
  3
BUMPTILE
360
15C2
  3
DIFFUSETILE
360
15C1
  3
OPACITYTILE
360
15C5
  3
REFLECTIONTILE
360
15C4
  3
REFRACTIONTILE
360
15C6
  3
SPECULARTILE
360
15C3
  0
DICTIONARY
  5
15B8
330
15B7
100
AcDbDictionary
280
     1
281
     1
  3
BUMPTILE
360
15BA
  3
DIFFUSETILE
360
15B9
  3
OPACITYTILE
360
15BD
  3
REFLECTIONTILE
360
15BC
  3
REFRACTIONTILE
360
15BE
  3
SPECULARTILE
360
15BB
  0
DICTIONARY
  5
15C8
330
15C7
100
AcDbDictionary
280
     1
281
     1
  3
BUMPTILE
360
15CA
  3
DIFFUSETILE
360
15C9
  3
OPACITYTILE
360
15CD
  3
REFLECTIONTILE
360
15CC
  3
REFRACTIONTILE
360
15CE
  3
SPECULARTILE
360
15CB
  0
DICTIONARY
  5
160A
330
15E5
100
AcDbDictionary
280
     1
281
     1
  3
ACAD_ROUNDTRIP_2008_TABLESTYLE_CELLSTYLEMAP
360
1697
  0
DICTIONARY
  5
1620
330
15D5
100
AcDbDictionary
280
     1
281
     1
  3
ACAD_XREC_ROUNDTRIP
360
1621
  0
DICTIONARY
  5
1624
330
15D7
100
AcDbDictionary
280
     1
281
     1
  3
ACAD_XREC_ROUNDTRIP
360
1625
  0
DICTIONARY
  5
1622
330
15D6
100
AcDbDictionary
280
     1
281
     1
  3
ACAD_XREC_ROUNDTRIP
360
1623
  0
DICTIONARY
  5
161E
330
15D4
100
AcDbDictionary
280
     1
281
     1
  3
ACAD_XREC_ROUNDTRIP
360
161F
  0
DICTIONARY
  5
162C
330
15DB
100
AcDbDictionary
280
     1
281
     1
  3
ACAD_XREC_ROUNDTRIP
360
162D
  0
DICTIONARY
  5
1634
330
15DF
100
AcDbDictionary
280
     1
281
     1
  3
ACAD_XREC_ROUNDTRIP
360
1635
  0
DICTIONARY
  5
1626
330
15D8
100
AcDbDictionary
280
     1
281
     1
  3
ACAD_XREC_ROUNDTRIP
360
1627
  0
DICTIONARY
  5
162A
330
15DA
100
AcDbDictionary
280
     1
281
     1
  3
ACAD_XREC_ROUNDTRIP
360
162B
  0
DICTIONARY
  5
163A
330
15E2
100
AcDbDictionary
280
     1
281
     1
  3
ACAD_XREC_ROUNDTRIP
360
163B
  0
DICTIONARY
  5
1632
330
15DE
100
AcDbDictionary
280
     1
281
     1
  3
ACAD_XREC_ROUNDTRIP
360
1633
  0
DICTIONARY
  5
1616
330
15D0
100
AcDbDictionary
280
     1
281
     1
  3
ACAD_XREC_ROUNDTRIP
360
1617
  0
DICTIONARY
  5
1618
330
15D1
100
AcDbDictionary
280
     1
281
     1
  3
ACAD_XREC_ROUNDTRIP
360
1619
  0
DICTIONARY
  5
161A
330
15D2
100
AcDbDictionary
280
     1
281
     1
  3
ACAD_XREC_ROUNDTRIP
360
161B
  0
DICTIONARY
  5
161C
330
15D3
100
AcDbDictionary
280
     1
281
     1
  3
ACAD_XREC_ROUNDTRIP
360
161D
  0
DICTIONARY
  5
1636
330
15E0
100
AcDbDictionary
280
     1
281
     1
  3
ACAD_XREC_ROUNDTRIP
360
1637
  0
DICTIONARY
  5
1630
330
15DD
100
AcDbDictionary
280
     1
281
     1
  3
ACAD_XREC_ROUNDTRIP
360
1631
  0
DICTIONARY
  5
1638
330
15E1
100
AcDbDictionary
280
     1
281
     1
  3
ACAD_XREC_ROUNDTRIP
360
1639
  0
DICTIONARY
  5
1628
330
15D9
100
AcDbDictionary
280
     1
281
     1
  3
ACAD_XREC_ROUNDTRIP
360
1629
  0
DICTIONARY
  5
162E
330
15DC
100
AcDbDictionary
280
     1
281
     1
  3
ACAD_XREC_ROUNDTRIP
360
162F
  0
XRECORD
  5
15C2
102
{ACAD_REACTORS
330
15C0
102
}
330
15C0
100
AcDbXrecord
280
     1
270
     1
271
     1
  0
XRECORD
  5
15C1
102
{ACAD_REACTORS
330
15C0
102
}
330
15C0
100
AcDbXrecord
280
     1
270
     1
271
     1
  0
XRECORD
  5
15C5
102
{ACAD_REACTORS
330
15C0
102
}
330
15C0
100
AcDbXrecord
280
     1
270
     1
271
     1
  0
XRECORD
  5
15C4
102
{ACAD_REACTORS
330
15C0
102
}
330
15C0
100
AcDbXrecord
280
     1
270
     1
271
     1
  0
XRECORD
  5
15C6
102
{ACAD_REACTORS
330
15C0
102
}
330
15C0
100
AcDbXrecord
280
     1
270
     1
271
     1
  0
XRECORD
  5
15C3
102
{ACAD_REACTORS
330
15C0
102
}
330
15C0
100
AcDbXrecord
280
     1
270
     1
271
     1
  0
XRECORD
  5
15BA
102
{ACAD_REACTORS
330
15B8
102
}
330
15B8
100
AcDbXrecord
280
     1
270
     1
271
     1
  0
XRECORD
  5
15B9
102
{ACAD_REACTORS
330
15B8
102
}
330
15B8
100
AcDbXrecord
280
     1
270
     1
271
     1
  0
XRECORD
  5
15BD
102
{ACAD_REACTORS
330
15B8
102
}
330
15B8
100
AcDbXrecord
280
     1
270
     1
271
     1
  0
XRECORD
  5
15BC
102
{ACAD_REACTORS
330
15B8
102
}
330
15B8
100
AcDbXrecord
280
     1
270
     1
271
     1
  0
XRECORD
  5
15BE
102
{ACAD_REACTORS
330
15B8
102
}
330
15B8
100
AcDbXrecord
280
     1
270
     1
271
     1
  0
XRECORD
  5
15BB
102
{ACAD_REACTORS
330
15B8
102
}
330
15B8
100
AcDbXrecord
280
     1
270
     1
271
     1
  0
XRECORD
  5
15CA
102
{ACAD_REACTORS
330
15C8
102
}
330
15C8
100
AcDbXrecord
280
     1
270
     1
271
     1
  0
XRECORD
  5
15C9
102
{ACAD_REACTORS
330
15C8
102
}
330
15C8
100
AcDbXrecord
280
     1
270
     1
271
     1
  0
XRECORD
  5
15CD
102
{ACAD_REACTORS
330
15C8
102
}
330
15C8
100
AcDbXrecord
280
     1
270
     1
271
     1
  0
XRECORD
  5
15CC
102
{ACAD_REACTORS
330
15C8
102
}
330
15C8
100
AcDbXrecord
280
     1
270
     1
271
     1
  0
XRECORD
  5
15CE
102
{ACAD_REACTORS
330
15C8
102
}
330
15C8
100
AcDbXrecord
280
     1
270
     1
271
     1
  0
XRECORD
  5
15CB
102
{ACAD_REACTORS
330
15C8
102
}
330
15C8
100
AcDbXrecord
280
     1
270
     1
271
     1
  0
CELLSTYLEMAP
  5
1697
102
{ACAD_REACTORS
330
160A
102
}
330
160A
100
AcDbCellStyleMap
 90
        3
300
CELLSTYLE
  1
TABLEFORMAT_BEGIN
 90
        5
170
     1
 91
        0
 92
    32768
 62
   257
 93
        1
300
CONTENTFORMAT
  1
CONTENTFORMAT_BEGIN
 90
        0
 91
        0
 92
      512
 93
        0
300

 40
0.0
140
1.0
 94
        5
 62
     0
340
11
144
0.25
309
CONTENTFORMAT_END
171
     0
 94
        0
309
TABLEFORMAT_END
  1
CELLSTYLE_BEGIN
 90
        1
 91
        1
300
_TITLE
309
CELLSTYLE_END
300
CELLSTYLE
  1
TABLEFORMAT_BEGIN
 90
        5
170
     1
 91
        0
 92
        0
 62
   257
 93
        1
300
CONTENTFORMAT
  1
CONTENTFORMAT_BEGIN
 90
        0
 91
        0
 92
      512
 93
        0
300

 40
0.0
140
1.0
 94
        5
 62
     0
340
11
144
0.18
309
CONTENTFORMAT_END
171
     0
 94
        0
309
TABLEFORMAT_END
  1
CELLSTYLE_BEGIN
 90
        2
 91
        1
300
_HEADER
309
CELLSTYLE_END
300
CELLSTYLE
  1
TABLEFORMAT_BEGIN
 90
        5
170
     1
 91
        0
 92
        0
 62
   257
 93
        1
300
CONTENTFORMAT
  1
CONTENTFORMAT_BEGIN
 90
        0
 91
        0
 92
      512
 93
        0
300

 40
0.0
140
1.0
 94
        2
 62
     0
340
11
144
0.18
309
CONTENTFORMAT_END
171
     0
 94
        0
309
TABLEFORMAT_END
  1
CELLSTYLE_BEGIN
 90
        3
 91
        2
300
_DATA
309
CELLSTYLE_END
  0
XRECORD
  5
1621
102
{ACAD_REACTORS
330
1620
102
}
330
1620
100
AcDbXrecord
280
     1
102
RTVSPropertyOp0
 70
     1
102
RTVSPropertyOp1
 70
     1
102
RTVSPropertyOp2
 70
     1
102
RTVSPropertyOp3
 70
     1
102
RTVSPropertyOp4
 70
     1
102
RTVSPropertyOp5
 70
     1
102
RTVSPropertyOp6
 70
     1
102
RTVSPropertyOp7
 70
     1
102
RTVSPropertyOp8
 70
     1
102
RTVSPropertyOp9
 70
     1
102
RTVSPropertyOp10
 70
     1
102
RTVSPropertyOp11
 70
     1
102
RTVSPropertyOp12
 70
     1
102
RTVSPropertyOp13
 70
     1
102
RTVSPropertyOp14
 70
     1
102
RTVSPropertyOp15
 70
     1
102
RTVSPropertyOp16
 70
     1
102
RTVSPropertyOp17
 70
     1
102
RTVSPropertyOp18
 70
     1
102
RTVSPropertyOp19
 70
     1
102
RTVSPropertyOp20
 70
     1
102
RTVSPropertyOp21
 70
     1
102
RTVSPropertyOp22
 70
     1
102
RTVSPropertyOp23
 70
     1
102
RTVSPropertyOp24
 70
     1
102
RTVSPropertyOp25
 70
     1
102
RTVSPropertyOp26
 70
     1
102
RTVSPropertyOp27
 70
     1
  0
XRECORD
  5
1625
102
{ACAD_REACTORS
330
1624
102
}
330
1624
100
AcDbXrecord
280
     1
102
RTVSPropertyOp0
 70
     1
102
RTVSPropertyOp1
 70
     1
102
RTVSPropertyOp2
 70
     1
102
RTVSPropertyOp3
 70
     1
102
RTVSPropertyOp4
 70
     1
102
RTVSPropertyOp5
 70
     1
102
RTVSPropertyOp6
 70
     1
102
RTVSPropertyOp7
 70
     1
102
RTVSPropertyOp8
 70
     1
102
RTVSPropertyOp9
 70
     1
102
RTVSPropertyOp10
 70
     1
102
RTVSPropertyOp11
 70
     1
102
RTVSPropertyOp12
 70
     1
102
RTVSPropertyOp13
 70
     1
102
RTVSPropertyOp14
 70
     1
102
RTVSPropertyOp15
 70
     1
102
RTVSPropertyOp16
 70
     1
102
RTVSPropertyOp17
 70
     1
102
RTVSPropertyOp18
 70
     1
102
RTVSPropertyOp19
 70
     1
102
RTVSPropertyOp20
 70
     1
102
RTVSPropertyOp21
 70
     1
102
RTVSPropertyOp22
 70
     1
102
RTVSPropertyOp23
 70
     1
102
RTVSPropertyOp24
 70
     1
102
RTVSPropertyOp25
 70
     1
102
RTVSPropertyOp26
 70
     1
102
RTVSPropertyOp27
 70
     1
  0
XRECORD
  5
1623
102
{ACAD_REACTORS
330
1622
102
}
330
1622
100
AcDbXrecord
280
     1
102
RTVSPropertyOp0
 70
     1
102
RTVSPropertyOp1
 70
     1
102
RTVSPropertyOp2
 70
     1
102
RTVSPropertyOp3
 70
     1
102
RTVSPropertyOp4
 70
     1
102
RTVSPropertyOp5
 70
     1
102
RTVSPropertyOp6
 70
     1
102
RTVSPropertyOp7
 70
     1
102
RTVSPropertyOp8
 70
     1
102
RTVSPropertyOp9
 70
     1
102
RTVSPropertyOp10
 70
     1
102
RTVSPropertyOp11
 70
     1
102
RTVSPropertyOp12
 70
     1
102
RTVSPropertyOp13
 70
     1
102
RTVSPropertyOp14
 70
     1
102
RTVSPropertyOp15
 70
     1
102
RTVSPropertyOp16
 70
     1
102
RTVSPropertyOp17
 70
     1
102
RTVSPropertyOp18
 70
     1
102
RTVSPropertyOp19
 70
     1
102
RTVSPropertyOp20
 70
     1
102
RTVSPropertyOp21
 70
     1
102
RTVSPropertyOp22
 70
     1
102
RTVSPropertyOp23
 70
     1
102
RTVSPropertyOp24
 70
     1
102
RTVSPropertyOp25
 70
     1
102
RTVSPropertyOp26
 70
     1
102
RTVSPropertyOp27
 70
     1
  0
XRECORD
  5
161F
102
{ACAD_REACTORS
330
161E
102
}
330
161E
100
AcDbXrecord
280
     1
102
RTVSPropertyOp0
 70
     1
102
RTVSPropertyOp1
 70
     1
102
RTVSPropertyOp2
 70
     1
102
RTVSPropertyOp3
 70
     1
102
RTVSPropertyOp4
 70
     1
102
RTVSPropertyOp5
 70
     1
102
RTVSPropertyOp6
 70
     1
102
RTVSPropertyOp7
 70
     1
102
RTVSPropertyOp8
 70
     1
102
RTVSPropertyOp9
 70
     1
102
RTVSPropertyOp10
 70
     1
102
RTVSPropertyOp11
 70
     1
102
RTVSPropertyOp12
 70
     1
102
RTVSPropertyOp13
 70
     1
102
RTVSPropertyOp14
 70
     1
102
RTVSPropertyOp15
 70
     1
102
RTVSPropertyOp16
 70
     1
102
RTVSPropertyOp17
 70
     1
102
RTVSPropertyOp18
 70
     1
102
RTVSPropertyOp19
 70
     1
102
RTVSPropertyOp20
 70
     1
102
RTVSPropertyOp21
 70
     1
102
RTVSPropertyOp22
 70
     1
102
RTVSPropertyOp23
 70
     1
102
RTVSPropertyOp24
 70
     1
102
RTVSPropertyOp25
 70
     1
102
RTVSPropertyOp26
 70
     1
102
RTVSPropertyOp27
 70
     1
  0
XRECORD
  5
162D
102
{ACAD_REACTORS
330
162C
102
}
330
162C
100
AcDbXrecord
280
     1
102
RTVSPropertyOp0
 70
     1
102
RTVSPropertyOp1
 70
     1
102
RTVSPropertyOp2
 70
     1
102
RTVSPropertyOp3
 70
     1
102
RTVSPropertyOp4
 70
     1
102
RTVSPropertyOp5
 70
     1
102
RTVSPropertyOp6
 70
     1
102
RTVSPropertyOp7
 70
     1
102
RTVSPropertyOp8
 70
     1
102
RTVSPropertyOp9
 70
     1
102
RTVSPropertyOp10
 70
     1
102
RTVSPropertyOp11
 70
     1
102
RTVSPropertyOp12
 70
     1
102
RTVSPropertyOp13
 70
     1
102
RTVSPropertyOp14
 70
     1
102
RTVSPropertyOp15
 70
     1
102
RTVSPropertyOp16
 70
     1
102
RTVSPropertyOp17
 70
     1
102
RTVSPropertyOp18
 70
     1
102
RTVSPropertyOp19
 70
     1
102
RTVSPropertyOp20
 70
     1
102
RTVSPropertyOp21
 70
     1
102
RTVSPropertyOp22
 70
     1
102
RTVSPropertyOp23
 70
     1
102
RTVSPropertyOp24
 70
     1
102
RTVSPropertyOp25
 70
     1
102
RTVSPropertyOp26
 70
     1
102
RTVSPropertyOp27
 70
     1
  0
XRECORD
  5
1635
102
{ACAD_REACTORS
330
1634
102
}
330
1634
100
AcDbXrecord
280
     1
102
RTVSPropertyOp0
 70
     1
102
RTVSPropertyOp1
 70
     1
102
RTVSPropertyOp2
 70
     1
102
RTVSPropertyOp3
 70
     1
102
RTVSPropertyOp4
 70
     1
102
RTVSPropertyOp5
 70
     1
102
RTVSPropertyOp6
 70
     1
102
RTVSPropertyOp7
 70
     1
102
RTVSPropertyOp8
 70
     1
102
RTVSPropertyOp9
 70
     1
102
RTVSPropertyOp10
 70
     1
102
RTVSPropertyOp11
 70
     1
102
RTVSPropertyOp12
 70
     1
102
RTVSPropertyOp13
 70
     1
102
RTVSPropertyOp14
 70
     1
102
RTVSPropertyOp15
 70
     1
102
RTVSPropertyOp16
 70
     1
102
RTVSPropertyOp17
 70
     1
102
RTVSPropertyOp18
 70
     1
102
RTVSPropertyOp19
 70
     1
102
RTVSPropertyOp20
 70
     1
102
RTVSPropertyOp21
 70
     1
102
RTVSPropertyOp22
 70
     1
102
RTVSPropertyOp23
 70
     1
102
RTVSPropertyOp24
 70
     1
102
RTVSPropertyOp25
 70
     1
102
RTVSPropertyOp26
 70
     1
102
RTVSPropertyOp27
 70
     1
  0
XRECORD
  5
1627
102
{ACAD_REACTORS
330
1626
102
}
330
1626
100
AcDbXrecord
280
     1
102
RTVSPropertyOp0
 70
     1
102
RTVSPropertyOp1
 70
     1
102
RTVSPropertyOp2
 70
     1
102
RTVSPropertyOp3
 70
     1
102
RTVSPropertyOp4
 70
     1
102
RTVSPropertyOp5
 70
     1
102
RTVSPropertyOp6
 70
     1
102
RTVSPropertyOp7
 70
     1
102
RTVSPropertyOp8
 70
     1
102
RTVSPropertyOp9
 70
     1
102
RTVSPropertyOp10
 70
     1
102
RTVSPropertyOp11
 70
     1
102
RTVSPropertyOp12
 70
     1
102
RTVSPropertyOp13
 70
     1
102
RTVSPropertyOp14
 70
     1
102
RTVSPropertyOp15
 70
     1
102
RTVSPropertyOp16
 70
     1
102
RTVSPropertyOp17
 70
     1
102
RTVSPropertyOp18
 70
     1
102
RTVSPropertyOp19
 70
     1
102
RTVSPropertyOp20
 70
     1
102
RTVSPropertyOp21
 70
     1
102
RTVSPropertyOp22
 70
     1
102
RTVSPropertyOp23
 70
     1
102
RTVSPropertyOp24
 70
     1
102
RTVSPropertyOp25
 70
     1
102
RTVSPropertyOp26
 70
     1
102
RTVSPropertyOp27
 70
     1
  0
XRECORD
  5
162B
102
{ACAD_REACTORS
330
162A
102
}
330
162A
100
AcDbXrecord
280
     1
102
RTVSPropertyOp0
 70
     1
102
RTVSPropertyOp1
 70
     1
102
RTVSPropertyOp2
 70
     1
102
RTVSPropertyOp3
 70
     1
102
RTVSPropertyOp4
 70
     1
102
RTVSPropertyOp5
 70
     1
102
RTVSPropertyOp6
 70
     1
102
RTVSPropertyOp7
 70
     1
102
RTVSPropertyOp8
 70
     1
102
RTVSPropertyOp9
 70
     1
102
RTVSPropertyOp10
 70
     1
102
RTVSPropertyOp11
 70
     1
102
RTVSPropertyOp12
 70
     1
102
RTVSPropertyOp13
 70
     1
102
RTVSPropertyOp14
 70
     1
102
RTVSPropertyOp15
 70
     1
102
RTVSPropertyOp16
 70
     1
102
RTVSPropertyOp17
 70
     1
102
RTVSPropertyOp18
 70
     1
102
RTVSPropertyOp19
 70
     1
102
RTVSPropertyOp20
 70
     1
102
RTVSPropertyOp21
 70
     1
102
RTVSPropertyOp22
 70
     1
102
RTVSPropertyOp23
 70
     1
102
RTVSPropertyOp24
 70
     1
102
RTVSPropertyOp25
 70
     1
102
RTVSPropertyOp26
 70
     1
102
RTVSPropertyOp27
 70
     1
  0
XRECORD
  5
163B
102
{ACAD_REACTORS
330
163A
102
}
330
163A
100
AcDbXrecord
280
     1
102
RTVSPropertyOp0
 70
     0
102
RTVSPropertyOp1
 70
     0
102
RTVSPropertyOp2
 70
     0
102
RTVSPropertyOp3
 70
     0
102
RTVSPropertyOp4
 70
     0
102
RTVSPropertyOp5
 70
     0
102
RTVSPropertyOp6
 70
     0
102
RTVSPropertyOp7
 70
     0
102
RTVSPropertyOp8
 70
     0
102
RTVSPropertyOp9
 70
     0
102
RTVSPropertyOp10
 70
     0
102
RTVSPropertyOp11
 70
     0
102
RTVSPropertyOp12
 70
     0
102
RTVSPropertyOp13
 70
     0
102
RTVSPropertyOp14
 70
     2
102
RTVSPropertyOp15
 70
     0
102
RTVSPropertyOp16
 70
     0
102
RTVSPropertyOp17
 70
     0
102
RTVSPropertyOp18
 70
     0
102
RTVSPropertyOp19
 70
     0
102
RTVSPropertyOp20
 70
     0
102
RTVSPropertyOp21
 70
     0
102
RTVSPropertyOp22
 70
     0
102
RTVSPropertyOp23
 70
     0
102
RTVSPropertyOp24
 70
     0
102
RTVSPropertyOp25
 70
     0
102
RTVSPropertyOp26
 70
     0
102
RTVSPropertyOp27
 70
     0
  0
XRECORD
  5
1633
102
{ACAD_REACTORS
330
1632
102
}
330
1632
100
AcDbXrecord
280
     1
102
RTVSPropertyOp0
 70
     1
102
RTVSPropertyOp1
 70
     1
102
RTVSPropertyOp2
 70
     1
102
RTVSPropertyOp3
 70
     1
102
RTVSPropertyOp4
 70
     1
102
RTVSPropertyOp5
 70
     1
102
RTVSPropertyOp6
 70
     1
102
RTVSPropertyOp7
 70
     1
102
RTVSPropertyOp8
 70
     1
102
RTVSPropertyOp9
 70
     1
102
RTVSPropertyOp10
 70
     1
102
RTVSPropertyOp11
 70
     1
102
RTVSPropertyOp12
 70
     1
102
RTVSPropertyOp13
 70
     1
102
RTVSPropertyOp14
 70
     1
102
RTVSPropertyOp15
 70
     1
102
RTVSPropertyOp16
 70
     1
102
RTVSPropertyOp17
 70
     1
102
RTVSPropertyOp18
 70
     1
102
RTVSPropertyOp19
 70
     1
102
RTVSPropertyOp20
 70
     1
102
RTVSPropertyOp21
 70
     1
102
RTVSPropertyOp22
 70
     1
102
RTVSPropertyOp23
 70
     1
102
RTVSPropertyOp24
 70
     1
102
RTVSPropertyOp25
 70
     1
102
RTVSPropertyOp26
 70
     1
102
RTVSPropertyOp27
 70
     1
  0
XRECORD
  5
1617
102
{ACAD_REACTORS
330
1616
102
}
330
1616
100
AcDbXrecord
280
     1
102
RTVSPropertyOp0
 70
     1
102
RTVSPropertyOp1
 70
     1
102
RTVSPropertyOp2
 70
     1
102
RTVSPropertyOp3
 70
     1
102
RTVSPropertyOp4
 70
     1
102
RTVSPropertyOp5
 70
     1
102
RTVSPropertyOp6
 70
     1
102
RTVSPropertyOp7
 70
     1
102
RTVSPropertyOp8
 70
     1
102
RTVSPropertyOp9
 70
     1
102
RTVSPropertyOp10
 70
     1
102
RTVSPropertyOp11
 70
     1
102
RTVSPropertyOp12
 70
     1
102
RTVSPropertyOp13
 70
     1
102
RTVSPropertyOp14
 70
     1
102
RTVSPropertyOp15
 70
     1
102
RTVSPropertyOp16
 70
     1
102
RTVSPropertyOp17
 70
     1
102
RTVSPropertyOp18
 70
     1
102
RTVSPropertyOp19
 70
     1
102
RTVSPropertyOp20
 70
     1
102
RTVSPropertyOp21
 70
     1
102
RTVSPropertyOp22
 70
     1
102
RTVSPropertyOp23
 70
     1
102
RTVSPropertyOp24
 70
     1
102
RTVSPropertyOp25
 70
     1
102
RTVSPropertyOp26
 70
     1
102
RTVSPropertyOp27
 70
     1
  0
XRECORD
  5
1619
102
{ACAD_REACTORS
330
1618
102
}
330
1618
100
AcDbXrecord
280
     1
102
RTVSPropertyOp0
 70
     1
102
RTVSPropertyOp1
 70
     1
102
RTVSPropertyOp2
 70
     1
102
RTVSPropertyOp3
 70
     1
102
RTVSPropertyOp4
 70
     1
102
RTVSPropertyOp5
 70
     1
102
RTVSPropertyOp6
 70
     1
102
RTVSPropertyOp7
 70
     1
102
RTVSPropertyOp8
 70
     1
102
RTVSPropertyOp9
 70
     1
102
RTVSPropertyOp10
 70
     1
102
RTVSPropertyOp11
 70
     1
102
RTVSPropertyOp12
 70
     1
102
RTVSPropertyOp13
 70
     1
102
RTVSPropertyOp14
 70
     1
102
RTVSPropertyOp15
 70
     1
102
RTVSPropertyOp16
 70
     1
102
RTVSPropertyOp17
 70
     1
102
RTVSPropertyOp18
 70
     1
102
RTVSPropertyOp19
 70
     1
102
RTVSPropertyOp20
 70
     1
102
RTVSPropertyOp21
 70
     1
102
RTVSPropertyOp22
 70
     1
102
RTVSPropertyOp23
 70
     1
102
RTVSPropertyOp24
 70
     1
102
RTVSPropertyOp25
 70
     1
102
RTVSPropertyOp26
 70
     1
102
RTVSPropertyOp27
 70
     1
  0
XRECORD
  5
161B
102
{ACAD_REACTORS
330
161A
102
}
330
161A
100
AcDbXrecord
280
     1
102
RTVSPropertyOp0
 70
     1
102
RTVSPropertyOp1
 70
     1
102
RTVSPropertyOp2
 70
     1
102
RTVSPropertyOp3
 70
     1
102
RTVSPropertyOp4
 70
     1
102
RTVSPropertyOp5
 70
     1
102
RTVSPropertyOp6
 70
     1
102
RTVSPropertyOp7
 70
     1
102
RTVSPropertyOp8
 70
     1
102
RTVSPropertyOp9
 70
     1
102
RTVSPropertyOp10
 70
     1
102
RTVSPropertyOp11
 70
     1
102
RTVSPropertyOp12
 70
     1
102
RTVSPropertyOp13
 70
     1
102
RTVSPropertyOp14
 70
     1
102
RTVSPropertyOp15
 70
     1
102
RTVSPropertyOp16
 70
     1
102
RTVSPropertyOp17
 70
     1
102
RTVSPropertyOp18
 70
     1
102
RTVSPropertyOp19
 70
     1
102
RTVSPropertyOp20
 70
     1
102
RTVSPropertyOp21
 70
     1
102
RTVSPropertyOp22
 70
     1
102
RTVSPropertyOp23
 70
     1
102
RTVSPropertyOp24
 70
     1
102
RTVSPropertyOp25
 70
     1
102
RTVSPropertyOp26
 70
     1
102
RTVSPropertyOp27
 70
     1
  0
XRECORD
  5
161D
102
{ACAD_REACTORS
330
161C
102
}
330
161C
100
AcDbXrecord
280
     1
102
RTVSPropertyOp0
 70
     1
102
RTVSPropertyOp1
 70
     1
102
RTVSPropertyOp2
 70
     1
102
RTVSPropertyOp3
 70
     1
102
RTVSPropertyOp4
 70
     1
102
RTVSPropertyOp5
 70
     1
102
RTVSPropertyOp6
 70
     1
102
RTVSPropertyOp7
 70
     1
102
RTVSPropertyOp8
 70
     1
102
RTVSPropertyOp9
 70
     1
102
RTVSPropertyOp10
 70
     1
102
RTVSPropertyOp11
 70
     1
102
RTVSPropertyOp12
 70
     1
102
RTVSPropertyOp13
 70
     1
102
RTVSPropertyOp14
 70
     1
102
RTVSPropertyOp15
 70
     1
102
RTVSPropertyOp16
 70
     1
102
RTVSPropertyOp17
 70
     1
102
RTVSPropertyOp18
 70
     1
102
RTVSPropertyOp19
 70
     1
102
RTVSPropertyOp20
 70
     1
102
RTVSPropertyOp21
 70
     1
102
RTVSPropertyOp22
 70
     1
102
RTVSPropertyOp23
 70
     1
102
RTVSPropertyOp24
 70
     1
102
RTVSPropertyOp25
 70
     1
102
RTVSPropertyOp26
 70
     1
102
RTVSPropertyOp27
 70
     1
  0
XRECORD
  5
1637
102
{ACAD_REACTORS
330
1636
102
}
330
1636
100
AcDbXrecord
280
     1
102
RTVSPropertyOp0
 70
     0
102
RTVSPropertyOp1
 70
     0
102
RTVSPropertyOp2
 70
     0
102
RTVSPropertyOp3
 70
     0
102
RTVSPropertyOp4
 70
     0
102
RTVSPropertyOp5
 70
     0
102
RTVSPropertyOp6
 70
     0
102
RTVSPropertyOp7
 70
     0
102
RTVSPropertyOp8
 70
     0
102
RTVSPropertyOp9
 70
     0
102
RTVSPropertyOp10
 70
     0
102
RTVSPropertyOp11
 70
     0
102
RTVSPropertyOp12
 70
     0
102
RTVSPropertyOp13
 70
     0
102
RTVSPropertyOp14
 70
     2
102
RTVSPropertyOp15
 70
     0
102
RTVSPropertyOp16
 70
     0
102
RTVSPropertyOp17
 70
     0
102
RTVSPropertyOp18
 70
     0
102
RTVSPropertyOp19
 70
     0
102
RTVSPropertyOp20
 70
     0
102
RTVSPropertyOp21
 70
     0
102
RTVSPropertyOp22
 70
     0
102
RTVSPropertyOp23
 70
     0
102
RTVSPropertyOp24
 70
     0
102
RTVSPropertyOp25
 70
     0
102
RTVSPropertyOp26
 70
     0
102
RTVSPropertyOp27
 70
     0
  0
XRECORD
  5
1631
102
{ACAD_REACTORS
330
1630
102
}
330
1630
100
AcDbXrecord
280
     1
102
RTVSPropertyOp0
 70
     1
102
RTVSPropertyOp1
 70
     1
102
RTVSPropertyOp2
 70
     1
102
RTVSPropertyOp3
 70
     1
102
RTVSPropertyOp4
 70
     1
102
RTVSPropertyOp5
 70
     1
102
RTVSPropertyOp6
 70
     1
102
RTVSPropertyOp7
 70
     1
102
RTVSPropertyOp8
 70
     1
102
RTVSPropertyOp9
 70
     1
102
RTVSPropertyOp10
 70
     1
102
RTVSPropertyOp11
 70
     1
102
RTVSPropertyOp12
 70
     1
102
RTVSPropertyOp13
 70
     1
102
RTVSPropertyOp14
 70
     1
102
RTVSPropertyOp15
 70
     1
102
RTVSPropertyOp16
 70
     1
102
RTVSPropertyOp17
 70
     1
102
RTVSPropertyOp18
 70
     1
102
RTVSPropertyOp19
 70
     1
102
RTVSPropertyOp20
 70
     1
102
RTVSPropertyOp21
 70
     1
102
RTVSPropertyOp22
 70
     1
102
RTVSPropertyOp23
 70
     1
102
RTVSPropertyOp24
 70
     1
102
RTVSPropertyOp25
 70
     1
102
RTVSPropertyOp26
 70
     1
102
RTVSPropertyOp27
 70
     1
  0
XRECORD
  5
1639
102
{ACAD_REACTORS
330
1638
102
}
330
1638
100
AcDbXrecord
280
     1
102
RTVSPropertyOp0
 70
     0
102
RTVSPropertyOp1
 70
     0
102
RTVSPropertyOp2
 70
     0
102
RTVSPropertyOp3
 70
     0
102
RTVSPropertyOp4
 70
     0
102
RTVSPropertyOp5
 70
     0
102
RTVSPropertyOp6
 70
     0
102
RTVSPropertyOp7
 70
     0
102
RTVSPropertyOp8
 70
     0
102
RTVSPropertyOp9
 70
     0
102
RTVSPropertyOp10
 70
     0
102
RTVSPropertyOp11
 70
     0
102
RTVSPropertyOp12
 70
     0
102
RTVSPropertyOp13
 70
     0
102
RTVSPropertyOp14
 70
     2
102
RTVSPropertyOp15
 70
     0
102
RTVSPropertyOp16
 70
     0
102
RTVSPropertyOp17
 70
     0
102
RTVSPropertyOp18
 70
     0
102
RTVSPropertyOp19
 70
     0
102
RTVSPropertyOp20
 70
     0
102
RTVSPropertyOp21
 70
     0
102
RTVSPropertyOp22
 70
     0
102
RTVSPropertyOp23
 70
     0
102
RTVSPropertyOp24
 70
     0
102
RTVSPropertyOp25
 70
     0
102
RTVSPropertyOp26
 70
     0
102
RTVSPropertyOp27
 70
     0
  0
XRECORD
  5
1629
102
{ACAD_REACTORS
330
1628
102
}
330
1628
100
AcDbXrecord
280
     1
102
RTVSPropertyOp0
 70
     1
102
RTVSPropertyOp1
 70
     1
102
RTVSPropertyOp2
 70
     1
102
RTVSPropertyOp3
 70
     1
102
RTVSPropertyOp4
 70
     1
102
RTVSPropertyOp5
 70
     1
102
RTVSPropertyOp6
 70
     1
102
RTVSPropertyOp7
 70
     1
102
RTVSPropertyOp8
 70
     1
102
RTVSPropertyOp9
 70
     1
102
RTVSPropertyOp10
 70
     1
102
RTVSPropertyOp11
 70
     1
102
RTVSPropertyOp12
 70
     1
102
RTVSPropertyOp13
 70
     1
102
RTVSPropertyOp14
 70
     1
102
RTVSPropertyOp15
 70
     1
102
RTVSPropertyOp16
 70
     1
102
RTVSPropertyOp17
 70
     1
102
RTVSPropertyOp18
 70
     1
102
RTVSPropertyOp19
 70
     1
102
RTVSPropertyOp20
 70
     1
102
RTVSPropertyOp21
 70
     1
102
RTVSPropertyOp22
 70
     1
102
RTVSPropertyOp23
 70
     1
102
RTVSPropertyOp24
 70
     1
102
RTVSPropertyOp25
 70
     1
102
RTVSPropertyOp26
 70
     1
102
RTVSPropertyOp27
 70
     1
  0
XRECORD
  5
162F
102
{ACAD_REACTORS
330
162E
102
}
330
162E
100
AcDbXrecord
280
     1
102
RTVSPropertyOp0
 70
     1
102
RTVSPropertyOp1
 70
     1
102
RTVSPropertyOp2
 70
     1
102
RTVSPropertyOp3
 70
     1
102
RTVSPropertyOp4
 70
     1
102
RTVSPropertyOp5
 70
     1
102
RTVSPropertyOp6
 70
     1
102
RTVSPropertyOp7
 70
     1
102
RTVSPropertyOp8
 70
     1
102
RTVSPropertyOp9
 70
     1
102
RTVSPropertyOp10
 70
     1
102
RTVSPropertyOp11
 70
     1
102
RTVSPropertyOp12
 70
     1
102
RTVSPropertyOp13
 70
     1
102
RTVSPropertyOp14
 70
     1
102
RTVSPropertyOp15
 70
     1
102
RTVSPropertyOp16
 70
     1
102
RTVSPropertyOp17
 70
     1
102
RTVSPropertyOp18
 70
     1
102
RTVSPropertyOp19
 70
     1
102
RTVSPropertyOp20
 70
     1
102
RTVSPropertyOp21
 70
     1
102
RTVSPropertyOp22
 70
     1
102
RTVSPropertyOp23
 70
     1
102
RTVSPropertyOp24
 70
     1
102
RTVSPropertyOp25
 70
     1
102
RTVSPropertyOp26
 70
     1
102
RTVSPropertyOp27
 70
     1
  0
ENDSEC
  0
EOF
