  0
SECTION
  2
HEADER
  9
$ACADVER
  1
AC1014
  9
$ACADMAINTVER
 70
     9
  9
$DWGCODEPAGE
  3
ANSI_1252
  9
$INSBASE
 10
0.0
 20
0.0
 30
0.0
  9
$EXTMIN
 10
0.0
 20
-1.516033490892581
 30
0.0
  9
$EXTMAX
 10
31.99999999999998
 20
19.250007488
 30
0.0
  9
$LIMMIN
 10
0.0
 20
0.0
  9
$LIMMAX
 10
17.0
 20
11.0
  9
$ORTHOMODE
 70
     1
  9
$REGENMODE
 70
     1
  9
$FILLMODE
 70
     1
  9
$QTEXTMODE
 70
     0
  9
$MIRRTEXT
 70
     1
  9
$DRAGMODE
 70
     2
  9
$LTSCALE
 40
0.9350000000000001
  9
$OSMODE
 70
    37
  9
$ATTMODE
 70
     1
  9
$TEXTSIZE
 40
0.2
  9
$TRACEWID
 40
0.05
  9
$TEXTSTYLE
  7
STANDARD
  9
$CLAYER
  8
0
  9
$CELTYPE
  6
BYLAYER
  9
$CECOLOR
 62
   256
  9
$CELTSCALE
 40
1.0
  9
$DELOBJ
 70
     1
  9
$DISPSILH
 70
     0
  9
$DIMSCALE
 40
1.0
  9
$DIMASZ
 40
0.1875
  9
$DIMEXO
 40
0.10625
  9
$DIMDLI
 40
0.646
  9
$DIMRND
 40
0.0
  9
$DIMDLE
 40
0.0
  9
$DIMEXE
 40
0.306
  9
$DIMTP
 40
0.0
  9
$DIMTM
 40
0.0
  9
$DIMTXT
 40
0.125
  9
$DIMCEN
 40
0.153
  9
$DIMTSZ
 40
0.0
  9
$DIMTOL
 70
     0
  9
$DIMLIM
 70
     0
  9
$DIMTIH
 70
     1
  9
$DIMTOH
 70
     1
  9
$DIMSE1
 70
     0
  9
$DIMSE2
 70
     0
  9
$DIMTAD
 70
     0
  9
$DIMZIN
 70
     0
  9
$DIMBLK
  1
_FILLED
  9
$DIMASO
 70
     1
  9
$DIMSHO
 70
     1
  9
$DIMPOST
  1

  9
$DIMAPOST
  1

  9
$DIMALT
 70
     0
  9
$DIMALTD
 70
     2
  9
$DIMALTF
 40
25.4
  9
$DIMLFAC
 40
1.0
  9
$DIMTOFL
 70
     0
  9
$DIMTVP
 40
0.0
  9
$DIMTIX
 70
     0
  9
$DIMSOXD
 70
     0
  9
$DIMSAH
 70
     0
  9
$DIMBLK1
  1

  9
$DIMBLK2
  1

  9
$DIMSTYLE
  2
STANDARD
  9
$DIMCLRD
 70
     0
  9
$DIMCLRE
 70
     0
  9
$DIMCLRT
 70
     0
  9
$DIMTFAC
 40
1.0
  9
$DIMGAP
 40
0.09
  9
$DIMJUST
 70
     0
  9
$DIMSD1
 70
     0
  9
$DIMSD2
 70
     0
  9
$DIMTOLJ
 70
     1
  9
$DIMTZIN
 70
     0
  9
$DIMALTZ
 70
     0
  9
$DIMALTTZ
 70
     0
  9
$DIMFIT
 70
     3
  9
$DIMUPT
 70
     0
  9
$DIMUNIT
 70
     2
  9
$DIMDEC
 70
     4
  9
$DIMTDEC
 70
     4
  9
$DIMALTU
 70
     2
  9
$DIMALTTD
 70
     2
  9
$DIMTXSTY
  7
STANDARD
  9
$DIMAUNIT
 70
     0
  9
$LUNITS
 70
     2
  9
$LUPREC
 70
     4
  9
$SKETCHINC
 40
0.1
  9
$FILLETRAD
 40
1.0
  9
$AUNITS
 70
     0
  9
$AUPREC
 70
     0
  9
$MENU
  1
acad
  9
$ELEVATION
 40
0.0
  9
$PELEVATION
 40
0.0
  9
$THICKNESS
 40
0.0
  9
$LIMCHECK
 70
     0
  9
$BLIPMODE
 70
     0
  9
$CHAMFERA
 40
0.0
  9
$CHAMFERB
 40
0.0
  9
$CHAMFERC
 40
0.0
  9
$CHAMFERD
 40
0.0
  9
$SKPOLY
 70
     0
  9
$TDCREATE
 40
2454041.682260359
  9
$TDUPDATE
 40
2454043.627423460
  9
$TDINDWG
 40
0.2880485069
  9
$TDUSRTIMER
 40
0.2880485069
  9
$USRTIMER
 70
     1
  9
$ANGBASE
 50
0.0
  9
$ANGDIR
 70
     0
  9
$PDMODE
 70
     3
  9
$PDSIZE
 40
0.03125
  9
$PLINEWID
 40
0.0
  9
$COORDS
 70
     0
  9
$SPLFRAME
 70
     0
  9
$SPLINETYPE
 70
     6
  9
$SPLINESEGS
 70
     8
  9
$ATTDIA
 70
     0
  9
$ATTREQ
 70
     1
  9
$HANDLING
 70
-16383
  9
$HANDSEED
  5
9E4
  9
$SURFTAB1
 70
     6
  9
$SURFTAB2
 70
     6
  9
$SURFTYPE
 70
     6
  9
$SURFU
 70
     6
  9
$SURFV
 70
     6
  9
$UCSNAME
  2

  9
$UCSORG
 10
0.0
 20
0.0
 30
0.0
  9
$UCSXDIR
 10
1.0
 20
0.0
 30
0.0
  9
$UCSYDIR
 10
0.0
 20
1.0
 30
0.0
  9
$PUCSNAME
  2

  9
$PUCSORG
 10
0.0
 20
0.0
 30
0.0
  9
$PUCSXDIR
 10
1.0
 20
0.0
 30
0.0
  9
$PUCSYDIR
 10
0.0
 20
1.0
 30
0.0
  9
$USERI1
 70
     0
  9
$USERI2
 70
     0
  9
$USERI3
 70
     0
  9
$USERI4
 70
     0
  9
$USERI5
 70
     0
  9
$USERR1
 40
0.0
  9
$USERR2
 40
0.0
  9
$USERR3
 40
0.0
  9
$USERR4
 40
0.0
  9
$USERR5
 40
0.0
  9
$WORLDVIEW
 70
     1
  9
$SHADEDGE
 70
     3
  9
$SHADEDIF
 70
    70
  9
$TILEMODE
 70
     1
  9
$MAXACTVP
 70
    16
  9
$PINSBASE
 10
0.0
 20
0.0
 30
0.0
  9
$PLIMCHECK
 70
     0
  9
$PEXTMIN
 10
1.000000000000000E+20
 20
1.000000000000000E+20
 30
1.000000000000000E+20
  9
$PEXTMAX
 10
-1.000000000000000E+20
 20
-1.000000000000000E+20
 30
-1.000000000000000E+20
  9
$PLIMMIN
 10
0.0
 20
0.0
  9
$PLIMMAX
 10
12.0
 20
9.0
  9
$UNITMODE
 70
     0
  9
$VISRETAIN
 70
     0
  9
$PLINEGEN
 70
     1
  9
$PSLTSCALE
 70
     0
  9
$TREEDEPTH
 70
  3020
  9
$PICKSTYLE
 70
     1
  9
$CMLSTYLE
  2
STANDARD
  9
$CMLJUST
 70
     0
  9
$CMLSCALE
 40
1.0
  9
$PROXYGRAPHICS
 70
     0
  9
$MEASUREMENT
 70
     0
  0
ENDSEC
  0
SECTION
  2
CLASSES
  0
CLASS
  1
ACDBDICTIONARYWDFLT
  2
AcDbDictionaryWithDefault
  3
AutoCAD 2000
 90
        0
280
     0
281
     0
  0
CLASS
  1
ACDBPLACEHOLDER
  2
AcDbPlaceHolder
  3
AutoCAD 2000
 90
        0
280
     0
281
     0
  0
CLASS
  1
LAYOUT
  2
AcDbLayout
  3
AutoCAD 2000
 90
        0
280
     0
281
     0
  0
CLASS
  1
LWPOLYLINE
  2
AcDbPolyline
  3
AutoCAD 2000
 90
        0
280
     0
281
     1
  0
CLASS
  1
IMAGE
  2
AcDbRasterImage
  3
ISM
 90
      127
280
     0
281
     1
  0
CLASS
  1
OLE2FRAME
  2
AcDbOle2Frame
  3
AutoCAD 2000
 90
        0
280
     0
281
     1
  0
CLASS
  1
HATCH
  2
AcDbHatch
  3
AutoCAD 2000
 90
        0
280
     0
281
     1
  0
CLASS
  1
DICTIONARYVAR
  2
AcDbDictionaryVar
  3
AutoCAD 2000
 90
        0
280
     0
281
     0
  0
CLASS
  1
RASTERVARIABLES
  2
AcDbRasterVariables
  3
ISM
 90
        0
280
     0
281
     0
  0
CLASS
  1
IMAGEDEF
  2
AcDbRasterImageDef
  3
ISM
 90
        0
280
     0
281
     0
  0
CLASS
  1
IMAGEDEF_REACTOR
  2
AcDbRasterImageDefReactor
  3
ISM
 90
        1
280
     0
281
     0
  0
CLASS
  1
IDBUFFER
  2
AcDbIdBuffer
  3
AutoCAD 2000
 90
        0
280
     0
281
     0
  0
CLASS
  1
SPATIAL_FILTER
  2
AcDbSpatialFilter
  3
AutoCAD 2000
 90
        0
280
     0
281
     0
  0
CLASS
  1
XRECORD
  2
AcDbXrecord
  3
AutoCAD 2000
 90
        0
280
     0
281
     0
  0
CLASS
  1
SORTENTSTABLE
  2
AcDbSortentsTable
  3
AutoCAD 2000
 90
        0
280
     0
281
     0
  0
CLASS
  1
LAYER_INDEX
  2
AcDbLayerIndex
  3
AutoCAD 2000
 90
        0
280
     0
281
     0
  0
CLASS
  1
SPATIAL_INDEX
  2
AcDbSpatialIndex
  3
AutoCAD 2000
 90
        0
280
     0
281
     0
  0
CLASS
  1
OBJECT_PTR
  2
CAseDLPNTableRecord
  3
ASE-LPNTableRecord
 90
        1
280
     0
281
     0
  0
CLASS
  1
PLOTSETTINGS
  2
AcDbPlotSettings
  3
AutoCAD 2000
 90
        0
280
     0
281
     0
  0
CLASS
  1
VBA_PROJECT
  2
AcDbVbaProject
  3
acadvba
 90
        0
280
     0
281
     0
  0
CLASS
  1
WIPEOUT
  2
AcDbWipeout
  3
WipeOut|AutoCAD Express Tool|expresstools@autodesk.com
 90
      127
280
     0
281
     1
  0
CLASS
  1
WIPEOUTVARIABLES
  2
AcDbWipeoutVariables
  3
WipeOut|AutoCAD Express Tool|expresstools@autodesk.com
 90
        0
280
     0
281
     0
  0
CLASS
  1
RTEXT
  2
RText
  3
RText|AutoCAD Express Tool|expresstools@autodesk.com
 90
        0
280
     0
281
     1
  0
CLASS
  1
ARCALIGNEDTEXT
  2
AcDbArcAlignedText
  3
ATEXT|AutoCAD Express Tool|expresstools@autodesk.com
 90
        0
280
     0
281
     1
  0
CLASS
  1
LONG_TRANSACTION
  2
AcDbLongTransaction
  3
AutoCAD 2000
 90
        0
280
     0
281
     0
  0
CLASS
  1
LWPOLYLINE
  2
AcDbPolyline
  3
AutoCAD 2000
 90
        0
280
     0
281
     1
  0
CLASS
  1
HATCH
  2
AcDbHatch
  3
AutoCAD 2000
 90
        0
280
     0
281
     1
  0
CLASS
  1
XRECORD
  2
AcDbXrecord
  3
AutoCAD 2000
 90
        0
280
     0
281
     0
  0
ENDSEC
  0
SECTION
  2
TABLES
  0
TABLE
  2
VPORT
  5
8
330
0
100
AcDbSymbolTable
 70
     3
  0
VPORT
  5
9BE
330
8
100
AcDbSymbolTableRecord
100
AcDbViewportTableRecord
  2
*ACTIVE
 70
     0
 10
0.0
 20
0.0
 11
1.0
 21
1.0
 12
16.85820451032678
 22
10.22525195052648
 13
0.0
 23
0.0
 14
1.0
 24
1.0
 15
0.0
 25
0.0
 16
0.0
 26
0.0
 36
1.0
 17
0.0
 27
0.0
 37
0.0
 40
25.09614536823647
 41
1.745424292845257
 42
50.0
 43
0.0
 44
0.0
 50
0.0
 51
0.0
 71
     0
 72
   100
 73
     1
 74
     1
 75
     0
 76
     0
 77
     0
 78
     0
  0
ENDTAB
  0
TABLE
  2
LTYPE
  5
5
330
0
100
AcDbSymbolTable
 70
     3
  0
LTYPE
  5
14
330
5
100
AcDbSymbolTableRecord
100
AcDbLinetypeTableRecord
  2
BYBLOCK
 70
     0
  3

 72
    65
 73
     0
 40
0.0
  0
LTYPE
  5
15
330
5
100
AcDbSymbolTableRecord
100
AcDbLinetypeTableRecord
  2
BYLAYER
 70
     0
  3

 72
    65
 73
     0
 40
0.0
  0
LTYPE
  5
16
330
5
100
AcDbSymbolTableRecord
100
AcDbLinetypeTableRecord
  2
CONTINUOUS
 70
     0
  3
Solid line
 72
    65
 73
     0
 40
0.0
  0
LTYPE
  5
1F6
330
5
100
AcDbSymbolTableRecord
100
AcDbLinetypeTableRecord
  2
HIDDEN
 70
     0
  3
- - - - - - - - - - - - - - - - - - - -
 72
    65
 73
     2
 40
0.2
 49
0.1
 74
     0
 49
-0.1
 74
     0
  0
LTYPE
  5
910
330
5
100
AcDbSymbolTableRecord
100
AcDbLinetypeTableRecord
  2
CENTERX2
 70
     0
  3
Center (2x) ________  __  ________  __  _____
 72
    65
 73
     4
 40
4.0
 49
2.5
 74
     0
 49
-0.5
 74
     0
 49
0.5
 74
     0
 49
-0.5
 74
     0
  0
ENDTAB
  0
TABLE
  2
LAYER
  5
2
330
0
100
AcDbSymbolTable
 70
     2
  0
LAYER
  5
10
330
2
100
AcDbSymbolTableRecord
100
AcDbLayerTableRecord
  2
0
 70
     0
 62
     7
  6
CONTINUOUS
  0
LAYER
  5
911
330
2
100
AcDbSymbolTableRecord
100
AcDbLayerTableRecord
  2
CENTER
 70
     0
 62
     1
  6
CENTERX2
  0
ENDTAB
  0
TABLE
  2
STYLE
  5
3
330
0
100
AcDbSymbolTable
 70
     2
  0
STYLE
  5
11
330
3
100
AcDbSymbolTableRecord
100
AcDbTextStyleTableRecord
  2
STANDARD
 70
     0
 40
0.0
 41
0.8
 50
0.0
 71
     0
 42
0.2
  3
txt
  4

  0
STYLE
  5
212
330
3
100
AcDbSymbolTableRecord
100
AcDbTextStyleTableRecord
  2
TEXTSTYLE_1
 70
     0
 40
0.0
 41
0.8
 50
0.0
 71
     0
 42
0.2
  3
txt
  4

  0
ENDTAB
  0
TABLE
  2
VIEW
  5
6
330
0
100
AcDbSymbolTable
 70
     0
  0
ENDTAB
  0
TABLE
  2
UCS
  5
7
330
0
100
AcDbSymbolTable
 70
     0
  0
ENDTAB
  0
TABLE
  2
APPID
  5
9
330
0
100
AcDbSymbolTable
 70
     2
  0
APPID
  5
216
330
9
100
AcDbSymbolTableRecord
100
AcDbRegAppTableRecord
  2
ACAD
 70
     0
  0
APPID
  5
90C
330
9
100
AcDbSymbolTableRecord
100
AcDbRegAppTableRecord
  2
DCO15
 70
     0
  0
ENDTAB
  0
TABLE
  2
DIMSTYLE
  5
A
330
0
100
AcDbSymbolTable
 70
     1
  0
DIMSTYLE
105
237
330
A
100
AcDbSymbolTableRecord
100
AcDbDimStyleTableRecord
  2
STANDARD
 70
     0
  3

  4

  5
_FILLED
  6
_FILLED
  7
_FILLED
 40
1.0
 41
0.1875
 42
0.0625
 43
0.38
 44
0.18
 45
0.0
 46
0.0
 47
0.00001
 48
0.00001
140
0.125
141
0.09
142
0.0
143
25.4
144
1.0
145
0.0
146
1.0
147
0.09
 71
     0
 72
     0
 73
     1
 74
     1
 75
     0
 76
     0
 77
     0
 78
     4
170
     0
171
     2
172
     0
173
     0
174
     0
175
     0
176
     0
177
     0
178
     0
270
     2
271
     5
272
     5
273
     2
274
     2
340
11
275
     0
280
     0
281
     0
282
     0
283
     1
284
     4
285
     0
286
     0
287
     3
288
     0
  0
ENDTAB
  0
TABLE
  2
BLOCK_RECORD
  5
1
330
0
100
AcDbSymbolTable
 70
     1
  0
BLOCK_RECORD
  5
1F
102
{ACAD_XDICTIONARY
360
9E2
102
}
330
1
100
AcDbSymbolTableRecord
100
AcDbBlockTableRecord
  2
*MODEL_SPACE
  0
BLOCK_RECORD
  5
1B
102
{ACAD_XDICTIONARY
360
9E0
102
}
330
1
100
AcDbSymbolTableRecord
100
AcDbBlockTableRecord
  2
*PAPER_SPACE
  0
BLOCK_RECORD
  5
217
330
1
100
AcDbSymbolTableRecord
100
AcDbBlockTableRecord
  2
_FILLED
  0
ENDTAB
  0
ENDSEC
  0
SECTION
  2
BLOCKS
  0
BLOCK
  5
20
330
1F
100
AcDbEntity
  8
0
100
AcDbBlockBegin
  2
*MODEL_SPACE
 70
     0
 10
0.0
 20
0.0
 30
0.0
  3
*MODEL_SPACE
  1

  0
ENDBLK
  5
21
330
1F
100
AcDbEntity
  8
0
100
AcDbBlockEnd
  0
BLOCK
  5
1C
330
1B
100
AcDbEntity
 67
     1
  8
0
100
AcDbBlockBegin
  2
*PAPER_SPACE
 70
     0
 10
0.0
 20
0.0
 30
0.0
  3
*PAPER_SPACE
  1

  0
ENDBLK
  5
1D
330
1B
100
AcDbEntity
 67
     1
  8
0
100
AcDbBlockEnd
  0
BLOCK
  5
442
330
217
100
AcDbEntity
  8
0
100
AcDbBlockBegin
  2
_FILLED
 70
     0
 10
0.0
 20
0.0
 30
0.0
  3
_FILLED
  1

  0
SOLID
  5
443
330
217
100
AcDbEntity
  8
0
  6
BYBLOCK
 62
     0
100
AcDbTrace
 10
0.0
 20
0.0
 30
0.0
 11
-1.0
 21
0.1666666667
 31
0.0
 12
-1.0
 22
-0.1666666667
 32
0.0
 13
-1.0
 23
-0.1666666667
 33
0.0
  0
ENDBLK
  5
444
330
217
100
AcDbEntity
  8
0
  6
BYBLOCK
 62
     0
100
AcDbBlockEnd
  0
ENDSEC
  0
SECTION
  2
ENTITIES
  0
MTEXT
  5
4BC
330
1F
100
AcDbEntity
  8
0
  6
CONTINUOUS
 62
     2
100
AcDbMText
 10
15.84375
 20
2.3125
 30
0.0
 40
0.09375
 41
0.075
 71
     2
 72
     1
  1
 \P \P 
  7
TEXTSTYLE_1
1001
ACAD
1000
MTEXTBEGIN
1070
    73
1070
     1
1070
    44
1040
1.0
1070
    74
1070
     0
1000
MTEXTEND
  0
LWPOLYLINE
  5
7B9
330
1F
100
AcDbEntity
  8
0
100
AcDbPolyline
 90
       13
 70
     0
 43
0.0
 10
0.1193569120000006
 20
19.1013880528
 10
0.1254698159999918
 20
19.1234777616
 10
0.1333027407999907
 20
19.1427211456
 10
0.1433145551999928
 20
19.1611383072
 10
0.156145267200003
 20
19.1793665216
 10
0.1686231360000079
 20
19.1935041696
 10
0.1833859488000087
 20
19.2070885264
 10
0.2007719407999957
 20
19.2198396032
 10
0.2199516912000092
 20
19.2307302672
 10
0.2392922511999984
 20
19.238941816
 10
0.260528998399991
 20
19.2451955392
 10
0.2825600015999896
 20
19.2489249664
 10
0.304846262399991
 20
19.250007488
  0
LINE
  5
7BD
330
1F
100
AcDbEntity
  8
0
100
AcDbLine
 10
0.0
 20
17.7530050864
 30
0.0
 11
0.1158831952688217
 21
19.07755606287226
 31
0.0
  0
LINE
  5
7BE
330
1F
100
AcDbEntity
  8
0
100
AcDbLine
 10
0.1158831951999844
 20
19.0775560624
 30
0.0
 11
0.1193569120000006
 21
19.1013880528
 31
0.0
  0
LWPOLYLINE
  5
7C4
330
1F
100
AcDbEntity
  8
0
100
AcDbPolyline
 90
       80
 70
     0
 43
0.0
 10
5.572592955200008
 20
3.641127555200004
 10
5.580867883199999
 20
3.595446694400006
 10
5.591845115199987
 20
3.542333467200005
 10
5.604028988799996
 20
3.490326456000008
 10
5.617353779199987
 20
3.439428817600006
 10
5.631756393599999
 20
3.389641070400006
 10
5.647176380800004
 20
3.340961315200008
 10
5.663555919999993
 20
3.293385452800006
 10
5.680839809600001
 20
3.246907400000008
 10
5.698975478400001
 20
3.201519156800006
 10
5.717912955200006
 20
3.157211048000004
 10
5.737604814399986
 20
3.113971955200003
 10
5.758006116800004
 20
3.071789489600003
 10
5.779074384000011
 20
3.030650132800008
 10
5.800769529599989
 20
2.990539387200005
 10
5.823053815999998
 20
2.951441915200003
 10
5.845891792000003
 20
2.913341665600004
 10
5.869250235199984
 20
2.876221998400009
 10
5.893097876799998
 20
2.840066099200004
 10
5.917402879999997
 20
2.804860518400008
 10
5.942133275200006
 20
2.770593784000009
 10
5.967258515200001
 20
2.737253883200008
 10
5.992749479999986
 20
2.704828278400004
 10
6.018578449599999
 20
2.673303988800004
 10
6.044719062399991
 20
2.642667641600009
 10
6.071146287999994
 20
2.612905540800003
 10
6.097836384000004
 20
2.584003734400003
 10
6.124766795200002
 20
2.555948121600007
 10
6.151916207999988
 20
2.528724409600005
 10
6.179264491200001
 20
2.502318184000007
 10
6.206792563199996
 20
2.476715044800005
 10
6.234482372799988
 20
2.451900616000006
 10
6.262317147200008
 20
2.427860329600004
 10
6.290281156800006
 20
2.404579657600006
 10
6.318359667199985
 20
2.382044160000003
 10
6.346538899199998
 20
2.360239510400003
 10
6.374805987200005
 20
2.339151534400006
 10
6.403148947200008
 20
2.318766227200004
 10
6.431556764800006
 20
2.299069696000007
 10
6.460019158400001
 20
2.280048329600003
 10
6.488526564799997
 20
2.261688793600004
 10
6.517070123199999
 20
2.243978028800004
 10
6.545641636799985
 20
2.226903268800004
 10
6.574233475200003
 20
2.210452091200007
 10
6.602834118400011
 20
2.194614809600007
 10
6.631428398400004
 20
2.179383888000007
 10
6.660002148800003
 20
2.164751182400006
 10
6.688541204800003
 20
2.150708504000004
 10
6.717031774399998
 20
2.137247425600005
 10
6.745460337600007
 20
2.124359337600008
 10
6.773813523200004
 20
2.112035505600008
 10
6.802078041599997
 20
2.100267096000006
 10
6.830240585599995
 20
2.089045188800003
 10
6.858287723199993
 20
2.078360819200003
 10
6.886207169599998
 20
2.068204483200009
 10
6.913986963199988
 20
2.058566507200008
 10
6.94161335519999
 20
2.049437742400005
 10
6.969071791999994
 20
2.040809089600006
 10
6.996346521600003
 20
2.032671544000006
 10
7.023416980799993
 20
2.025017086400008
 10
7.050256555200007
 20
2.017838641600004
 10
7.076857257600011
 20
2.011123588800007
 10
7.103211198400003
 20
2.004859416000005
 10
7.12930835840001
 20
1.999034182400006
 10
7.155134704000005
 20
1.993636720000008
 10
7.180671204800006
 20
1.988656521600002
 10
7.2058891856
 20
1.984084203200009
 10
7.230736652800004
 20
1.979913057600004
 10
7.255143694400004
 20
1.976136740800004
 10
7.279011220799986
 20
1.972749734400007
 10
7.302160094399994
 20
1.969751923200004
 10
7.324395836799993
 20
1.967136958400008
 10
7.345439870399985
 20
1.964899091200006
 10
7.364946014400004
 20
1.963028444800006
 10
7.382845580799994
 20
1.961481788800004
 10
7.399123163199988
 20
1.960213526400007
 10
7.413820196800003
 20
1.959177990400004
 10
7.427331601600002
 20
1.958313448000009
 10
7.439890836800003
 20
1.957580377600006
 10
7.462263028800009
 20
1.956422556800003
  0
LINE
  5
7C8
330
1F
100
AcDbEntity
  8
0
100
AcDbLine
 10
5.572592955200008
 20
3.641127555200004
 30
0.0
 11
3.957746884800002
 21
17.7530050864
 31
0.0
  0
LINE
  5
7D4
330
1F
100
AcDbEntity
  8
0
100
AcDbLine
 10
8.118100489932345
 20
1.932972923905223
 30
0.0
 11
8.589672774399986
 21
0.6374179856000027
 31
0.0
  0
LWPOLYLINE
  5
7F3
330
1F
100
AcDbEntity
  8
0
100
AcDbPolyline
 90
       62
 70
     0
 43
0.0
 10
24.56040300319999
 20
1.957596795200007
 10
24.57365577599999
 20
1.958373926400003
 10
24.58830180480002
 20
1.959321233600004
 10
24.60473087839999
 20
1.960502118400004
 10
24.62307387840001
 20
1.961975465600009
 10
24.64334126239997
 20
1.963799428800005
 10
24.66569055040001
 20
1.966054144000008
 10
24.69013195199998
 20
1.968816147200005
 10
24.71620495519998
 20
1.972107056000009
 10
24.74343826239997
 20
1.975927075200008
 10
24.77158426399999
 20
1.980288705600006
 10
24.8004383744
 20
1.985199308800009
 10
24.82987185120002
 20
1.990669825600004
 10
24.85979243519999
 20
1.996711934400007
 10
24.89012677919997
 20
2.003336728000004
 10
24.92080617279997
 20
2.010552619200009
 10
24.95176846560001
 20
2.018366083200003
 10
24.98300412799999
 20
2.026794942400005
 10
25.01451571519997
 20
2.035860947200003
 10
25.04630975039997
 20
2.045588404800003
 10
25.07839759839997
 20
2.056004960000006
 10
25.11078989600001
 20
2.067140251200004
 10
25.14349463519998
 20
2.079025307200009
 10
25.17651953440001
 20
2.091693416000008
 10
25.20987150400002
 20
2.105180091200008
 10
25.24355627999999
 20
2.119523092800005
 10
25.27757795839999
 20
2.134762355200006
 10
25.31195063839998
 20
2.150945747200008
 10
25.34672010719997
 20
2.168141611200002
 10
25.38193243839997
 20
2.186426576000005
 10
25.41762878399997
 20
2.205883620800005
 10
25.45383978720001
 20
2.226599280000005
 10
25.49053179999997
 20
2.248630339200008
 10
25.52762989919999
 20
2.272010278400006
 10
25.56505706400001
 20
2.296769792000009
 10
25.60273482400002
 20
2.322936904000005
 10
25.64058335359998
 20
2.350536780800009
 10
25.67852157439999
 20
2.379591539200003
 10
25.71647056639999
 20
2.410122788800006
 10
25.75439790879999
 20
2.442190473600003
 10
25.7923015232
 20
2.475888598400008
 10
25.83017102080002
 20
2.511316822400008
 10
25.86798604160001
 20
2.548579510400006
 10
25.90571544319998
 20
2.587785422400006
 10
25.94331546720001
 20
2.629046268800006
 10
25.9807014496
 20
2.672443256000004
 10
26.0177471104
 20
2.718016515200009
 10
26.05431928
 20
2.765799128000008
 10
26.09028001279999
 20
2.815818771200003
 10
26.12548671680001
 20
2.868097208000005
 10
26.15979613760002
 20
2.922656070400005
 10
26.19307029920001
 20
2.979528947200005
 10
26.22516563999998
 20
3.038747180800005
 10
26.25593073920002
 20
3.100335996800009
 10
26.2852062864
 20
3.164313728000006
 10
26.312825088
 20
3.230690998400003
 10
26.33861214080001
 20
3.299469851200004
 10
26.36238469279998
 20
3.370642644800003
 10
26.38395244479998
 20
3.444190968000004
 10
26.40311794879998
 20
3.520084921600005
 10
26.41967697279999
 20
3.598282097600009
 10
26.427412816
 20
3.641161550400003
  0
LWPOLYLINE
  5
819
330
1F
100
AcDbEntity
  8
0
100
AcDbPolyline
 90
       10
 70
     0
 43
0.0
 10
17.99262760639997
 20
1.743099065600009
 10
18.31374077280001
 20
1.749861363200007
 10
18.65323832479997
 20
1.757788452800003
 10
18.98206451520001
 20
1.766166982400005
 10
19.30071100960002
 20
1.774881643200007
 10
19.60916629440002
 20
1.783822003200004
 10
19.90740477759997
 20
1.792891380800003
 10
20.19540092800001
 20
1.802005601600004
 10
20.47313524479999
 20
1.811091702400009
 10
20.99789572320001
 20
1.828940094400007
  0
LINE
  5
820
330
1F
100
AcDbEntity
  8
0
100
AcDbLine
 10
14.72855339200002
 20
1.221755086400005
 30
0.0
 11
17.27144660959997
 21
1.221755086400005
 31
0.0
  0
LWPOLYLINE
  5
82D
330
1F
100
AcDbEntity
  8
0
100
AcDbPolyline
 90
        9
 70
     0
 43
0.0
 10
11.52686480959998
 20
1.811091700800009
 10
11.80459912479999
 20
1.802005600000004
 10
12.09259527200002
 20
1.792891379200003
 10
12.39083375199997
 20
1.783822001600004
 10
12.69928903200001
 20
1.774881643200007
 10
13.01793552320002
 20
1.766166980800004
 10
13.3467617104
 20
1.757788451200003
 10
13.68625925759998
 20
1.749861363200007
 10
14.00568241759997
 20
1.743140684800007
  0
LINE
  5
858
330
1F
100
AcDbEntity
  8
0
100
AcDbLine
 10
14.52967960959999
 20
1.304131304000005
 30
0.0
 11
14.15459201920002
 21
1.679218894400005
 31
0.0
  0
LINE
  5
85D
330
1F
100
AcDbEntity
  8
0
100
AcDbLine
 10
14.81254481119997
 20
15.7407513008
 30
0.0
 11
14.81249999999998
 21
15.7509891424
 31
0.0
  0
LWPOLYLINE
  5
85E
330
1F
100
AcDbEntity
  8
0
100
AcDbPolyline
 90
       21
 70
     0
 43
0.0
 10
14.81249999999998
 20
15.7509891424
 10
14.81543219680001
 20
15.8338400096
 10
14.82572953759999
 20
15.9265609648
 10
14.84335353279998
 20
16.0180779504
 10
14.86821762240002
 20
16.1079632368
 10
14.90012088799999
 20
16.1955101728
 10
14.9389367968
 20
16.28036832
 10
14.98434556639999
 20
16.3618321856
 10
15.03613784000002
 20
16.4395305792
 10
15.0939264272
 20
16.5128791936
 10
15.1573923152
 20
16.5814795392
 10
15.2261310608
 20
16.6448907888
 10
15.29966353759998
 20
16.7026803824
 10
15.37763127999999
 20
16.7545658112
 10
15.45944000479998
 20
16.8001512944
 10
15.54469660800002
 20
16.8392168832
 10
15.6326102496
 20
16.8714178048
 10
15.72274271519999
 20
16.8966290288
 10
15.8143537152
 20
16.9146835504
 10
15.90699437279998
 20
16.9255375376
 10
15.99999999999998
 20
16.9291520976
  0
LINE
  5
861
330
1F
100
AcDbEntity
  8
0
100
AcDbLine
 10
14.81254489759997
 20
15.7443118976
 30
0.0
 11
14.81704106559998
 21
15.647920672
 31
0.0
  0
LINE
  5
868
330
1F
100
AcDbEntity
  8
0
100
AcDbLine
 10
21.71626478720001
 20
0.3993330368000016
 30
0.0
 11
20.68531870729853
 21
1.818308582806354
 31
0.0
  0
LINE
  5
86E
330
1F
100
AcDbEntity
  8
0
100
AcDbLine
 10
17.18749999999998
 20
15.7509894176
 30
0.0
 11
17.18745491039998
 21
15.740719224
 31
0.0
  0
LWPOLYLINE
  5
86F
330
1F
100
AcDbEntity
  8
0
100
AcDbPolyline
 90
       21
 70
     0
 43
0.0
 10
17.18745482079997
 20
15.744279696
 10
17.1829563904
 20
15.64789183360001
 10
17.17117910720001
 20
15.5560483328
 10
17.15231082559999
 20
15.4658589824
 10
17.1265346416
 20
15.3777198176
 10
17.09410417119998
 20
15.292187768
 10
17.05517679040001
 20
15.2095056336
 10
17.01006637440001
 20
15.130243128
 10
16.95892257759997
 20
15.05462176
 10
16.90207780479998
 20
14.9831427936
 10
16.8397304864
 20
14.91609138560001
 10
16.77219698880001
 20
14.8538799152
 10
16.69982536320001
 20
14.796905432
 10
16.62287680479998
 20
14.7454737776
 10
16.5418521248
 20
14.7000242032
 10
16.4570813024
 20
14.6608478096
 10
16.36932500480001
 20
14.62837826560001
 10
16.27903198720001
 20
14.6028348016
 10
16.18699298080001
 20
14.5844731824
 10
16.09373352319998
 20
14.573405848
 10
15.99999999999998
 20
14.5697148576
  0
LINE
  5
873
330
1F
100
AcDbEntity
  8
0
100
AcDbLine
 10
10.28373521439998
 20
0.3993330368000016
 30
0.0
 11
11.31494316177598
 21
1.818669012464015
 31
0.0
  0
LWPOLYLINE
  5
87D
330
1F
100
AcDbEntity
  8
0
100
AcDbPolyline
 90
       20
 70
     0
 43
0.0
 10
15.99999999999998
 20
14.5697148576
 10
15.9062670832
 20
14.5734058
 10
15.8130107296
 20
14.5844725936
 10
15.72096831039998
 20
14.6028347296
 10
15.630677944
 20
14.628377304
 10
15.5429173968
 20
14.660848352
 10
15.45814743840002
 20
14.70002442560001
 10
15.37712640800002
 20
14.74547180800001
 10
15.30017844479998
 20
14.7969026672
 10
15.2278105312
 20
14.8538735072
 10
15.1602729936
 20
14.9160879232
 10
15.09792850400002
 20
14.9831354608
 10
15.04107952320002
 20
15.0546189008
 10
14.98993598719998
 20
15.1302393296
 10
14.9448230016
 20
15.2095060368
 10
14.90589451520001
 20
15.29219086400001
 10
14.87346390399999
 20
15.3777241584
 10
14.84768654560001
 20
15.4658694768
 10
14.82881852640001
 20
15.556062384
 10
14.81704106559998
 20
15.647920672
  0
LINE
  5
880
330
1F
100
AcDbEntity
  8
0
100
AcDbLine
 10
17.470320392
 20
1.304131304000005
 30
0.0
 11
17.84540798239997
 21
1.679218894400005
 31
0.0
  0
LWPOLYLINE
  5
884
330
1F
100
AcDbEntity
  8
0
100
AcDbPolyline
 90
       21
 70
     0
 43
0.0
 10
15.99999999999998
 20
16.9291520976
 10
16.09301270079997
 20
16.9255369872
 10
16.18565565279998
 20
16.9146820816
 10
16.27727452959997
 20
16.8966249248
 10
16.36740889920001
 20
16.871411632
 10
16.4553305136
 20
16.8392057248
 10
16.54058894720002
 20
16.800136624
 10
16.6223961776
 20
16.7545490608
 10
16.70036366399999
 20
16.7026606896
 10
16.7738926896
 20
16.6448705568
 10
16.84263358560001
 20
16.5814536752
 10
16.90609451840002
 20
16.5128546736
 10
16.9638848416
 20
16.4394993184
 10
17.01567312640001
 20
16.36180157600001
 10
17.06108130879998
 20
16.28033256960001
 10
17.09989386080001
 20
16.195474216
 10
17.13179468639997
 20
16.1079247728
 10
17.15665631040001
 20
16.0180359216
 10
17.1742769712
 20
15.9265180304
 10
17.18457088640001
 20
15.8337965248
 10
17.18749999999998
 20
15.7509894176
  0
LINE
  5
88B
330
1F
100
AcDbEntity
  8
0
100
AcDbLine
 10
0.0
 20
17.7530050864
 30
0.0
 11
31.99999999999998
 21
17.7530050864
 31
0.0
  0
LINE
  5
88D
330
1F
100
AcDbEntity
  8
0
100
AcDbLine
 10
23.881914659612
 20
1.93309380756898
 30
0.0
 11
23.4103272272
 21
0.6374179856000027
 31
0.0
  0
LINE
  5
8B2
330
1F
100
AcDbEntity
  8
0
100
AcDbLine
 10
26.427412816
 20
3.641161550400003
 30
0.0
 11
28.04225311679998
 21
17.7530050864
 31
0.0
  0
LINE
  5
8C4
330
1F
100
AcDbEntity
  8
0
100
AcDbLine
 10
28.47196615360001
 20
19.2487770944
 30
0.0
 11
28.47196615360001
 21
19.2487215904
 31
0.0
  0
LINE
  5
8C8
330
1F
100
AcDbEntity
  8
0
100
AcDbLine
 10
31.99999999999998
 20
17.7530050864
 30
0.0
 11
31.88411680632684
 21
19.0775560629033
 31
0.0
  0
LWPOLYLINE
  5
8CD
330
1F
100
AcDbEntity
  8
0
100
AcDbPolyline
 90
       14
 70
     0
 43
0.0
 10
31.8841168064
 20
19.0775560624
 10
31.88067896160002
 20
19.1012183888
 10
31.87489864479998
 20
19.1223952816
 10
31.866826816
 20
19.1424468
 10
31.85651780319999
 20
19.1614088768
 10
31.84404768
 20
19.1791239728
 10
31.83017259360001
 20
19.1947263984
 10
31.81403897279999
 20
19.2091772224
 10
31.7969147808
 20
19.2213156752
 10
31.77783613439997
 20
19.231801648
 10
31.75805906880002
 20
19.23987269280001
 10
31.73669774720001
 20
19.2458149184
 10
31.71500518560002
 20
19.2491730608
 10
31.69515375519999
 20
19.250007488
  0
ARC
  5
8E8
330
1F
100
AcDbEntity
  8
0
100
AcDbCircle
 10
17.27144660959997
 20
1.503005086400005
 30
0.0
 40
0.28125
100
AcDbArc
 50
270.0
 51
315.0
  0
ARC
  5
8E9
330
1F
100
AcDbEntity
  8
0
100
AcDbCircle
 10
14.72855339200002
 20
1.503005086400005
 30
0.0
 40
0.28125
100
AcDbArc
 50
225.0
 51
270.0
  0
ARC
  5
8EA
330
1F
100
AcDbEntity
  8
0
100
AcDbCircle
 10
22.49999999999998
 20
0.96875
 30
0.0
 40
0.96875
100
AcDbArc
 50
216.0
 51
340.0
  0
ARC
  5
8EB
330
1F
100
AcDbEntity
  8
0
100
AcDbCircle
 10
9.5
 20
0.96875
 30
0.0
 40
0.96875
100
AcDbArc
 50
200.0
 51
324.0
  0
LINE
  5
8F0
330
1F
100
AcDbEntity
  8
0
100
AcDbLine
 10
0.304846262399991
 20
19.250007488
 30
0.0
 11
31.69515375519999
 21
19.250007488
 31
0.0
  0
LINE
  5
8F4
330
1F
100
AcDbEntity
  8
0
100
AcDbLine
 10
20.99789572320001
 20
1.828940094400007
 30
0.0
 11
24.56040300319999
 21
1.957596795200007
 31
0.0
  0
LINE
  5
8F5
330
1F
100
AcDbEntity
  8
0
100
AcDbLine
 10
11.52686480959998
 20
1.811091700800009
 30
0.0
 11
7.462263028800009
 21
1.956422556800003
 31
0.0
  0
ARC
  5
8FE
330
1F
100
AcDbEntity
  8
0
100
AcDbCircle
 10
15.99873368456427
 20
-38.44518004375517
 30
0.0
 40
40.23771105248119
100
AcDbArc
 50
87.1596666801431
 51
92.83913564274286
  0
ARC
  5
8FF
330
1F
100
AcDbEntity
  8
0
100
AcDbCircle
 10
14.00015203456045
 20
1.52484951182247
 30
0.0
 40
0.218361203360019
100
AcDbArc
 50
44.9869006560737
 51
88.54940584858409
  0
ARC
  5
900
330
1F
100
AcDbEntity
  8
0
100
AcDbCircle
 10
17.99984506914613
 20
1.524882694674882
 30
0.0
 40
0.2183356963673709
100
AcDbArc
 50
91.8943558568672
 51
135.0187205323814
  0
LINE
  5
920
330
1F
100
AcDbEntity
  8
CENTER
  6
CENTERX2
100
AcDbLine
 10
18.67735139751141
 20
15.75300508483738
 30
0.0
 11
13.32264860248857
 21
15.75300508796262
 31
0.0
  0
LINE
  5
921
330
1F
100
AcDbEntity
  8
CENTER
  6
CENTERX2
100
AcDbLine
 10
15.99999999843791
 20
13.07658028769629
 30
0.0
 11
16.00000000156315
 21
18.43128308271914
 31
0.0
  0
LINE
  5
922
330
1F
100
AcDbEntity
  8
CENTER
  6
CENTERX2
100
AcDbLine
 10
15.99999998903145
 20
-1.516033490892581
 30
0.0
 11
15.99999999259678
 21
4.592728008255797
 31
0.0
  0
LWPOLYLINE
  5
949
330
1F
100
AcDbEntity
  8
0
  6
HIDDEN
 62
     9
100
AcDbPolyline
 90
        8
 70
   128
 43
0.0
 10
3.959318945887844
 20
17.7530050864
 10
3.872300113321671
 20
18.60687738267078
 42
0.3847706077033727
 10
3.706906753827652
 20
18.75627201273746
 10
3.6856359417188
 20
18.75627200953746
 42
-0.4142135623730951
 10
3.476885941718805
 20
18.96502200953746
 10
3.476885941718805
 20
18.97211165482376
 42
0.4036913799651563
 10
3.316629309155118
 20
19.13825358777623
 10
0.304846262399991
 20
19.250007488
  0
LWPOLYLINE
  5
94A
330
1F
100
AcDbEntity
  8
0
  6
HIDDEN
 62
     9
100
AcDbPolyline
 90
        8
 70
   128
 43
0.0
 10
28.04068105644671
 20
17.7530050864
 10
28.12769988901289
 20
18.60687738267078
 42
-0.3847706077033727
 10
28.2930932485069
 20
18.75627201273746
 10
28.31436406061575
 20
18.75627200953746
 42
0.4142135623730951
 10
28.52311406061575
 20
18.96502200953746
 10
28.52311406061575
 20
18.97211165482376
 42
-0.4036913799651563
 10
28.68337069317944
 20
19.13825358777623
 10
31.69515373993457
 20
19.250007488
  0
ENDSEC
  0
SECTION
  2
OBJECTS
  0
DICTIONARY
  5
C
330
0
100
AcDbDictionary
  3
ACAD_GROUP
350
D
  3
ACAD_LAYOUT
350
1A
  3
ACAD_MLINESTYLE
350
17
  3
ACAD_PLOTSETTINGS
350
19
  3
ACAD_PLOTSTYLENAME
350
E
  3
ACDBHEADERROUNDTRIPXREC
350
9BF
  0
DICTIONARY
  5
9E2
330
1F
100
AcDbDictionary
280
     1
  3
ACAD_LAYOUTSELFREF
360
9E3
  0
DICTIONARY
  5
9E0
330
1B
100
AcDbDictionary
280
     1
  3
ACAD_LAYOUTSELFREF
360
9E1
  0
DICTIONARY
  5
D
102
{ACAD_REACTORS
330
C
102
}
330
C
100
AcDbDictionary
  0
DICTIONARY
  5
1A
102
{ACAD_REACTORS
330
C
102
}
330
C
100
AcDbDictionary
  0
DICTIONARY
  5
17
102
{ACAD_REACTORS
330
C
102
}
330
C
100
AcDbDictionary
  3
STANDARD
350
18
  0
DICTIONARY
  5
19
102
{ACAD_REACTORS
330
C
102
}
330
C
100
AcDbDictionary
  0
ACDBDICTIONARYWDFLT
  5
E
102
{ACAD_REACTORS
330
C
102
}
330
C
100
AcDbDictionary
281
     1
  3
Normal
350
F
100
AcDbDictionaryWithDefault
340
F
  0
DICTIONARY
  5
9BF
102
{ACAD_REACTORS
330
C
102
}
330
C
100
AcDbDictionary
  3
CEPSNTYPE
350
9C9
  3
DIMSTYLEDATA
350
9CD
  3
FINGERPRINTGUID
350
9CA
  3
HYPERLINKBASE
350
9C2
  3
INSUNITS
350
9C8
  3
LAYOUTDICT
350
9C4
  3
LWETCUNION
350
9C7
  3
PLOTSETDICT
350
9C5
  3
PLOTSTYLNAMDICT
350
9C6
  3
PSVPSCALE
350
9CC
  3
PUCSBASE
350
9D0
  3
PUCSORGBACK
350
9D6
  3
PUCSORGBOTTOM
350
9D2
  3
PUCSORGFRONT
350
9D5
  3
PUCSORGLEFT
350
9D3
  3
PUCSORGRIGHT
350
9D4
  3
PUCSORGTOP
350
9D1
  3
PUCSORTHOREF
350
9CE
  3
PUCSORTHOVIEW
350
9CF
  3
STYLESHEET
350
9C3
  3
TSTACKALIGN
350
9C0
  3
TSTACKSIZE
350
9C1
  3
UCSBASE
350
9D9
  3
UCSORGBACK
350
9DF
  3
UCSORGBOTTOM
350
9DB
  3
UCSORGFRONT
350
9DE
  3
UCSORGLEFT
350
9DC
  3
UCSORGRIGHT
350
9DD
  3
UCSORGTOP
350
9DA
  3
UCSORTHOREF
350
9D7
  3
UCSORTHOVIEW
350
9D8
  3
VERSIONGUID
350
9CB
  0
XRECORD
  5
9E3
102
{ACAD_REACTORS
330
9E2
102
}
330
9E2
100
AcDbXrecord
340
1F
  0
XRECORD
  5
9E1
102
{ACAD_REACTORS
330
9E0
102
}
330
9E0
100
AcDbXrecord
340
1B
  0
MLINESTYLE
  5
18
102
{ACAD_REACTORS
330
17
102
}
330
17
100
AcDbMlineStyle
  2
STANDARD
 70
     0
  3

 62
   256
 51
90.0
 52
90.0
 71
     2
 49
0.5
 62
   256
  6
BYLAYER
 49
-0.5
 62
   256
  6
BYLAYER
  0
ACDBPLACEHOLDER
  5
F
102
{ACAD_REACTORS
330
E
102
}
330
0
100
AcDbPlaceHolder
280
     0
  0
XRECORD
  5
9C9
102
{ACAD_REACTORS
330
9BF
102
}
330
9BF
100
AcDbXrecord
 90
        0
  0
XRECORD
  5
9CD
102
{ACAD_REACTORS
330
9BF
102
}
330
9BF
100
AcDbXrecord
1000
DSTYLE
1002
{
1070
   278
 70
     0
1070
   342
340
217
1070
   371
 70
     0
1070
   372
 70
     0
1002
}
  0
XRECORD
  5
9CA
102
{ACAD_REACTORS
330
9BF
102
}
330
9BF
100
AcDbXrecord
  1

  0
XRECORD
  5
9C2
102
{ACAD_REACTORS
330
9BF
102
}
330
9BF
100
AcDbXrecord
  1

  0
XRECORD
  5
9C8
102
{ACAD_REACTORS
330
9BF
102
}
330
9BF
100
AcDbXrecord
 90
        1
  0
XRECORD
  5
9C4
102
{ACAD_REACTORS
330
9BF
102
}
330
9BF
100
AcDbXrecord
340
1A
  0
XRECORD
  5
9C7
102
{ACAD_REACTORS
330
9BF
102
}
330
9BF
100
AcDbXrecord
 90
    10781
  0
XRECORD
  5
9C5
102
{ACAD_REACTORS
330
9BF
102
}
330
9BF
100
AcDbXrecord
340
19
  0
XRECORD
  5
9C6
102
{ACAD_REACTORS
330
9BF
102
}
330
9BF
100
AcDbXrecord
340
E
  0
XRECORD
  5
9CC
102
{ACAD_REACTORS
330
9BF
102
}
330
9BF
100
AcDbXrecord
 40
0.0
  0
XRECORD
  5
9D0
102
{ACAD_REACTORS
330
9BF
102
}
330
9BF
100
AcDbXrecord
340
0
  0
XRECORD
  5
9D6
102
{ACAD_REACTORS
330
9BF
102
}
330
9BF
100
AcDbXrecord
 10
0.0
 20
0.0
 30
0.0
  0
XRECORD
  5
9D2
102
{ACAD_REACTORS
330
9BF
102
}
330
9BF
100
AcDbXrecord
 10
0.0
 20
0.0
 30
0.0
  0
XRECORD
  5
9D5
102
{ACAD_REACTORS
330
9BF
102
}
330
9BF
100
AcDbXrecord
 10
0.0
 20
0.0
 30
0.0
  0
XRECORD
  5
9D3
102
{ACAD_REACTORS
330
9BF
102
}
330
9BF
100
AcDbXrecord
 10
0.0
 20
0.0
 30
0.0
  0
XRECORD
  5
9D4
102
{ACAD_REACTORS
330
9BF
102
}
330
9BF
100
AcDbXrecord
 10
0.0
 20
0.0
 30
0.0
  0
XRECORD
  5
9D1
102
{ACAD_REACTORS
330
9BF
102
}
330
9BF
100
AcDbXrecord
 10
0.0
 20
0.0
 30
0.0
  0
XRECORD
  5
9CE
102
{ACAD_REACTORS
330
9BF
102
}
330
9BF
100
AcDbXrecord
340
0
  0
XRECORD
  5
9CF
102
{ACAD_REACTORS
330
9BF
102
}
330
9BF
100
AcDbXrecord
 70
     0
  0
XRECORD
  5
9C3
102
{ACAD_REACTORS
330
9BF
102
}
330
9BF
100
AcDbXrecord
  1

  0
XRECORD
  5
9C0
102
{ACAD_REACTORS
330
9BF
102
}
330
9BF
100
AcDbXrecord
 90
        1
  0
XRECORD
  5
9C1
102
{ACAD_REACTORS
330
9BF
102
}
330
9BF
100
AcDbXrecord
 90
       70
  0
XRECORD
  5
9D9
102
{ACAD_REACTORS
330
9BF
102
}
330
9BF
100
AcDbXrecord
340
0
  0
XRECORD
  5
9DF
102
{ACAD_REACTORS
330
9BF
102
}
330
9BF
100
AcDbXrecord
 10
0.0
 20
0.0
 30
0.0
  0
XRECORD
  5
9DB
102
{ACAD_REACTORS
330
9BF
102
}
330
9BF
100
AcDbXrecord
 10
0.0
 20
0.0
 30
0.0
  0
XRECORD
  5
9DE
102
{ACAD_REACTORS
330
9BF
102
}
330
9BF
100
AcDbXrecord
 10
0.0
 20
0.0
 30
0.0
  0
XRECORD
  5
9DC
102
{ACAD_REACTORS
330
9BF
102
}
330
9BF
100
AcDbXrecord
 10
0.0
 20
0.0
 30
0.0
  0
XRECORD
  5
9DD
102
{ACAD_REACTORS
330
9BF
102
}
330
9BF
100
AcDbXrecord
 10
0.0
 20
0.0
 30
0.0
  0
XRECORD
  5
9DA
102
{ACAD_REACTORS
330
9BF
102
}
330
9BF
100
AcDbXrecord
 10
0.0
 20
0.0
 30
0.0
  0
XRECORD
  5
9D7
102
{ACAD_REACTORS
330
9BF
102
}
330
9BF
100
AcDbXrecord
340
0
  0
XRECORD
  5
9D8
102
{ACAD_REACTORS
330
9BF
102
}
330
9BF
100
AcDbXrecord
 70
     0
  0
XRECORD
  5
9CB
102
{ACAD_REACTORS
330
9BF
102
}
330
9BF
100
AcDbXrecord
  1
{A59025EB-A770-424C-A480-EA46212662F7}
  0
ENDSEC
  0
EOF
