  0
SECTION
  2
HEADER
  9
$ACADVER
  1
AC1014
  9
$ACADMAINTVER
 70
     9
  9
$DWGCODEPAGE
  3
ANSI_1252
  9
$INSBASE
 10
-3.422166261992302
 20
34.73869848653773
 30
0.0
  9
$EXTMIN
 10
-52.17630343961234
 20
31.10825932306612
 30
0.0
  9
$EXTMAX
 10
7.832406888382695
 20
56.13734461430742
 30
0.0000000000000152
  9
$LIMMIN
 10
0.0
 20
0.0
  9
$LIMMAX
 10
17.0
 20
11.0
  9
$ORTHOMODE
 70
     1
  9
$REGENMODE
 70
     1
  9
$FILLMODE
 70
     1
  9
$QTEXTMODE
 70
     0
  9
$MIRRTEXT
 70
     1
  9
$DRAGMODE
 70
     2
  9
$LTSCALE
 40
12.0
  9
$OSMODE
 70
    55
  9
$ATTMODE
 70
     1
  9
$TEXTSIZE
 40
0.2
  9
$TRACEWID
 40
0.05
  9
$TEXTSTYLE
  7
STANDARD
  9
$CLAYER
  8
0
  9
$CELTYPE
  6
BYLAYER
  9
$CECOLOR
 62
   256
  9
$CELTSCALE
 40
1.0
  9
$DELOBJ
 70
     1
  9
$DISPSILH
 70
     0
  9
$DIMSCALE
 40
16.0
  9
$DIMASZ
 40
0.1875
  9
$DIMEXO
 40
0.10625
  9
$DIMDLI
 40
0.646
  9
$DIMRND
 40
0.0
  9
$DIMDLE
 40
0.0
  9
$DIMEXE
 40
0.306
  9
$DIMTP
 40
0.0
  9
$DIMTM
 40
0.0
  9
$DIMTXT
 40
0.125
  9
$DIMCEN
 40
0.153
  9
$DIMTSZ
 40
0.0
  9
$DIMTOL
 70
     0
  9
$DIMLIM
 70
     0
  9
$DIMTIH
 70
     1
  9
$DIMTOH
 70
     1
  9
$DIMSE1
 70
     0
  9
$DIMSE2
 70
     0
  9
$DIMTAD
 70
     0
  9
$DIMZIN
 70
     0
  9
$DIMBLK
  1
_FILLED
  9
$DIMASO
 70
     1
  9
$DIMSHO
 70
     1
  9
$DIMPOST
  1

  9
$DIMAPOST
  1

  9
$DIMALT
 70
     0
  9
$DIMALTD
 70
     2
  9
$DIMALTF
 40
25.4
  9
$DIMLFAC
 40
1.0
  9
$DIMTOFL
 70
     0
  9
$DIMTVP
 40
0.0
  9
$DIMTIX
 70
     0
  9
$DIMSOXD
 70
     0
  9
$DIMSAH
 70
     1
  9
$DIMBLK1
  1
_FILLED
  9
$DIMBLK2
  1
_FILLED
  9
$DIMSTYLE
  2
STANDARD
  9
$DIMCLRD
 70
     0
  9
$DIMCLRE
 70
     0
  9
$DIMCLRT
 70
     0
  9
$DIMTFAC
 40
1.0
  9
$DIMGAP
 40
0.09
  9
$DIMJUST
 70
     0
  9
$DIMSD1
 70
     0
  9
$DIMSD2
 70
     0
  9
$DIMTOLJ
 70
     1
  9
$DIMTZIN
 70
     0
  9
$DIMALTZ
 70
     0
  9
$DIMALTTZ
 70
     0
  9
$DIMFIT
 70
     3
  9
$DIMUPT
 70
     0
  9
$DIMUNIT
 70
     2
  9
$DIMDEC
 70
     4
  9
$DIMTDEC
 70
     4
  9
$DIMALTU
 70
     2
  9
$DIMALTTD
 70
     2
  9
$DIMTXSTY
  7
STANDARD
  9
$DIMAUNIT
 70
     0
  9
$LUNITS
 70
     2
  9
$LUPREC
 70
     4
  9
$SKETCHINC
 40
0.1
  9
$FILLETRAD
 40
0.0
  9
$AUNITS
 70
     0
  9
$AUPREC
 70
     0
  9
$MENU
  1
acad
  9
$ELEVATION
 40
0.0
  9
$PELEVATION
 40
0.0
  9
$THICKNESS
 40
0.0
  9
$LIMCHECK
 70
     0
  9
$BLIPMODE
 70
     0
  9
$CHAMFERA
 40
0.0
  9
$CHAMFERB
 40
0.0
  9
$CHAMFERC
 40
0.0
  9
$CHAMFERD
 40
0.0
  9
$SKPOLY
 70
     0
  9
$TDCREATE
 40
2453683.493156655
  9
$TDUPDATE
 40
2453689.471571666
  9
$TDINDWG
 40
0.0131617593
  9
$TDUSRTIMER
 40
0.0131617593
  9
$USRTIMER
 70
     1
  9
$ANGBASE
 50
0.0
  9
$ANGDIR
 70
     0
  9
$PDMODE
 70
     3
  9
$PDSIZE
 40
0.3125
  9
$PLINEWID
 40
0.0
  9
$COORDS
 70
     1
  9
$SPLFRAME
 70
     0
  9
$SPLINETYPE
 70
     6
  9
$SPLINESEGS
 70
     8
  9
$ATTDIA
 70
     0
  9
$ATTREQ
 70
     1
  9
$HANDLING
 70
 22529
  9
$HANDSEED
  5
BE
  9
$SURFTAB1
 70
     6
  9
$SURFTAB2
 70
     6
  9
$SURFTYPE
 70
     6
  9
$SURFU
 70
     6
  9
$SURFV
 70
     6
  9
$UCSNAME
  2

  9
$UCSORG
 10
0.0
 20
0.0
 30
0.0
  9
$UCSXDIR
 10
1.0
 20
0.0
 30
0.0
  9
$UCSYDIR
 10
0.0
 20
1.0
 30
0.0
  9
$PUCSNAME
  2

  9
$PUCSORG
 10
0.0
 20
0.0
 30
0.0
  9
$PUCSXDIR
 10
1.0
 20
0.0
 30
0.0
  9
$PUCSYDIR
 10
0.0
 20
1.0
 30
0.0
  9
$USERI1
 70
     0
  9
$USERI2
 70
     0
  9
$USERI3
 70
     0
  9
$USERI4
 70
     0
  9
$USERI5
 70
     0
  9
$USERR1
 40
0.0
  9
$USERR2
 40
0.0
  9
$USERR3
 40
0.0
  9
$USERR4
 40
0.0
  9
$USERR5
 40
0.0
  9
$WORLDVIEW
 70
     1
  9
$SHADEDGE
 70
     3
  9
$SHADEDIF
 70
    70
  9
$TILEMODE
 70
     1
  9
$MAXACTVP
 70
    16
  9
$PINSBASE
 10
0.0
 20
0.0
 30
0.0
  9
$PLIMCHECK
 70
     0
  9
$PEXTMIN
 10
1.000000000000000E+20
 20
1.000000000000000E+20
 30
1.000000000000000E+20
  9
$PEXTMAX
 10
-1.000000000000000E+20
 20
-1.000000000000000E+20
 30
-1.000000000000000E+20
  9
$PLIMMIN
 10
0.0
 20
0.0
  9
$PLIMMAX
 10
12.0
 20
9.0
  9
$UNITMODE
 70
     0
  9
$VISRETAIN
 70
     0
  9
$PLINEGEN
 70
     1
  9
$PSLTSCALE
 70
     0
  9
$TREEDEPTH
 70
  3020
  9
$PICKSTYLE
 70
     1
  9
$CMLSTYLE
  2
STANDARD
  9
$CMLJUST
 70
     0
  9
$CMLSCALE
 40
1.0
  9
$PROXYGRAPHICS
 70
     0
  9
$MEASUREMENT
 70
     0
  0
ENDSEC
  0
SECTION
  2
CLASSES
  0
CLASS
  1
ACDBDICTIONARYWDFLT
  2
AcDbDictionaryWithDefault
  3
AutoCAD 2000
 90
        0
280
     1
281
     0
  0
CLASS
  1
ACDBPLACEHOLDER
  2
AcDbPlaceHolder
  3
AutoCAD 2000
 90
        0
280
     1
281
     0
  0
CLASS
  1
LAYOUT
  2
AcDbLayout
  3
AutoCAD 2000
 90
        0
280
     1
281
     0
  0
CLASS
  1
LWPOLYLINE
  2
AcDbPolyline
  3
AutoCAD 2000
 90
        0
280
     0
281
     1
  0
CLASS
  1
IMAGE
  2
AcDbRasterImage
  3
ISM
 90
      127
280
     1
281
     1
  0
CLASS
  1
OLE2FRAME
  2
AcDbOle2Frame
  3
AutoCAD 2000
 90
        0
280
     0
281
     1
  0
CLASS
  1
HATCH
  2
AcDbHatch
  3
AutoCAD 2000
 90
        0
280
     0
281
     1
  0
CLASS
  1
DICTIONARYVAR
  2
AcDbDictionaryVar
  3
AutoCAD 2000
 90
        0
280
     0
281
     0
  0
CLASS
  1
RASTERVARIABLES
  2
AcDbRasterVariables
  3
ISM
 90
        0
280
     1
281
     0
  0
CLASS
  1
IMAGEDEF
  2
AcDbRasterImageDef
  3
ISM
 90
        0
280
     1
281
     0
  0
CLASS
  1
IMAGEDEF_REACTOR
  2
AcDbRasterImageDefReactor
  3
ISM
 90
        1
280
     1
281
     0
  0
CLASS
  1
IDBUFFER
  2
AcDbIdBuffer
  3
AutoCAD 2000
 90
        0
280
     0
281
     0
  0
CLASS
  1
SPATIAL_FILTER
  2
AcDbSpatialFilter
  3
AutoCAD 2000
 90
        0
280
     0
281
     0
  0
CLASS
  1
XRECORD
  2
AcDbXrecord
  3
AutoCAD 2000
 90
        0
280
     0
281
     0
  0
CLASS
  1
SORTENTSTABLE
  2
AcDbSortentsTable
  3
AutoCAD 2000
 90
        0
280
     0
281
     0
  0
CLASS
  1
LAYER_INDEX
  2
AcDbLayerIndex
  3
AutoCAD 2000
 90
        0
280
     0
281
     0
  0
CLASS
  1
SPATIAL_INDEX
  2
AcDbSpatialIndex
  3
AutoCAD 2000
 90
        0
280
     0
281
     0
  0
CLASS
  1
OBJECT_PTR
  2
CAseDLPNTableRecord
  3
ASE-LPNTableRecord
 90
        1
280
     0
281
     0
  0
CLASS
  1
PLOTSETTINGS
  2
AcDbPlotSettings
  3
AutoCAD 2000
 90
        0
280
     1
281
     0
  0
CLASS
  1
VBA_PROJECT
  2
AcDbVbaProject
  3
acadvba
 90
        0
280
     1
281
     0
  0
CLASS
  1
WIPEOUT
  2
AcDbWipeout
  3
WipeOut|AutoCAD Express Tool|expresstools@autodesk.com
 90
      127
280
     1
281
     1
  0
CLASS
  1
WIPEOUTVARIABLES
  2
AcDbWipeoutVariables
  3
WipeOut|AutoCAD Express Tool|expresstools@autodesk.com
 90
        0
280
     1
281
     0
  0
CLASS
  1
RTEXT
  2
RText
  3
RText|AutoCAD Express Tool|expresstools@autodesk.com
 90
        0
280
     1
281
     1
  0
CLASS
  1
ARCALIGNEDTEXT
  2
AcDbArcAlignedText
  3
ATEXT|AutoCAD Express Tool|expresstools@autodesk.com
 90
        0
280
     1
281
     1
  0
CLASS
  1
LONG_TRANSACTION
  2
AcDbLongTransaction
  3
AutoCAD 2000
 90
        0
280
     1
281
     0
  0
CLASS
  1
LWPOLYLINE
  2
AcDbPolyline
  3
AutoCAD 2000
 90
        0
280
     0
281
     1
  0
CLASS
  1
HATCH
  2
AcDbHatch
  3
AutoCAD 2000
 90
        0
280
     0
281
     1
  0
CLASS
  1
XRECORD
  2
AcDbXrecord
  3
AutoCAD 2000
 90
        0
280
     0
281
     0
  0
CLASS
  1
LONG_TRANSACTION
  2
AcDbLongTransaction
  3
AutoCAD 2000
 90
        0
280
     0
281
     0
  0
CLASS
  1
LWPOLYLINE
  2
AcDbPolyline
  3
AutoCAD 2000
 90
        0
280
     0
281
     1
  0
CLASS
  1
HATCH
  2
AcDbHatch
  3
AutoCAD 2000
 90
        0
280
     0
281
     1
  0
CLASS
  1
XRECORD
  2
AcDbXrecord
  3
AutoCAD 2000
 90
        0
280
     0
281
     0
  0
ENDSEC
  0
SECTION
  2
TABLES
  0
TABLE
  2
VPORT
  5
1A
330
0
100
AcDbSymbolTable
 70
     3
  0
VPORT
  5
9A
330
1A
100
AcDbSymbolTableRecord
100
AcDbViewportTableRecord
  2
*ACTIVE
 70
     0
 10
0.0
 20
0.0
 11
1.0
 21
1.0
 12
-22.17194857817394
 22
43.62280172992567
 13
0.0
 23
0.0
 14
1.0
 24
1.0
 15
0.0
 25
0.0
 16
0.0
 26
0.0
 36
1.0
 17
0.0
 27
0.0
 37
0.0
 40
43.26014016784696
 41
1.786792452830188
 42
50.0
 43
0.0
 44
0.0
 50
0.0
 51
0.0
 71
     0
 72
   100
 73
     1
 74
     1
 75
     0
 76
     0
 77
     0
 78
     0
  0
ENDTAB
  0
TABLE
  2
LTYPE
  5
11
330
0
100
AcDbSymbolTable
 70
     3
  0
LTYPE
  5
12
330
11
100
AcDbSymbolTableRecord
100
AcDbLinetypeTableRecord
  2
BYBLOCK
 70
     0
  3

 72
    65
 73
     0
 40
0.0
  0
LTYPE
  5
15
330
11
100
AcDbSymbolTableRecord
100
AcDbLinetypeTableRecord
  2
BYLAYER
 70
     0
  3

 72
    65
 73
     0
 40
0.0
  0
LTYPE
  5
7
330
11
100
AcDbSymbolTableRecord
100
AcDbLinetypeTableRecord
  2
CONTINUOUS
 70
     0
  3
Solid line
 72
    65
 73
     0
 40
0.0
  0
LTYPE
  5
37
330
11
100
AcDbSymbolTableRecord
100
AcDbLinetypeTableRecord
  2
CENTER
 70
     0
  3
____ _ ____ _ ____ _ ____ _ ____ _ ____ _ ____
 72
    65
 73
     4
 40
0.6
 49
0.375
 74
     0
 49
-0.075
 74
     0
 49
0.075
 74
     0
 49
-0.075
 74
     0
  0
LTYPE
  5
31
330
11
100
AcDbSymbolTableRecord
100
AcDbLinetypeTableRecord
  2
HIDDEN
 70
     0
  3
- - - - - - - - - - - - - - - - - - - -
 72
    65
 73
     2
 40
0.2
 49
0.1
 74
     0
 49
-0.1
 74
     0
  0
ENDTAB
  0
TABLE
  2
LAYER
  5
E
330
0
100
AcDbSymbolTable
 70
     1
  0
LAYER
  5
6
330
E
100
AcDbSymbolTableRecord
100
AcDbLayerTableRecord
  2
0
 70
     0
 62
     7
  6
CONTINUOUS
  0
ENDTAB
  0
TABLE
  2
STYLE
  5
F
330
0
100
AcDbSymbolTable
 70
     1
  0
STYLE
  5
10
330
F
100
AcDbSymbolTableRecord
100
AcDbTextStyleTableRecord
  2
STANDARD
 70
     0
 40
0.0
 41
0.8
 50
0.0
 71
     0
 42
0.2
  3
txt
  4

  0
ENDTAB
  0
TABLE
  2
VIEW
  5
18
330
0
100
AcDbSymbolTable
 70
     0
  0
ENDTAB
  0
TABLE
  2
UCS
  5
19
330
0
100
AcDbSymbolTable
 70
     0
  0
ENDTAB
  0
TABLE
  2
APPID
  5
1C
330
0
100
AcDbSymbolTable
 70
     1
  0
APPID
  5
1D
330
1C
100
AcDbSymbolTableRecord
100
AcDbRegAppTableRecord
  2
ACAD
 70
     0
  0
ENDTAB
  0
TABLE
  2
DIMSTYLE
  5
1E
330
0
100
AcDbSymbolTable
 70
     1
  0
DIMSTYLE
105
26
330
1E
100
AcDbSymbolTableRecord
100
AcDbDimStyleTableRecord
  2
STANDARD
 70
     0
  3

  4

  5
_FILLED
  6
_FILLED
  7
_FILLED
 40
1.0
 41
0.1875
 42
0.10625
 43
0.646
 44
0.306
 45
0.0
 46
0.0
 47
0.0
 48
0.0
140
0.125
141
0.153
142
0.0
143
25.4
144
1.0
145
0.0
146
1.0
147
0.09
 71
     0
 72
     0
 73
     1
 74
     1
 75
     0
 76
     0
 77
     0
 78
     0
170
     0
171
     2
172
     0
173
     0
174
     0
175
     0
176
     0
177
     0
178
     0
270
     2
271
     4
272
     4
273
     2
274
     2
340
10
275
     0
280
     0
281
     0
282
     0
283
     1
284
     0
285
     0
286
     0
287
     3
288
     0
  0
ENDTAB
  0
TABLE
  2
BLOCK_RECORD
  5
1
330
0
100
AcDbSymbolTable
 70
     1
  0
BLOCK_RECORD
  5
2
102
{ACAD_XDICTIONARY
360
3
102
}
330
1
100
AcDbSymbolTableRecord
100
AcDbBlockTableRecord
  2
*MODEL_SPACE
  0
BLOCK_RECORD
  5
9
102
{ACAD_XDICTIONARY
360
A
102
}
330
1
100
AcDbSymbolTableRecord
100
AcDbBlockTableRecord
  2
*PAPER_SPACE
  0
BLOCK_RECORD
  5
29
330
1
100
AcDbSymbolTableRecord
100
AcDbBlockTableRecord
  2
_FILLED
  0
ENDTAB
  0
ENDSEC
  0
SECTION
  2
BLOCKS
  0
BLOCK
  5
5
330
2
100
AcDbEntity
  8
0
100
AcDbBlockBegin
  2
*MODEL_SPACE
 70
     0
 10
0.0
 20
0.0
 30
0.0
  3
*MODEL_SPACE
  1

  0
ENDBLK
  5
8
330
2
100
AcDbEntity
  8
0
100
AcDbBlockEnd
  0
BLOCK
  5
C
330
9
100
AcDbEntity
 67
     1
  8
0
100
AcDbBlockBegin
  2
*PAPER_SPACE
 70
     0
 10
0.0
 20
0.0
 30
0.0
  3
*PAPER_SPACE
  1

  0
ENDBLK
  5
D
330
9
100
AcDbEntity
 67
     1
  8
0
100
AcDbBlockEnd
  0
BLOCK
  5
2B
330
29
100
AcDbEntity
  8
0
100
AcDbBlockBegin
  2
_FILLED
 70
     0
 10
0.0
 20
0.0
 30
0.0
  3
_FILLED
  1

  0
SOLID
  5
2A
330
29
100
AcDbEntity
  8
0
  6
BYBLOCK
 62
     0
100
AcDbTrace
 10
0.0
 20
0.0
 30
0.0
 11
-1.0
 21
0.1666666667
 31
0.0
 12
-1.0
 22
-0.1666666667
 32
0.0
 13
-1.0
 23
-0.1666666667
 33
0.0
  0
ENDBLK
  5
2C
330
29
100
AcDbEntity
  8
0
  6
BYBLOCK
 62
     0
100
AcDbBlockEnd
  0
ENDSEC
  0
SECTION
  2
ENTITIES
  0
LINE
  5
2D
330
2
100
AcDbEntity
  8
0
100
AcDbLine
 10
-41.34891948759229
 20
38.58611036813773
 30
0.0
 11
-48.26360515159229
 21
53.36369848653774
 31
0.0
  0
LINE
  5
2E
330
2
100
AcDbEntity
  8
0
100
AcDbLine
 10
6.062821204512374
 20
55.86369848653774
 30
0.0
 11
-50.40715372849696
 21
55.86369848653774
 31
0.0
  0
LINE
  5
2F
330
2
100
AcDbEntity
  8
0
  6
CONTINUOUS
100
AcDbLine
 10
-52.17216626199228
 20
53.36369848653774
 30
0.0
 11
7.827833738007697
 21
53.36369848653774
 31
0.0
  0
ARC
  5
30
330
2
100
AcDbEntity
  8
0
  6
HIDDEN
 62
     8
 48
0.3
100
AcDbCircle
 10
-50.40715372849696
 20
54.31232975876016
 30
0.0
 40
1.551368727777572
100
AcDbArc
 50
22.85322096322955
 51
90.0
  0
ARC
  5
32
330
2
100
AcDbEntity
  8
0
100
AcDbCircle
 10
-50.40715372849696
 20
54.31232975876016
 30
0.0
 40
1.551368727777572
100
AcDbArc
 50
90.0
 51
168.9905942671379
  0
LINE
  5
33
330
2
100
AcDbEntity
  8
0
100
AcDbLine
 10
-52.17216626199228
 20
53.36369848653774
 30
0.0
 11
-51.92997082857625
 21
54.6085948583455
 31
0.0
  0
LINE
  5
34
330
2
100
AcDbEntity
  8
0
  6
HIDDEN
 62
     8
 48
0.3
100
AcDbLine
 10
-48.26360515159229
 20
53.36369848653774
 30
0.0
 11
-48.97756310502931
 21
54.9148375004694
 31
0.0
  0
LINE
  5
35
330
2
100
AcDbEntity
  8
0
100
AcDbLine
 10
4.297808671017051
 20
53.36369848653773
 30
0.0
 11
0.9629880580077099
 21
38.03441742733773
 31
0.0
  0
LINE
  5
36
330
2
100
AcDbEntity
  8
0
  6
CENTER
 62
     1
 48
0.75
100
AcDbLine
 10
0.425255990807699
 20
51.96306504173773
 30
0.0
 11
6.916952523607704
 21
51.01433193293773
 31
0.0
  0
ARC
  5
38
330
2
100
AcDbEntity
  8
0
  6
HIDDEN
 62
     8
 48
0.3
100
AcDbCircle
 10
6.062821204512374
 20
54.31232975876016
 30
0.0
 40
1.551368727777572
100
AcDbArc
 50
90.0
 51
168.9905942671381
  0
LINE
  5
39
330
2
100
AcDbEntity
  8
0
  6
HIDDEN
 62
     8
 48
0.3
100
AcDbLine
 10
4.297808671017049
 20
53.36369848653772
 30
0.0
 11
4.540004104433085
 21
54.6085948583455
 31
0.0
  0
LINE
  5
3A
330
2
100
AcDbEntity
  8
0
100
AcDbLine
 10
7.827833738007697
 20
53.36369848653774
 30
0.0
 11
7.585638304591663
 21
54.6085948583455
 31
0.0
  0
ARC
  5
3B
330
2
100
AcDbEntity
  8
0
100
AcDbCircle
 10
6.062821204512374
 20
54.31232975876016
 30
0.0
 40
1.551368727777572
100
AcDbArc
 50
11.00940573286211
 51
90.0
  0
ARC
  5
3C
330
2
100
AcDbEntity
  8
0
100
AcDbCircle
 10
-1.86096610824903
 20
38.92798705657316
 30
0.0
 40
2.961956079250808
100
AcDbArc
 50
259.2926184407526
 51
342.4413278788753
  0
LINE
  5
3D
330
2
100
AcDbEntity
  8
0
  6
CONTINUOUS
100
AcDbLine
 10
-33.9377698187923
 20
34.73869848653773
 30
0.0
 11
-36.62330438199231
 21
34.73869848653773
 31
0.0
  0
LINE
  5
3E
330
2
100
AcDbEntity
  8
0
100
AcDbLine
 10
-38.97817221719231
 20
37.04073673773773
 30
0.0
 11
-2.411277425192295
 21
36.01760198413773
 31
0.0
  0
ARC
  5
3F
330
2
100
AcDbEntity
  8
0
  6
CONTINUOUS
100
AcDbCircle
 10
-38.1423042443923
 20
36.26505979053773
 30
0.0
 40
0.7499870368
100
AcDbArc
 50
0.0000666196
 51
88.2663810332
  0
ARC
  5
40
330
2
100
AcDbEntity
  8
0
  6
CONTINUOUS
100
AcDbCircle
 10
-36.64233449239228
 20
35.48869848653773
 30
0.0
 40
0.75
100
AcDbArc
 50
180.0
 51
270.0
  0
LINE
  5
41
330
2
100
AcDbEntity
  8
0
  6
CONTINUOUS
100
AcDbLine
 10
-36.62330438199231
 20
34.73869848653773
 30
0.0
 11
-36.64232759319228
 21
34.73869848653773
 31
0.0
  0
LINE
  5
42
330
2
100
AcDbEntity
  8
0
  6
CONTINUOUS
100
AcDbLine
 10
-37.39233449239228
 20
35.48869848653773
 30
0.0
 11
-37.39233449239228
 21
36.26506062733773
 31
0.0
  0
ARC
  5
43
330
2
100
AcDbEntity
  8
0
100
AcDbCircle
 10
-38.79468216764653
 20
39.92892429761301
 30
0.0
 40
2.894010362680258
100
AcDbArc
 50
212.3290655250872
 51
266.3648153584426
  0
LWPOLYLINE
  5
44
330
2
100
AcDbEntity
  8
0
  6
CONTINUOUS
100
AcDbPolyline
 90
        5
 70
     0
 43
0.0
 10
-41.3489253499923
 20
38.58607747533773
 10
-41.34161585719229
 20
38.57090127373773
 10
-41.30920124119228
 20
38.50632921293772
 10
-41.27534061079228
 20
38.44310873133773
 10
-41.2400938747923
 20
38.38126233133773
  0
LINE
  5
45
330
2
100
AcDbEntity
  8
0
  6
CONTINUOUS
100
AcDbLine
 10
-6.4567999291923
 20
34.73869848653773
 30
0.0
 11
-33.91873970679231
 21
34.73869848653773
 31
0.0
  0
LWPOLYLINE
  5
46
330
2
100
AcDbEntity
  8
0
  6
CONTINUOUS
100
AcDbPolyline
 90
       14
 70
     0
 43
0.0
 10
-35.2167685179923
 20
36.90621572493773
 10
-35.15693291959229
 20
36.88495783853773
 10
-35.09655979799231
 20
36.85741592013773
 10
-35.03681538519231
 20
36.82335691373773
 10
-34.9789257835923
 20
36.78279830893773
 10
-34.92409615159229
 20
36.73601680813773
 10
-34.87332860439229
 20
36.68340978093773
 10
-34.82717853559228
 20
36.62506582093773
 10
-34.78627170359231
 20
36.56110073773773
 10
-34.75131867479229
 20
36.49168932013773
 10
-34.72311407639228
 20
36.41708825453773
 10
-34.70253459159229
 20
36.33766574253773
 10
-34.69053103959231
 20
36.25393438413773
 10
-34.68776168279231
 20
36.18954244493773
  0
LINE
  5
47
330
2
100
AcDbEntity
  8
0
  6
CONTINUOUS
100
AcDbLine
 10
-33.91873970679231
 20
34.73869848653773
 30
0.0
 11
-33.9377698187923
 21
34.73869848653773
 31
0.0
  0
LINE
  5
48
330
2
100
AcDbEntity
  8
0
  6
CONTINUOUS
100
AcDbLine
 10
-34.6877698187923
 20
35.48869848653773
 30
0.0
 11
-34.6877698187923
 21
36.18901998573773
 31
0.0
  0
ARC
  5
49
330
2
100
AcDbEntity
  8
0
  6
CONTINUOUS
100
AcDbCircle
 10
-33.9377698187923
 20
35.48869848653773
 30
0.0
 40
0.75
100
AcDbArc
 50
180.0
 51
270.0
  0
LINE
  5
4A
330
2
100
AcDbEntity
  8
0
  6
CONTINUOUS
100
AcDbLine
 10
-35.38392081239229
 20
36.93748224973773
 30
0.0
 11
-35.38536943959229
 21
36.93755563373773
 31
0.0
  0
LWPOLYLINE
  5
4B
330
2
100
AcDbEntity
  8
0
  6
CONTINUOUS
100
AcDbPolyline
 90
        4
 70
     0
 43
0.0
 10
-35.25488875159231
 20
36.93648183853773
 10
-35.39599987959229
 20
36.93931025933773
 10
-35.3982739019923
 20
36.93804888173773
 10
-35.38536943959229
 20
36.93755563373773
  0
LWPOLYLINE
  5
4C
330
2
100
AcDbEntity
  8
0
  6
CONTINUOUS
100
AcDbPolyline
 90
        6
 70
     0
 43
0.0
 10
-35.38571102679231
 20
36.93756869133773
 10
-35.38453356439231
 20
36.93749504813773
 10
-35.37117342359229
 20
36.93647691213773
 10
-35.33040235799228
 20
36.93176136653773
 10
-35.2750518779923
 20
36.92164210093773
 10
-35.2167685179923
 20
36.90621572493773
  0
LINE
  5
4D
330
2
100
AcDbEntity
  8
0
  6
CENTER
 62
     1
 48
0.75
100
AcDbLine
 10
-3.422166261992302
 20
31.10877143533773
 30
0.0
 11
-3.422166261992302
 21
41.01736329293773
 31
0.0
  0
LINE
  5
4E
330
2
100
AcDbEntity
  8
0
  6
CONTINUOUS
100
AcDbLine
 10
-4.98845752279233
 20
35.62063053133773
 30
0.0
 11
-5.358989335592312
 21
35.99116234413773
 31
0.0
  0
LWPOLYLINE
  5
4F
330
2
100
AcDbEntity
  8
0
  6
CONTINUOUS
100
AcDbPolyline
 90
        5
 70
     0
 43
0.0
 10
-5.225065177192291
 20
36.06186834413773
 10
-5.129077183592301
 20
36.09337079373773
 10
-5.049711354792293
 20
36.10890375053773
 10
-5.011973057192292
 20
36.11293555853773
 10
-5.007859399592291
 20
36.11320332813773
  0
LINE
  5
50
330
2
100
AcDbEntity
  8
0
  6
CONTINUOUS
100
AcDbLine
 10
-6.437776717992306
 20
34.73869848653773
 30
0.0
 11
-6.4567999291923
 21
34.73869848653773
 31
0.0
  0
ARC
  5
51
330
2
100
AcDbEntity
  8
0
  6
CONTINUOUS
100
AcDbCircle
 10
-6.437769818792304
 20
35.48869848653773
 30
0.0
 40
0.75
100
AcDbArc
 50
270.0
 51
355.3639707424999
  0
LWPOLYLINE
  5
52
330
2
100
AcDbEntity
  8
0
  6
CONTINUOUS
100
AcDbPolyline
 90
        8
 70
     0
 43
0.0
 10
-5.690229617192301
 20
35.42800811853773
 10
-5.681444033192292
 20
35.49669956653773
 10
-5.645580708392301
 20
35.62890780173773
 10
-5.587526193192303
 20
35.75026086733773
 10
-5.511206386792295
 20
35.85640645933773
 10
-5.421532690792304
 20
35.94443891373773
 10
-5.324157311592301
 20
36.01288305773773
 10
-5.225065177192291
 20
36.06186834413773
  0
LINE
  5
53
330
2
100
AcDbEntity
  8
0
  6
CONTINUOUS
100
AcDbLine
 10
-4.745389565992311
 20
35.51994848653773
 30
0.0
 11
-2.09894295639232
 21
35.51994848653773
 31
0.0
  0
ARC
  5
54
330
2
100
AcDbEntity
  8
0
  6
CONTINUOUS
100
AcDbCircle
 10
-4.745389565992311
 20
35.86369848653773
 30
0.0
 40
0.34375
100
AcDbArc
 50
225.0000024403
 51
270.0
  0
ARC
  5
55
330
2
100
AcDbEntity
  8
0
  6
CONTINUOUS
100
AcDbCircle
 10
-2.09894295639232
 20
35.86369848653773
 30
0.0
 40
0.34375
100
AcDbArc
 50
270.0
 51
314.9999977589999
  0
LINE
  5
56
330
2
100
AcDbEntity
  8
0
  6
CONTINUOUS
100
AcDbLine
 10
-1.85587500119233
 20
35.62063053133773
 30
0.0
 11
-1.466173076392308
 21
36.01033245453773
 31
0.0
  0
ENDSEC
  0
SECTION
  2
OBJECTS
  0
DICTIONARY
  5
24
330
0
100
AcDbDictionary
  3
ACAD_GROUP
350
20
  3
ACAD_LAYOUT
350
5A
  3
ACAD_MLINESTYLE
350
21
  3
ACAD_PLOTSETTINGS
350
5B
  3
ACAD_PLOTSTYLENAME
350
58
  3
ACDBHEADERROUNDTRIPXREC
350
9B
  3
ACDBVARIABLEDICTIONARY
350
98
  0
DICTIONARY
  5
3
330
2
100
AcDbDictionary
280
     1
  3
ACAD_LAYOUTSELFREF
360
BC
  0
DICTIONARY
  5
A
330
9
100
AcDbDictionary
280
     1
  3
ACAD_LAYOUTSELFREF
360
BD
  0
DICTIONARY
  5
20
102
{ACAD_REACTORS
330
24
102
}
330
24
100
AcDbDictionary
  0
DICTIONARY
  5
5A
102
{ACAD_REACTORS
330
24
102
}
330
24
100
AcDbDictionary
  0
DICTIONARY
  5
21
102
{ACAD_REACTORS
330
24
102
}
330
24
100
AcDbDictionary
  3
STANDARD
350
25
  0
DICTIONARY
  5
5B
102
{ACAD_REACTORS
330
24
102
}
330
24
100
AcDbDictionary
  0
ACDBDICTIONARYWDFLT
  5
58
102
{ACAD_REACTORS
330
24
102
}
330
24
100
AcDbDictionary
281
     1
  3
Normal
350
59
100
AcDbDictionaryWithDefault
340
59
  0
DICTIONARY
  5
9B
102
{ACAD_REACTORS
330
24
102
}
330
24
100
AcDbDictionary
  3
CEPSNTYPE
350
A5
  3
DIMSTYLEDATA
350
A9
  3
FINGERPRINTGUID
350
A6
  3
HYPERLINKBASE
350
9E
  3
INSUNITS
350
A4
  3
LAYOUTDICT
350
A0
  3
LWETCUNION
350
A3
  3
PLOTSETDICT
350
A1
  3
PLOTSTYLNAMDICT
350
A2
  3
PSVPSCALE
350
A8
  3
PUCSBASE
350
AC
  3
PUCSORGBACK
350
B2
  3
PUCSORGBOTTOM
350
AE
  3
PUCSORGFRONT
350
B1
  3
PUCSORGLEFT
350
AF
  3
PUCSORGRIGHT
350
B0
  3
PUCSORGTOP
350
AD
  3
PUCSORTHOREF
350
AA
  3
PUCSORTHOVIEW
350
AB
  3
STYLESHEET
350
9F
  3
TSTACKALIGN
350
9C
  3
TSTACKSIZE
350
9D
  3
UCSBASE
350
B5
  3
UCSORGBACK
350
BB
  3
UCSORGBOTTOM
350
B7
  3
UCSORGFRONT
350
BA
  3
UCSORGLEFT
350
B8
  3
UCSORGRIGHT
350
B9
  3
UCSORGTOP
350
B6
  3
UCSORTHOREF
350
B3
  3
UCSORTHOVIEW
350
B4
  3
VERSIONGUID
350
A7
  0
DICTIONARY
  5
98
102
{ACAD_REACTORS
330
24
102
}
330
24
100
AcDbDictionary
  3
DIMASSOC
350
99
  0
XRECORD
  5
BC
102
{ACAD_REACTORS
330
3
102
}
330
3
100
AcDbXrecord
340
2
  0
XRECORD
  5
BD
102
{ACAD_REACTORS
330
A
102
}
330
A
100
AcDbXrecord
340
9
  0
MLINESTYLE
  5
25
102
{ACAD_REACTORS
330
21
102
}
330
21
100
AcDbMlineStyle
  2
STANDARD
 70
     0
  3

 62
   256
 51
90.0
 52
90.0
 71
     2
 49
0.5
 62
   256
  6
BYLAYER
 49
-0.5
 62
   256
  6
BYLAYER
  0
ACDBPLACEHOLDER
  5
59
102
{ACAD_REACTORS
330
58
102
}
330
58
100
AcDbPlaceHolder
280
     0
  0
XRECORD
  5
A5
102
{ACAD_REACTORS
330
9B
102
}
330
9B
100
AcDbXrecord
 90
        0
  0
XRECORD
  5
A9
102
{ACAD_REACTORS
330
9B
102
}
330
9B
100
AcDbXrecord
1000
DSTYLE
1002
{
1070
   341
340
29
1070
   342
340
29
1070
   343
340
29
1070
   344
340
29
1002
}
  0
XRECORD
  5
A6
102
{ACAD_REACTORS
330
9B
102
}
330
9B
100
AcDbXrecord
  1
{1172EE82-A867-440A-A41D-4D1B3EF947EF}
  0
XRECORD
  5
9E
102
{ACAD_REACTORS
330
9B
102
}
330
9B
100
AcDbXrecord
  1

  0
XRECORD
  5
A4
102
{ACAD_REACTORS
330
9B
102
}
330
9B
100
AcDbXrecord
 90
        0
  0
XRECORD
  5
A0
102
{ACAD_REACTORS
330
9B
102
}
330
9B
100
AcDbXrecord
340
5A
  0
XRECORD
  5
A3
102
{ACAD_REACTORS
330
9B
102
}
330
9B
100
AcDbXrecord
 90
    14877
  0
XRECORD
  5
A1
102
{ACAD_REACTORS
330
9B
102
}
330
9B
100
AcDbXrecord
340
5B
  0
XRECORD
  5
A2
102
{ACAD_REACTORS
330
9B
102
}
330
9B
100
AcDbXrecord
340
58
  0
XRECORD
  5
A8
102
{ACAD_REACTORS
330
9B
102
}
330
9B
100
AcDbXrecord
 40
0.0
  0
XRECORD
  5
AC
102
{ACAD_REACTORS
330
9B
102
}
330
9B
100
AcDbXrecord
340
0
  0
XRECORD
  5
B2
102
{ACAD_REACTORS
330
9B
102
}
330
9B
100
AcDbXrecord
 10
0.0
 20
0.0
 30
0.0
  0
XRECORD
  5
AE
102
{ACAD_REACTORS
330
9B
102
}
330
9B
100
AcDbXrecord
 10
0.0
 20
0.0
 30
0.0
  0
XRECORD
  5
B1
102
{ACAD_REACTORS
330
9B
102
}
330
9B
100
AcDbXrecord
 10
0.0
 20
0.0
 30
0.0
  0
XRECORD
  5
AF
102
{ACAD_REACTORS
330
9B
102
}
330
9B
100
AcDbXrecord
 10
0.0
 20
0.0
 30
0.0
  0
XRECORD
  5
B0
102
{ACAD_REACTORS
330
9B
102
}
330
9B
100
AcDbXrecord
 10
0.0
 20
0.0
 30
0.0
  0
XRECORD
  5
AD
102
{ACAD_REACTORS
330
9B
102
}
330
9B
100
AcDbXrecord
 10
0.0
 20
0.0
 30
0.0
  0
XRECORD
  5
AA
102
{ACAD_REACTORS
330
9B
102
}
330
9B
100
AcDbXrecord
340
0
  0
XRECORD
  5
AB
102
{ACAD_REACTORS
330
9B
102
}
330
9B
100
AcDbXrecord
 70
     0
  0
XRECORD
  5
9F
102
{ACAD_REACTORS
330
9B
102
}
330
9B
100
AcDbXrecord
  1

  0
XRECORD
  5
9C
102
{ACAD_REACTORS
330
9B
102
}
330
9B
100
AcDbXrecord
 90
        1
  0
XRECORD
  5
9D
102
{ACAD_REACTORS
330
9B
102
}
330
9B
100
AcDbXrecord
 90
       70
  0
XRECORD
  5
B5
102
{ACAD_REACTORS
330
9B
102
}
330
9B
100
AcDbXrecord
340
0
  0
XRECORD
  5
BB
102
{ACAD_REACTORS
330
9B
102
}
330
9B
100
AcDbXrecord
 10
0.0
 20
0.0
 30
0.0
  0
XRECORD
  5
B7
102
{ACAD_REACTORS
330
9B
102
}
330
9B
100
AcDbXrecord
 10
0.0
 20
0.0
 30
0.0
  0
XRECORD
  5
BA
102
{ACAD_REACTORS
330
9B
102
}
330
9B
100
AcDbXrecord
 10
0.0
 20
0.0
 30
0.0
  0
XRECORD
  5
B8
102
{ACAD_REACTORS
330
9B
102
}
330
9B
100
AcDbXrecord
 10
0.0
 20
0.0
 30
0.0
  0
XRECORD
  5
B9
102
{ACAD_REACTORS
330
9B
102
}
330
9B
100
AcDbXrecord
 10
0.0
 20
0.0
 30
0.0
  0
XRECORD
  5
B6
102
{ACAD_REACTORS
330
9B
102
}
330
9B
100
AcDbXrecord
 10
0.0
 20
0.0
 30
0.0
  0
XRECORD
  5
B3
102
{ACAD_REACTORS
330
9B
102
}
330
9B
100
AcDbXrecord
340
0
  0
XRECORD
  5
B4
102
{ACAD_REACTORS
330
9B
102
}
330
9B
100
AcDbXrecord
 70
     0
  0
XRECORD
  5
A7
102
{ACAD_REACTORS
330
9B
102
}
330
9B
100
AcDbXrecord
  1
{BF993D5B-B6D8-48C3-A548-A8273F592EFC}
  0
DICTIONARYVAR
  5
99
102
{ACAD_REACTORS
330
98
102
}
330
98
100
DictionaryVariables
280
     0
  1
1
  0
ENDSEC
  0
EOF
