  0
SECTION
  2
HEADER
  9
$ACADVER
  1
AC1015
  9
$ACADMAINTVER
 70
    20
  9
$DWGCODEPAGE
  3
ANSI_1252
  9
$INSBASE
 10
0.0
 20
0.0
 30
0.0
  9
$EXTMIN
 10
12.17911201215878
 20
60.30485060379158
 30
-0.0015258207003583
  9
$EXTMAX
 10
86.28316216398815
 20
98.40380884487315
 30
0.0000000349246037
  9
$LIMMIN
 10
0.0
 20
0.0
  9
$LIMMAX
 10
181.3333333333
 20
117.3333333333
  9
$ORTHOMODE
 70
     0
  9
$REGENMODE
 70
     1
  9
$FILLMODE
 70
     1
  9
$QTEXTMODE
 70
     0
  9
$MIRRTEXT
 70
     0
  9
$LTSCALE
 40
9.973333333300001
  9
$ATTMODE
 70
     1
  9
$TEXTSIZE
 40
0.2
  9
$TRACEWID
 40
0.05
  9
$TEXTSTYLE
  7
STANDARD
  9
$CLAYER
  8
0
  9
$CELTYPE
  6
BYLAYER
  9
$CECOLOR
 62
   256
  9
$CELTSCALE
 40
1.0
  9
$DISPSILH
 70
     0
  9
$DIMSCALE
 40
1.0
  9
$DIMASZ
 40
2.0
  9
$DIMEXO
 40
0.0625
  9
$DIMDLI
 40
6.890666666699999
  9
$DIMRND
 40
0.0
  9
$DIMDLE
 40
0.0
  9
$DIMEXE
 40
0.125
  9
$DIMTP
 40
0.00001
  9
$DIMTM
 40
0.00001
  9
$DIMTXT
 40
1.333333333299999
  9
$DIMCEN
 40
1.631999999999999
  9
$DIMTSZ
 40
0.0
  9
$DIMTOL
 70
     1
  9
$DIMLIM
 70
     0
  9
$DIMTIH
 70
     1
  9
$DIMTOH
 70
     1
  9
$DIMSE1
 70
     0
  9
$DIMSE2
 70
     0
  9
$DIMTAD
 70
     0
  9
$DIMZIN
 70
     0
  9
$DIMBLK
  1
_FILLED
  9
$DIMASO
 70
     1
  9
$DIMSHO
 70
     1
  9
$DIMPOST
  1

  9
$DIMAPOST
  1

  9
$DIMALT
 70
     0
  9
$DIMALTD
 70
     2
  9
$DIMALTF
 40
25.4
  9
$DIMLFAC
 40
1.0
  9
$DIMTOFL
 70
     0
  9
$DIMTVP
 40
0.0
  9
$DIMTIX
 70
     0
  9
$DIMSOXD
 70
     0
  9
$DIMSAH
 70
     0
  9
$DIMBLK1
  1

  9
$DIMBLK2
  1

  9
$DIMSTYLE
  2
STANDARD
  9
$DIMCLRD
 70
     0
  9
$DIMCLRE
 70
     0
  9
$DIMCLRT
 70
     0
  9
$DIMTFAC
 40
1.0
  9
$DIMGAP
 40
0.09
  9
$DIMJUST
 70
     0
  9
$DIMSD1
 70
     0
  9
$DIMSD2
 70
     0
  9
$DIMTOLJ
 70
     1
  9
$DIMTZIN
 70
     0
  9
$DIMALTZ
 70
     0
  9
$DIMALTTZ
 70
     0
  9
$DIMUPT
 70
     0
  9
$DIMDEC
 70
     4
  9
$DIMTDEC
 70
     4
  9
$DIMALTU
 70
     2
  9
$DIMALTTD
 70
     2
  9
$DIMTXSTY
  7
STANDARD
  9
$DIMAUNIT
 70
     0
  9
$DIMADEC
 70
     0
  9
$DIMALTRND
 40
0.0
  9
$DIMAZIN
 70
     0
  9
$DIMDSEP
 70
    46
  9
$DIMATFIT
 70
     3
  9
$DIMFRAC
 70
     0
  9
$DIMLDRBLK
  1

  9
$DIMLUNIT
 70
     2
  9
$DIMLWD
 70
    -2
  9
$DIMLWE
 70
    -2
  9
$DIMTMOVE
 70
     0
  9
$LUNITS
 70
     2
  9
$LUPREC
 70
     4
  9
$SKETCHINC
 40
0.1
  9
$FILLETRAD
 40
0.0
  9
$AUNITS
 70
     0
  9
$AUPREC
 70
     0
  9
$MENU
  1
.
  9
$ELEVATION
 40
0.0
  9
$PELEVATION
 40
0.0
  9
$THICKNESS
 40
0.0
  9
$LIMCHECK
 70
     0
  9
$CHAMFERA
 40
0.0
  9
$CHAMFERB
 40
0.0
  9
$CHAMFERC
 40
0.0
  9
$CHAMFERD
 40
0.0
  9
$SKPOLY
 70
     0
  9
$TDCREATE
 40
2457714.391304005
  9
$TDUCREATE
 40
2457714.599637338
  9
$TDUPDATE
 40
2457714.397472662
  9
$TDUUPDATE
 40
2457714.605805996
  9
$TDINDWG
 40
0.0037339352
  9
$TDUSRTIMER
 40
0.0037339352
  9
$USRTIMER
 70
     1
  9
$ANGBASE
 50
0.0
  9
$ANGDIR
 70
     0
  9
$PDMODE
 70
     3
  9
$PDSIZE
 40
0.03125
  9
$PLINEWID
 40
0.0
  9
$SPLFRAME
 70
     0
  9
$SPLINETYPE
 70
     6
  9
$SPLINESEGS
 70
     8
  9
$HANDSEED
  5
19E8
  9
$SURFTAB1
 70
     6
  9
$SURFTAB2
 70
     6
  9
$SURFTYPE
 70
     6
  9
$SURFU
 70
     6
  9
$SURFV
 70
     6
  9
$UCSBASE
  2

  9
$UCSNAME
  2

  9
$UCSORG
 10
0.0
 20
0.0
 30
0.0
  9
$UCSXDIR
 10
1.0
 20
0.0
 30
0.0
  9
$UCSYDIR
 10
0.0
 20
1.0
 30
0.0
  9
$UCSORTHOREF
  2

  9
$UCSORTHOVIEW
 70
     0
  9
$UCSORGTOP
 10
0.0
 20
0.0
 30
0.0
  9
$UCSORGBOTTOM
 10
0.0
 20
0.0
 30
0.0
  9
$UCSORGLEFT
 10
0.0
 20
0.0
 30
0.0
  9
$UCSORGRIGHT
 10
0.0
 20
0.0
 30
0.0
  9
$UCSORGFRONT
 10
0.0
 20
0.0
 30
0.0
  9
$UCSORGBACK
 10
0.0
 20
0.0
 30
0.0
  9
$PUCSBASE
  2

  9
$PUCSNAME
  2

  9
$PUCSORG
 10
0.0
 20
0.0
 30
0.0
  9
$PUCSXDIR
 10
1.0
 20
0.0
 30
0.0
  9
$PUCSYDIR
 10
0.0
 20
1.0
 30
0.0
  9
$PUCSORTHOREF
  2

  9
$PUCSORTHOVIEW
 70
     0
  9
$PUCSORGTOP
 10
0.0
 20
0.0
 30
0.0
  9
$PUCSORGBOTTOM
 10
0.0
 20
0.0
 30
0.0
  9
$PUCSORGLEFT
 10
0.0
 20
0.0
 30
0.0
  9
$PUCSORGRIGHT
 10
0.0
 20
0.0
 30
0.0
  9
$PUCSORGFRONT
 10
0.0
 20
0.0
 30
0.0
  9
$PUCSORGBACK
 10
0.0
 20
0.0
 30
0.0
  9
$USERI1
 70
     0
  9
$USERI2
 70
     0
  9
$USERI3
 70
     0
  9
$USERI4
 70
     0
  9
$USERI5
 70
     0
  9
$USERR1
 40
0.0
  9
$USERR2
 40
0.0
  9
$USERR3
 40
0.0
  9
$USERR4
 40
0.0
  9
$USERR5
 40
0.0
  9
$WORLDVIEW
 70
     1
  9
$SHADEDGE
 70
     3
  9
$SHADEDIF
 70
    70
  9
$TILEMODE
 70
     1
  9
$MAXACTVP
 70
    64
  9
$PINSBASE
 10
0.0
 20
0.0
 30
0.0
  9
$PLIMCHECK
 70
     0
  9
$PEXTMIN
 10
1.000000000000000E+20
 20
1.000000000000000E+20
 30
1.000000000000000E+20
  9
$PEXTMAX
 10
-1.000000000000000E+20
 20
-1.000000000000000E+20
 30
-1.000000000000000E+20
  9
$PLIMMIN
 10
0.0
 20
0.0
  9
$PLIMMAX
 10
12.0
 20
9.0
  9
$UNITMODE
 70
     0
  9
$VISRETAIN
 70
     1
  9
$PLINEGEN
 70
     0
  9
$PSLTSCALE
 70
     1
  9
$TREEDEPTH
 70
  3020
  9
$CMLSTYLE
  2
Standard
  9
$CMLJUST
 70
     0
  9
$CMLSCALE
 40
1.0
  9
$PROXYGRAPHICS
 70
     1
  9
$MEASUREMENT
 70
     0
  9
$CELWEIGHT
370
    -1
  9
$ENDCAPS
280
     0
  9
$JOINSTYLE
280
     0
  9
$LWDISPLAY
290
     0
  9
$INSUNITS
 70
     1
  9
$HYPERLINKBASE
  1

  9
$STYLESHEET
  1

  9
$XEDIT
290
     1
  9
$CEPSNTYPE
380
     0
  9
$PSTYLEMODE
290
     1
  9
$FINGERPRINTGUID
  2
{231027F1-0206-4D3A-8256-C6C56BAEDDD6}
  9
$VERSIONGUID
  2
{A65360A8-0F79-42AC-99BA-EB366F1169C7}
  9
$EXTNAMES
290
     1
  9
$PSVPSCALE
 40
0.0
  9
$OLESTARTUP
290
     0
  0
ENDSEC
  0
SECTION
  2
CLASSES
  0
CLASS
  1
ACDBDICTIONARYWDFLT
  2
AcDbDictionaryWithDefault
  3
ObjectDBX Classes
 90
        0
280
     0
281
     0
  0
CLASS
  1
ACDBPLACEHOLDER
  2
AcDbPlaceHolder
  3
ObjectDBX Classes
 90
        0
280
     0
281
     0
  0
CLASS
  1
LAYOUT
  2
AcDbLayout
  3
ObjectDBX Classes
 90
        0
280
     0
281
     0
  0
CLASS
  1
MATERIAL
  2
AcDbMaterial
  3
ObjectDBX Classes
 90
     1153
280
     0
281
     0
  0
CLASS
  1
VISUALSTYLE
  2
AcDbVisualStyle
  3
ObjectDBX Classes
 90
     4095
280
     0
281
     0
  0
CLASS
  1
TABLESTYLE
  2
AcDbTableStyle
  3
ObjectDBX Classes
 90
     4095
280
     0
281
     0
  0
CLASS
  1
SCALE
  2
AcDbScale
  3
ObjectDBX Classes
 90
     1153
280
     0
281
     0
  0
CLASS
  1
MLEADERSTYLE
  2
AcDbMLeaderStyle
  3
ACDB_MLEADERSTYLE_CLASS
 90
     4095
280
     0
281
     0
  0
CLASS
  1
ACDBSECTIONVIEWSTYLE
  2
AcDbSectionViewStyle
  3
ObjectDBX Classes
 90
     1025
280
     0
281
     0
  0
CLASS
  1
ACDBDETAILVIEWSTYLE
  2
AcDbDetailViewStyle
  3
ObjectDBX Classes
 90
     1025
280
     0
281
     0
  0
CLASS
  1
CELLSTYLEMAP
  2
AcDbCellStyleMap
  3
ObjectDBX Classes
 90
     1152
280
     0
281
     0
  0
CLASS
  1
DICTIONARYVAR
  2
AcDbDictionaryVar
  3
ObjectDBX Classes
 90
        0
280
     0
281
     0
  0
ENDSEC
  0
SECTION
  2
TABLES
  0
TABLE
  2
VPORT
  5
8
102
{ACAD_XDICTIONARY
360
1951
102
}
330
0
100
AcDbSymbolTable
 70
     1
  0
VPORT
  5
1F4
330
8
100
AcDbSymbolTableRecord
100
AcDbViewportTableRecord
  2
*ACTIVE
 70
     0
 10
0.0
 20
0.0
 11
1.0
 21
1.0
 12
90.66666666665
 22
58.66666666665
 13
0.0
 23
0.0
 14
1.0
 24
1.0
 15
0.0
 25
0.0
 16
0.0
 26
0.0
 36
1.0
 17
0.0
 27
0.0
 37
0.0
 40
118.0783068782733
 41
1.92478813559322
 42
50.0
 43
0.0
 44
0.0
 50
0.0
 51
0.0
 71
     0
 72
   100
 73
     1
 74
     1
 75
     0
 76
     0
 77
     0
 78
     0
281
     0
 65
     1
110
0.0
120
0.0
130
0.0
111
1.0
121
0.0
131
0.0
112
0.0
122
1.0
132
0.0
 79
     0
146
0.0
  0
ENDTAB
  0
TABLE
  2
LTYPE
  5
5
330
0
100
AcDbSymbolTable
 70
     7
  0
LTYPE
  5
14
330
5
100
AcDbSymbolTableRecord
100
AcDbLinetypeTableRecord
  2
BYBLOCK
 70
     0
  3

 72
    65
 73
     0
 40
0.0
  0
LTYPE
  5
15
330
5
100
AcDbSymbolTableRecord
100
AcDbLinetypeTableRecord
  2
BYLAYER
 70
     0
  3

 72
    65
 73
     0
 40
0.0
  0
LTYPE
  5
16
330
5
100
AcDbSymbolTableRecord
100
AcDbLinetypeTableRecord
  2
CONTINUOUS
 70
     0
  3
Solid line
 72
    65
 73
     0
 40
0.0
  0
LTYPE
  5
1F5
330
5
100
AcDbSymbolTableRecord
100
AcDbLinetypeTableRecord
  2
CENTER
 70
     0
  3
____ _ ____ _ ____ _ ____ _ ____ _ ____ _ ____
 72
    65
 73
     4
 40
0.6
 49
0.375
 74
     0
 49
-0.075
 74
     0
 49
0.075
 74
     0
 49
-0.075
 74
     0
  0
LTYPE
  5
1F6
330
5
100
AcDbSymbolTableRecord
100
AcDbLinetypeTableRecord
  2
HIDDEN
 70
     0
  3
- - - - - - - - - - - - - - - - - - - -
 72
    65
 73
     2
 40
0.2
 49
0.1
 74
     0
 49
-0.1
 74
     0
  0
LTYPE
  5
1F7
330
5
100
AcDbSymbolTableRecord
100
AcDbLinetypeTableRecord
  2
PHANTOM
 70
     0
  3
_____ _ _ _____ _ _ _____ _ _ _____
 72
    65
 73
     6
 40
0.8
 49
0.45
 74
     0
 49
-0.05
 74
     0
 49
0.1
 74
     0
 49
-0.05
 74
     0
 49
0.1
 74
     0
 49
-0.05
 74
     0
  0
LTYPE
  5
1F8
330
5
100
AcDbSymbolTableRecord
100
AcDbLinetypeTableRecord
  2
DOT
 70
     0
  3
. . . . . . . . . . . . . . . . . . . .
 72
    65
 73
     2
 40
0.2
 49
0.1
 74
     0
 49
-0.1
 74
     0
  0
LTYPE
  5
1F9
330
5
100
AcDbSymbolTableRecord
100
AcDbLinetypeTableRecord
  2
DASHED
 70
     0
  3
- - - - - - - - - - - - - - - - - - - -
 72
    65
 73
     2
 40
0.2
 49
0.1
 74
     0
 49
-0.1
 74
     0
  0
LTYPE
  5
1949
330
5
100
AcDbSymbolTableRecord
100
AcDbLinetypeTableRecord
  2
PHANTOM2
 70
     0
  3
___ _ _ ___ _ _ ___ _ _ ___ _ _
 72
    65
 73
     6
 40
1.25
 49
0.625
 74
     0
 49
-0.125
 74
     0
 49
0.125
 74
     0
 49
-0.125
 74
     0
 49
0.125
 74
     0
 49
-0.125
 74
     0
  0
ENDTAB
  0
TABLE
  2
LAYER
  5
2
330
0
100
AcDbSymbolTable
 70
    25
  0
LAYER
  5
10
102
{ACAD_XDICTIONARY
360
19A0
102
}
330
2
100
AcDbSymbolTableRecord
100
AcDbLayerTableRecord
  2
0
 70
     0
 62
     7
  6
CONTINUOUS
370
    -3
390
F
  0
LAYER
  5
1FA
102
{ACAD_XDICTIONARY
360
19A2
102
}
330
2
100
AcDbSymbolTableRecord
100
AcDbLayerTableRecord
  2
DEFAULT_1
 70
     0
 62
     7
  6
CENTER
370
    -3
390
F
  0
LAYER
  5
1FB
102
{ACAD_XDICTIONARY
360
19A4
102
}
330
2
100
AcDbSymbolTableRecord
100
AcDbLayerTableRecord
  2
DEFAULT_2
 70
     0
 62
     8
  6
HIDDEN
370
    -3
390
F
  0
LAYER
  5
1FC
102
{ACAD_XDICTIONARY
360
19A6
102
}
330
2
100
AcDbSymbolTableRecord
100
AcDbLayerTableRecord
  2
DEFAULT_3
 70
     0
 62
     7
  6
PHANTOM
370
    -3
390
F
  0
LAYER
  5
1FD
102
{ACAD_XDICTIONARY
360
19A8
102
}
330
2
100
AcDbSymbolTableRecord
100
AcDbLayerTableRecord
  2
1_CURVES
 70
     0
 62
     7
  6
CONTINUOUS
370
    -3
390
F
  0
LAYER
  5
1FE
102
{ACAD_XDICTIONARY
360
19AA
102
}
330
2
100
AcDbSymbolTableRecord
100
AcDbLayerTableRecord
  2
1_CURVES_JETS
 70
     0
 62
     7
  6
CONTINUOUS
370
    -3
390
F
  0
LAYER
  5
1FF
102
{ACAD_XDICTIONARY
360
19AC
102
}
330
2
100
AcDbSymbolTableRecord
100
AcDbLayerTableRecord
  2
1_CURVES_SPEC_FRONT_DROP_IIN
 70
     0
 62
     7
  6
CONTINUOUS
370
    -3
390
F
  0
LAYER
  5
200
102
{ACAD_XDICTIONARY
360
19AE
102
}
330
2
100
AcDbSymbolTableRecord
100
AcDbLayerTableRecord
  2
1_CURVES_SPEC_FRONT_FS
 70
     0
 62
     7
  6
CONTINUOUS
370
    -3
390
F
  0
LAYER
  5
201
102
{ACAD_XDICTIONARY
360
19B0
102
}
330
2
100
AcDbSymbolTableRecord
100
AcDbLayerTableRecord
  2
1_CURVES_SPEC_RIGHT_DROP_IIN
 70
     0
 62
     7
  6
CONTINUOUS
370
    -3
390
F
  0
LAYER
  5
202
102
{ACAD_XDICTIONARY
360
19B2
102
}
330
2
100
AcDbSymbolTableRecord
100
AcDbLayerTableRecord
  2
1_CURVES_SPEC_RIGHT_FS
 70
     0
 62
     7
  6
CONTINUOUS
370
    -3
390
F
  0
LAYER
  5
203
102
{ACAD_XDICTIONARY
360
19B4
102
}
330
2
100
AcDbSymbolTableRecord
100
AcDbLayerTableRecord
  2
2_PLANES
 70
     0
 62
     7
  6
CONTINUOUS
370
    -3
390
F
  0
LAYER
  5
204
102
{ACAD_XDICTIONARY
360
19B6
102
}
330
2
100
AcDbSymbolTableRecord
100
AcDbLayerTableRecord
  2
2_PLANES_JETS
 70
     0
 62
     7
  6
CONTINUOUS
370
    -3
390
F
  0
LAYER
  5
205
102
{ACAD_XDICTIONARY
360
19B8
102
}
330
2
100
AcDbSymbolTableRecord
100
AcDbLayerTableRecord
  2
3_POINTS
 70
     0
 62
     7
  6
CONTINUOUS
370
    -3
390
F
  0
LAYER
  5
206
102
{ACAD_XDICTIONARY
360
19BA
102
}
330
2
100
AcDbSymbolTableRecord
100
AcDbLayerTableRecord
  2
3_POINTS_JETS
 70
     0
 62
     7
  6
CONTINUOUS
370
    -3
390
F
  0
LAYER
  5
207
102
{ACAD_XDICTIONARY
360
19BC
102
}
330
2
100
AcDbSymbolTableRecord
100
AcDbLayerTableRecord
  2
4_CSYS
 70
     0
 62
     7
  6
CONTINUOUS
370
    -3
390
F
  0
LAYER
  5
208
102
{ACAD_XDICTIONARY
360
19BE
102
}
330
2
100
AcDbSymbolTableRecord
100
AcDbLayerTableRecord
  2
5_AXIS
 70
     0
 62
     7
  6
CONTINUOUS
370
    -3
390
F
  0
LAYER
  5
209
102
{ACAD_XDICTIONARY
360
19C0
102
}
330
2
100
AcDbSymbolTableRecord
100
AcDbLayerTableRecord
  2
5_AXIS_JETS
 70
     0
 62
     7
  6
CONTINUOUS
370
    -3
390
F
  0
LAYER
  5
20A
102
{ACAD_XDICTIONARY
360
19C2
102
}
330
2
100
AcDbSymbolTableRecord
100
AcDbLayerTableRecord
  2
6_SURFACES
 70
     0
 62
     7
  6
CONTINUOUS
370
    -3
390
F
  0
LAYER
  5
20B
102
{ACAD_XDICTIONARY
360
19C4
102
}
330
2
100
AcDbSymbolTableRecord
100
AcDbLayerTableRecord
  2
6_SURFACES-DROP-IN
 70
     0
 62
     7
  6
CONTINUOUS
370
    -3
390
F
  0
LAYER
  5
20C
102
{ACAD_XDICTIONARY
360
19C6
102
}
330
2
100
AcDbSymbolTableRecord
100
AcDbLayerTableRecord
  2
6_SURFACES-FS
 70
     0
 62
     7
  6
CONTINUOUS
370
    -3
390
F
  0
LAYER
  5
20D
102
{ACAD_XDICTIONARY
360
19C8
102
}
330
2
100
AcDbSymbolTableRecord
100
AcDbLayerTableRecord
  2
6_SURFACES-OFFSET_FIBRE
 70
     0
 62
     7
  6
CONTINUOUS
370
    -3
390
F
  0
LAYER
  5
20E
102
{ACAD_XDICTIONARY
360
19CA
102
}
330
2
100
AcDbSymbolTableRecord
100
AcDbLayerTableRecord
  2
6_SURFACES_TOOLING
 70
     0
 62
     7
  6
CONTINUOUS
370
    -3
390
F
  0
LAYER
  5
20F
102
{ACAD_XDICTIONARY
360
19CC
102
}
330
2
100
AcDbSymbolTableRecord
100
AcDbLayerTableRecord
  2
6_SURFACE_PATINS_DROP_IN
 70
     0
 62
     7
  6
CONTINUOUS
370
    -3
390
F
  0
LAYER
  5
210
102
{ACAD_XDICTIONARY
360
19CE
102
}
330
2
100
AcDbSymbolTableRecord
100
AcDbLayerTableRecord
  2
7_NOTES
 70
     0
 62
     7
  6
CONTINUOUS
370
    -3
390
F
  0
LAYER
  5
211
102
{ACAD_XDICTIONARY
360
19D0
102
}
330
2
100
AcDbSymbolTableRecord
100
AcDbLayerTableRecord
  2
XSEC_DATUMS
 70
     0
 62
     7
  6
CONTINUOUS
370
    -3
390
F
  0
ENDTAB
  0
TABLE
  2
STYLE
  5
3
330
0
100
AcDbSymbolTable
 70
     8
  0
STYLE
  5
11
330
3
100
AcDbSymbolTableRecord
100
AcDbTextStyleTableRecord
  2
STANDARD
 70
     0
 40
0.0
 41
0.8
 50
0.0
 71
     0
 42
0.2
  3
txt
  4

  0
STYLE
  5
212
330
3
100
AcDbSymbolTableRecord
100
AcDbTextStyleTableRecord
  2
TEXTSTYLE_1
 70
     0
 40
0.0
 41
0.8
 50
0.0
 71
     0
 42
0.2
  3
gdt
  4

  0
STYLE
  5
213
330
3
100
AcDbSymbolTableRecord
100
AcDbTextStyleTableRecord
  2
TEXTSTYLE_2
 70
     0
 40
0.0
 41
1.0
 50
0.0
 71
     0
 42
0.2
  3
trium.ttf
  4

  0
STYLE
  5
214
330
3
100
AcDbSymbolTableRecord
100
AcDbTextStyleTableRecord
  2
TEXTSTYLE_3
 70
     0
 40
0.0
 41
1.0
 50
0.0
 71
     0
 42
0.2
  3
trium.ttf
  4

  0
STYLE
  5
215
330
3
100
AcDbSymbolTableRecord
100
AcDbTextStyleTableRecord
  2
TEXTSTYLE_4
 70
     0
 40
0.0
 41
1.0
 50
0.0
 71
     0
 42
0.2
  3
txt_____.ttf
  4

1001
ACAD
1000
txt
1071
        2
  0
STYLE
  5
216
330
3
100
AcDbSymbolTableRecord
100
AcDbTextStyleTableRecord
  2
TEXTSTYLE_5
 70
     0
 40
0.0
 41
1.0
 50
0.0
 71
     0
 42
0.2
  3
txt
  4

  0
STYLE
  5
217
330
3
100
AcDbSymbolTableRecord
100
AcDbTextStyleTableRecord
  2
TEXTSTYLE_6
 70
     0
 40
0.0
 41
1.0
 50
0.0
 71
     0
 42
0.2
  3
trium.ttf
  4

  0
STYLE
  5
218
330
3
100
AcDbSymbolTableRecord
100
AcDbTextStyleTableRecord
  2
TEXTSTYLE_7
 70
     0
 40
0.0
 41
0.8
 50
0.0
 71
     0
 42
0.2
  3
txt
  4

  0
ENDTAB
  0
TABLE
  2
VIEW
  5
6
330
0
100
AcDbSymbolTable
 70
     0
  0
ENDTAB
  0
TABLE
  2
UCS
  5
7
330
0
100
AcDbSymbolTable
 70
     0
  0
ENDTAB
  0
TABLE
  2
APPID
  5
9
330
0
100
AcDbSymbolTable
 70
     2
  0
APPID
  5
219
330
9
100
AcDbSymbolTableRecord
100
AcDbRegAppTableRecord
  2
ACAD
 70
     0
  0
APPID
  5
198C
330
9
100
AcDbSymbolTableRecord
100
AcDbRegAppTableRecord
  2
ACAD_MLEADERVER
 70
     0
  0
ENDTAB
  0
TABLE
  2
DIMSTYLE
  5
A
330
0
100
AcDbSymbolTable
 70
     4
100
AcDbDimStyleTable
 71
     0
  0
DIMSTYLE
105
234
330
A
100
AcDbSymbolTableRecord
100
AcDbDimStyleTableRecord
  2
STANDARD
 70
     0
 41
2.0
 44
0.125
 47
0.00001
 48
0.00001
 71
     1
 78
     4
140
1.333333333299999
271
     5
272
     5
284
     4
340
11
341
21C
342
21C
343
21C
344
21C
  0
DIMSTYLE
105
235
330
A
100
AcDbSymbolTableRecord
100
AcDbDimStyleTableRecord
  2
DIMSTYLE_1
 70
     0
 41
2.0
 44
0.125
 47
0.00001
 48
0.00001
 78
     4
140
1.333333333299999
147
0.0625
271
     3
272
     3
284
     4
340
11
341
21C
342
21C
343
21C
344
21C
  0
DIMSTYLE
105
236
330
A
100
AcDbSymbolTableRecord
100
AcDbDimStyleTableRecord
  2
DIMSTYLE_2
 70
     0
 41
2.0
 44
0.125
 47
0.00001
 48
0.00001
 78
     4
140
1.333333333299999
147
0.0625
271
     2
272
     2
284
     4
340
11
341
21C
342
21C
343
21C
344
21C
  0
DIMSTYLE
105
237
330
A
100
AcDbSymbolTableRecord
100
AcDbDimStyleTableRecord
  2
DIMSTYLE_3
 70
     0
 41
2.0
 44
0.125
 47
0.5
 48
0.5
 78
     4
140
1.333333333299999
147
0.0625
271
     0
272
     0
284
     4
340
11
341
21C
342
21C
343
21C
344
21C
  0
ENDTAB
  0
TABLE
  2
BLOCK_RECORD
  5
1
330
0
100
AcDbSymbolTable
 70
    24
  0
BLOCK_RECORD
  5
21A
330
1
100
AcDbSymbolTableRecord
100
AcDbBlockTableRecord
  2
*Model_Space
340
18FA
  0
BLOCK_RECORD
  5
21B
330
1
100
AcDbSymbolTableRecord
100
AcDbBlockTableRecord
  2
*Paper_Space
340
18FB
  0
BLOCK_RECORD
  5
21C
330
1
100
AcDbSymbolTableRecord
100
AcDbBlockTableRecord
  2
_FILLED
340
0
102
{BLKREFS
331
315
331
316
331
31E
331
31F
331
328
331
329
331
331
331
332
331
33A
331
33B
331
343
331
344
331
34C
331
34D
331
355
331
356
331
35E
331
35F
331
367
331
368
331
370
331
371
331
37A
331
37B
331
383
331
384
331
38D
331
38E
331
397
331
398
331
3A0
331
3A1
331
3AA
331
3AB
102
}
  0
BLOCK_RECORD
  5
230
330
1
100
AcDbSymbolTableRecord
100
AcDbBlockTableRecord
  2
L03-MOTEUR-CONTROLE-LED_BL3
340
0
  0
BLOCK_RECORD
  5
231
330
1
100
AcDbSymbolTableRecord
100
AcDbBlockTableRecord
  2
L03-MOTEUR-CONTROLE-LED_BL2
340
0
  0
BLOCK_RECORD
  5
232
330
1
100
AcDbSymbolTableRecord
100
AcDbBlockTableRecord
  2
L03-USAGE_INTERNE_SEULEM_BL1
340
0
  0
BLOCK_RECORD
  5
233
330
1
100
AcDbSymbolTableRecord
100
AcDbBlockTableRecord
  2
L03-NOTE_SPECS_BAINS_BL0
340
0
  0
ENDTAB
  0
ENDSEC
  0
SECTION
  2
BLOCKS
  0
BLOCK
  5
20
330
21A
100
AcDbEntity
  8
0
100
AcDbBlockBegin
  2
*Model_Space
 70
     0
 10
0.0
 20
0.0
 30
0.0
  3
*Model_Space
  1

  0
ENDBLK
  5
21
330
21A
100
AcDbEntity
  8
0
100
AcDbBlockEnd
  0
BLOCK
  5
1C
330
21B
100
AcDbEntity
 67
     1
  8
0
100
AcDbBlockBegin
  2
*Paper_Space
 70
     0
 10
0.0
 20
0.0
 30
0.0
  3
*Paper_Space
  1

  0
ENDBLK
  5
1D
330
21B
100
AcDbEntity
 67
     1
  8
0
100
AcDbBlockEnd
  0
BLOCK
  5
30B
330
21C
100
AcDbEntity
  8
0
100
AcDbBlockBegin
  2
_FILLED
 70
     0
 10
0.0
 20
0.0
 30
0.0
  3
_FILLED
  1

  0
SOLID
  5
30C
330
21C
100
AcDbEntity
  8
0
  6
ByBlock
 62
     0
100
AcDbTrace
 10
0.0
 20
0.0
 30
0.0
 11
-1.0
 21
0.1666666667
 31
0.0
 12
-1.0
 22
-0.1666666667
 32
0.0
 13
-1.0
 23
-0.1666666667
 33
0.0
  0
ENDBLK
  5
30D
330
21C
100
AcDbEntity
  8
0
  6
ByBlock
 62
     0
100
AcDbBlockEnd
  0
BLOCK
  5
238
330
230
100
AcDbEntity
  8
0
  6
Continuous
 62
     2
100
AcDbBlockBegin
  2
L03-MOTEUR-CONTROLE-LED_BL3
 70
     0
 10
62.2919465919
 20
91.2401748183
 30
0.0
  3
L03-MOTEUR-CONTROLE-LED_BL3
  1

  0
TEXT
  5
239
330
230
100
AcDbEntity
  8
0
  6
Continuous
 62
     2
100
AcDbText
 10
61.7635513246
 20
90.5735078923
 30
0.0
 40
1.333333852099999
  1
L
  7
TEXTSTYLE_2
100
AcDbText
  0
ELLIPSE
  5
23A
330
230
100
AcDbEntity
  8
0
  6
Continuous
 62
     7
100
AcDbEllipse
 10
62.2919465919
 20
91.2401748183
 30
0.0
 11
-1.942887567899999
 21
0.0
 31
0.0
210
0.0
220
0.0
230
1.0
 40
0.6606458385
 41
0.0
 42
6.283185307179586
  0
ENDBLK
  5
23B
330
230
100
AcDbEntity
  8
0
  6
ByBlock
 62
     0
100
AcDbBlockEnd
  0
BLOCK
  5
23C
330
231
100
AcDbEntity
  8
0
  6
Continuous
 62
     2
100
AcDbBlockBegin
  2
L03-MOTEUR-CONTROLE-LED_BL2
 70
     0
 10
41.4477709362
 20
66.8114796748
 30
0.0
  3
L03-MOTEUR-CONTROLE-LED_BL2
  1

  0
TEXT
  5
23D
330
231
100
AcDbEntity
  8
0
  6
Continuous
 62
     2
100
AcDbText
 10
40.919375669
 20
66.14481274880001
 30
0.0
 40
1.333333852099999
  1
L
  7
TEXTSTYLE_2
100
AcDbText
  0
ELLIPSE
  5
23E
330
231
100
AcDbEntity
  8
0
  6
Continuous
 62
     7
100
AcDbEllipse
 10
41.4477709362
 20
66.8114796748
 30
0.0
 11
-1.942887567899999
 21
0.0
 31
0.0
210
0.0
220
0.0
230
1.0
 40
0.6606458385
 41
0.0
 42
6.283185307179586
  0
ENDBLK
  5
23F
330
231
100
AcDbEntity
  8
0
  6
ByBlock
 62
     0
100
AcDbBlockEnd
  0
BLOCK
  5
240
330
232
100
AcDbEntity
  8
0
  6
Continuous
 62
     2
100
AcDbBlockBegin
  2
L03-USAGE_INTERNE_SEULEM_BL1
 70
     0
 10
113.6209181296
 20
51.15200408189999
 30
0.0
  3
L03-USAGE_INTERNE_SEULEM_BL1
  1

  0
TEXT
  5
241
330
232
100
AcDbEntity
  8
0
  6
Continuous
 62
     7
100
AcDbText
 10
107.3068578279
 20
53.3970380677
 30
0.0
 40
1.1626666667
  1
INTERNAL USE 
 50
10.0
  7
TEXTSTYLE_3
100
AcDbText
  0
TEXT
  5
242
330
232
100
AcDbEntity
  8
0
  6
Continuous
 62
     7
100
AcDbText
 10
106.5631736239
 20
51.39551689000001
 30
0.0
 40
1.1626666667
  1
DOCUMENT ONLY
 50
10.0
  7
TEXTSTYLE_3
100
AcDbText
  0
TEXT
  5
243
330
232
100
AcDbEntity
  8
0
  6
Continuous
 62
     7
100
AcDbText
 10
112.3479011871
 20
51.1470888395
 30
0.0
 40
1.1626666667
  1
 
 50
10.0
  7
TEXTSTYLE_5
100
AcDbText
  0
TEXT
  5
244
330
232
100
AcDbEntity
  8
0
  6
Continuous
 62
     7
100
AcDbText
 10
103.9032533041
 20
46.9699944332
 30
0.0
 40
1.1626666667
  1
DOCUMENT POUR USAGE
 50
10.0
  7
TEXTSTYLE_3
100
AcDbText
  0
TEXT
  5
245
330
232
100
AcDbEntity
  8
0
  6
Continuous
 62
     7
100
AcDbText
 10
104.3323527501
 20
44.95324597279999
 30
0.0
 40
1.1626666667
  1
A L'INTERNE SEULEMENT
 50
10.0
  7
TEXTSTYLE_3
100
AcDbText
  0
LINE
  5
246
330
232
100
AcDbEntity
  8
0
  6
Continuous
 62
     1
100
AcDbLine
 10
127.477469853
 20
46.8084704639
 30
0.0
 11
127.4842287856
 21
46.81522939659999
 31
0.0
  0
LINE
  5
247
330
232
100
AcDbEntity
  8
0
  6
Continuous
 62
     1
100
AcDbLine
 10
126.7449002866
 20
46.67929868409999
 30
0.0
 11
127.3937817317
 21
47.3281801293
 31
0.0
  0
LINE
  5
248
330
232
100
AcDbEntity
  8
0
  6
Continuous
 62
     1
100
AcDbLine
 10
126.0123307202
 20
46.5501269043
 30
0.0
 11
127.3033346777
 21
47.84113086189999
 31
0.0
  0
LINE
  5
249
330
232
100
AcDbEntity
  8
0
  6
Continuous
 62
     1
100
AcDbLine
 10
125.2797611537
 20
46.4209551245
 30
0.0
 11
127.2128876238
 21
48.3540815946
 31
0.0
  0
LINE
  5
24A
330
232
100
AcDbEntity
  8
0
  6
Continuous
 62
     1
100
AcDbLine
 10
124.5471915873
 20
46.2917833447
 30
0.0
 11
127.1224405699
 21
48.86703232729999
 31
0.0
  0
LINE
  5
24B
330
232
100
AcDbEntity
  8
0
  6
Continuous
 62
     1
100
AcDbLine
 10
123.8146220209
 20
46.1626115649
 30
0.0
 11
125.3556258357
 21
47.7036153797
 31
0.0
  0
LINE
  5
24C
330
232
100
AcDbEntity
  8
0
  6
Continuous
 62
     1
100
AcDbLine
 10
125.9529710284
 20
48.3009605724
 30
0.0
 11
127.0319935159
 21
49.37998305989999
 31
0.0
  0
LINE
  5
24D
330
232
100
AcDbEntity
  8
0
  6
Continuous
 62
     1
100
AcDbLine
 10
123.0820524545
 20
46.03343978509999
 30
0.0
 11
124.6230562693
 21
47.5744435999
 31
0.0
  0
LINE
  5
24E
330
232
100
AcDbEntity
  8
0
  6
Continuous
 62
     1
100
AcDbLine
 10
125.8625239745
 20
48.81391130509999
 30
0.0
 11
126.941546462
 21
49.89293379260001
 31
0.0
  0
LINE
  5
24F
330
232
100
AcDbEntity
  8
0
  6
Continuous
 62
     1
100
AcDbLine
 10
122.3494828881
 20
45.90426800529999
 30
0.0
 11
123.8904867028
 21
47.4452718201
 31
0.0
  0
LINE
  5
250
330
232
100
AcDbEntity
  8
0
  6
Continuous
 62
     1
100
AcDbLine
 10
125.7720769205
 20
49.3268620378
 30
0.0
 11
126.851099408
 21
50.40588452529999
 31
0.0
  0
LINE
  5
251
330
232
100
AcDbEntity
  8
0
  6
Continuous
 62
     1
100
AcDbLine
 10
121.6169133216
 20
45.7750962255
 30
0.0
 11
123.1579171364
 21
47.3161000403
 31
0.0
  0
LINE
  5
252
330
232
100
AcDbEntity
  8
0
  6
Continuous
 62
     1
100
AcDbLine
 10
125.6816298666
 20
49.8398127704
 30
0.0
 11
126.7606523541
 21
50.9188352579
 31
0.0
  0
LINE
  5
253
330
232
100
AcDbEntity
  8
0
  6
Continuous
 62
     1
100
AcDbLine
 10
120.8843437552
 20
45.64592444569999
 30
0.0
 11
122.42534757
 21
47.1869282605
 31
0.0
  0
LINE
  5
254
330
232
100
AcDbEntity
  8
0
  6
Continuous
 62
     1
100
AcDbLine
 10
125.5911828126
 20
50.35276350310001
 30
0.0
 11
126.6702053001
 21
51.4317859906
 31
0.0
  0
LINE
  5
255
330
232
100
AcDbEntity
  8
0
  6
Continuous
 62
     1
100
AcDbLine
 10
120.1517741888
 20
45.5167526659
 30
0.0
 11
121.6927780036
 21
47.0577564807
 31
0.0
  0
LINE
  5
256
330
232
100
AcDbEntity
  8
0
  6
Continuous
 62
     1
100
AcDbLine
 10
125.5007357587
 20
50.8657142358
 30
0.0
 11
126.5797582462
 21
51.9447367233
 31
0.0
  0
LINE
  5
257
330
232
100
AcDbEntity
  8
0
  6
Continuous
 62
     1
100
AcDbLine
 10
119.4192046224
 20
45.38758088609999
 30
0.0
 11
120.9602084372
 21
46.9285847009
 31
0.0
  0
LINE
  5
258
330
232
100
AcDbEntity
  8
0
  6
Continuous
 62
     1
100
AcDbLine
 10
125.4102887047
 20
51.3786649684
 30
0.0
 11
126.4893111923
 21
52.4576874559
 31
0.0
  0
LINE
  5
259
330
232
100
AcDbEntity
  8
0
  6
Continuous
 62
     1
100
AcDbLine
 10
118.686635056
 20
45.2584091063
 30
0.0
 11
120.2276388707
 21
46.7994129211
 31
0.0
  0
LINE
  5
25A
330
232
100
AcDbEntity
  8
0
  6
Continuous
 62
     1
100
AcDbLine
 10
125.3198416508
 20
51.89161570109999
 30
0.0
 11
126.3988641383
 21
52.97063818859999
 31
0.0
  0
LINE
  5
25B
330
232
100
AcDbEntity
  8
0
  6
Continuous
 62
     1
100
AcDbLine
 10
117.9540654896
 20
45.1292373265
 30
0.0
 11
119.4950693043
 21
46.6702411413
 31
0.0
  0
LINE
  5
25C
330
232
100
AcDbEntity
  8
0
  6
Continuous
 62
     1
100
AcDbLine
 10
125.2293945968
 20
52.40456643379999
 30
0.0
 11
126.3084170844
 21
53.48358892130001
 31
0.0
  0
LINE
  5
25D
330
232
100
AcDbEntity
  8
0
  6
Continuous
 62
     1
100
AcDbLine
 10
117.2214959231
 20
45.0000655467
 30
0.0
 11
118.7624997379
 21
46.5410693614
 31
0.0
  0
LINE
  5
25E
330
232
100
AcDbEntity
  8
0
  6
Continuous
 62
     1
100
AcDbLine
 10
124.926514997
 20
52.7050846206
 30
0.0
 11
126.2179700304
 21
53.99653965399999
 31
0.0
  0
LINE
  5
25F
330
232
100
AcDbEntity
  8
0
  6
Continuous
 62
     1
100
AcDbLine
 10
116.4889263567
 20
44.8708937669
 30
0.0
 11
118.0299301715
 21
46.4118975816
 31
0.0
  0
LINE
  5
260
330
232
100
AcDbEntity
  8
0
  6
Continuous
 62
     1
100
AcDbLine
 10
124.1939454306
 20
52.5759128407
 30
0.0
 11
126.1275229765
 21
54.5094903866
 31
0.0
  0
LINE
  5
261
330
232
100
AcDbEntity
  8
0
  6
Continuous
 62
     1
100
AcDbLine
 10
115.7563567903
 20
44.74172198709999
 30
0.0
 11
117.2973606051
 21
46.2827258018
 31
0.0
  0
LINE
  5
262
330
232
100
AcDbEntity
  8
0
  6
Continuous
 62
     1
100
AcDbLine
 10
123.4613758642
 20
52.4467410609
 30
0.0
 11
124.4887181624
 21
53.4740833592
 31
0.0
  0
LINE
  5
263
330
232
100
AcDbEntity
  8
0
  6
Continuous
 62
     1
100
AcDbLine
 10
124.958053435
 20
53.9434186318
 30
0.0
 11
126.0370759225
 21
55.0224411193
 31
0.0
  0
LINE
  5
264
330
232
100
AcDbEntity
  8
0
  6
Continuous
 62
     1
100
AcDbLine
 10
115.0237872239
 20
44.61255020729999
 30
0.0
 11
116.5647910387
 21
46.153554022
 31
0.0
  0
LINE
  5
265
330
232
100
AcDbEntity
  8
0
  6
Continuous
 62
     1
100
AcDbLine
 10
122.7288062978
 20
52.3175692811
 30
0.0
 11
123.7561483864
 21
53.34491136979999
 31
0.0
  0
LINE
  5
266
330
232
100
AcDbEntity
  8
0
  6
Continuous
 62
     1
100
AcDbLine
 10
124.8676063811
 20
54.45636936439999
 30
0.0
 11
125.9466288686
 21
55.535391852
 31
0.0
  0
LINE
  5
267
330
232
100
AcDbEntity
  8
0
  6
Continuous
 62
     1
100
AcDbLine
 10
114.2912176575
 20
44.48337842739999
 30
0.0
 11
115.8322214722
 21
46.02438224220001
 31
0.0
  0
LINE
  5
268
330
232
100
AcDbEntity
  8
0
  6
Continuous
 62
     1
100
AcDbLine
 10
121.9962367314
 20
52.1883975013
 30
0.0
 11
123.0235786104
 21
53.2157393804
 31
0.0
  0
LINE
  5
269
330
232
100
AcDbEntity
  8
0
  6
Continuous
 62
     1
100
AcDbLine
 10
124.7771593271
 20
54.9693200971
 30
0.0
 11
125.8561818146
 21
56.0483425846
 31
0.0
  0
LINE
  5
26A
330
232
100
AcDbEntity
  8
0
  6
Continuous
 62
     1
100
AcDbLine
 10
113.558648091
 20
44.3542066476
 30
0.0
 11
115.0996519058
 21
45.89521046239999
 31
0.0
  0
LINE
  5
26B
330
232
100
AcDbEntity
  8
0
  6
Continuous
 62
     1
100
AcDbLine
 10
121.2636671649
 20
52.0592257215
 30
0.0
 11
122.2910088344
 21
53.086567391
 31
0.0
  0
LINE
  5
26C
330
232
100
AcDbEntity
  8
0
  6
Continuous
 62
     1
100
AcDbLine
 10
124.6867122732
 20
55.48227082979999
 30
0.0
 11
125.7657347607
 21
56.56129331729999
 31
0.0
  0
LINE
  5
26D
330
232
100
AcDbEntity
  8
0
  6
Continuous
 62
     1
100
AcDbLine
 10
112.8260785246
 20
44.2250348678
 30
0.0
 11
114.3670823394
 21
45.7660386826
 31
0.0
  0
LINE
  5
26E
330
232
100
AcDbEntity
  8
0
  6
Continuous
 62
     1
100
AcDbLine
 10
120.5310975985
 20
51.9300539417
 30
0.0
 11
121.5584390583
 21
52.95739540149999
 31
0.0
  0
LINE
  5
26F
330
232
100
AcDbEntity
  8
0
  6
Continuous
 62
     1
100
AcDbLine
 10
124.5962652192
 20
55.99522156249999
 30
0.0
 11
125.6752877068
 21
57.07424405
 31
0.0
  0
LINE
  5
270
330
232
100
AcDbEntity
  8
0
  6
Continuous
 62
     1
100
AcDbLine
 10
112.0935089582
 20
44.095863088
 30
0.0
 11
113.634512773
 21
45.63686690279999
 31
0.0
  0
LINE
  5
271
330
232
100
AcDbEntity
  8
0
  6
Continuous
 62
     1
100
AcDbLine
 10
119.7985280321
 20
51.8008821619
 30
0.0
 11
120.8258692823
 21
52.8282234121
 31
0.0
  0
LINE
  5
272
330
232
100
AcDbEntity
  8
0
  6
Continuous
 62
     1
100
AcDbLine
 10
124.5058181653
 20
56.5081722951
 30
0.0
 11
125.5848406528
 21
57.5871947826
 31
0.0
  0
LINE
  5
273
330
232
100
AcDbEntity
  8
0
  6
Continuous
 62
     1
100
AcDbLine
 10
111.3609393918
 20
43.9666913082
 30
0.0
 11
112.9019432066
 21
45.507695123
 31
0.0
  0
LINE
  5
274
330
232
100
AcDbEntity
  8
0
  6
Continuous
 62
     1
100
AcDbLine
 10
119.0659584657
 20
51.6717103821
 30
0.0
 11
120.0932995063
 21
52.6990514227
 31
0.0
  0
LINE
  5
275
330
232
100
AcDbEntity
  8
0
  6
Continuous
 62
     1
100
AcDbLine
 10
124.4153711114
 20
57.02112302779999
 30
0.0
 11
125.4943935989
 21
58.1001455153
 31
0.0
  0
LINE
  5
276
330
232
100
AcDbEntity
  8
0
  6
Continuous
 62
     1
100
AcDbLine
 10
110.6283698254
 20
43.83751952839999
 30
0.0
 11
112.1693736402
 21
45.37852334319999
 31
0.0
  0
LINE
  5
277
330
232
100
AcDbEntity
  8
0
  6
Continuous
 62
     1
100
AcDbLine
 10
118.3333888993
 20
51.54253860229999
 30
0.0
 11
119.3607297302
 21
52.5698794333
 31
0.0
  0
LINE
  5
278
330
232
100
AcDbEntity
  8
0
  6
Continuous
 62
     1
100
AcDbLine
 10
124.3249240574
 20
57.5340737605
 30
0.0
 11
125.4039465449
 21
58.613096248
 31
0.0
  0
LINE
  5
279
330
232
100
AcDbEntity
  8
0
  6
Continuous
 62
     1
100
AcDbLine
 10
109.895800259
 20
43.70834774859999
 30
0.0
 11
111.4368040737
 21
45.2493515634
 31
0.0
  0
LINE
  5
27A
330
232
100
AcDbEntity
  8
0
  6
Continuous
 62
     1
100
AcDbLine
 10
117.6008193328
 20
51.4133668225
 30
0.0
 11
118.6281599542
 21
52.4407074439
 31
0.0
  0
LINE
  5
27B
330
232
100
AcDbEntity
  8
0
  6
Continuous
 62
     1
100
AcDbLine
 10
124.2344770035
 20
58.0470244931
 30
0.0
 11
125.313499491
 21
59.1260469806
 31
0.0
  0
LINE
  5
27C
330
232
100
AcDbEntity
  8
0
  6
Continuous
 62
     1
100
AcDbLine
 10
109.1632306925
 20
43.5791759688
 30
0.0
 11
110.7042345073
 21
45.12017978359999
 31
0.0
  0
LINE
  5
27D
330
232
100
AcDbEntity
  8
0
  6
Continuous
 62
     1
100
AcDbLine
 10
116.8682497664
 20
51.2841950427
 30
0.0
 11
117.8955901782
 21
52.31153545449999
 31
0.0
  0
LINE
  5
27E
330
232
100
AcDbEntity
  8
0
  6
Continuous
 62
     1
100
AcDbLine
 10
124.0596009021
 20
58.4755461783
 30
0.0
 11
125.223052437
 21
59.6389977133
 31
0.0
  0
LINE
  5
27F
330
232
100
AcDbEntity
  8
0
  6
Continuous
 62
     1
100
AcDbLine
 10
108.4306611261
 20
43.45000418899999
 30
0.0
 11
109.9716649409
 21
44.9910080038
 31
0.0
  0
LINE
  5
280
330
232
100
AcDbEntity
  8
0
  6
Continuous
 62
     1
100
AcDbLine
 10
116.1356802
 20
51.1550232629
 30
0.0
 11
117.1630204022
 21
52.182363465
 31
0.0
  0
LINE
  5
281
330
232
100
AcDbEntity
  8
0
  6
Continuous
 62
     1
100
AcDbLine
 10
123.3270313356
 20
58.3463743985
 30
0.0
 11
124.8680351504
 21
59.88737821329999
 31
0.0
  0
LINE
  5
282
330
232
100
AcDbEntity
  8
0
  6
Continuous
 62
     1
100
AcDbLine
 10
107.6980915597
 20
43.3208324092
 30
0.0
 11
109.2390953745
 21
44.86183622399999
 31
0.0
  0
LINE
  5
283
330
232
100
AcDbEntity
  8
0
  6
Continuous
 62
     1
100
AcDbLine
 10
115.4031106336
 20
51.02585148310001
 30
0.0
 11
116.4304506261
 21
52.0531914756
 31
0.0
  0
LINE
  5
284
330
232
100
AcDbEntity
  8
0
  6
Continuous
 62
     1
100
AcDbLine
 10
122.5944617692
 20
58.2172026187
 30
0.0
 11
124.135465584
 21
59.75820643350001
 31
0.0
  0
LINE
  5
285
330
232
100
AcDbEntity
  8
0
  6
Continuous
 62
     1
100
AcDbLine
 10
106.9655219933
 20
43.19166062939999
 30
0.0
 11
108.5065258081
 21
44.7326644442
 31
0.0
  0
LINE
  5
286
330
232
100
AcDbEntity
  8
0
  6
Continuous
 62
     1
100
AcDbLine
 10
114.6705410672
 20
50.8966797033
 30
0.0
 11
115.6978808501
 21
51.9240194862
 31
0.0
  0
LINE
  5
287
330
232
100
AcDbEntity
  8
0
  6
Continuous
 62
     1
100
AcDbLine
 10
121.8618922028
 20
58.0880308389
 30
0.0
 11
123.4028960176
 21
59.6290346537
 31
0.0
  0
LINE
  5
288
330
232
100
AcDbEntity
  8
0
  6
Continuous
 62
     1
100
AcDbLine
 10
106.2329524269
 20
43.0624888496
 30
0.0
 11
107.7739562416
 21
44.60349266439999
 31
0.0
  0
LINE
  5
289
330
232
100
AcDbEntity
  8
0
  6
Continuous
 62
     1
100
AcDbLine
 10
113.9379715008
 20
50.76750792350001
 30
0.0
 11
114.9653110741
 21
51.7948474968
 31
0.0
  0
LINE
  5
28A
330
232
100
AcDbEntity
  8
0
  6
Continuous
 62
     1
100
AcDbLine
 10
121.1293226364
 20
57.9588590591
 30
0.0
 11
122.6703264512
 21
59.4998628739
 31
0.0
  0
LINE
  5
28B
330
232
100
AcDbEntity
  8
0
  6
Continuous
 62
     1
100
AcDbLine
 10
105.5003828605
 20
42.9333170698
 30
0.0
 11
107.0413866752
 21
44.4743208846
 31
0.0
  0
LINE
  5
28C
330
232
100
AcDbEntity
  8
0
  6
Continuous
 62
     1
100
AcDbLine
 10
113.2054019343
 20
50.6383361437
 30
0.0
 11
114.232741298
 21
51.66567550739999
 31
0.0
  0
LINE
  5
28D
330
232
100
AcDbEntity
  8
0
  6
Continuous
 62
     1
100
AcDbLine
 10
120.39675307
 20
57.82968727930001
 30
0.0
 11
121.9377568847
 21
59.3706910941
 31
0.0
  0
LINE
  5
28E
330
232
100
AcDbEntity
  8
0
  6
Continuous
 62
     1
100
AcDbLine
 10
104.767813294
 20
42.80414529
 30
0.0
 11
106.3088171088
 21
44.34514910479999
 31
0.0
  0
LINE
  5
28F
330
232
100
AcDbEntity
  8
0
  6
Continuous
 62
     1
100
AcDbLine
 10
112.4728323679
 20
50.5091643639
 30
0.0
 11
113.500171522
 21
51.536503518
 31
0.0
  0
LINE
  5
290
330
232
100
AcDbEntity
  8
0
  6
Continuous
 62
     1
100
AcDbLine
 10
119.6641835035
 20
57.7005154995
 30
0.0
 11
121.2051873183
 21
59.24151931429999
 31
0.0
  0
LINE
  5
291
330
232
100
AcDbEntity
  8
0
  6
Continuous
 62
     1
100
AcDbLine
 10
104.0352437276
 20
42.6749735102
 30
0.0
 11
105.5762475424
 21
44.21597732499999
 31
0.0
  0
LINE
  5
292
330
232
100
AcDbEntity
  8
0
  6
Continuous
 62
     1
100
AcDbLine
 10
111.7402628015
 20
50.3799925841
 30
0.0
 11
112.767601746
 21
51.4073315285
 31
0.0
  0
LINE
  5
293
330
232
100
AcDbEntity
  8
0
  6
Continuous
 62
     1
100
AcDbLine
 10
118.9316139371
 20
57.5713437197
 30
0.0
 11
120.4726177519
 21
59.11234753449999
 31
0.0
  0
LINE
  5
294
330
232
100
AcDbEntity
  8
0
  6
Continuous
 62
     1
100
AcDbLine
 10
103.3026741612
 20
42.54580173039999
 30
0.0
 11
104.843677976
 21
44.0868055451
 31
0.0
  0
LINE
  5
295
330
232
100
AcDbEntity
  8
0
  6
Continuous
 62
     1
100
AcDbLine
 10
111.0076932351
 20
50.2508208043
 30
0.0
 11
112.03503197
 21
51.27815953909999
 31
0.0
  0
LINE
  5
296
330
232
100
AcDbEntity
  8
0
  6
Continuous
 62
     1
100
AcDbLine
 10
118.1990443707
 20
57.44217193989999
 30
0.0
 11
119.7400481855
 21
58.9831757547
 31
0.0
  0
LINE
  5
297
330
232
100
AcDbEntity
  8
0
  6
Continuous
 62
     1
100
AcDbLine
 10
102.5701045948
 20
42.41662995059999
 30
0.0
 11
104.1111084096
 21
43.95763376529999
 31
0.0
  0
LINE
  5
298
330
232
100
AcDbEntity
  8
0
  6
Continuous
 62
     1
100
AcDbLine
 10
110.2751236687
 20
50.12164902439999
 30
0.0
 11
111.3024621939
 21
51.1489875497
 31
0.0
  0
LINE
  5
299
330
232
100
AcDbEntity
  8
0
  6
Continuous
 62
     1
100
AcDbLine
 10
117.4664748043
 20
57.3130001601
 30
0.0
 11
119.0074786191
 21
58.85400397489999
 31
0.0
  0
LINE
  5
29A
330
232
100
AcDbEntity
  8
0
  6
Continuous
 62
     1
100
AcDbLine
 10
102.0187838223
 20
42.4687069647
 30
0.0
 11
103.3785388431
 21
43.8284619855
 31
0.0
  0
LINE
  5
29B
330
232
100
AcDbEntity
  8
0
  6
Continuous
 62
     1
100
AcDbLine
 10
109.5425541022
 20
49.9924772446
 30
0.0
 11
110.5698924179
 21
51.0198155603
 31
0.0
  0
LINE
  5
29C
330
232
100
AcDbEntity
  8
0
  6
Continuous
 62
     1
100
AcDbLine
 10
116.7339052379
 20
57.1838283803
 30
0.0
 11
118.2749090526
 21
58.724832195
 31
0.0
  0
LINE
  5
29D
330
232
100
AcDbEntity
  8
0
  6
Continuous
 62
     1
100
AcDbLine
 10
101.9283367683
 20
42.98165769729999
 30
0.0
 11
103.0073592558
 21
44.0606801848
 31
0.0
  0
LINE
  5
29E
330
232
100
AcDbEntity
  8
0
  6
Continuous
 62
     1
100
AcDbLine
 10
108.8099845358
 20
49.86330546479999
 30
0.0
 11
109.8373226419
 21
50.8906435709
 31
0.0
  0
LINE
  5
29F
330
232
100
AcDbEntity
  8
0
  6
Continuous
 62
     1
100
AcDbLine
 10
116.0013356715
 20
57.0546566005
 30
0.0
 11
117.5423394862
 21
58.5956604152
 31
0.0
  0
LINE
  5
2A0
330
232
100
AcDbEntity
  8
0
  6
Continuous
 62
     1
100
AcDbLine
 10
101.8378897144
 20
43.49460843
 30
0.0
 11
102.9169122019
 21
44.57363091749999
 31
0.0
  0
LINE
  5
2A1
330
232
100
AcDbEntity
  8
0
  6
Continuous
 62
     1
100
AcDbLine
 10
108.0774149694
 20
49.73413368500001
 30
0.0
 11
109.1047528658
 21
50.7614715815
 31
0.0
  0
LINE
  5
2A2
330
232
100
AcDbEntity
  8
0
  6
Continuous
 62
     1
100
AcDbLine
 10
115.268766105
 20
56.9254848207
 30
0.0
 11
116.8097699198
 21
58.4664886354
 31
0.0
  0
LINE
  5
2A3
330
232
100
AcDbEntity
  8
0
  6
Continuous
 62
     1
100
AcDbLine
 10
101.7474426604
 20
44.0075591627
 30
0.0
 11
102.8264651479
 21
45.0865816502
 31
0.0
  0
LINE
  5
2A4
330
232
100
AcDbEntity
  8
0
  6
Continuous
 62
     1
100
AcDbLine
 10
107.344845403
 20
49.6049619052
 30
0.0
 11
108.3721830898
 21
50.6322995921
 31
0.0
  0
LINE
  5
2A5
330
232
100
AcDbEntity
  8
0
  6
Continuous
 62
     1
100
AcDbLine
 10
114.5361965386
 20
56.7963130409
 30
0.0
 11
116.0772003534
 21
58.3373168556
 31
0.0
  0
LINE
  5
2A6
330
232
100
AcDbEntity
  8
0
  6
Continuous
 62
     1
100
AcDbLine
 10
101.6569956065
 20
44.5205098953
 30
0.0
 11
102.736018094
 21
45.5995323828
 31
0.0
  0
LINE
  5
2A7
330
232
100
AcDbEntity
  8
0
  6
Continuous
 62
     1
100
AcDbLine
 10
106.6122758366
 20
49.4757901254
 30
0.0
 11
107.6396133138
 21
50.5031276026
 31
0.0
  0
LINE
  5
2A8
330
232
100
AcDbEntity
  8
0
  6
Continuous
 62
     1
100
AcDbLine
 10
113.8036269722
 20
56.667141261
 30
0.0
 11
115.344630787
 21
58.20814507579999
 31
0.0
  0
LINE
  5
2A9
330
232
100
AcDbEntity
  8
0
  6
Continuous
 62
     1
100
AcDbLine
 10
101.5665485525
 20
45.033460628
 30
0.0
 11
102.6455710401
 21
46.1124831155
 31
0.0
  0
LINE
  5
2AA
330
232
100
AcDbEntity
  8
0
  6
Continuous
 62
     1
100
AcDbLine
 10
105.8797062702
 20
49.3466183456
 30
0.0
 11
106.9070435378
 21
50.3739556132
 31
0.0
  0
LINE
  5
2AB
330
232
100
AcDbEntity
  8
0
  6
Continuous
 62
     1
100
AcDbLine
 10
113.0710574058
 20
56.5379694812
 30
0.0
 11
114.6120612206
 21
58.078973296
 31
0.0
  0
LINE
  5
2AC
330
232
100
AcDbEntity
  8
0
  6
Continuous
 62
     1
100
AcDbLine
 10
101.4761014986
 20
45.54641136069999
 30
0.0
 11
102.5551239861
 21
46.6254338482
 31
0.0
  0
LINE
  5
2AD
330
232
100
AcDbEntity
  8
0
  6
Continuous
 62
     1
100
AcDbLine
 10
105.1471367037
 20
49.21744656579999
 30
0.0
 11
106.1744737617
 21
50.2447836238
 31
0.0
  0
LINE
  5
2AE
330
232
100
AcDbEntity
  8
0
  6
Continuous
 62
     1
100
AcDbLine
 10
112.3384878394
 20
56.4087977014
 30
0.0
 11
113.8794916541
 21
57.94980151619999
 31
0.0
  0
LINE
  5
2AF
330
232
100
AcDbEntity
  8
0
  6
Continuous
 62
     1
100
AcDbLine
 10
101.3856544447
 20
46.0593620933
 30
0.0
 11
102.4646769322
 21
47.1383845809
 31
0.0
  0
LINE
  5
2B0
330
232
100
AcDbEntity
  8
0
  6
Continuous
 62
     1
100
AcDbLine
 10
104.4145671373
 20
49.08827478600001
 30
0.0
 11
105.4419039857
 21
50.11561163439999
 31
0.0
  0
LINE
  5
2B1
330
232
100
AcDbEntity
  8
0
  6
Continuous
 62
     1
100
AcDbLine
 10
111.6059182729
 20
56.2796259216
 30
0.0
 11
113.1469220877
 21
57.8206297364
 31
0.0
  0
LINE
  5
2B2
330
232
100
AcDbEntity
  8
0
  6
Continuous
 62
     1
100
AcDbLine
 10
101.2952073907
 20
46.572312826
 30
0.0
 11
102.3742298782
 21
47.6513353135
 31
0.0
  0
LINE
  5
2B3
330
232
100
AcDbEntity
  8
0
  6
Continuous
 62
     1
100
AcDbLine
 10
103.6819975709
 20
48.95910300619999
 30
0.0
 11
104.7093342097
 21
49.986439645
 31
0.0
  0
LINE
  5
2B4
330
232
100
AcDbEntity
  8
0
  6
Continuous
 62
     1
100
AcDbLine
 10
110.8733487065
 20
56.1504541418
 30
0.0
 11
112.4143525213
 21
57.6914579566
 31
0.0
  0
LINE
  5
2B5
330
232
100
AcDbEntity
  8
0
  6
Continuous
 62
     1
100
AcDbLine
 10
101.2047603368
 20
47.0852635587
 30
0.0
 11
102.2837828243
 21
48.1642860462
 31
0.0
  0
LINE
  5
2B6
330
232
100
AcDbEntity
  8
0
  6
Continuous
 62
     1
100
AcDbLine
 10
102.9494280045
 20
48.82993122640001
 30
0.0
 11
103.9767644336
 21
49.8572676556
 31
0.0
  0
LINE
  5
2B7
330
232
100
AcDbEntity
  8
0
  6
Continuous
 62
     1
100
AcDbLine
 10
110.1407791401
 20
56.021282362
 30
0.0
 11
111.6817829549
 21
57.5622861768
 31
0.0
  0
LINE
  5
2B8
330
232
100
AcDbEntity
  8
0
  6
Continuous
 62
     1
100
AcDbLine
 10
101.1143132828
 20
47.5982142913
 30
0.0
 11
102.1933357703
 21
48.6772367789
 31
0.0
  0
LINE
  5
2B9
330
232
100
AcDbEntity
  8
0
  6
Continuous
 62
     1
100
AcDbLine
 10
102.2168584381
 20
48.70075944659999
 30
0.0
 11
103.2441946576
 21
49.72809566609999
 31
0.0
  0
LINE
  5
2BA
330
232
100
AcDbEntity
  8
0
  6
Continuous
 62
     1
100
AcDbLine
 10
109.4082095737
 20
55.8921105822
 30
0.0
 11
110.9492133885
 21
57.433114397
 31
0.0
  0
LINE
  5
2BB
330
232
100
AcDbEntity
  8
0
  6
Continuous
 62
     1
100
AcDbLine
 10
101.0238662289
 20
48.11116502399999
 30
0.0
 11
102.5116248816
 21
49.59892367670001
 31
0.0
  0
LINE
  5
2BC
330
232
100
AcDbEntity
  8
0
  6
Continuous
 62
     1
100
AcDbLine
 10
108.6756400073
 20
55.7629388024
 30
0.0
 11
110.2166438221
 21
57.3039426172
 31
0.0
  0
LINE
  5
2BD
330
232
100
AcDbEntity
  8
0
  6
Continuous
 62
     1
100
AcDbLine
 10
100.9334191749
 20
48.6241157567
 30
0.0
 11
102.0124416625
 21
49.70313824419999
 31
0.0
  0
LINE
  5
2BE
330
232
100
AcDbEntity
  8
0
  6
Continuous
 62
     1
100
AcDbLine
 10
107.9430704409
 20
55.63376702260001
 30
0.0
 11
109.4840742556
 21
57.1747708374
 31
0.0
  0
LINE
  5
2BF
330
232
100
AcDbEntity
  8
0
  6
Continuous
 62
     1
100
AcDbLine
 10
100.842972121
 20
49.1370664893
 30
0.0
 11
101.9219946085
 21
50.2160889769
 31
0.0
  0
LINE
  5
2C0
330
232
100
AcDbEntity
  8
0
  6
Continuous
 62
     1
100
AcDbLine
 10
107.2105008744
 20
55.5045952428
 30
0.0
 11
108.7515046892
 21
57.0455990576
 31
0.0
  0
LINE
  5
2C1
330
232
100
AcDbEntity
  8
0
  6
Continuous
 62
     1
100
AcDbLine
 10
100.752525067
 20
49.650017222
 30
0.0
 11
101.8315475546
 21
50.7290397095
 31
0.0
  0
LINE
  5
2C2
330
232
100
AcDbEntity
  8
0
  6
Continuous
 62
     1
100
AcDbLine
 10
106.477931308
 20
55.375423463
 30
0.0
 11
108.0189351228
 21
56.91642727779999
 31
0.0
  0
LINE
  5
2C3
330
232
100
AcDbEntity
  8
0
  6
Continuous
 62
     1
100
AcDbLine
 10
100.6620780131
 20
50.1629679547
 30
0.0
 11
101.7411005006
 21
51.2419904422
 31
0.0
  0
LINE
  5
2C4
330
232
100
AcDbEntity
  8
0
  6
Continuous
 62
     1
100
AcDbLine
 10
105.7453617416
 20
55.2462516832
 30
0.0
 11
107.2863655564
 21
56.787255498
 31
0.0
  0
LINE
  5
2C5
330
232
100
AcDbEntity
  8
0
  6
Continuous
 62
     1
100
AcDbLine
 10
100.5716309592
 20
50.6759186874
 30
0.0
 11
101.6506534467
 21
51.7549411749
 31
0.0
  0
LINE
  5
2C6
330
232
100
AcDbEntity
  8
0
  6
Continuous
 62
     1
100
AcDbLine
 10
105.0127921752
 20
55.1170799034
 30
0.0
 11
106.55379599
 21
56.65808371819999
 31
0.0
  0
LINE
  5
2C7
330
232
100
AcDbEntity
  8
0
  6
Continuous
 62
     1
100
AcDbLine
 10
100.4811839052
 20
51.18886942
 30
0.0
 11
101.5602063927
 21
52.2678919075
 31
0.0
  0
LINE
  5
2C8
330
232
100
AcDbEntity
  8
0
  6
Continuous
 62
     1
100
AcDbLine
 10
104.2802226088
 20
54.98790812359999
 30
0.0
 11
105.8212264235
 21
56.5289119384
 31
0.0
  0
LINE
  5
2C9
330
232
100
AcDbEntity
  8
0
  6
Continuous
 62
     1
100
AcDbLine
 10
100.3907368513
 20
51.7018201527
 30
0.0
 11
101.4697593388
 21
52.78084264020001
 31
0.0
  0
LINE
  5
2CA
330
232
100
AcDbEntity
  8
0
  6
Continuous
 62
     1
100
AcDbLine
 10
103.5476530423
 20
54.8587363438
 30
0.0
 11
105.0886568571
 21
56.3997401585
 31
0.0
  0
LINE
  5
2CB
330
232
100
AcDbEntity
  8
0
  6
Continuous
 62
     1
100
AcDbLine
 10
100.3002897973
 20
52.2147708854
 30
0.0
 11
101.3793122848
 21
53.29379337289999
 31
0.0
  0
LINE
  5
2CC
330
232
100
AcDbEntity
  8
0
  6
Continuous
 62
     1
100
AcDbLine
 10
102.8150834759
 20
54.72956456399999
 30
0.0
 11
104.3560872907
 21
56.2705683787
 31
0.0
  0
LINE
  5
2CD
330
232
100
AcDbEntity
  8
0
  6
Continuous
 62
     1
100
AcDbLine
 10
100.2098427434
 20
52.727721618
 30
0.0
 11
101.2888652309
 21
53.8067441055
 31
0.0
  0
LINE
  5
2CE
330
232
100
AcDbEntity
  8
0
  6
Continuous
 62
     1
100
AcDbLine
 10
102.0825139095
 20
54.6003927842
 30
0.0
 11
103.6235177243
 21
56.1413965989
 31
0.0
  0
LINE
  5
2CF
330
232
100
AcDbEntity
  8
0
  6
Continuous
 62
     1
100
AcDbLine
 10
100.1193956894
 20
53.2406723507
 30
0.0
 11
101.198418177
 21
54.3196948382
 31
0.0
  0
LINE
  5
2D0
330
232
100
AcDbEntity
  8
0
  6
Continuous
 62
     1
100
AcDbLine
 10
101.3499443431
 20
54.47122100439999
 30
0.0
 11
102.8909481579
 21
56.01222481909999
 31
0.0
  0
LINE
  5
2D1
330
232
100
AcDbEntity
  8
0
  6
Continuous
 62
     1
100
AcDbLine
 10
100.0289486355
 20
53.7536230834
 30
0.0
 11
102.1583785915
 21
55.8830530393
 31
0.0
  0
LINE
  5
2D2
330
232
100
AcDbEntity
  8
0
  6
Continuous
 62
     1
100
AcDbLine
 10
99.9385015816
 20
54.266573816
 30
0.0
 11
101.425809025
 21
55.75388125949999
 31
0.0
  0
LINE
  5
2D3
330
232
100
AcDbEntity
  8
0
  6
Continuous
 62
     1
100
AcDbLine
 10
99.84805452759999
 20
54.77952454869999
 30
0.0
 11
100.6932394586
 21
55.6247094797
 31
0.0
  0
LINE
  5
2D4
330
232
100
AcDbEntity
  8
0
  6
Continuous
 62
     1
100
AcDbLine
 10
99.75760747370001
 20
55.2924752814
 30
0.0
 11
99.96066989219999
 21
55.4955376999
 31
0.0
  0
ENDBLK
  5
2D5
330
232
100
AcDbEntity
  8
0
  6
ByBlock
 62
     0
100
AcDbBlockEnd
  0
BLOCK
  5
2D6
330
233
100
AcDbEntity
  8
0
  6
Continuous
 62
     2
100
AcDbBlockBegin
  2
L03-NOTE_SPECS_BAINS_BL0
 70
     0
 10
160.6434671353
 20
55.3557975825
 30
0.0
  3
L03-NOTE_SPECS_BAINS_BL0
  1

  0
TEXT
  5
2D7
330
233
100
AcDbEntity
  8
0
  6
Continuous
 62
     2
100
AcDbText
 10
144.3956820591
 20
63.12923097359999
 30
0.0
 40
0.5
  1
Infomations Techniques/Technical Infomations
  7
TEXTSTYLE_2
100
AcDbText
  0
TEXT
  5
2D8
330
233
100
AcDbEntity
  8
0
  6
Continuous
 62
     2
100
AcDbText
 10
144.6434671353
 20
61.6891309159
 30
0.0
 40
0.6666666667
  1
NOMBRE DE JETS:     
  7
TEXTSTYLE_2
100
AcDbText
  0
TEXT
  5
2D9
330
233
100
AcDbEntity
  8
0
  6
Continuous
 62
     2
100
AcDbText
 10
154.4879115797
 20
61.6891309159
 30
0.0
 40
0.6666666667
  1
37
  7
TEXTSTYLE_2
100
AcDbText
  0
TEXT
  5
2DA
330
233
100
AcDbEntity
  8
0
  6
Continuous
 62
     2
100
AcDbText
 10
144.6434671353
 20
60.6891309159
 30
0.0
 40
0.6666666667
  1
 
  7
TEXTSTYLE_2
100
AcDbText
  0
TEXT
  5
2DB
330
233
100
AcDbEntity
  8
0
  6
Continuous
 62
     2
100
AcDbText
 10
144.6434671353
 20
59.6891309159
 30
0.0
 40
0.6666666667
  1
NIVEAU D'EAU              GALLONS(US)        LITRES        GALLONS(UK)
  7
TEXTSTYLE_2
100
AcDbText
  0
TEXT
  5
2DC
330
233
100
AcDbEntity
  8
0
  6
Continuous
 62
     2
100
AcDbText
 10
144.6434671353
 20
58.6891309159
 30
0.0
 40
0.6666666667
  1
PLEIN
  7
TEXTSTYLE_2
100
AcDbText
  0
TEXT
  5
2DD
330
233
100
AcDbEntity
  8
0
  6
Continuous
 62
     2
100
AcDbText
 10
144.6434671353
 20
57.6891309159
 30
0.0
 40
0.6666666667
  1
HAUT T.PLEIN
  7
TEXTSTYLE_2
100
AcDbText
  0
TEXT
  5
2DE
330
233
100
AcDbEntity
  8
0
  6
Continuous
 62
     2
100
AcDbText
 10
144.6434671353
 20
56.6891309159
 30
0.0
 40
0.6666666667
  1
MILIEU T.PLEIN
  7
TEXTSTYLE_2
100
AcDbText
  0
TEXT
  5
2DF
330
233
100
AcDbEntity
  8
0
  6
Continuous
 62
     2
100
AcDbText
 10
144.6434671353
 20
55.6891309159
 30
0.0
 40
0.6666666667
  1
BAS T.PLEIN
  7
TEXTSTYLE_2
100
AcDbText
  0
TEXT
  5
2E0
330
233
100
AcDbEntity
  8
0
  6
Continuous
 62
     2
100
AcDbText
 10
144.6434671353
 20
54.6891309159
 30
0.0
 40
0.6666666667
  1
3" EN BAS T.PLEIN
  7
TEXTSTYLE_2
100
AcDbText
  0
TEXT
  5
2E1
330
233
100
AcDbEntity
  8
0
  6
Continuous
 62
     2
100
AcDbText
 10
144.6434671353
 20
53.6891309159
 30
0.0
 40
0.6666666667
  1
 
  7
TEXTSTYLE_2
100
AcDbText
  0
TEXT
  5
2E2
330
233
100
AcDbEntity
  8
0
  6
Continuous
 62
     2
100
AcDbText
 10
144.4433056296
 20
53.142343991
 30
0.0
 40
0.5
  1
Legende/Legend
  7
TEXTSTYLE_2
100
AcDbText
  0
TEXT
  5
2E3
330
233
100
AcDbEntity
  8
0
  6
Continuous
 62
     2
100
AcDbText
 10
150.9721405737
 20
51.6310790133
 30
0.0
 40
0.6666666667
  1
ZONE DE ROBINETTERIE
  7
TEXTSTYLE_2
100
AcDbText
  0
TEXT
  5
2E4
330
233
100
AcDbEntity
  8
0
  6
Continuous
 62
     2
100
AcDbText
 10
145.8924160067
 20
50.1358344989
 30
0.0
 40
0.6666666667
  1
L   :  SYSTEME LED       DC   :  DOUBLE DOSSIER CHAUFFANT
  7
TEXTSTYLE_2
100
AcDbText
  0
TEXT
  5
2E5
330
233
100
AcDbEntity
  8
0
  6
Continuous
 62
     2
100
AcDbText
 10
145.8924160067
 20
48.8025011656
 30
0.0
 40
0.6666666667
  1
C   :  CONTROLE
  7
TEXTSTYLE_2
100
AcDbText
  0
TEXT
  5
2E6
330
233
100
AcDbEntity
  8
0
  6
Continuous
 62
     2
100
AcDbText
 10
145.8924160067
 20
47.46916783229999
 30
0.0
 40
0.6666666667
  1
T   :  MOTEUR
  7
TEXTSTYLE_2
100
AcDbText
  0
TEXT
  5
2E7
330
233
100
AcDbEntity
  8
0
  6
Continuous
 62
     2
100
AcDbText
 10
157.4761638345
 20
58.6891309159
 30
0.0
 40
0.6666666667
  1
98
  7
TEXTSTYLE_2
100
AcDbText
  0
TEXT
  5
2E8
330
233
100
AcDbEntity
  8
0
  6
Continuous
 62
     2
100
AcDbText
 10
157.4761638345
 20
57.6891309159
 30
0.0
 40
0.6666666667
  1
75
  7
TEXTSTYLE_2
100
AcDbText
  0
TEXT
  5
2E9
330
233
100
AcDbEntity
  8
0
  6
Continuous
 62
     2
100
AcDbText
 10
157.4761638345
 20
56.6891309159
 30
0.0
 40
0.6666666667
  1
74
  7
TEXTSTYLE_2
100
AcDbText
  0
TEXT
  5
2EA
330
233
100
AcDbEntity
  8
0
  6
Continuous
 62
     2
100
AcDbText
 10
157.4761638345
 20
55.6891309159
 30
0.0
 40
0.6666666667
  1
73
  7
TEXTSTYLE_2
100
AcDbText
  0
TEXT
  5
2EB
330
233
100
AcDbEntity
  8
0
  6
Continuous
 62
     2
100
AcDbText
 10
157.4761638345
 20
54.6891309159
 30
0.0
 40
0.6666666667
  1
55
  7
TEXTSTYLE_2
100
AcDbText
  0
TEXT
  5
2EC
330
233
100
AcDbEntity
  8
0
  6
Continuous
 62
     2
100
AcDbText
 10
164.3963697783
 20
58.706210318
 30
0.0
 40
0.6666666667
  1
372
  7
TEXTSTYLE_2
100
AcDbText
  0
TEXT
  5
2ED
330
233
100
AcDbEntity
  8
0
  6
Continuous
 62
     2
100
AcDbText
 10
164.3963697783
 20
57.70621031800001
 30
0.0
 40
0.6666666667
  1
284
  7
TEXTSTYLE_2
100
AcDbText
  0
TEXT
  5
2EE
330
233
100
AcDbEntity
  8
0
  6
Continuous
 62
     2
100
AcDbText
 10
164.3963697783
 20
56.706210318
 30
0.0
 40
0.6666666667
  1
280
  7
TEXTSTYLE_2
100
AcDbText
  0
TEXT
  5
2EF
330
233
100
AcDbEntity
  8
0
  6
Continuous
 62
     2
100
AcDbText
 10
164.3963697783
 20
55.706210318
 30
0.0
 40
0.6666666667
  1
275
  7
TEXTSTYLE_2
100
AcDbText
  0
TEXT
  5
2F0
330
233
100
AcDbEntity
  8
0
  6
Continuous
 62
     2
100
AcDbText
 10
164.3963697783
 20
54.706210318
 30
0.0
 40
0.6666666667
  1
209
  7
TEXTSTYLE_2
100
AcDbText
  0
TEXT
  5
2F1
330
233
100
AcDbEntity
  8
0
  6
Continuous
 62
     2
100
AcDbText
 10
171.3410087158
 20
58.6891309159
 30
0.0
 40
0.6666666667
  1
82
  7
TEXTSTYLE_2
100
AcDbText
  0
TEXT
  5
2F2
330
233
100
AcDbEntity
  8
0
  6
Continuous
 62
     2
100
AcDbText
 10
171.3410087158
 20
57.6891309159
 30
0.0
 40
0.6666666667
  1
63
  7
TEXTSTYLE_2
100
AcDbText
  0
TEXT
  5
2F3
330
233
100
AcDbEntity
  8
0
  6
Continuous
 62
     2
100
AcDbText
 10
171.3410087158
 20
56.6891309159
 30
0.0
 40
0.6666666667
  1
62
  7
TEXTSTYLE_2
100
AcDbText
  0
TEXT
  5
2F4
330
233
100
AcDbEntity
  8
0
  6
Continuous
 62
     2
100
AcDbText
 10
171.3410087158
 20
55.6891309159
 30
0.0
 40
0.6666666667
  1
61
  7
TEXTSTYLE_2
100
AcDbText
  0
TEXT
  5
2F5
330
233
100
AcDbEntity
  8
0
  6
Continuous
 62
     2
100
AcDbText
 10
171.3410087158
 20
54.6891309159
 30
0.0
 40
0.6666666667
  1
46
  7
TEXTSTYLE_2
100
AcDbText
  0
LINE
  5
2F6
330
233
100
AcDbEntity
  8
0
  6
Continuous
 62
     7
100
AcDbLine
 10
143.9768004686
 20
64.0224642492
 30
0.0
 11
143.9768004686
 21
46.6891309159
 31
0.0
  0
LINE
  5
2F7
330
233
100
AcDbEntity
  8
0
  6
Continuous
 62
     7
100
AcDbLine
 10
143.9768004686
 20
64.0224642492
 30
0.0
 11
177.3101338019
 21
64.0224642492
 31
0.0
  0
LINE
  5
2F8
330
233
100
AcDbEntity
  8
0
  6
Continuous
 62
     7
100
AcDbLine
 10
177.3101338019
 20
64.0224642492
 30
0.0
 11
177.3101338019
 21
46.6891309159
 31
0.0
  0
LINE
  5
2F9
330
233
100
AcDbEntity
  8
0
  6
Continuous
 62
     7
100
AcDbLine
 10
143.9768004686
 20
46.6891309159
 30
0.0
 11
177.3101338019
 21
46.6891309159
 31
0.0
  0
LINE
  5
2FA
330
233
100
AcDbEntity
  8
0
  6
Continuous
 62
     7
100
AcDbLine
 10
145.3101338019
 20
54.0224642492
 30
0.0
 11
175.9768004686
 21
54.0224642492
 31
0.0
  0
LINE
  5
2FB
330
233
100
AcDbEntity
  8
0
  6
Continuous
 62
     7
100
AcDbLine
 10
145.3101338019
 20
61.0224642492
 30
0.0
 11
175.9768004686
 21
61.0224642492
 31
0.0
  0
LINE
  5
2FC
330
233
100
AcDbEntity
  8
0
  6
Continuous
 62
     7
100
AcDbLine
 10
144.7857070279
 20
52.40062875359999
 30
0.0
 11
144.4166862855
 21
52.0316080112
 31
0.0
  0
LINE
  5
2FD
330
233
100
AcDbEntity
  8
0
  6
Continuous
 62
     7
100
AcDbLine
 10
145.4523736945
 20
52.40062875359999
 30
0.0
 11
144.6543579041
 21
51.6026129631
 31
0.0
  0
LINE
  5
2FE
330
233
100
AcDbEntity
  8
0
  6
Continuous
 62
     7
100
AcDbLine
 10
146.1190403612
 20
52.40062875359999
 30
0.0
 11
145.3210245708
 21
51.6026129631
 31
0.0
  0
LINE
  5
2FF
330
233
100
AcDbEntity
  8
0
  6
Continuous
 62
     7
100
AcDbLine
 10
146.7857070279
 20
52.40062875359999
 30
0.0
 11
145.9876912374
 21
51.6026129631
 31
0.0
  0
LINE
  5
300
330
233
100
AcDbEntity
  8
0
  6
Continuous
 62
     7
100
AcDbLine
 10
147.4523736945
 20
52.40062875359999
 30
0.0
 11
146.6543579041
 21
51.6026129631
 31
0.0
  0
LINE
  5
301
330
233
100
AcDbEntity
  8
0
  6
Continuous
 62
     7
100
AcDbLine
 10
148.1190403612
 20
52.40062875359999
 30
0.0
 11
147.3210245708
 21
51.6026129631
 31
0.0
  0
LINE
  5
302
330
233
100
AcDbEntity
  8
0
  6
Continuous
 62
     7
100
AcDbLine
 10
148.7857070279
 20
52.40062875359999
 30
0.0
 11
147.9876912374
 21
51.6026129631
 31
0.0
  0
LINE
  5
303
330
233
100
AcDbEntity
  8
0
  6
Continuous
 62
     7
100
AcDbLine
 10
149.4523736945
 20
52.40062875359999
 30
0.0
 11
148.6543579041
 21
51.6026129631
 31
0.0
  0
LINE
  5
304
330
233
100
AcDbEntity
  8
0
  6
Continuous
 62
     7
100
AcDbLine
 10
150.1190403612
 20
52.40062875359999
 30
0.0
 11
149.3210245708
 21
51.6026129631
 31
0.0
  0
LINE
  5
305
330
233
100
AcDbEntity
  8
0
  6
Continuous
 62
     7
100
AcDbLine
 10
150.5625277953
 20
52.17744952100001
 30
0.0
 11
149.9876912374
 21
51.6026129631
 31
0.0
  0
ELLIPSE
  5
306
330
233
100
AcDbEntity
  8
0
  6
Continuous
 62
     7
100
AcDbEllipse
 10
146.1222029508
 20
50.45341195609999
 30
0.0
 11
1.0473539356
 21
0.0
 31
0.0
210
0.0
220
0.0
230
1.0
 40
0.4938647983
 41
0.0
 42
6.283185307179586
  0
ELLIPSE
  5
307
330
233
100
AcDbEntity
  8
0
  6
Continuous
 62
     7
100
AcDbEllipse
 10
146.1222029508
 20
49.12007862279999
 30
0.0
 11
1.0473539356
 21
0.0
 31
0.0
210
0.0
220
0.0
230
1.0
 40
0.4938647983
 41
0.0
 42
6.283185307179586
  0
ELLIPSE
  5
308
330
233
100
AcDbEntity
  8
0
  6
Continuous
 62
     7
100
AcDbEllipse
 10
146.1222029508
 20
47.78674528949999
 30
0.0
 11
1.0473539356
 21
0.0
 31
0.0
210
0.0
220
0.0
230
1.0
 40
0.4938647983
 41
0.0
 42
6.283185307179586
  0
ELLIPSE
  5
309
330
233
100
AcDbEntity
  8
0
  6
Continuous
 62
     7
100
AcDbEllipse
 10
157.1408385319
 20
50.47293331319999
 30
0.0
 11
1.0473539356
 21
0.0
 31
0.0
210
0.0
220
0.0
230
1.0
 40
0.4938647983
 41
0.0
 42
6.283185307179586
  0
ENDBLK
  5
30A
330
233
100
AcDbEntity
  8
0
  6
ByBlock
 62
     0
100
AcDbBlockEnd
  0
ENDSEC
  0
SECTION
  2
ENTITIES
  0
LINE
  5
14A4
330
21A
100
AcDbEntity
  8
0
  6
Continuous
 62
     7
100
AcDbLine
 10
28.4280470851
 20
90.74018839969999
 30
0.0
 11
28.4565762504
 21
90.63547511629998
 31
0.0
  0
LINE
  5
14A6
330
21A
100
AcDbEntity
  8
0
  6
Continuous
 62
     7
100
AcDbLine
 10
30.9607301017
 20
91.43021864359999
 30
0.0
 11
30.989259267
 21
91.32550536009999
 31
0.0
  0
LINE
  5
14AD
330
21A
100
AcDbEntity
  8
0
  6
Continuous
 62
     7
100
AcDbLine
 10
86.27733372979999
 20
79.3524264789
 30
0.0
 11
86.2635382196
 21
79.3524263647
 31
0.0
  0
LINE
  5
14B1
330
21A
100
AcDbEntity
  8
0
  6
Continuous
 62
     7
100
AcDbLine
 10
12.1898450697
 20
79.3524433428
 30
0.0
 11
12.2036405788
 21
79.3524379103
 31
0.0
  0
LINE
  5
14B2
330
21A
100
AcDbEntity
  8
0
  6
Continuous
 62
     7
100
AcDbLine
 10
28.4565762504
 20
90.63547511629998
 30
0.0
 11
30.989259267
 21
91.32550536009999
 31
0.0
  0
LINE
  5
14B3
330
21A
100
AcDbEntity
  8
0
  6
Continuous
 62
     7
100
AcDbLine
 10
30.9607301017
 20
91.43021864359999
 30
0.0
 11
28.4280470851
 21
90.74018839969999
 31
0.0
  0
ARC
  5
1624
330
21A
100
AcDbEntity
  8
0
  6
Continuous
 62
     7
100
AcDbCircle
 10
16.4328419065
 20
83.10369495020001
 30
0.0
 40
12.1870644401
100
AcDbArc
 50
35.1810011264
 51
35.7047611362
  0
ARC
  5
1625
330
21A
100
AcDbEntity
  8
0
  6
Continuous
 62
     7
100
AcDbCircle
 10
41.3995136816
 20
90.680928425
 30
0.0
 40
8.513092784299999
100
AcDbArc
 50
170.160134579
 51
170.8017043054
  0
CIRCLE
  5
1626
330
21A
100
AcDbEntity
  8
0
  6
Continuous
 62
     7
100
AcDbCircle
 10
43.733589398
 20
79.3524261167
 30
0.0
 40
1.271446609399999
  0
SPLINE
  5
1747
330
21A
100
AcDbEntity
  8
0
  6
Continuous
 62
     7
100
AcDbSpline
210
0.0
220
0.0
230
1.0
 70
     8
 71
     3
 72
    19
 73
    15
 74
     0
 42
0.0000000001
 43
0.0000000001
 40
0.0
 40
0.0
 40
0.0
 40
0.0
 40
0.187680064
 40
0.3683642692
 40
0.5353709113000001
 40
0.6826004759000001
 40
0.7471430302
 40
0.8048927687
 40
0.8554157709
 40
0.8984080765999999
 40
0.9337545661
 40
0.9616619492999999
 40
0.9829860523
 40
1.0
 40
1.0
 40
1.0
 40
1.0
 10
28.4280470851
 20
90.74018839969999
 30
0.0
 10
28.4084366146
 20
90.73484552120001
 30
0.0
 10
28.3701195597
 20
90.7237115827
 30
0.0
 10
28.3150269651
 20
90.70560337000001
 30
0.0
 10
28.2647853639
 20
90.68689282559999
 30
0.0
 10
28.2270321682
 20
90.6707868514
 30
0.0
 10
28.2007867405
 20
90.65800010930001
 30
0.0
 10
28.184297524
 20
90.64913450610001
 30
0.0
 10
28.1702701665
 20
90.6406551557
 30
0.0
 10
28.1588288698
 20
90.63264235530001
 30
0.0
 10
28.1500440883
 20
90.62516861589999
 30
0.0
 10
28.1439716943
 20
90.61825791610001
 30
0.0
 10
28.1405283991
 20
90.6118319127
 30
0.0
 10
28.1403174316
 20
90.60746306790001
 30
0.0
 10
28.1408017848
 20
90.60568530040001
 30
0.0
  0
SPLINE
  5
1748
330
21A
100
AcDbEntity
  8
0
  6
Continuous
 62
     7
100
AcDbSpline
210
0.0
220
0.0
230
1.0
 70
     8
 71
     3
 72
    63
 73
    59
 74
     0
 42
0.0000000001
 43
0.0000000001
 40
0.0
 40
0.0
 40
0.0
 40
0.0
 40
0.0312513506
 40
0.0468771039
 40
0.0625028608
 40
0.0781286231
 40
0.0937543882
 40
0.1250055806
 40
0.1562567894
 40
0.1875079835
 40
0.2031337417
 40
0.2187594981
 40
0.2343852581
 40
0.2500110131
 40
0.2656367652
 40
0.2812625256
 40
0.2968882795
 40
0.312514033
 40
0.3281397893
 40
0.3437655496
 40
0.3750168457
 40
0.406268158
 40
0.4375194361000001
 40
0.468770613
 40
0.4843963771000001
 40
0.5000221407
 40
0.5312730764
 40
0.5625237885000001
 40
0.5781494745
 40
0.5937751258000001
 40
0.6094007437000001
 40
0.6250263281000001
 40
0.6328391884000001
 40
0.6406520438000002
 40
0.6484648976000001
 40
0.6562777525
 40
0.6640906066
 40
0.6719033993000001
 40
0.6797161096
 40
0.6875288235
 40
0.6953415403000001
 40
0.7031542615000001
 40
0.7187783359000001
 40
0.7344025224
 40
0.7500268926000002
 40
0.765651488
 40
0.7812763744
 40
0.8125159478
 40
0.8437560246
 40
0.8593815067999999
 40
0.87500697
 40
0.9062470078
 40
0.9218724951999998
 40
0.9374979697
 40
0.9531234423999999
 40
0.9687489373999998
 40
0.9843744291
 40
1.0
 40
1.0
 40
1.0
 40
1.0
 10
52.2332147179
 20
98.39617415030001
 30
0.0
 10
51.7242617396
 20
98.3960087928
 30
0.0
 10
50.9608193858
 20
98.39107585409999
 30
0.0
 10
49.9430421469
 20
98.3743714112
 30
0.0
 10
49.1798112605
 20
98.35647299819999
 30
0.0
 10
48.4167420646
 20
98.33258561920001
 30
0.0
 10
47.3996446095
 20
98.29170802
 30
0.0
 10
46.12907009939999
 20
98.22243614340001
 30
0.0
 10
44.6061937675
 20
98.1112184022
 30
0.0
 10
43.3390283171
 20
97.99527869100002
 30
0.0
 10
42.3267323963
 20
97.8884411992
 30
0.0
 10
41.5682779859
 20
97.80129284430001
 30
0.0
 10
40.81065346539999
 20
97.7072063615
 30
0.0
 10
40.05394329979999
 20
97.60602666030001
 30
0.0
 10
39.29816007239999
 20
97.498163116
 30
0.0
 10
38.5431510231
 20
97.38502744680001
 30
0.0
 10
37.7888726964
 20
97.26711508299999
 30
0.0
 10
37.0354357479
 20
97.1439349515
 30
0.0
 10
36.2829286014
 20
97.01519006419999
 30
0.0
 10
35.28092211060001
 20
96.83592660850001
 30
0.0
 10
34.0310891437
 20
96.5971236168
 30
0.0
 10
32.5362653615
 20
96.2856527895
 30
0.0
 10
31.0470598044
 20
95.9483269781
 30
0.0
 10
29.8114411457
 20
95.64431615910001
 30
0.0
 10
28.8268595358
 20
95.38592272690001
 30
0.0
 10
27.845104932
 20
95.11700649739999
 30
0.0
 10
26.6237696762
 20
94.7598059006
 30
0.0
 10
25.41226822880001
 20
94.3703838517
 30
0.0
 10
24.4503729374
 20
94.03730901559999
 30
0.0
 10
23.7329395137
 20
93.77622568159999
 30
0.0
 10
23.0199335856
 20
93.50328424989999
 30
0.0
 10
22.4297985502
 20
93.2655362717
 30
0.0
 10
21.9603373548
 20
93.0689538827
 30
0.0
 10
21.609644405
 20
92.91820234719999
 30
0.0
 10
21.2604287071
 20
92.76406115110001
 30
0.0
 10
20.9127047761
 20
92.60658138169999
 30
0.0
 10
20.5664786955
 20
92.44584792709998
 30
0.0
 10
20.2220135271
 20
92.28132982469999
 30
0.0
 10
19.8819723433
 20
92.10780110909999
 30
0.0
 10
19.5466370918
 20
91.9253596561
 30
0.0
 10
19.2163132526
 20
91.73398512629999
 30
0.0
 10
18.7827901738
 20
91.4673219053
 30
0.0
 10
18.2543490543
 20
91.11258782150001
 30
0.0
 10
17.6436813422
 20
90.65396687559999
 30
0.0
 10
17.0581235037
 20
90.1636688774
 30
0.0
 10
16.4993173489
 20
89.6430445092
 30
0.0
 10
15.7921896029
 20
88.91061300009999
 30
0.0
 10
14.9824387225
 20
87.9263607705
 30
0.0
 10
14.2814611604
 20
86.86191868629999
 30
0.0
 10
13.7905395163
 20
85.96995155170001
 30
0.0
 10
13.3475737532
 20
85.0532737996
 30
0.0
 10
12.9782385098
 20
84.1025021397
 30
0.0
 10
12.6858268758
 20
83.12732983710001
 30
0.0
 10
12.5054908054
 20
82.3851215364
 30
0.0
 10
12.3648050001
 20
81.6344189554
 30
0.0
 10
12.2640528161
 20
80.87731436890001
 30
0.0
 10
12.2032870536
 20
80.1159706966
 30
0.0
 10
12.1899452794
 20
79.60691812500001
 30
0.0
 10
12.1898450697
 20
79.3524433428
 30
0.0
  0
SPLINE
  5
1749
330
21A
100
AcDbEntity
  8
0
  6
Continuous
 62
     7
100
AcDbSpline
210
0.0
220
0.0
230
1.0
 70
     8
 71
     3
 72
    71
 73
    67
 74
     0
 42
0.0000000001
 43
0.0000000001
 40
0.0
 40
0.0
 40
0.0
 40
0.0
 40
0.0156255396
 40
0.0312512442
 40
0.0468768154
 40
0.0625025039
 40
0.0781281279
 40
0.0937537632
 40
0.1249978751
 40
0.1562420314
 40
0.1718677374
 40
0.1874934759
 40
0.2031192342
 40
0.2187450159
 40
0.2499892566
 40
0.2656148457
 40
0.281240286
 40
0.2968655312
 40
0.3124905278
 40
0.3281152915
 40
0.3437398859
 40
0.3515525815
 40
0.3593652456
 40
0.3671778772
 40
0.374990492
 40
0.378896861
 40
0.3828032306
 40
0.3867095934
 40
0.3906159586
 40
0.3984286422999999
 40
0.4062413408
 40
0.4140540442000001
 40
0.4218667509000001
 40
0.4374920279
 40
0.4531173345
 40
0.4687426616
 40
0.4843679934000001
 40
0.4999933189
 40
0.5312428585
 40
0.5624925611
 40
0.5937424045000001
 40
0.6249921992000001
 40
0.6562418604
 40
0.6718671987000001
 40
0.6874925034000001
 40
0.7031177870000001
 40
0.7187430570000001
 40
0.7343683165
 40
0.7421810205
 40
0.7499937257
 40
0.7578064287000001
 40
0.7656191362
 40
0.773431845
 40
0.7812445537999999
 40
0.7890572625
 40
0.7968699717000001
 40
0.8046826820999999
 40
0.8124953933
 40
0.8281208000000001
 40
0.8437462088
 40
0.8593716198
 40
0.8749970341999999
 40
0.9062477429999999
 40
0.9374984806
 40
0.9687492295
 40
1.0
 40
1.0
 40
1.0
 40
1.0
 10
86.27733372979999
 20
79.3524264789
 30
0.0
 10
86.27733185049999
 20
79.5794192435
 30
0.0
 10
86.26690443420001
 20
80.03345309350001
 30
0.0
 10
86.2233856383
 20
80.71322623470001
 30
0.0
 10
86.1506880359
 20
81.39053731130001
 30
0.0
 10
86.0488568815
 20
82.0640722913
 30
0.0
 10
85.91802165430001
 20
82.73259541029998
 30
0.0
 10
85.7052922197
 20
83.6154315203
 30
0.0
 10
85.36888557759999
 20
84.7007365786
 30
0.0
 10
84.9404553958
 20
85.7531230376
 30
0.0
 10
84.54472104189999
 20
86.57047098860001
 30
0.0
 10
84.2217216435
 20
87.17022827780001
 30
0.0
 10
83.87329653340001
 20
87.7555857209
 30
0.0
 10
83.375830836
 20
88.5152918093
 30
0.0
 10
82.8296775739
 20
89.24219646549998
 30
0.0
 10
82.23872237630001
 20
89.9316726984
 30
0.0
 10
81.7735840261
 20
90.4293453326
 30
0.0
 10
81.287466317
 20
90.9065052434
 30
0.0
 10
80.7813649664
 20
91.362410071
 30
0.0
 10
80.2561581409
 20
91.79613803459998
 30
0.0
 10
79.8034177617
 20
92.13855660370001
 30
0.0
 10
79.43257030409999
 20
92.4004474156
 30
0.0
 10
79.1503187141
 20
92.5909237715
 30
0.0
 10
78.8641704309
 20
92.77549211690001
 30
0.0
 10
78.62231370169999
 20
92.92390577499999
 30
0.0
 10
78.426908724
 20
93.03941724280001
 30
0.0
 10
78.27945788770001
 20
93.12451920870001
 30
0.0
 10
78.1311071339
 20
93.20804176719999
 30
0.0
 10
77.93223600510001
 20
93.31747896639999
 30
0.0
 10
77.6820670857
 20
93.45137131059999
 30
0.0
 10
77.3805541466
 20
93.60955579870001
 30
0.0
 10
77.0777394519
 20
93.7652382219
 30
0.0
 10
76.67231489089999
 20
93.96952426940002
 30
0.0
 10
76.1621196255
 20
94.21804619879999
 30
0.0
 10
75.54494100630001
 20
94.50588391610001
 30
0.0
 10
74.9229381114
 20
94.78314985770001
 30
0.0
 10
74.2962521171
 20
95.0496672308
 30
0.0
 10
73.4547130671
 20
95.39060361569999
 30
0.0
 10
72.39203187850001
 20
95.7897242677
 30
0.0
 10
71.1011845349
 20
96.2246777708
 30
0.0
 10
69.79615872800001
 20
96.61507996700002
 30
0.0
 10
68.4785546728
 20
96.9606189137
 30
0.0
 10
67.37127920829999
 20
97.21069807100001
 30
0.0
 10
66.48076623930001
 20
97.38794104170001
 30
0.0
 10
65.8106752809
 20
97.5093649549
 30
0.0
 10
65.13860690289999
 20
97.6192969254
 30
0.0
 10
64.4647715005
 20
97.71780948059999
 30
0.0
 10
63.9019115313
 20
97.79026735049999
 30
0.0
 10
63.45091002
 20
97.84222359280001
 30
0.0
 10
63.1123377883
 20
97.87831506979999
 30
0.0
 10
62.7734795639
 20
97.91160926309999
 30
0.0
 10
62.4343907499
 20
97.94244844979999
 30
0.0
 10
62.0951782396
 20
97.9718788151
 30
0.0
 10
61.7559052588
 20
98.00060272479999
 30
0.0
 10
61.4165593787
 20
98.0284553863
 30
0.0
 10
61.07712583409999
 20
98.05521987690001
 30
0.0
 10
60.7376106275
 20
98.08092757229999
 30
0.0
 10
60.2848245903
 20
98.1138643074
 30
0.0
 10
59.718664292
 20
98.15255555130001
 30
0.0
 10
59.0390083582
 20
98.1949436985
 30
0.0
 10
58.3591126636
 20
98.2333027203
 30
0.0
 10
57.4522989626
 20
98.2790408798
 30
0.0
 10
56.3182944964
 20
98.3260978797
 30
0.0
 10
54.956922893
 20
98.3665559045
 30
0.0
 10
53.595168152
 20
98.39091197030001
 30
0.0
 10
52.6871957391
 20
98.39632164760001
 30
0.0
 10
52.2332147179
 20
98.39617415030001
 30
0.0
  0
SPLINE
  5
174A
330
21A
100
AcDbEntity
  8
0
  6
Continuous
 62
     7
100
AcDbSpline
210
0.0
220
0.0
230
1.0
 70
     8
 71
     3
 72
    72
 73
    68
 74
     0
 42
0.0000000001
 43
0.0000000001
 40
0.0
 40
0.0
 40
0.0
 40
0.0
 40
0.0156254282
 40
0.0312509052
 40
0.0468763351
 40
0.0625017624
 40
0.0937524785
 40
0.1250031647
 40
0.1406285671
 40
0.1562539652
 40
0.1718793595
 40
0.1875047508
 40
0.2031301375
 40
0.2187555279
 40
0.2265682305
 40
0.234380933
 40
0.2421936349
 40
0.2500063333
 40
0.2578190329
 40
0.2656317315
 40
0.2812569803
 40
0.2968822391
 40
0.3125075127
 40
0.3281328078
 40
0.3437581332
 40
0.3593834943
 40
0.3750088948
 40
0.4062586542
 40
0.4375085475000001
 40
0.4687583712
 40
0.5000080184000001
 40
0.5312575222
 40
0.5468828057000001
 40
0.5625080696
 40
0.5703207665
 40
0.5781334596
 40
0.5859461489
 40
0.5937588372000001
 40
0.6015715310000001
 40
0.6093842112
 40
0.6132905709000001
 40
0.6171969343
 40
0.6211033001000001
 40
0.6250096676
 40
0.6328222784000001
 40
0.6406349068
 40
0.6484475601
 40
0.6562602433000001
 40
0.6718848130000001
 40
0.687509548
 40
0.7031345077
 40
0.7187597267000001
 40
0.7343851536
 40
0.7500107239
 40
0.7812549812000001
 40
0.8124993418
 40
0.8281250823
 40
0.8437507916999999
 40
0.8749949496999999
 40
0.8906205829000001
 40
0.9062462367
 40
0.9218718754999999
 40
0.9374975027999999
 40
0.9531231967
 40
0.9687487687999999
 40
0.9843744712999999
 40
1.0
 40
1.0
 40
1.0
 40
1.0
 10
52.2332010339
 20
60.3086780897
 30
0.0
 10
52.4601922779
 20
60.3085333337
 30
0.0
 10
52.9141776584
 20
60.3098392059
 30
0.0
 10
53.59512782479999
 20
60.3160133637
 30
0.0
 10
54.2760317488
 20
60.3261084468
 30
0.0
 10
55.1838021147
 20
60.345038297
 30
0.0
 10
56.31828093399999
 20
60.3787550355
 30
0.0
 10
57.4522849965
 20
60.4258074362
 30
0.0
 10
58.3590983172
 20
60.47155173149999
 30
0.0
 10
59.0389944069
 20
60.50990145260001
 30
0.0
 10
59.7186487953
 20
60.5523116603
 30
0.0
 10
60.39804382659999
 20
60.5986904075
 30
0.0
 10
61.07714725640001
 20
60.6491618091
 30
0.0
 10
61.6428028232
 20
60.6946324499
 30
0.0
 10
62.09517576109999
 20
60.7328228002
 30
0.0
 10
62.4343708812
 20
60.76245436529999
 30
0.0
 10
62.77345351560001
 20
60.79335546
 30
0.0
 10
63.11232550689999
 20
60.8265086643
 30
0.0
 10
63.4508977088
 20
60.86260419560001
 30
0.0
 10
63.9018939239
 20
60.9146047055
 30
0.0
 10
64.46475744199999
 20
60.9870332364
 30
0.0
 10
65.1385916145
 20
61.08555482819999
 30
0.0
 10
65.8106604803
 20
61.1954857233
 30
0.0
 10
66.4807499591
 20
61.316908639
 30
0.0
 10
67.1486537998
 20
61.44983316729999
 30
0.0
 10
67.8141843483
 20
61.59418667109999
 30
0.0
 10
68.69811619939999
 20
61.80179237359999
 30
0.0
 10
69.79614244529999
 20
62.0898008353
 30
0.0
 10
71.10114379779999
 20
62.4802506532
 30
0.0
 10
72.3920545701
 20
62.91506405949999
 30
0.0
 10
73.66722224270001
 20
63.3940388324
 30
0.0
 10
74.7156103275
 20
63.82931946270001
 30
0.0
 10
75.5449540541
 20
64.1989279828
 30
0.0
 10
76.0592626034
 20
64.4388219244
 30
0.0
 10
76.4681906177
 20
64.6360002314
 30
0.0
 10
76.7736284952
 20
64.78647044600001
 30
0.0
 10
77.07778675600001
 20
64.9395106721
 30
0.0
 10
77.3805275734
 20
65.09533798319999
 30
0.0
 10
77.6819552292
 20
65.2536820083
 30
0.0
 10
77.93227751749999
 20
65.38728706399999
 30
0.0
 10
78.1311740485
 20
65.4966793912
 30
0.0
 10
78.2795072917
 20
65.5802332124
 30
0.0
 10
78.42693603399999
 20
65.66537349029999
 30
0.0
 10
78.62230703289999
 20
65.78094276059999
 30
0.0
 10
78.86410821030001
 20
65.9294454888
 30
0.0
 10
79.1503058375
 20
66.11393517270001
 30
0.0
 10
79.4325976833
 20
66.3043534888
 30
0.0
 10
79.8033949048
 20
66.566315081
 30
0.0
 10
80.2561524763
 20
66.90870713529999
 30
0.0
 10
80.781365822
 20
67.3424272333
 30
0.0
 10
81.2874610236
 20
67.7983381426
 30
0.0
 10
81.77353269310001
 20
68.2755450239
 30
0.0
 10
82.23870453219999
 20
68.77317765429999
 30
0.0
 10
82.82969818339999
 20
69.46265528419999
 30
0.0
 10
83.5121823913
 20
70.3711144193
 30
0.0
 10
84.1141221088
 20
71.3348200239
 30
0.0
 10
84.5447237868
 20
72.1343719485
 30
0.0
 10
84.94044711229999
 20
72.951710994
 30
0.0
 10
85.2832649029
 20
73.79381411469999
 30
0.0
 10
85.57069079239999
 20
74.65521016050001
 30
0.0
 10
85.75845404049999
 20
75.3100263448
 30
0.0
 10
85.91802244270001
 20
75.97226232939999
 30
0.0
 10
86.0488568615
 20
76.64077739149999
 30
0.0
 10
86.15068836959999
 20
77.31431533840001
 30
0.0
 10
86.22338049059999
 20
77.9916267553
 30
0.0
 10
86.26690984129998
 20
78.6713995516
 30
0.0
 10
86.2773356091
 20
79.1254337285
 30
0.0
 10
86.27733372979999
 20
79.3524264789
 30
0.0
  0
SPLINE
  5
174B
330
21A
100
AcDbEntity
  8
0
  6
Continuous
 62
     7
100
AcDbSpline
210
0.0
220
0.0
230
1.0
 70
     8
 71
     3
 72
    67
 73
    63
 74
     0
 42
0.0000000001
 43
0.0000000001
 40
0.0
 40
0.0
 40
0.0
 40
0.0
 40
0.0156253701
 40
0.031250677
 40
0.0468759978
 40
0.0625013105
 40
0.0937410436
 40
0.1249807031
 40
0.1406060111
 40
0.1562313189
 40
0.1718566534
 40
0.1874819759
 40
0.2031072072
 40
0.2187322597
 40
0.234357023
 40
0.249981489
 40
0.2656057757
 40
0.2812299558
 40
0.2968539902
 40
0.3046666292
 40
0.3124792611
 40
0.3163856605
 40
0.3202920621
 40
0.3241984583
 40
0.3281048525
 40
0.332011249
 40
0.3359176436
 40
0.3437303994
 40
0.3515431635
 40
0.3593559247
 40
0.3671686888
 40
0.3749814563
 40
0.3906068492
 40
0.4062322725
 40
0.437482253
 40
0.4687325336
 40
0.4999830874000001
 40
0.5156086963000001
 40
0.531234318
 40
0.5624852115
 40
0.5781108571
 40
0.5937364965
 40
0.6249874714
 40
0.6562384123000001
 40
0.6718639908
 40
0.6874895641
 40
0.7031151343000001
 40
0.7187407049
 40
0.7343662828000001
 40
0.7499918512999999
 40
0.7656174227000001
 40
0.7812430011
 40
0.7968685836000001
 40
0.8124941784999998
 40
0.8437450797
 40
0.8749959824999999
 40
0.9062468452999999
 40
0.9374977132999999
 40
0.9531232875
 40
0.9687488575999999
 40
0.9843744304999999
 40
1.0
 40
1.0
 40
1.0
 40
1.0
 10
12.1898450697
 20
79.3524433428
 30
0.0
 10
12.1897448602
 20
79.0979689719
 30
0.0
 10
12.2028560995
 20
78.5889029785
 30
0.0
 10
12.2637259098
 20
77.82756664770001
 30
0.0
 10
12.3647651514
 20
77.07048421199999
 30
0.0
 10
12.552625326
 20
76.0698574819
 30
0.0
 10
12.8859392178
 20
74.8396755629
 30
0.0
 10
13.3476315442
 20
73.65168510709999
 30
0.0
 10
13.7904848571
 20
72.7349344599
 30
0.0
 10
14.1587193169
 20
72.0657660737
 30
0.0
 10
14.5618800018
 20
71.4170671626
 30
0.0
 10
14.9987488683
 20
70.790568745
 30
0.0
 10
15.4681620933
 20
70.1880749055
 30
0.0
 10
15.9688149392
 20
69.61129013619999
 30
0.0
 10
16.4992938835
 20
69.06182955109999
 30
0.0
 10
17.0580913294
 20
68.5412160059
 30
0.0
 10
17.6436387501
 20
68.0508890948
 30
0.0
 10
18.2543486711
 20
67.5923171446
 30
0.0
 10
18.7827533765
 20
67.23751991029999
 30
0.0
 10
19.2162955768
 20
66.97088175720001
 30
0.0
 10
19.4916237745
 20
66.8114970962
 30
0.0
 10
19.7142732858
 20
66.68825917239999
 30
0.0
 10
19.8824601962
 20
66.59802299189999
 30
0.0
 10
20.0519260945
 20
66.51021152840001
 30
0.0
 10
20.2226228869
 20
66.42482038629999
 30
0.0
 10
20.3942926934
 20
66.3414085947
 30
0.0
 10
20.6240950088
 20
66.2320893472
 30
0.0
 10
20.9127038245
 20
66.09831897390001
 30
0.0
 10
21.2603955166
 20
65.9407738111
 30
0.0
 10
21.6096330661
 20
65.7866804484
 30
0.0
 10
21.9603347719
 20
65.63595092609999
 30
0.0
 10
22.4297699183
 20
65.43930772659999
 30
0.0
 10
23.0199076141
 20
65.20156364139999
 30
0.0
 10
23.9705724359
 20
64.83767872289999
 30
0.0
 10
25.1699809697
 20
64.412360901
 30
0.0
 10
26.6237263059
 20
63.9450310043
 30
0.0
 10
27.8450732603
 20
63.5878479435
 30
0.0
 10
28.8268292688
 20
63.3189383936
 30
0.0
 10
29.8114138998
 20
63.0605519589
 30
0.0
 10
30.7999142331
 20
62.81731978919999
 30
0.0
 10
31.7916410592
 20
62.58789361239999
 30
0.0
 10
32.7853682385
 20
62.367275126
 30
0.0
 10
34.0310681929
 20
62.1077393178
 30
0.0
 10
35.2808982619
 20
61.8689297009
 30
0.0
 10
36.2829047545
 20
61.689666611
 30
0.0
 10
37.0354114005
 20
61.5609211461
 30
0.0
 10
37.788847961
 20
61.43774085819999
 30
0.0
 10
38.5431261871
 20
61.3198302255
 30
0.0
 10
39.29813479070001
 20
61.2066941942
 30
0.0
 10
40.0539168461
 20
61.0988249753
 30
0.0
 10
40.810628311
 20
60.99765721539999
 30
0.0
 10
41.5682559704
 20
60.9035974941
 30
0.0
 10
42.32671301639999
 20
60.8164714137
 30
0.0
 10
43.3390067414
 20
60.7096052989
 30
0.0
 10
44.6061464851
 20
60.5933805445
 30
0.0
 10
46.1290417869
 20
60.4822598009
 30
0.0
 10
47.65377310539999
 20
60.4001617875
 30
0.0
 10
48.92539404409999
 20
60.3543451679
 30
0.0
 10
49.9430239115
 20
60.3302778347
 30
0.0
 10
50.7063649526
 20
60.3179713982
 30
0.0
 10
51.4697685534
 20
60.31081992569999
 30
0.0
 10
51.9787234464
 20
60.3088403742
 30
0.0
 10
52.2332010339
 20
60.3086780897
 30
0.0
  0
SPLINE
  5
174C
330
21A
100
AcDbEntity
  8
0
  6
Continuous
 62
     7
100
AcDbSpline
210
0.0
220
0.0
230
1.0
 70
     8
 71
     3
 72
    19
 73
    15
 74
     0
 42
0.0000000001
 43
0.0000000001
 40
0.0
 40
0.0
 40
0.0
 40
0.0
 40
0.0170139477
 40
0.0383380507
 40
0.0662454339
 40
0.1015919234
 40
0.1445842291
 40
0.1951072313
 40
0.2528569698
 40
0.3173995241
 40
0.4646290887
 40
0.6316357308000001
 40
0.8123199359999999
 40
1.0
 40
1.0
 40
1.0
 40
1.0
 10
31.2765045673
 20
91.46000845939999
 30
0.0
 10
31.276020214
 20
91.46178622689999
 30
0.0
 10
31.2736223143
 20
91.46544428510001
 30
0.0
 10
31.2673953047
 20
91.4692356111
 30
0.0
 10
31.2586566761
 20
91.47211104330001
 30
0.0
 10
31.2472949109
 20
91.47409585010001
 30
0.0
 10
31.2333703229
 20
91.4751977076
 30
0.0
 10
31.2169804108
 20
91.47538986379998
 30
0.0
 10
31.1982729424
 20
91.47466611969999
 30
0.0
 10
31.16916858
 20
91.472372795
 30
0.0
 10
31.1284631479
 20
91.46710269260001
 30
0.0
 10
31.0756740431
 20
91.4577424904
 30
0.0
 10
31.01900988320001
 20
91.445402542
 30
0.0
 10
30.9803405722
 20
91.43556152209999
 30
0.0
 10
30.9607301017
 20
91.43021864359999
 30
0.0
  0
SPLINE
  5
174D
330
21A
100
AcDbEntity
  8
0
  6
Continuous
 62
     7
100
AcDbSpline
210
0.0
220
0.0
230
1.0
 70
     8
 71
     3
 72
    66
 73
    62
 74
     0
 42
0.0000000001
 43
0.0000000001
 40
0.0
 40
0.0
 40
0.0
 40
0.0
 40
0.0156253225
 40
0.0312506117
 40
0.0468759551
 40
0.0625012997
 40
0.0937410767
 40
0.1249807746
 40
0.1406061134
 40
0.1562314453
 40
0.1718567828
 40
0.1874820781
 40
0.2031072087
 40
0.218732077
 40
0.2343566641
 40
0.249981001
 40
0.2656051451
 40
0.281229152
 40
0.2890417998
 40
0.296854427
 40
0.3046670428
 40
0.3124796503
 40
0.3163860314
 40
0.3202924085
 40
0.3241987829
 40
0.3281051629
 40
0.3320115512
 40
0.3359179456000001
 40
0.3437307118
 40
0.3515434895
 40
0.3593562643
 40
0.3671690432
 40
0.3749818261
 40
0.3906072536
 40
0.4062327057
 40
0.4374827076
 40
0.4687330017000001
 40
0.4999835670000001
 40
0.5156091753
 40
0.5312348006000001
 40
0.5624857129000001
 40
0.593736672
 40
0.6249876053
 40
0.6562385279999999
 40
0.6718641084
 40
0.687489685
 40
0.7031152591
 40
0.7187408347
 40
0.7343664116
 40
0.7499919779000001
 40
0.7656175334000001
 40
0.7812430888
 40
0.812493882
 40
0.8437446997
 40
0.8749955406000001
 40
0.906246445
 40
0.9374974403999999
 40
0.9531230918
 40
0.9687487260999999
 40
0.9843743862
 40
1.0
 40
1.0
 40
1.0
 40
1.0
 10
12.2036405788
 20
79.3524379103
 30
0.0
 10
12.2035354208
 20
79.0980769826
 30
0.0
 10
12.2166516175
 20
78.5892371589
 30
0.0
 10
12.2775290504
 20
77.8282412238
 30
0.0
 10
12.3785730882
 20
77.0714995813
 30
0.0
 10
12.5664472531
 20
76.0713320535
 30
0.0
 10
12.8997811158
 20
74.8417355779
 30
0.0
 10
13.3614990022
 20
73.6543556803
 30
0.0
 10
13.8043691888
 20
72.73811166729998
 30
0.0
 10
14.1726159408
 20
72.0693345359
 30
0.0
 10
14.5757839931
 20
71.4210379751
 30
0.0
 10
15.0126555916
 20
70.79495577029999
 30
0.0
 10
15.482062998
 20
70.1928921972
 30
0.0
 10
15.9827018835
 20
69.6165522932
 30
0.0
 10
16.5131575138
 20
69.0675510236
 30
0.0
 10
17.0719233327
 20
68.547405474
 30
0.0
 10
17.6574167609
 20
68.05756907680001
 30
0.0
 10
18.1663323911
 20
67.675813465
 30
0.0
 10
18.5850673751
 20
67.3868751406
 30
0.0
 10
18.9047732182
 20
67.1785557195
 30
0.0
 10
19.229909544
 20
66.97882552750001
 30
0.0
 10
19.5051982067
 20
66.8196597014
 30
0.0
 10
19.7278112048
 20
66.6965900803
 30
0.0
 10
19.8959800611
 20
66.60650152329999
 30
0.0
 10
20.0654122347
 20
66.5188106719
 30
0.0
 10
20.2360929001
 20
66.43357791079999
 30
0.0
 10
20.4077169409
 20
66.35026661720001
 30
0.0
 10
20.6374513665
 20
66.24106683810001
 30
0.0
 10
20.9259639378
 20
66.1074231628
 30
0.0
 10
21.2735304231
 20
65.95000960189999
 30
0.0
 10
21.6226486108
 20
65.79606267239999
 30
0.0
 10
21.9732251059
 20
65.64546811719999
 30
0.0
 10
22.4424922548
 20
65.44900436399998
 30
0.0
 10
23.0324144734
 20
65.21147597550001
 30
0.0
 10
23.9827241172
 20
64.84792019229999
 30
0.0
 10
25.1816701983
 20
64.4229819091
 30
0.0
 10
26.6348375253
 20
63.95606183379999
 30
0.0
 10
27.8556849811
 20
63.5991768621
 30
0.0
 10
28.8370344498
 20
63.3304893026
 30
0.0
 10
29.8212071138
 20
63.0723030524
 30
0.0
 10
31.0563046638
 20
62.7685229175
 30
0.0
 10
32.544875005
 20
62.4314462797
 30
0.0
 10
34.0390565723
 20
62.1202091168
 30
0.0
 10
35.2883485839
 20
61.88158200149999
 30
0.0
 10
36.2899191823
 20
61.70244393379999
 30
0.0
 10
37.0420993899
 20
61.5737939034
 30
0.0
 10
37.7952056621
 20
61.4506868721
 30
0.0
 10
38.54915847
 20
61.33288230359999
 30
0.0
 10
39.3038330019
 20
61.21979791899999
 30
0.0
 10
40.05928266699999
 20
61.1119940697
 30
0.0
 10
40.81566679269999
 20
61.0109303995
 30
0.0
 10
41.82538260949999
 20
60.88558888489999
 30
0.0
 10
43.0896246246
 20
60.7463066464
 30
0.0
 10
44.6095069446
 20
60.60695029979999
 30
0.0
 10
46.13173168270001
 20
60.4959186133
 30
0.0
 10
47.655790246
 20
60.4138776845
 30
0.0
 10
48.9268534229
 20
60.3681192676
 30
0.0
 10
49.9440369451
 20
60.34404621930001
 30
0.0
 10
50.7070444956
 20
60.3318115224
 30
0.0
 10
51.47011190619999
 20
60.3245013895
 30
0.0
 10
51.9788441943
 20
60.32263948749999
 30
0.0
 10
52.23320983149999
 20
60.3224735972
 30
0.0
  0
SPLINE
  5
174E
330
21A
100
AcDbEntity
  8
0
  6
Continuous
 62
     7
100
AcDbSpline
210
0.0
220
0.0
230
1.0
 70
     8
 71
     3
 72
    87
 73
    83
 74
     0
 42
0.0000000001
 43
0.0000000001
 40
0.0
 40
0.0
 40
0.0
 40
0.0
 40
0.0144437191
 40
0.0188428209
 40
0.022069734
 40
0.0244675752
 40
0.0261611331
 40
0.0274760108
 40
0.0288123507
 40
0.0304855884
 40
0.0323170934
 40
0.0348241094
 40
0.0366346406
 40
0.0389515727
 40
0.0403691028
 40
0.0420390163
 40
0.0440032283
 40
0.0461581769
 40
0.050662372
 40
0.0556490291
 40
0.061924692
 40
0.070541594
 40
0.0821589783
 40
0.095148557
 40
0.1092307165
 40
0.1283120785
 40
0.1496109517
 40
0.169332179
 40
0.2093533406
 40
0.2377582278
 40
0.2487008065
 40
0.2585671132
 40
0.2745496264
 40
0.2853972817
 40
0.2931925618
 40
0.3066604471
 40
0.3140423563
 40
0.3240709083
 40
0.3612696732
 40
0.4430885709
 40
0.5732432385
 40
0.6172968071
 40
0.6501367047
 40
0.6729504538
 40
0.6892884134
 40
0.7016041592
 40
0.7105547339000001
 40
0.7149276483
 40
0.7193659021
 40
0.7307835742000001
 40
0.7471311008
 40
0.7634875473000001
 40
0.7808011104000001
 40
0.8032840526999999
 40
0.8274559954999999
 40
0.8635401189999999
 40
0.8831353376
 40
0.8999118397
 40
0.9140398976
 40
0.9262070353
 40
0.9371774932999999
 40
0.9455338161
 40
0.9517033646999999
 40
0.9565560203
 40
0.9606940561
 40
0.9643415742
 40
0.9671658289999999
 40
0.9692335362000001
 40
0.9708566343000001
 40
0.9722402390999999
 40
0.9746017640999999
 40
0.9754455412
 40
0.9762123074999999
 40
0.9769635993999999
 40
0.9777038509
 40
0.9785500135999999
 40
0.9795558398
 40
0.9818269051999999
 40
0.9844967901999998
 40
0.9880652723999999
 40
0.9934082290999999
 40
1.0
 40
1.0
 40
1.0
 40
1.0
 10
26.3937683379
 20
90.1254101463
 30
0.0
 10
26.4139335189
 20
90.0968064837
 30
0.0
 10
26.440083871
 20
90.05938031879999
 30
0.0
 10
26.4704805245
 20
90.01538456719998
 30
0.0
 10
26.4842464727
 20
89.99537456490001
 30
0.0
 10
26.4942706852
 20
89.98074758950002
 30
0.0
 10
26.5016617092
 20
89.9699322821
 30
0.0
 10
26.507607201
 20
89.96124486379999
 30
0.0
 10
26.5134313928
 20
89.95253246069999
 30
0.0
 10
26.5206305148
 20
89.9432516274
 30
0.0
 10
26.5305300428
 20
89.93254742839999
 30
0.0
 10
26.5415497663
 20
89.9224771781
 30
0.0
 10
26.5543838096
 20
89.912776067
 30
0.0
 10
26.5656374685
 20
89.9054178585
 30
0.0
 10
26.5769153781
 20
89.8987585256
 30
0.0
 10
26.5877315384
 20
89.89301822139999
 30
0.0
 10
26.6004083963
 20
89.88700442149999
 30
0.0
 10
26.6196311519
 20
89.87880046799999
 30
0.0
 10
26.6462865745
 20
89.86944476229998
 30
0.0
 10
26.6831460719
 20
89.85931036469999
 30
0.0
 10
26.7303798236
 20
89.84968729040001
 30
0.0
 10
26.7940999279
 20
89.841185539
 30
0.0
 10
26.8745060716
 20
89.8361095097
 30
0.0
 10
26.9682981193
 20
89.83597481610001
 30
0.0
 10
27.0800289998
 20
89.84154712870001
 30
0.0
 10
27.2114006662
 20
89.8545964875
 30
0.0
 10
27.3555563865
 20
89.87554694359999
 30
0.0
 10
27.5487335531
 20
89.9109429996
 30
0.0
 10
27.7570020618
 20
89.95879673679999
 30
0.0
 10
27.9426258777
 20
90.0091558525
 30
0.0
 10
28.0570642112
 20
90.04268064260001
 30
0.0
 10
28.1423421232
 20
90.06865703829999
 30
0.0
 10
28.2271329771
 20
90.09543932360001
 30
0.0
 10
28.3067387611
 20
90.12193354929999
 30
0.0
 10
28.3804343563
 20
90.14688548009999
 30
0.0
 10
28.4459460022
 20
90.16981360850001
 30
0.0
 10
28.5166896486
 20
90.1941677643
 30
0.0
 10
28.6418235806
 20
90.23717557149998
 30
0.0
 10
28.9379604435
 20
90.33753907339999
 30
0.0
 10
29.5115949029
 20
90.5258774256
 30
0.0
 10
30.104171966
 20
90.70959440919999
 30
0.0
 10
30.5851942363
 20
90.85207475510001
 30
0.0
 10
30.8172118756
 20
90.91941378100001
 30
0.0
 10
30.9849195935
 20
90.9673945011
 30
0.0
 10
31.1049156128
 20
91.0013433729
 30
0.0
 10
31.1926220748
 20
91.02603355239999
 30
0.0
 10
31.2524719523
 20
91.0426883492
 30
0.0
 10
31.2939055997
 20
91.05432571799999
 30
0.0
 10
31.3410278626
 20
91.06781370989999
 30
0.0
 10
31.4159728278
 20
91.08953830209999
 30
0.0
 10
31.518246541
 20
91.120682586
 30
0.0
 10
31.6337722447
 20
91.1573188576
 30
0.0
 10
31.7628626382
 20
91.20031821309998
 30
0.0
 10
31.9090927987
 20
91.2517369633
 30
0.0
 10
32.0967555461
 20
91.32229759180001
 30
0.0
 10
32.27572809780001
 20
91.39598684139999
 30
0.0
 10
32.4354088087
 20
91.4690103743
 30
0.0
 10
32.5450497109
 20
91.5233850349
 30
0.0
 10
32.6369189139
 20
91.57294632540001
 30
0.0
 10
32.7147223409
 20
91.6188167451
 30
0.0
 10
32.7786850949
 20
91.6604935229
 30
0.0
 10
32.828645204
 20
91.6968815284
 30
0.0
 10
32.8650844415
 20
91.7265285686
 30
0.0
 10
32.8922834292
 20
91.75124602649999
 30
0.0
 10
32.9137078431
 20
91.7731521079
 30
0.0
 10
32.9304437864
 20
91.7926967038
 30
0.0
 10
32.9427046932
 20
91.80938655350001
 30
0.0
 10
32.95120146030001
 20
91.82270062370001
 30
0.0
 10
32.95715052550001
 20
91.83347601200001
 30
0.0
 10
32.9624243404
 20
91.8453789119
 30
0.0
 10
32.9660240387
 20
91.85592256399999
 30
0.0
 10
32.9685493324
 20
91.8652108584
 30
0.0
 10
32.9698434563
 20
91.87078661379999
 30
0.0
 10
32.9708219529
 20
91.87617503410001
 30
0.0
 10
32.9714001947
 20
91.88181249370002
 30
0.0
 10
32.9723823491
 20
91.8880174657
 30
0.0
 10
32.9737844936
 20
91.8979085159
 30
0.0
 10
32.9758739227
 20
91.91216548559999
 30
0.0
 10
32.9788917338
 20
91.93256176709999
 30
0.0
 10
32.9830696188
 20
91.9603106927
 30
0.0
 10
32.9887919971
 20
91.9974367166
 30
0.0
 10
32.9933370528
 20
92.02599539270002
 30
0.0
 10
32.9958905836
 20
92.04176183889998
 30
0.0
  0
SPLINE
  5
174F
330
21A
100
AcDbEntity
  8
0
  6
Continuous
 62
     7
100
AcDbSpline
210
0.0
220
0.0
230
1.0
 70
     8
 71
     3
 72
    19
 73
    15
 74
     0
 42
0.0000000001
 43
0.0000000001
 40
0.0
 40
0.0
 40
0.0
 40
0.0
 40
0.187680064
 40
0.3683642692
 40
0.5353709113000001
 40
0.6826004759000001
 40
0.7471430302
 40
0.8048927687
 40
0.8554157709
 40
0.8984080765999999
 40
0.9337545661
 40
0.9616619492999999
 40
0.9829860523
 40
1.0
 40
1.0
 40
1.0
 40
1.0
 10
30.989259267
 20
91.32550536009999
 30
0.0
 10
31.0088697375
 20
91.3308482386
 30
0.0
 10
31.0471867925
 20
91.34198217709998
 30
0.0
 10
31.102279387
 20
91.3600903899
 30
0.0
 10
31.1525209883
 20
91.3788009343
 30
0.0
 10
31.190274184
 20
91.3949069084
 30
0.0
 10
31.2165196116
 20
91.40769365049999
 30
0.0
 10
31.2330088281
 20
91.41655925370001
 30
0.0
 10
31.2470361856
 20
91.4250386041
 30
0.0
 10
31.2584774823
 20
91.43305140450001
 30
0.0
 10
31.26726226380001
 20
91.44052514389999
 30
0.0
 10
31.2733346578
 20
91.44743584370001
 30
0.0
 10
31.276777953
 20
91.45386184709998
 30
0.0
 10
31.2769889206
 20
91.45823069189999
 30
0.0
 10
31.2765045673
 20
91.46000845939999
 30
0.0
  0
SPLINE
  5
1750
330
21A
100
AcDbEntity
  8
0
  6
Continuous
 62
     7
100
AcDbSpline
210
0.0
220
0.0
230
1.0
 70
     8
 71
     3
 72
    37
 73
    33
 74
     0
 42
0.0000000001
 43
0.0000000001
 40
0.0
 40
0.0
 40
0.0
 40
0.0
 40
0.0312550631
 40
0.0625093912
 40
0.0937641372
 40
0.1250187798
 40
0.1562734223
 40
0.1875280581
 40
0.2187826894
 40
0.2500373267
 40
0.2812919764
 40
0.3125466494
 40
0.3438013602
 40
0.3750561151
 40
0.4063109137
 40
0.4375657521
 40
0.4688206084000001
 40
0.5000754555000001
 40
0.5313302704
 40
0.5625850371
 40
0.5938397552
 40
0.6250944369
 40
0.6563490989
 40
0.6876037522000001
 40
0.7188584057999999
 40
0.7501130645
 40
0.8125468133
 40
0.8749806743999998
 40
0.9062353530999999
 40
0.9374901797999999
 40
0.9687447477999999
 40
1.0
 40
1.0
 40
1.0
 40
1.0
 10
41.7587230747
 20
79.3524261167
 30
0.0
 10
41.7587232723
 20
79.41695199209999
 30
0.0
 10
41.7650753236
 20
79.54609231
 30
0.0
 10
41.7935781827
 20
79.7378585322
 30
0.0
 10
41.84078249599999
 20
79.9259159186
 30
0.0
 10
41.90624021699999
 20
80.10841940289999
 30
0.0
 10
41.9893210125
 20
80.28360577859999
 30
0.0
 10
42.0892222878
 20
80.44977526560002
 30
0.0
 10
42.20497522019999
 20
80.60531883979999
 30
0.0
 10
42.3354530694
 20
80.74873411899998
 30
0.0
 10
42.4793824557
 20
80.87864381720001
 30
0.0
 10
42.6353580194
 20
80.993811261
 30
0.0
 10
42.8018611127
 20
81.0931507731
 30
0.0
 10
42.9772781089
 20
81.17573533359999
 30
0.0
 10
43.1599181364
 20
81.2408020814
 30
0.0
 10
43.3480300026
 20
81.2877568396
 30
0.0
 10
43.53981952389999
 20
81.31617272060001
 30
0.0
 10
43.7334643289
 20
81.3257855001
 30
0.0
 10
43.9271252152
 20
81.3164888822
 30
0.0
 10
44.1189555784
 20
81.2883381994
 30
0.0
 10
44.3071145586
 20
81.2415623583
 30
0.0
 10
44.4897853591
 20
81.17657471140001
 30
0.0
 10
44.66519858159999
 20
81.09397407199999
 30
0.0
 10
44.8316493296
 20
80.9945495082
 30
0.0
 10
44.9875369517
 20
80.8792380859
 30
0.0
 10
45.1791120005
 20
80.70599331169999
 30
0.0
 10
45.38522447810001
 20
80.45531186149998
 30
0.0
 10
45.53826492819999
 20
80.16912884779999
 30
0.0
 10
45.6253171324
 20
79.92595029020001
 30
0.0
 10
45.67245795709999
 20
79.73786345259999
 30
0.0
 10
45.70091619409999
 20
79.5460940318
 30
0.0
 10
45.70725944449999
 20
79.4169523826
 30
0.0
 10
45.7072596418
 20
79.3524261167
 30
0.0
  0
SPLINE
  5
1751
330
21A
100
AcDbEntity
  8
0
  6
Continuous
 62
     7
100
AcDbSpline
210
0.0
220
0.0
230
1.0
 70
     8
 71
     3
 72
    66
 73
    62
 74
     0
 42
0.0000000001
 43
0.0000000001
 40
0.0
 40
0.0
 40
0.0
 40
0.0
 40
0.0312311858
 40
0.0624635659
 40
0.093697934
 40
0.1093230716
 40
0.1249483444
 40
0.1405737547
 40
0.1561992797
 40
0.1718249018
 40
0.1796384113
 40
0.1874519371
 40
0.195265479
 40
0.2030790323
 40
0.2108925861
 40
0.2187061299
 40
0.2265196548
 40
0.2343331592
 40
0.2382399495
 40
0.2421467372
 40
0.2460535164
 40
0.2499603059
 40
0.2577738294
 40
0.2655873602
 40
0.2734008831
 40
0.2812143934
 40
0.2968410327
 40
0.3124676331
 40
0.328094189
 40
0.3437206996
 40
0.3749708857
 40
0.4062207279
 40
0.4374704642000001
 40
0.4530968845000001
 40
0.4687233351
 40
0.4843497851
 40
0.4999762264000001
 40
0.507789602
 40
0.5156029800000001
 40
0.5234163623
 40
0.5312297488000001
 40
0.5351364651
 40
0.5390431793000001
 40
0.5468565924000001
 40
0.5546699905
 40
0.5624833734
 40
0.5781100631000001
 40
0.5937366912
 40
0.609363256
 40
0.6249897562
 40
0.6562423757
 40
0.6874947443000002
 40
0.7187468359999999
 40
0.7499986479000001
 40
0.7812501542
 40
0.8125013331999999
 40
0.8750019976999999
 40
0.9062521071999999
 40
0.9375018268999999
 40
0.9687511323999999
 40
1.0
 40
1.0
 40
1.0
 40
1.0
 10
32.7861973888
 20
79.3524261167
 30
0.0
 10
32.7861992303
 20
79.59734725869999
 30
0.0
 10
32.8197308676
 20
80.08785375249999
 30
0.0
 10
32.9682544798
 20
80.80952450540001
 30
0.0
 10
33.1685936843
 20
81.3901275465
 30
0.0
 10
33.37050538710001
 20
81.8368704387
 30
0.0
 10
33.5417416536
 20
82.16241642369999
 30
0.0
 10
33.7314880044
 20
82.4775020312
 30
0.0
 10
33.9385331019
 20
82.7814880304
 30
0.0
 10
34.12457445760001
 20
83.02508250390001
 30
0.0
 10
34.2809408151
 20
83.21383875029999
 30
0.0
 10
34.4018064146
 20
83.35237323600001
 30
0.0
 10
34.5262648314
 20
83.4876799277
 30
0.0
 10
34.6532996869
 20
83.62056383939998
 30
0.0
 10
34.7829571943
 20
83.75089215699999
 30
0.0
 10
34.9150876399
 20
83.8787108432
 30
0.0
 10
35.049622508
 20
84.00399491059999
 30
0.0
 10
35.16366712510001
 20
84.10628616560002
 30
0.0
 10
35.25605108420001
 20
84.1868101496
 30
0.0
 10
35.3257771688
 20
84.24669829009999
 30
0.0
 10
35.3961956052
 20
84.3057722694
 30
0.0
 10
35.490959896
 20
84.383482278
 30
0.0
 10
35.6106386398
 20
84.4791150013
 30
0.0
 10
35.75582728820001
 20
84.59187170239999
 30
0.0
 10
35.9025591476
 20
84.70261411500001
 30
0.0
 10
36.1002100109
 20
84.8475623156
 30
0.0
 10
36.350908569
 20
85.0237344395
 30
0.0
 10
36.6571890439
 20
85.2271584186
 30
0.0
 10
36.9686554531
 20
85.42255447409999
 30
0.0
 10
37.3905185406
 20
85.672223335
 30
0.0
 10
37.9298190341
 20
85.9636193294
 30
0.0
 10
38.5946982091
 20
86.27824331799999
 30
0.0
 10
39.1627366625
 20
86.50875777889998
 30
0.0
 10
39.6240997672
 20
86.67441834729999
 30
0.0
 10
39.9733186905
 20
86.78946644899999
 30
0.0
 10
40.3253983163
 20
86.89541693569999
 30
0.0
 10
40.6209552405
 20
86.97621089469999
 30
0.0
 10
40.8585505086
 20
87.03639320090001
 30
0.0
 10
41.0372959992
 20
87.07931751729999
 30
0.0
 10
41.2165575207
 20
87.12002979999999
 30
0.0
 10
41.3663416946
 20
87.15215263240001
 30
0.0
 10
41.48640831289999
 20
87.17669309420001
 30
0.0
 10
41.60650722479999
 20
87.20107461540001
 30
0.0
 10
41.75673011489999
 20
87.23106002260001
 30
0.0
 10
41.93713877909999
 20
87.26632547280001
 30
0.0
 10
42.17786961589999
 20
87.3123791068
 30
0.0
 10
42.4791194512
 20
87.3681684557
 30
0.0
 10
42.84112034649999
 20
87.43233992849999
 30
0.0
 10
43.2035881097
 20
87.4938111192
 30
0.0
 10
43.6874531992
 20
87.57227368009999
 30
0.0
 10
44.2932978277
 20
87.6639630902
 30
0.0
 10
45.02168092619999
 20
87.76443751020002
 30
0.0
 10
45.7512346337
 20
87.85597533149999
 30
0.0
 10
46.4818519967
 20
87.9385240871
 30
0.0
 10
47.2133595359
 20
88.01268155489999
 30
0.0
 10
48.18967963409999
 20
88.10110172079999
 30
0.0
 10
49.1672479637
 20
88.17497966100001
 30
0.0
 10
50.145597015
 20
88.23655287860001
 30
0.0
 10
50.87967755060001
 20
88.2772174792
 30
0.0
 10
51.61398050399999
 20
88.3133745936
 30
0.0
 10
52.10362117729999
 20
88.33515929169999
 30
0.0
 10
52.3484629852
 20
88.3454935974
 30
0.0
  0
SPLINE
  5
1752
330
21A
100
AcDbEntity
  8
0
  6
Continuous
 62
     7
100
AcDbSpline
210
0.0
220
0.0
230
1.0
 70
     8
 71
     3
 72
    56
 73
    52
 74
     0
 42
0.0000000001
 43
0.0000000001
 40
0.0
 40
0.0
 40
0.0
 40
0.0
 40
0.0625004398
 40
0.1249996519
 40
0.1562496658
 40
0.187499516
 40
0.2187492266
 40
0.2343741664
 40
0.2499990949
 40
0.2656239793
 40
0.2812488632
 40
0.2968737666
 40
0.3124986755
 40
0.3437478408
 40
0.3749969774
 40
0.406246085
 40
0.4374951554999999
 40
0.4687441774
 40
0.4999931265
 40
0.5312419670000001
 40
0.5468671719
 40
0.5624924029000001
 40
0.5781176604000001
 40
0.5937429379000001
 40
0.6015557259000001
 40
0.6093685192000001
 40
0.6171813200000001
 40
0.6249941192000001
 40
0.640619254
 40
0.6562445287
 40
0.6718698862000001
 40
0.6874953214000001
 40
0.7187407471
 40
0.7499854966
 40
0.7656112349999999
 40
0.7812370321
 40
0.7968628951000002
 40
0.8124888354000001
 40
0.8203024228
 40
0.8281160465999999
 40
0.8359297056
 40
0.8437433768000001
 40
0.8593692648999999
 40
0.8749953598000001
 40
0.9062365304
 40
0.9218632704
 40
0.9374902397999999
 40
0.9531174420000001
 40
0.9687448332999998
 40
0.9843723406999998
 40
1.0
 40
1.0
 40
1.0
 40
1.0
 10
52.3484629852
 20
88.3454935974
 30
0.0
 10
52.82446408569999
 20
88.36557795559999
 30
0.0
 10
53.7769378649
 20
88.3952762932
 30
0.0
 10
54.9681174764
 20
88.40265627959999
 30
0.0
 10
55.92087577
 20
88.38831179020001
 30
0.0
 10
56.63520768319999
 20
88.36675279120001
 30
0.0
 10
57.23012563680001
 20
88.3392590771
 30
0.0
 10
57.7057161096
 20
88.31110176400001
 30
0.0
 10
58.0622133856
 20
88.28688920450002
 30
0.0
 10
58.41847859699999
 20
88.25945645979999
 30
0.0
 10
58.77440787720001
 20
88.22793655149999
 30
0.0
 10
59.1299209841
 20
88.1920143203
 30
0.0
 10
59.6032977107
 20
88.13822024930001
 30
0.0
 10
60.1936586921
 20
88.05947624229998
 30
0.0
 10
60.89922689
 20
87.94555595
 30
0.0
 10
61.6011811629
 20
87.81107669479998
 30
0.0
 10
62.29863948520001
 20
87.65489320909999
 30
0.0
 10
62.9905847204
 20
87.4757915037
 30
0.0
 10
63.6758170082
 20
87.27247433059998
 30
0.0
 10
64.2401017028
 20
87.08164296479999
 30
0.0
 10
64.6865739368
 20
86.9153231419
 30
0.0
 10
65.0187273785
 20
86.78351559319999
 30
0.0
 10
65.34789512399999
 20
86.6444167675
 30
0.0
 10
65.61944885489999
 20
86.52217421899999
 30
0.0
 10
65.8348851364
 20
86.4205022842
 30
0.0
 10
65.99546183689999
 20
86.34215742950001
 30
0.0
 10
66.1550848664
 20
86.26188738649998
 30
0.0
 10
66.36642726579999
 20
86.1519548028
 30
0.0
 10
66.6270224469
 20
86.0077525618
 30
0.0
 10
66.9336872977
 20
85.82422204640002
 30
0.0
 10
67.23375490879999
 20
85.63006580859999
 30
0.0
 10
67.62428346909999
 20
85.3570875369
 30
0.0
 10
68.0932589308
 20
84.98920170529999
 30
0.0
 10
68.5319359635
 20
84.58547582379999
 30
0.0
 10
68.8612282067
 20
84.2410330623
 30
0.0
 10
69.096550369
 20
83.97195770240001
 30
0.0
 10
69.31926546609999
 20
83.69235702060001
 30
0.0
 10
69.4936207604
 20
83.450796897
 30
0.0
 10
69.6259277487
 20
83.2526555125
 30
0.0
 10
69.7214879818
 20
83.1016497715
 30
0.0
 10
69.8133136618
 20
82.94834369070001
 30
0.0
 10
69.9305802539
 20
82.7409419696
 30
0.0
 10
70.0658167357
 20
82.4754216362
 30
0.0
 10
70.25784309149999
 20
82.0392658989
 30
0.0
 10
70.41296329810001
 20
81.58764454479999
 30
0.0
 10
70.5312461551
 20
81.12602161540001
 30
0.0
 10
70.6021189283
 20
80.77559315329999
 30
0.0
 10
70.6558342303
 20
80.42215687889999
 30
0.0
 10
70.693343662
 20
80.06664033359999
 30
0.0
 10
70.71528924899999
 20
79.709834379
 30
0.0
 10
70.7198500212
 20
79.4715517076
 30
0.0
 10
70.7198507858
 20
79.3524261167
 30
0.0
  0
SPLINE
  5
1753
330
21A
100
AcDbEntity
  8
0
  6
Continuous
 62
     7
100
AcDbSpline
210
0.0
220
0.0
230
1.0
 70
     8
 71
     3
 72
    70
 73
    66
 74
     0
 42
0.0000000001
 43
0.0000000001
 40
0.0
 40
0.0
 40
0.0
 40
0.0
 40
0.0156256396
 40
0.0312512899
 40
0.0468769173
 40
0.0625025487
 40
0.0937536652
 40
0.125004774
 40
0.1406303913
 40
0.1562560056
 40
0.1718816179
 40
0.1875072299
 40
0.2031328384
 40
0.2187584497
 40
0.2343840594
 40
0.2500096106
 40
0.265635059
 40
0.2812605021
 40
0.2968859614999999
 40
0.3125114357999999
 40
0.3281369101
 40
0.3437623963
 40
0.3593879089
 40
0.3750134406
 40
0.4062634049
 40
0.4375134136
 40
0.4687633980000001
 40
0.5000133319
 40
0.5156388394000001
 40
0.5312643276
 40
0.5468897966
 40
0.5625152592
 40
0.5703280612000001
 40
0.5781408618000001
 40
0.5859536604
 40
0.5937664546
 40
0.6015792505
 40
0.605485657
 40
0.6093920628000001
 40
0.6172048011
 40
0.6250174845
 40
0.632830169
 40
0.6406428666
 40
0.6484555822
 40
0.6562682994
 40
0.6718928137000001
 40
0.6875173954000001
 40
0.7187595873000001
 40
0.7343846265999999
 40
0.7500099103000001
 40
0.7812538729999999
 40
0.8124982856999999
 40
0.8281241531999999
 40
0.8437500264
 40
0.8593759051999999
 40
0.8750017815999999
 40
0.9062461943
 40
0.9218719808999999
 40
0.9374975694999999
 40
0.9531229451999999
 40
0.9687480998000001
 40
0.9765611047
 40
0.9843740389
 40
0.9921871151999999
 40
1.0
 40
1.0
 40
1.0
 40
1.0
 10
52.233448065
 20
60.696046533
 30
0.0
 10
52.4572707108
 20
60.6959071555
 30
0.0
 10
52.90491794819999
 20
60.697248308
 30
0.0
 10
53.5763632417
 20
60.7031644133
 30
0.0
 10
54.2477626916
 20
60.7130472321
 30
0.0
 10
55.1428642071
 20
60.7315344289
 30
0.0
 10
56.2615164308
 20
60.7644173029
 30
0.0
 10
57.37970986029999
 20
60.810330127
 30
0.0
 10
58.2738890592
 20
60.8549538814
 30
0.0
 10
58.9443168326
 20
60.8923702252
 30
0.0
 10
59.6145119876
 20
60.9337390828
 30
0.0
 10
60.284454878
 20
60.97900835569999
 30
0.0
 10
60.9541210553
 20
61.0282047153
 30
0.0
 10
61.6234743189
 20
61.0814926254
 30
0.0
 10
62.2925345818
 20
61.13828806359999
 30
0.0
 10
62.9612413586
 20
61.1992420951
 30
0.0
 10
63.62886712989999
 20
61.2712491655
 30
0.0
 10
64.29512545850001
 20
61.3549336863
 30
0.0
 10
64.95984355659999
 20
61.450078051
 30
0.0
 10
65.6228600094
 20
61.5564337705
 30
0.0
 10
66.2839730739
 20
61.67405035569999
 30
0.0
 10
66.94297510670001
 20
61.8029712812
 30
0.0
 10
67.59968183699999
 20
61.94312779569999
 30
0.0
 10
68.4719594649
 20
62.1448735657
 30
0.0
 10
69.5556439772
 20
62.4250328375
 30
0.0
 10
70.8438054759
 20
62.8053609162
 30
0.0
 10
72.11830382630001
 20
63.2292352558
 30
0.0
 10
73.16768256109999
 20
63.61867527770001
 30
0.0
 10
73.9988086101
 20
63.9515358791
 30
0.0
 10
74.6178266367
 20
64.21177315359999
 30
0.0
 10
75.23231117979999
 20
64.48253279800001
 30
0.0
 10
75.7404483914
 20
64.71689981689999
 30
0.0
 10
76.14450561249999
 20
64.9095792742
 30
0.0
 10
76.4463112354
 20
65.0566606207
 30
0.0
 10
76.746882157
 20
65.206248197
 30
0.0
 10
77.04613767079999
 20
65.358451806
 30
0.0
 10
77.29435093140001
 20
65.4875548527
 30
0.0
 10
77.49234906779999
 20
65.59192598439999
 30
0.0
 10
77.6900032827
 20
65.6969435817
 30
0.0
 10
77.9359513613
 20
65.8303284311
 30
0.0
 10
78.22767549699999
 20
65.99654790489999
 30
0.0
 10
78.515771219
 20
66.1689796201
 30
0.0
 10
78.7998974805
 20
66.34787714409999
 30
0.0
 10
79.0801457649
 20
66.5327899867
 30
0.0
 10
79.44843135159999
 20
66.7872694421
 30
0.0
 10
79.8981800259
 20
67.12047174520001
 30
0.0
 10
80.5938951727
 20
67.68403130590001
 30
0.0
 10
81.25226666960001
 20
68.2924979239
 30
0.0
 10
81.8689446647
 20
68.9416453994
 30
0.0
 10
82.45684338869999
 20
69.6170422698
 30
0.0
 10
83.13596198899999
 20
70.5081559332
 30
0.0
 10
83.735183646
 20
71.45486439079999
 30
0.0
 10
84.1639360301
 20
72.2409779442
 30
0.0
 10
84.45957706319999
 20
72.8441130745
 30
0.0
 10
84.72876585919999
 20
73.4595134218
 30
0.0
 10
85.05176983469999
 20
74.2946361313
 30
0.0
 10
85.31995797929999
 20
75.1501278912
 30
0.0
 10
85.53191008689999
 20
76.0200826309
 30
0.0
 10
85.66230042209999
 20
76.67900077350001
 30
0.0
 10
85.76376499529999
 20
77.3429544203
 30
0.0
 10
85.824115103
 20
77.8994320056
 30
0.0
 10
85.85797808969999
 20
78.345820565
 30
0.0
 10
85.8760847499
 20
78.6811012859
 30
0.0
 10
85.88723573600001
 20
79.01667752989999
 30
0.0
 10
85.8899677169
 20
79.24051099579999
 30
0.0
 10
85.8899652078
 20
79.3524232719
 30
0.0
  0
SPLINE
  5
1754
330
21A
100
AcDbEntity
  8
0
  6
Continuous
 62
     7
100
AcDbSpline
210
0.0
220
0.0
230
1.0
 70
     8
 71
     3
 72
    67
 73
    63
 74
     0
 42
0.0000000001
 43
0.0000000001
 40
0.0
 40
0.0
 40
0.0
 40
0.0
 40
0.0156252676
 40
0.0312504977
 40
0.0468757862
 40
0.0625010759
 40
0.0937404252
 40
0.1249796994
 40
0.1406049814
 40
0.1562302597
 40
0.1718555403
 40
0.1874807612
 40
0.2031057935
 40
0.2187305518
 40
0.2343550287
 40
0.2499792606
 40
0.2656033139
 40
0.2734159955
 40
0.2812286486
 40
0.2890412757
 40
0.2968538889
 40
0.3046664907999999
 40
0.3085728738
 40
0.3124792528
 40
0.3163856278
 40
0.320292
 40
0.3241983805
 40
0.3281047694
 40
0.3359175195000001
 40
0.3398239176
 40
0.343730316
 40
0.3515430893
 40
0.3593558651
 40
0.3671686447999999
 40
0.3749814296
 40
0.3906068645
 40
0.4062323197000001
 40
0.4218577931000001
 40
0.4374832921000001
 40
0.4687336292000001
 40
0.4999842303000001
 40
0.5312350347
 40
0.562485958
 40
0.5937369170000001
 40
0.624987848
 40
0.6562387705
 40
0.6874897021999999
 40
0.7031152739000001
 40
0.7187408474
 40
0.7343664206999999
 40
0.7499919829000001
 40
0.7656175359999999
 40
0.7812430893000001
 40
0.8124938845
 40
0.8437447034999999
 40
0.8749955462
 40
0.906246454
 40
0.9374974509999999
 40
0.9531230993999999
 40
0.968748732
 40
0.984374389
 40
1.0
 40
1.0
 40
1.0
 40
1.0
 10
12.5772135617
 20
79.3522908009
 30
0.0
 10
12.5771053234
 20
79.1009863102
 30
0.0
 10
12.5902593429
 20
78.5982574062
 30
0.0
 10
12.6512800287
 20
77.8464665813
 30
0.0
 10
12.7525403582
 20
77.0989998565
 30
0.0
 10
12.9407828088
 20
76.11134140709999
 30
0.0
 10
13.2747183931
 20
74.8977136626
 30
0.0
 10
13.737141611
 20
73.7269853983
 30
0.0
 10
14.1805167176
 20
72.82458340489999
 30
0.0
 10
14.5491085473
 20
72.1664792661
 30
0.0
 10
14.9525171945
 20
71.5291522016
 30
0.0
 10
15.3895138159
 20
70.91436684600001
 30
0.0
 10
15.8589053759
 20
70.3239552359
 30
0.0
 10
16.3593336794
 20
69.7596266028
 30
0.0
 10
16.8893527115
 20
69.22300789720001
 30
0.0
 10
17.4473957149
 20
68.7156296206
 30
0.0
 10
17.9344926481
 20
68.31836416649998
 30
0.0
 10
18.3365195258
 20
68.0166663806
 30
0.0
 10
18.6440197784
 20
67.79854658859999
 30
0.0
 10
18.9572422504
 20
67.588732706
 30
0.0
 10
19.2760099947
 20
67.38744442339999
 30
0.0
 10
19.5461010407
 20
67.22696103549999
 30
0.0
 10
19.7646652673
 20
67.1029155059
 30
0.0
 10
19.9297815746
 20
67.01200920799999
 30
0.0
 10
20.0961115623
 20
66.9233421593
 30
0.0
 10
20.2637269431
 20
66.83712784499999
 30
0.0
 10
20.432551118
 20
66.7533090988
 30
0.0
 10
20.6588317555
 20
66.6439720177
 30
0.0
 10
20.8863710664
 20
66.5372659554
 30
0.0
 10
21.1147231587
 20
66.43232960049999
 30
0.0
 10
21.3435123658
 20
66.3283474502
 30
0.0
 10
21.630424917
 20
66.2004163662
 30
0.0
 10
21.9762199332
 20
66.05031101449999
 30
0.0
 10
22.3233861282
 20
65.90340452619999
 30
0.0
 10
22.7880537626
 20
65.71179759839999
 30
0.0
 10
23.3720825049
 20
65.4801138104
 30
0.0
 10
24.0775566681
 20
65.21411380239999
 30
0.0
 10
24.7872512411
 20
64.9595878429
 30
0.0
 10
25.7385933773
 20
64.63480408709999
 30
0.0
 10
26.9364935497
 20
64.25488956249999
 30
0.0
 10
28.385221826
 20
63.83637951529999
 30
0.0
 10
29.8428710387
 20
63.4501501433
 30
0.0
 10
31.3079648743
 20
63.0932621476
 30
0.0
 10
32.7792863872
 20
62.7630409564
 30
0.0
 10
34.2560407647
 20
62.4580623004
 30
0.0
 10
35.73759206760001
 20
62.1773584591
 30
0.0
 10
36.9756839196
 20
61.9625358147
 30
0.0
 10
37.9679393049
 20
61.8014808812
 30
0.0
 10
38.712948032
 20
61.6858169255
 30
0.0
 10
39.4586525314
 20
61.57473196409999
 30
0.0
 10
40.205140621
 20
61.4690186909
 30
0.0
 10
40.9525529876
 20
61.3700309924
 30
0.0
 10
41.9502686427
 20
61.24724312569999
 30
0.0
 10
43.1994523435
 20
61.1108166622
 30
0.0
 10
44.7011867387
 20
60.9743495168
 30
0.0
 10
46.2052003131
 20
60.86569781689999
 30
0.0
 10
47.71099292359999
 20
60.78545510649999
 30
0.0
 10
48.966802399
 20
60.7407044382
 30
0.0
 10
49.9717724162
 20
60.71716714109999
 30
0.0
 10
50.7256157928
 20
60.7051963565
 30
0.0
 10
51.47951714600001
 20
60.6980381725
 30
0.0
 10
51.9821380837
 20
60.69621389069999
 30
0.0
 10
52.233448065
 20
60.696046533
 30
0.0
  0
SPLINE
  5
1755
330
21A
100
AcDbEntity
  8
0
  6
Continuous
 62
     7
100
AcDbSpline
210
0.0
220
0.0
230
1.0
 70
     8
 71
     3
 72
    63
 73
    59
 74
     0
 42
0.0000000001
 43
0.0000000001
 40
0.0
 40
0.0
 40
0.0
 40
0.0
 40
0.0312521245
 40
0.0468782605
 40
0.0625043925
 40
0.0781305195
 40
0.093756645
 40
0.1250085773
 40
0.1562605342
 40
0.1875124573
 40
0.2187643639
 40
0.2343904816
 40
0.250016599
 40
0.2656427251
 40
0.2812688623
 40
0.2968949998
 40
0.3125211354
 40
0.3437731956
 40
0.375025247
 40
0.4062773057
 40
0.4375293894
 40
0.4687814484000001
 40
0.5000333922
 40
0.5312851274
 40
0.5625366023
 40
0.5781626731000001
 40
0.5937887174
 40
0.6094147322
 40
0.6250407169
 40
0.6328537775000001
 40
0.6406668338000001
 40
0.6484798863
 40
0.6562929377000001
 40
0.6601994746000001
 40
0.6641060114
 40
0.668012548
 40
0.6719190822
 40
0.6758256090000002
 40
0.6797321268000001
 40
0.6836386450000001
 40
0.6875451634000001
 40
0.6953580184
 40
0.7031708799
 40
0.7109837542000001
 40
0.7187966506
 40
0.7344211261
 40
0.7500457415000001
 40
0.7812841735
 40
0.8125237629
 40
0.8437641387999999
 40
0.8750045145000001
 40
0.9062449289999999
 40
0.9218707698999999
 40
0.9374965996
 40
0.9531224291
 40
0.9687482821999999
 40
0.9843741113
 40
1.0
 40
1.0
 40
1.0
 40
1.0
 10
52.233340573
 20
98.00880564879999
 30
0.0
 10
51.7307221558
 20
98.0086428691
 30
0.0
 10
50.9767820315
 20
98.00381849030001
 30
0.0
 10
49.9716703371
 20
97.9874688097
 30
0.0
 10
49.2179351562
 20
97.96998161499999
 30
0.0
 10
48.46435738090001
 20
97.9466232627
 30
0.0
 10
47.45990102319999
 20
97.90674319450001
 30
0.0
 10
46.2051059567
 20
97.83902122209999
 30
0.0
 10
44.70110879009999
 20
97.7302262391
 30
0.0
 10
43.1993366883
 20
97.59410111400001
 30
0.0
 10
41.950150592
 20
97.45764370879999
 30
0.0
 10
40.9524360805
 20
97.33481730120001
 30
0.0
 10
40.20502320489999
 20
97.2358107926
 30
0.0
 10
39.4585318685
 20
97.13009942680001
 30
0.0
 10
38.7128236465
 20
97.0190190337
 30
0.0
 10
37.9678124306
 20
96.90335157459999
 30
0.0
 10
36.9755533856
 20
96.74229428709999
 30
0.0
 10
35.7374567272
 20
96.52746996080001
 30
0.0
 10
34.2559002159
 20
96.24676142490001
 30
0.0
 10
32.7791402856
 20
95.94177999480001
 30
0.0
 10
31.3078153203
 20
95.61154692569999
 30
0.0
 10
29.84271199030001
 20
95.2546716185
 30
0.0
 10
28.3850604664
 20
94.8684248362
 30
0.0
 10
26.9363336899
 20
94.4498876007
 30
0.0
 10
25.7384221073
 20
94.0699915052
 30
0.0
 10
24.7870766529
 20
93.7452037497
 30
0.0
 10
24.0773775821
 20
93.49068098309999
 30
0.0
 10
23.3719059175
 20
93.2246658424
 30
0.0
 10
22.7878833782
 20
92.9929613668
 30
0.0
 10
22.3232010914
 20
92.8013863219
 30
0.0
 10
21.9760184378
 20
92.6545149822
 30
0.0
 10
21.6302497566
 20
92.50434559090001
 30
0.0
 10
21.3433344961
 20
92.37641857579999
 30
0.0
 10
21.1145333839
 20
92.27246064030001
 30
0.0
 10
20.9433073126
 20
92.19367132329999
 30
0.0
 10
20.772470863
 20
92.11404122399999
 30
0.0
 10
20.602030485
 20
92.03356594909999
 30
0.0
 10
20.4322807736
 20
91.95163918110001
 30
0.0
 10
20.2635574224
 20
91.86761460459999
 30
0.0
 10
20.0960177275
 20
91.7812535856
 30
0.0
 10
19.8741712856
 20
91.66317708139999
 30
0.0
 10
19.5998853554
 20
91.5099707763
 30
0.0
 10
19.2758528965
 20
91.3172757607
 30
0.0
 10
18.9570745604
 20
91.11599803430001
 30
0.0
 10
18.5394546753
 20
90.8362903503
 30
0.0
 10
18.0317093416
 20
90.46576127899999
 30
0.0
 10
17.2526078201
 20
89.8303598446
 30
0.0
 10
16.3443392363
 20
88.9588753033
 30
0.0
 10
15.3731489374
 20
87.8025316493
 30
0.0
 10
14.5316714284
 20
86.5484786989
 30
0.0
 10
13.8292801201
 20
85.21164686469999
 30
0.0
 10
13.3670889503
 20
84.0407583021
 30
0.0
 10
13.0741641294
 20
83.0789421567
 30
0.0
 10
12.8934853429
 20
82.3466016184
 30
0.0
 10
12.7525183387
 20
81.6056152364
 30
0.0
 10
12.651568166
 20
80.85811986759999
 30
0.0
 10
12.5906785381
 20
80.1063153852
 30
0.0
 10
12.5773039863
 20
79.60359721589999
 30
0.0
 10
12.5772135617
 20
79.3522908009
 30
0.0
  0
SPLINE
  5
1756
330
21A
100
AcDbEntity
  8
0
  6
Continuous
 62
     7
100
AcDbSpline
210
0.0
220
0.0
230
1.0
 70
     8
 71
     3
 72
    74
 73
    70
 74
     0
 42
0.0000000001
 43
0.0000000001
 40
0.0
 40
0.0
 40
0.0
 40
0.0
 40
0.0078129028
 40
0.0156260317
 40
0.0234389866
 40
0.0312520579
 40
0.0390652531
 40
0.0468784842
 40
0.0625041723
 40
0.0937484751
 40
0.1249928848
 40
0.1406187623
 40
0.1562446367
 40
0.171870511
 40
0.1874963595
 40
0.2187403639
 40
0.2499834823
 40
0.2656083907
 40
0.2812331752
 40
0.2968579032
 40
0.3124825494
 40
0.328107086
 40
0.3437315231
 40
0.351544193
 40
0.3593568646
 40
0.36716952
 40
0.3749821828
 40
0.3827948587
 40
0.3906075927
 40
0.3945139922999999
 40
0.3984203925
 40
0.4062331769
 40
0.4140459635
 40
0.4218587497
 40
0.429671538
 40
0.4374843287
 40
0.4531097722000001
 40
0.4687352224000001
 40
0.484360691
 40
0.4999861859000001
 40
0.5156117114000001
 40
0.5312372616
 40
0.5624872492000001
 40
0.5937372381000001
 40
0.6249871545
 40
0.6406126568000001
 40
0.6562381329
 40
0.6718635883000001
 40
0.6874890405
 40
0.7031144916
 40
0.718739926
 40
0.7343653441
 40
0.7421781284000001
 40
0.7499909144
 40
0.7578037038
 40
0.7656165017000001
 40
0.7734293043000001
 40
0.7812421070000001
 40
0.7890549095999999
 40
0.7968677122
 40
0.8124933012000001
 40
0.8281188902
 40
0.8437444798999999
 40
0.8593700720999999
 40
0.8749956671999999
 40
0.9062467304
 40
0.9374978053999999
 40
0.9687488925
 40
1.0
 40
1.0
 40
1.0
 40
1.0
 10
85.8899652078
 20
79.3524232719
 30
0.0
 10
85.8899646529
 20
79.46433632929999
 30
0.0
 10
85.88726282899999
 20
79.68817220359999
 30
0.0
 10
85.8760727711
 20
80.0237506695
 30
0.0
 10
85.85797358189999
 20
80.3590336493
 30
0.0
 10
85.8325895175
 20
80.69384573319998
 30
0.0
 10
85.79997071959999
 20
81.0280346338
 30
0.0
 10
85.74684546150001
 20
81.47256362490001
 30
0.0
 10
85.6285119216
 20
82.24709357029999
 30
0.0
 10
85.38695518069999
 20
83.34116138129999
 30
0.0
 10
85.0517461395
 20
84.4102579405
 30
0.0
 10
84.72874483229999
 20
85.2454125144
 30
0.0
 10
84.4595383933
 20
85.8608032409
 30
0.0
 10
84.1638979624
 20
86.46394325459999
 30
0.0
 10
83.7351325156
 20
87.25004651579999
 30
0.0
 10
83.13597318579999
 20
88.19677893629998
 30
0.0
 10
82.45678340700001
 20
89.0878262674
 30
0.0
 10
81.86895740889999
 20
89.76323818350001
 30
0.0
 10
81.4063748184
 20
90.25021006700001
 30
0.0
 10
80.92306975539999
 20
90.71659508000001
 30
0.0
 10
80.4200392545
 20
91.16163649569999
 30
0.0
 10
79.89816647970001
 20
91.58440462969998
 30
0.0
 10
79.44841474909999
 20
91.9175843034
 30
0.0
 10
79.0801042955
 20
92.17202811600001
 30
0.0
 10
78.7999334314
 20
92.3570568949
 30
0.0
 10
78.51578678199999
 20
92.5359246146
 30
0.0
 10
78.22763079229999
 20
92.70825788000001
 30
0.0
 10
77.93583782609999
 20
92.87435563690001
 30
0.0
 10
77.6899825366
 20
93.00791067450001
 30
0.0
 10
77.49240438619999
 20
93.11307359009999
 30
0.0
 10
77.2943992967
 20
93.21743361240001
 30
0.0
 10
77.0460739751
 20
93.34632282219999
 30
0.0
 10
76.746853761
 20
93.4985960152
 30
0.0
 10
76.4463480613
 20
93.6483181318
 30
0.0
 10
76.1445095089
 20
93.79533526219999
 30
0.0
 10
75.740406381
 20
93.9879212784
 30
0.0
 10
75.2322783192
 20
94.22231081280001
 30
0.0
 10
74.6178068947
 20
94.493107707
 30
0.0
 10
73.9987865464
 20
94.75334240120002
 30
0.0
 10
73.37540752169999
 20
95.0029563034
 30
0.0
 10
72.74786227119999
 20
95.2419112353
 30
0.0
 10
71.9058662769
 20
95.546247529
 30
0.0
 10
70.8437802094
 20
95.8995894609
 30
0.0
 10
69.5556012337
 20
96.27985371360001
 30
0.0
 10
68.4719028799
 20
96.5599792919
 30
0.0
 10
67.59962332829999
 20
96.76172687450002
 30
0.0
 10
66.94291564939999
 20
96.90188754739999
 30
0.0
 10
66.2839125871
 20
97.03081302379999
 30
0.0
 10
65.62279772560001
 20
97.14843090950001
 30
0.0
 10
64.9597783055
 20
97.2547837976
 30
0.0
 10
64.295058799
 20
97.3499244515
 30
0.0
 10
63.73983952029999
 20
97.41967975889998
 30
0.0
 10
63.2949823296
 20
97.46958592889999
 30
0.0
 10
62.96103924029999
 20
97.5042583073
 30
0.0
 10
62.6268243523
 20
97.53619687389999
 30
0.0
 10
62.2924178067
 20
97.56604293950001
 30
0.0
 10
61.95791720439999
 20
97.5948066139
 30
0.0
 10
61.62336098359999
 20
97.6229177895
 30
0.0
 10
61.28872544
 20
97.65007182299999
 30
0.0
 10
60.8424323486
 20
97.6848597474
 30
0.0
 10
60.2843729827
 20
97.72582810750002
 30
0.0
 10
59.61443013770001
 20
97.77112957860001
 30
0.0
 10
58.9442317439
 20
97.8124823851
 30
0.0
 10
58.27380215289999
 20
97.84990489100001
 30
0.0
 10
57.3796198634
 20
97.89452436200001
 30
0.0
 10
56.26142224270001
 20
97.9404357277
 30
0.0
 10
54.9190387025
 20
97.97990803680001
 30
0.0
 10
53.5762856279
 20
98.00367857659999
 30
0.0
 10
52.6809855652
 20
98.00895019149999
 30
0.0
 10
52.233340573
 20
98.00880564879999
 30
0.0
  0
SPLINE
  5
1757
330
21A
100
AcDbEntity
  8
0
  6
Continuous
 62
     7
100
AcDbSpline
210
0.0
220
0.0
230
1.0
 70
     8
 71
     3
 72
    37
 73
    33
 74
     0
 42
0.0000000001
 43
0.0000000001
 40
0.0
 40
0.0
 40
0.0
 40
0.0
 40
0.03125508
 40
0.0625094422
 40
0.0937642242
 40
0.1250189067
 40
0.1874527645
 40
0.2498865117
 40
0.2811411719
 40
0.3123958288
 40
0.3436504895000001
 40
0.374905163
 40
0.4061598624000001
 40
0.4374146001
 40
0.4686693855
 40
0.499924211
 40
0.5311790602000001
 40
0.5624339104000001
 40
0.593688736
 40
0.6249435215
 40
0.6561982627000001
 40
0.6874529581000001
 40
0.7187076185
 40
0.7499622562999999
 40
0.7812168817
 40
0.8124715064
 40
0.8437261376999998
 40
0.8749807790999998
 40
0.9062354159999998
 40
0.9374902047999999
 40
0.9687447403
 40
1.0
 40
1.0
 40
1.0
 40
1.0
 10
45.7072596418
 20
79.3524261167
 30
0.0
 10
45.70725945249999
 20
79.28790020640001
 30
0.0
 10
45.7009162622
 20
79.1587593392
 30
0.0
 10
45.6724583359
 20
78.96699076119999
 30
0.0
 10
45.6253178775
 20
78.7789043575
 30
0.0
 10
45.5382660093
 20
78.53572577619999
 30
0.0
 10
45.3852259377
 20
78.24954256720001
 30
0.0
 10
45.1791138152
 20
77.99886082909999
 30
0.0
 10
44.9875389604
 20
77.8256158308
 30
0.0
 10
44.831651491
 20
77.7103041627
 30
0.0
 10
44.6652008468
 20
77.6108793317
 30
0.0
 10
44.4897876456
 20
77.528278466
 30
0.0
 10
44.307116824
 20
77.46329058100001
 30
0.0
 10
44.11895779299999
 20
77.41651446680001
 30
0.0
 10
43.9271273626
 20
77.3883635346
 30
0.0
 10
43.73346641909999
 20
77.37906673170001
 30
0.0
 10
43.5398215922
 20
77.38867932810001
 30
0.0
 10
43.3480320738
 20
77.417094985
 30
0.0
 10
43.1599202152
 20
77.4640495032
 30
0.0
 10
42.9772801983
 20
77.52911603920001
 30
0.0
 10
42.8018631978
 20
77.6117003824
 30
0.0
 10
42.63536004769999
 20
77.71103962779999
 30
0.0
 10
42.4793843881
 20
77.8262068044
 30
0.0
 10
42.335454906
 20
77.9561162861
 30
0.0
 10
42.2049769328
 20
78.0995313652
 30
0.0
 10
42.0892237933
 20
78.2550747236
 30
0.0
 10
41.989322273
 20
78.42124403619999
 30
0.0
 10
41.9062412805
 20
78.59643029369999
 30
0.0
 10
41.8407832864
 20
78.7789337577
 30
0.0
 10
41.79357859239999
 20
78.9669915699
 30
0.0
 10
41.7650753974
 20
79.1587586814
 30
0.0
 10
41.758723281
 20
79.2878998355
 30
0.0
 10
41.7587230747
 20
79.3524261167
 30
0.0
  0
SPLINE
  5
1758
330
21A
100
AcDbEntity
  8
0
  6
Continuous
 62
     7
100
AcDbSpline
210
0.0
220
0.0
230
1.0
 70
     8
 71
     3
 72
    56
 73
    52
 74
     0
 42
0.0000000001
 43
0.0000000001
 40
0.0
 40
0.0
 40
0.0
 40
0.0
 40
0.0625004398
 40
0.1249996519
 40
0.1562496658
 40
0.187499516
 40
0.2187492266
 40
0.2343741664
 40
0.2499990949
 40
0.2656239793
 40
0.2812488632
 40
0.2968737666
 40
0.3124986755
 40
0.3437478408
 40
0.3749969774
 40
0.406246085
 40
0.4374951554999999
 40
0.4687441774
 40
0.4999931265
 40
0.5312419670000001
 40
0.5468671719
 40
0.5624924029000001
 40
0.5781176604000001
 40
0.5937429379000001
 40
0.6015557259000001
 40
0.6093685192000001
 40
0.6171813200000001
 40
0.6249941192000001
 40
0.640619254
 40
0.6562445287
 40
0.6718698862000001
 40
0.6874953214000001
 40
0.7187407471
 40
0.7499854966
 40
0.7656112349999999
 40
0.7812370321
 40
0.7968628951000002
 40
0.8124888354000001
 40
0.8203024228
 40
0.8281160465999999
 40
0.8359297056
 40
0.8437433768000001
 40
0.8593692648999999
 40
0.8749953598000001
 40
0.9062365304
 40
0.9218632704
 40
0.9374902397999999
 40
0.9531174420000001
 40
0.9687448332999998
 40
0.9843723406999998
 40
1.0
 40
1.0
 40
1.0
 40
1.0
 10
52.3484629852
 20
70.35935863609999
 30
0.0
 10
52.82446408569999
 20
70.3392742778
 30
0.0
 10
53.7769378649
 20
70.30957594020001
 30
0.0
 10
54.9681174764
 20
70.3021959539
 30
0.0
 10
55.92087577
 20
70.3165404433
 30
0.0
 10
56.63520768319999
 20
70.33809944229999
 30
0.0
 10
57.23012563680001
 20
70.36559315640001
 30
0.0
 10
57.7057161096
 20
70.39375046939999
 30
0.0
 10
58.0622133856
 20
70.41796302899999
 30
0.0
 10
58.41847859699999
 20
70.4453957737
 30
0.0
 10
58.77440787720001
 20
70.476915682
 30
0.0
 10
59.1299209841
 20
70.5128379132
 30
0.0
 10
59.6032977107
 20
70.56663198409999
 30
0.0
 10
60.1936586921
 20
70.6453759912
 30
0.0
 10
60.89922689
 20
70.7592962834
 30
0.0
 10
61.6011811629
 20
70.8937755386
 30
0.0
 10
62.29863948520001
 20
71.04995902430001
 30
0.0
 10
62.9905847204
 20
71.2290607298
 30
0.0
 10
63.6758170082
 20
71.4323779029
 30
0.0
 10
64.2401017028
 20
71.62320926859999
 30
0.0
 10
64.6865739368
 20
71.7895290916
 30
0.0
 10
65.0187273785
 20
71.92133664029999
 30
0.0
 10
65.34789512399999
 20
72.060435466
 30
0.0
 10
65.61944885489999
 20
72.1826780145
 30
0.0
 10
65.8348851364
 20
72.28434994930001
 30
0.0
 10
65.99546183689999
 20
72.362694804
 30
0.0
 10
66.1550848664
 20
72.442964847
 30
0.0
 10
66.36642726579999
 20
72.5528974307
 30
0.0
 10
66.6270224469
 20
72.6970996717
 30
0.0
 10
66.9336872977
 20
72.88063018709999
 30
0.0
 10
67.23375490879999
 20
73.0747864249
 30
0.0
 10
67.62428346909999
 20
73.34776469659999
 30
0.0
 10
68.0932589308
 20
73.7156505282
 30
0.0
 10
68.5319359635
 20
74.11937640969999
 30
0.0
 10
68.8612282067
 20
74.4638191712
 30
0.0
 10
69.096550369
 20
74.7328945311
 30
0.0
 10
69.31926546609999
 20
75.0124952129
 30
0.0
 10
69.4936207604
 20
75.2540553365
 30
0.0
 10
69.6259277487
 20
75.452196721
 30
0.0
 10
69.7214879818
 20
75.60320246199999
 30
0.0
 10
69.8133136618
 20
75.7565085427
 30
0.0
 10
69.9305802539
 20
75.9639102639
 30
0.0
 10
70.0658167357
 20
76.22943059729999
 30
0.0
 10
70.25784309149999
 20
76.66558633459999
 30
0.0
 10
70.41296329810001
 20
77.11720768869999
 30
0.0
 10
70.5312461551
 20
77.5788306181
 30
0.0
 10
70.6021189283
 20
77.92925908019999
 30
0.0
 10
70.6558342303
 20
78.28269535459999
 30
0.0
 10
70.693343662
 20
78.6382118999
 30
0.0
 10
70.71528924899999
 20
78.99501785449999
 30
0.0
 10
70.7198500212
 20
79.2333005259
 30
0.0
 10
70.7198507858
 20
79.3524261167
 30
0.0
  0
SPLINE
  5
1759
330
21A
100
AcDbEntity
  8
0
  6
Continuous
 62
     7
100
AcDbSpline
210
0.0
220
0.0
230
1.0
 70
     8
 71
     3
 72
    66
 73
    62
 74
     0
 42
0.0000000001
 43
0.0000000001
 40
0.0
 40
0.0
 40
0.0
 40
0.0
 40
0.0312311858
 40
0.0624635659
 40
0.093697934
 40
0.1093230716
 40
0.1249483444
 40
0.1405737547
 40
0.1561992797
 40
0.1718249018
 40
0.1796384113
 40
0.1874519371
 40
0.195265479
 40
0.2030790323
 40
0.2108925861
 40
0.2187061299
 40
0.2265196548
 40
0.2343331592
 40
0.2382399495
 40
0.2421467372
 40
0.2460535164
 40
0.2499603059
 40
0.2577738294
 40
0.2655873602
 40
0.2734008831
 40
0.2812143934
 40
0.2968410327
 40
0.3124676331
 40
0.328094189
 40
0.3437206996
 40
0.3749708857
 40
0.4062207279
 40
0.4374704642000001
 40
0.4530968845000001
 40
0.4687233351
 40
0.4843497851
 40
0.4999762264000001
 40
0.507789602
 40
0.5156029800000001
 40
0.5234163623
 40
0.5312297488000001
 40
0.5351364651
 40
0.5390431793000001
 40
0.5468565924000001
 40
0.5546699905
 40
0.5624833734
 40
0.5781100631000001
 40
0.5937366912
 40
0.609363256
 40
0.6249897562
 40
0.6562423757
 40
0.6874947443000002
 40
0.7187468359999999
 40
0.7499986479000001
 40
0.7812501542
 40
0.8125013331999999
 40
0.8750019976999999
 40
0.9062521071999999
 40
0.9375018268999999
 40
0.9687511323999999
 40
1.0
 40
1.0
 40
1.0
 40
1.0
 10
32.7861973888
 20
79.3524261167
 30
0.0
 10
32.7861992303
 20
79.10750497470001
 30
0.0
 10
32.8197308676
 20
78.61699848090001
 30
0.0
 10
32.9682544798
 20
77.8953277281
 30
0.0
 10
33.1685936843
 20
77.31472468699999
 30
0.0
 10
33.37050538710001
 20
76.8679817948
 30
0.0
 10
33.5417416536
 20
76.54243580970001
 30
0.0
 10
33.7314880044
 20
76.2273502022
 30
0.0
 10
33.9385331019
 20
75.92336420310001
 30
0.0
 10
34.12457445760001
 20
75.6797697296
 30
0.0
 10
34.2809408151
 20
75.4910134831
 30
0.0
 10
34.4018064146
 20
75.3524789975
 30
0.0
 10
34.5262648314
 20
75.21717230580001
 30
0.0
 10
34.6532996869
 20
75.0842883941
 30
0.0
 10
34.7829571943
 20
74.9539600765
 30
0.0
 10
34.9150876399
 20
74.82614139029999
 30
0.0
 10
35.049622508
 20
74.70085732290001
 30
0.0
 10
35.16366712510001
 20
74.59856606789999
 30
0.0
 10
35.25605108420001
 20
74.5180420839
 30
0.0
 10
35.3257771688
 20
74.45815394340001
 30
0.0
 10
35.3961956052
 20
74.39907996409999
 30
0.0
 10
35.490959896
 20
74.3213699554
 30
0.0
 10
35.6106386398
 20
74.22573723220001
 30
0.0
 10
35.75582728820001
 20
74.11298053109999
 30
0.0
 10
35.9025591476
 20
74.0022381185
 30
0.0
 10
36.1002100109
 20
73.8572899179
 30
0.0
 10
36.350908569
 20
73.681117794
 30
0.0
 10
36.6571890439
 20
73.4776938149
 30
0.0
 10
36.9686554531
 20
73.28229775939999
 30
0.0
 10
37.3905185406
 20
73.0326288985
 30
0.0
 10
37.9298190341
 20
72.741232904
 30
0.0
 10
38.5946982091
 20
72.42660891539999
 30
0.0
 10
39.1627366625
 20
72.1960944546
 30
0.0
 10
39.6240997672
 20
72.0304338862
 30
0.0
 10
39.9733186905
 20
71.9153857845
 30
0.0
 10
40.3253983163
 20
71.80943529770001
 30
0.0
 10
40.6209552405
 20
71.7286413388
 30
0.0
 10
40.8585505086
 20
71.6684590326
 30
0.0
 10
41.0372959992
 20
71.62553471609999
 30
0.0
 10
41.2165575207
 20
71.5848224335
 30
0.0
 10
41.3663416946
 20
71.5526996011
 30
0.0
 10
41.48640831289999
 20
71.5281591393
 30
0.0
 10
41.60650722479999
 20
71.5037776181
 30
0.0
 10
41.75673011489999
 20
71.4737922109
 30
0.0
 10
41.93713877909999
 20
71.4385267607
 30
0.0
 10
42.17786961589999
 20
71.3924731267
 30
0.0
 10
42.4791194512
 20
71.33668377779999
 30
0.0
 10
42.84112034649999
 20
71.272512305
 30
0.0
 10
43.2035881097
 20
71.2110411143
 30
0.0
 10
43.6874531992
 20
71.13257855339999
 30
0.0
 10
44.2932978277
 20
71.04088914329999
 30
0.0
 10
45.02168092619999
 20
70.94041472319999
 30
0.0
 10
45.7512346337
 20
70.848876902
 30
0.0
 10
46.4818519967
 20
70.76632814639999
 30
0.0
 10
47.2133595359
 20
70.69217067859999
 30
0.0
 10
48.18967963409999
 20
70.6037505127
 30
0.0
 10
49.1672479637
 20
70.52987257239999
 30
0.0
 10
50.145597015
 20
70.46829935489999
 30
0.0
 10
50.87967755060001
 20
70.4276347543
 30
0.0
 10
51.61398050399999
 20
70.3914776399
 30
0.0
 10
52.10362117729999
 20
70.3696929418
 30
0.0
 10
52.3484629852
 20
70.35935863609999
 30
0.0
  0
SPLINE
  5
175A
330
21A
100
AcDbEntity
  8
0
  6
Continuous
 62
     7
100
AcDbSpline
210
0.0
220
0.0
230
1.0
 70
     8
 71
     3
 72
    64
 73
    60
 74
     0
 42
0.0000000001
 43
0.0000000001
 40
0.0
 40
0.0
 40
0.0
 40
0.0
 40
0.0123746364
 40
0.0246380445
 40
0.0368319657
 40
0.0489370922
 40
0.0609469224
 40
0.0728873248
 40
0.0847898074
 40
0.0966851612
 40
0.1205588671
 40
0.1447049046
 40
0.1569492828
 40
0.1693482647
 40
0.1819350852
 40
0.1947348265
 40
0.2077721133
 40
0.2210713603
 40
0.2346590164
 40
0.2485572405
 40
0.2627740877
 40
0.2700139271
 40
0.2773418152
 40
0.2810304575
 40
0.2847382021
 40
0.2884947504
 40
0.2922838804999999
 40
0.2959948807
 40
0.2996001505
 40
0.3067444051
 40
0.3139270425
 40
0.3212045997
 40
0.3285651999
 40
0.3360021829999999
 40
0.3511076797999999
 40
0.366526806
 40
0.3982675157
 40
0.4311509024000001
 40
0.4650767891
 40
0.4999197940000001
 40
0.5355589037
 40
0.5718766975000001
 40
0.6087103868
 40
0.6272632809000001
 40
0.6458811981000001
 40
0.6645339583
 40
0.6831910937000001
 40
0.7018419661000001
 40
0.7204816598999999
 40
0.739102976
 40
0.7576889176
 40
0.7761955040000001
 40
0.7945872853
 40
0.8309512942999999
 40
0.8666383531000001
 40
0.9015205656
 40
0.9354390257999998
 40
0.9682632272999999
 40
1.0
 40
1.0
 40
1.0
 40
1.0
 10
14.8135897365
 20
79.3524261167
 30
0.0
 10
14.8135897362
 20
79.5369643955
 30
0.0
 10
14.822321642
 20
79.90443555899999
 30
0.0
 10
14.8604648542
 20
80.4525537487
 30
0.0
 10
14.9236795017
 20
80.9943256691
 30
0.0
 10
15.0117023786
 20
81.5287810819
 30
0.0
 10
15.1233991926
 20
82.05492282139999
 30
0.0
 10
15.2580839938
 20
82.57252140060002
 30
0.0
 10
15.4151480048
 20
83.08199580600001
 30
0.0
 10
15.6548964364
 20
83.75146715899999
 30
0.0
 10
16.0128030866
 20
84.571571071
 30
0.0
 10
16.4469339896
 20
85.35999848800001
 30
0.0
 10
16.8410036111
 20
85.9718757899
 30
0.0
 10
17.1632480047
 20
86.4242497881
 30
0.0
 10
17.5116156903
 20
86.8674082281
 30
0.0
 10
17.8871925305
 20
87.300456862
 30
0.0
 10
18.2909007453
 20
87.7222576525
 30
0.0
 10
18.7237429843
 20
88.13142416919999
 30
0.0
 10
19.1865845526
 20
88.5264311959
 30
0.0
 10
19.6803023899
 20
88.90504598620001
 30
0.0
 10
20.1153996097
 20
89.20330875540001
 30
0.0
 10
20.4790543129
 20
89.4314554299
 30
0.0
 10
20.7136415535
 20
89.56969861209998
 30
0.0
 10
20.9051151006
 20
89.67719096999999
 30
0.0
 10
21.0512450162
 20
89.75662621229998
 30
0.0
 10
21.1997832957
 20
89.83473757870001
 30
0.0
 10
21.349600924
 20
89.9104758008
 30
0.0
 10
21.4984447989
 20
89.98309548219999
 30
0.0
 10
21.6931064954
 20
90.07588534019999
 30
0.0
 10
21.9354780186
 20
90.188888152
 30
0.0
 10
22.2286339812
 20
90.32253331700001
 30
0.0
 10
22.5258553005
 20
90.45501290719998
 30
0.0
 10
22.8277453978
 20
90.5863024499
 30
0.0
 10
23.2382456466
 20
90.76051545149999
 30
0.0
 10
23.7622122567
 20
90.97492418100001
 30
0.0
 10
24.6274014619
 20
91.3121180735
 30
0.0
 10
25.7501891259
 20
91.71793245129999
 30
0.0
 10
27.1470085054
 20
92.17544613700001
 30
0.0
 10
28.6003234813
 20
92.6071597097
 30
0.0
 10
30.1035701195
 20
93.01326242909999
 30
0.0
 10
31.6498447713
 20
93.3953359456
 30
0.0
 10
33.2324184303
 20
93.75286241469998
 30
0.0
 10
34.5720379631
 20
94.02829210909999
 30
0.0
 10
35.6559816436
 20
94.235720913
 30
0.0
 10
36.4749702422
 20
94.38502635979999
 30
0.0
 10
37.2967481655
 20
94.52752065850001
 30
0.0
 10
38.1201918818
 20
94.66310438889999
 30
0.0
 10
38.9444630187
 20
94.7922937879
 30
0.0
 10
39.7690714405
 20
94.9157607707
 30
0.0
 10
40.5937548575
 20
95.03201461979999
 30
0.0
 10
41.41759922059999
 20
95.1397119403
 30
0.0
 10
42.23910943679999
 20
95.2385296799
 30
0.0
 10
43.32514467319999
 20
95.35766555040002
 30
0.0
 10
44.6680267567
 20
95.4843089497
 30
0.0
 10
46.2584233442
 20
95.6021706087
 30
0.0
 10
47.81443175329999
 20
95.68648458860002
 30
0.0
 10
49.3291048117
 20
95.7388372229
 30
0.0
 10
50.7974798821
 20
95.7661399302
 30
0.0
 10
51.7602600861
 20
95.7724104378
 30
0.0
 10
52.2335385917
 20
95.7724296617
 30
0.0
  0
SPLINE
  5
175B
330
21A
100
AcDbEntity
  8
0
  6
Continuous
 62
     7
100
AcDbSpline
210
0.0
220
0.0
230
1.0
 70
     8
 71
     3
 72
    63
 73
    59
 74
     0
 42
0.0000000001
 43
0.0000000001
 40
0.0
 40
0.0
 40
0.0
 40
0.0
 40
0.0359417501
 40
0.0713751065
 40
0.106180736
 40
0.1403134616
 40
0.1571298982
 40
0.1737882905
 40
0.1903003176
 40
0.2066840805
 40
0.2229401047
 40
0.2310240748
 40
0.2391017656
 40
0.2471776274
 40
0.2551816347
 40
0.2630751364
 40
0.2708694308
 40
0.2863959568
 40
0.3019152402
 40
0.3174275657
 40
0.3329585042
 40
0.3641406009000001
 40
0.39558418
 40
0.4273760113
 40
0.4595531477000001
 40
0.4920892316
 40
0.5248796734000001
 40
0.5413158973
 40
0.5577353482000001
 40
0.5741000372000001
 40
0.5903660862
 40
0.5984421338
 40
0.6064732843
 40
0.6144682068
 40
0.6223824791000001
 40
0.6303289409000001
 40
0.6382174747000001
 40
0.6457663757
 40
0.6531110693
 40
0.6604979442
 40
0.6678881837000001
 40
0.6752660506999999
 40
0.6826352519
 40
0.6973636141
 40
0.7120563409000001
 40
0.7267154393000001
 40
0.7413384709999999
 40
0.7704320551000001
 40
0.7993401135
 40
0.8280693880999999
 40
0.8566662215
 40
0.8851702694
 40
0.9422069352999999
 40
0.9565664745999999
 40
0.9709453833999999
 40
0.9781605292
 40
0.9854135639
 40
1.0
 40
1.0
 40
1.0
 40
1.0
 10
52.2335385917
 20
95.77242993610001
 30
0.0
 10
52.70625290609999
 20
95.77244913719999
 30
0.0
 10
53.6450058809
 20
95.7664848635
 30
0.0
 10
55.04130547649999
 20
95.74013360110001
 30
0.0
 10
56.41339147770001
 20
95.69727354340001
 30
0.0
 10
57.5402282775
 20
95.64839268750001
 30
0.0
 10
58.4282063689
 20
95.60189513500001
 30
0.0
 10
59.0845355775
 20
95.5636459793
 30
0.0
 10
59.734950988
 20
95.52192969389999
 30
0.0
 10
60.3798370414
 20
95.47685270269999
 30
0.0
 10
60.9139226926
 20
95.4364485257
 30
0.0
 10
61.3389230787
 20
95.4023572736
 30
0.0
 10
61.6566084138
 20
95.3759864491
 30
0.0
 10
61.9731791251
 20
95.3489145798
 30
0.0
 10
62.28727505720001
 20
95.3213427829
 30
0.0
 10
62.5975608063
 20
95.29273100399999
 30
0.0
 10
63.00607959579999
 20
95.25202293209998
 30
0.0
 10
63.51372705430001
 20
95.1948172882
 30
0.0
 10
64.1210426792
 20
95.11630560030001
 30
0.0
 10
64.72704327949999
 20
95.02778959169999
 30
0.0
 10
65.53481590060001
 20
94.89612465459998
 30
0.0
 10
66.54514694229999
 20
94.70559331729999
 30
0.0
 10
67.7573136436
 20
94.43488374399999
 30
0.0
 10
68.9723832106
 20
94.12031756479999
 30
0.0
 10
70.18984854770001
 20
93.76056295299999
 30
0.0
 10
71.4066764347
 20
93.3549796684
 30
0.0
 10
72.41465230840001
 20
92.97961027520001
 30
0.0
 10
73.21563818529999
 20
92.6572273468
 30
0.0
 10
73.8119107224
 20
92.40508436090001
 30
0.0
 10
74.401635796
 20
92.14346587020001
 30
0.0
 10
74.88721043229999
 20
91.917886844
 30
0.0
 10
75.27100532680001
 20
91.73351199249999
 30
0.0
 10
75.5555663833
 20
91.59381738
 30
0.0
 10
75.8370058833
 20
91.4526206821
 30
0.0
 10
76.1162959273
 20
91.30964524129998
 30
0.0
 10
76.3930213699
 20
91.1647609907
 30
0.0
 10
76.6645232878
 20
91.02027838299999
 30
0.0
 10
76.9272931845
 20
90.87624944299999
 30
0.0
 10
77.1809013261
 20
90.72937908110001
 30
0.0
 10
77.4293320022
 20
90.5778928017
 30
0.0
 10
77.6748104504
 20
90.42085736930001
 30
0.0
 10
77.9165960174
 20
90.25860629950001
 30
0.0
 10
78.2336846447
 20
90.03553466760001
 30
0.0
 10
78.6201639054
 20
89.74410080530001
 30
0.0
 10
79.06744272479999
 20
89.3749634919
 30
0.0
 10
79.4971278675
 20
88.98753170399999
 30
0.0
 10
80.04457141729998
 20
88.44893712260001
 30
0.0
 10
80.68111969129999
 20
87.73502179299999
 30
0.0
 10
81.3647466625
 20
86.8201315894
 30
0.0
 10
81.9638993833
 20
85.8555287389
 30
0.0
 10
82.4761697655
 20
84.8479269241
 30
0.0
 10
83.04018153859999
 20
83.455393427
 30
0.0
 10
83.3779543514
 20
82.17733898
 30
0.0
 10
83.54669363560001
 20
81.0617848935
 30
0.0
 10
83.59740247399999
 20
80.5914611827
 30
0.0
 10
83.62629679279999
 20
80.2131387873
 30
0.0
 10
83.64733809749999
 20
79.8315624395
 30
0.0
 10
83.6535585853
 20
79.5442703267
 30
0.0
 10
83.65358990199998
 20
79.3524261053
 30
0.0
  0
SPLINE
  5
175C
330
21A
100
AcDbEntity
  8
0
  6
Continuous
 62
     7
100
AcDbSpline
210
0.0
220
0.0
230
1.0
 70
     8
 71
     3
 72
    64
 73
    60
 74
     0
 42
0.0000000001
 43
0.0000000001
 40
0.0
 40
0.0
 40
0.0
 40
0.0
 40
0.0123746364
 40
0.0246380445
 40
0.0368319657
 40
0.0489370922
 40
0.0609469224
 40
0.0728873248
 40
0.0847898074
 40
0.0966851612
 40
0.1205588671
 40
0.1447049046
 40
0.1569492828
 40
0.1693482647
 40
0.1819350852
 40
0.1947348265
 40
0.2077721133
 40
0.2210713603
 40
0.2346590164
 40
0.2485572405
 40
0.2627740877
 40
0.2700139271
 40
0.2773418152
 40
0.2810304575
 40
0.2847382021
 40
0.2884947504
 40
0.2922838804999999
 40
0.2959948807
 40
0.2996001505
 40
0.3067444051
 40
0.3139270425
 40
0.3212045997
 40
0.3285651999
 40
0.3360021829999999
 40
0.3511076797999999
 40
0.366526806
 40
0.3982675157
 40
0.4311509024000001
 40
0.4650767891
 40
0.4999197940000001
 40
0.5355589037
 40
0.5718766975000001
 40
0.6087103868
 40
0.6272632809000001
 40
0.6458811981000001
 40
0.6645339583
 40
0.6831910937000001
 40
0.7018419661000001
 40
0.7204816598999999
 40
0.739102976
 40
0.7576889176
 40
0.7761955040000001
 40
0.7945872853
 40
0.8309512942999999
 40
0.8666383531000001
 40
0.9015205656
 40
0.9354390257999998
 40
0.9682632272999999
 40
1.0
 40
1.0
 40
1.0
 40
1.0
 10
14.8135897365
 20
79.3524261167
 30
0.0
 10
14.8135897362
 20
79.167887838
 30
0.0
 10
14.822321642
 20
78.8004166745
 30
0.0
 10
14.8604648542
 20
78.25229848479999
 30
0.0
 10
14.9236795017
 20
77.7105265643
 30
0.0
 10
15.0117023786
 20
77.17607115159999
 30
0.0
 10
15.1233991926
 20
76.64992941209999
 30
0.0
 10
15.2580839938
 20
76.13233083289999
 30
0.0
 10
15.4151480048
 20
75.6228564275
 30
0.0
 10
15.6548964364
 20
74.95338507449999
 30
0.0
 10
16.0128030866
 20
74.13328116249999
 30
0.0
 10
16.4469339896
 20
73.3448537455
 30
0.0
 10
16.8410036111
 20
72.73297644359999
 30
0.0
 10
17.1632480047
 20
72.2806024454
 30
0.0
 10
17.5116156903
 20
71.8374440054
 30
0.0
 10
17.8871925305
 20
71.4043953715
 30
0.0
 10
18.2909007453
 20
70.982594581
 30
0.0
 10
18.7237429843
 20
70.5734280643
 30
0.0
 10
19.1865845526
 20
70.1784210376
 30
0.0
 10
19.6803023899
 20
69.7998062473
 30
0.0
 10
20.1153996097
 20
69.5015434781
 30
0.0
 10
20.4790543129
 20
69.27339680359999
 30
0.0
 10
20.7136415535
 20
69.1351536213
 30
0.0
 10
20.9051151006
 20
69.02766126350001
 30
0.0
 10
21.0512450162
 20
68.9482260212
 30
0.0
 10
21.1997832957
 20
68.87011465479999
 30
0.0
 10
21.349600924
 20
68.79437643260001
 30
0.0
 10
21.4984447989
 20
68.72175675130001
 30
0.0
 10
21.6931064954
 20
68.6289668933
 30
0.0
 10
21.9354780186
 20
68.5159640815
 30
0.0
 10
22.2286339812
 20
68.3823189165
 30
0.0
 10
22.5258553005
 20
68.24983932630001
 30
0.0
 10
22.8277453978
 20
68.1185497835
 30
0.0
 10
23.2382456466
 20
67.94433678189999
 30
0.0
 10
23.7622122567
 20
67.7299280524
 30
0.0
 10
24.6274014619
 20
67.39273416
 30
0.0
 10
25.7501891259
 20
66.98691978220001
 30
0.0
 10
27.1470085054
 20
66.52940609649999
 30
0.0
 10
28.6003234813
 20
66.09769252380001
 30
0.0
 10
30.1035701195
 20
65.6915898044
 30
0.0
 10
31.6498447713
 20
65.30951628789999
 30
0.0
 10
33.2324184303
 20
64.9519898188
 30
0.0
 10
34.5720379631
 20
64.67656012439999
 30
0.0
 10
35.6559816436
 20
64.46913132049999
 30
0.0
 10
36.4749702422
 20
64.3198258737
 30
0.0
 10
37.2967481655
 20
64.17733157499999
 30
0.0
 10
38.1201918818
 20
64.04174784449999
 30
0.0
 10
38.9444630187
 20
63.9125584456
 30
0.0
 10
39.7690714405
 20
63.78909146279999
 30
0.0
 10
40.5937548575
 20
63.6728376137
 30
0.0
 10
41.41759922059999
 20
63.56514029319999
 30
0.0
 10
42.23910943679999
 20
63.46632255359999
 30
0.0
 10
43.32514467319999
 20
63.3471866831
 30
0.0
 10
44.6680267567
 20
63.2205432838
 30
0.0
 10
46.2584233442
 20
63.10268162479999
 30
0.0
 10
47.81443175329999
 20
63.01836764489999
 30
0.0
 10
49.3291048117
 20
62.9660150106
 30
0.0
 10
50.7974798821
 20
62.9387123032
 30
0.0
 10
51.7602600861
 20
62.93244179560001
 30
0.0
 10
52.2335385917
 20
62.93242257180001
 30
0.0
  0
SPLINE
  5
175D
330
21A
100
AcDbEntity
  8
0
  6
Continuous
 62
     7
100
AcDbSpline
210
0.0
220
0.0
230
1.0
 70
     8
 71
     3
 72
    63
 73
    59
 74
     0
 42
0.0000000001
 43
0.0000000001
 40
0.0
 40
0.0
 40
0.0
 40
0.0
 40
0.0359417501
 40
0.0713751065
 40
0.106180736
 40
0.1403134615
 40
0.1571298983
 40
0.1737882905
 40
0.1903003176
 40
0.2066840805
 40
0.2229401042
 40
0.2310240724
 40
0.2391017671
 40
0.2471776258
 40
0.2551816352
 40
0.2630751362
 40
0.2708694315
 40
0.2863959569
 40
0.3019152403
 40
0.3174275656
 40
0.3329585042
 40
0.364140601
 40
0.3955841799
 40
0.4273760114
 40
0.4595531477000001
 40
0.4920892316
 40
0.5248796735
 40
0.5413158968000001
 40
0.5577353475
 40
0.574100038
 40
0.5903660853
 40
0.5984421339
 40
0.6064732856
 40
0.6144682056000001
 40
0.6223824812
 40
0.6303289404
 40
0.6382174756
 40
0.6457663801
 40
0.6531110684
 40
0.6604979444
 40
0.6678881822000001
 40
0.6752660462000001
 40
0.6826352534000001
 40
0.6973636134000002
 40
0.7120563418000002
 40
0.7267154386
 40
0.7413384716
 40
0.7704320541
 40
0.7993401140000001
 40
0.8280693882999999
 40
0.8566662208
 40
0.8851702701
 40
0.9422069355999999
 40
0.9565664725000001
 40
0.9709453854000001
 40
0.9781605289999999
 40
0.9854135634
 40
1.0
 40
1.0
 40
1.0
 40
1.0
 10
52.2335385917
 20
62.93242229739999
 30
0.0
 10
52.70625290579999
 20
62.9324030963
 30
0.0
 10
53.6450058801
 20
62.9383673698
 30
0.0
 10
55.0413054751
 20
62.9647186328
 30
0.0
 10
56.4133914749
 20
63.0075786893
 30
0.0
 10
57.5402282757
 20
63.056459547
 30
0.0
 10
58.4282063675
 20
63.1029570975
 30
0.0
 10
59.0845355767
 20
63.141206253
 30
0.0
 10
59.73495098499999
 20
63.1829225411
 30
0.0
 10
60.3798370298
 20
63.2279995268
 30
0.0
 10
60.9139226477
 20
63.2684037096
 30
0.0
 10
61.3389230537
 20
63.3024949564
 30
0.0
 10
61.65660837509999
 20
63.3288657783
 30
0.0
 10
61.9731791252
 20
63.3559376515
 30
0.0
 10
62.2872750339
 20
63.38350945310001
 30
0.0
 10
62.5975608135
 20
63.41212123
 30
0.0
 10
63.00607959649999
 20
63.45282929959999
 30
0.0
 10
63.51372706
 20
63.51003494819999
 30
0.0
 10
64.12104267530001
 20
63.5885466318
 30
0.0
 10
64.7270432752
 20
63.6770626408
 30
0.0
 10
65.53481589409999
 20
63.808727578
 30
0.0
 10
66.54514693580001
 20
63.99925891369999
 30
0.0
 10
67.75731363529999
 20
64.2699684912
 30
0.0
 10
68.97238320220001
 20
64.5845346643
 30
0.0
 10
70.18984853810001
 20
64.94428927989999
 30
0.0
 10
71.4066764289
 20
65.34987255469999
 30
0.0
 10
72.4146522894
 20
65.72524196239999
 30
0.0
 10
73.2156381658
 20
66.04762486760001
 30
0.0
 10
73.8119107106
 20
66.2997678581
 30
0.0
 10
74.40163577209999
 20
66.56138636449999
 30
0.0
 10
74.88721042439999
 20
66.7869653792
 30
0.0
 10
75.27100532270001
 20
66.97134023930001
 30
0.0
 10
75.5555663722
 20
67.1110348536
 30
0.0
 10
75.83700590159999
 20
67.2522315503
 30
0.0
 10
76.1162959089
 20
67.39520700879999
 30
0.0
 10
76.3930214267
 20
67.54009117649999
 30
0.0
 10
76.66452329100001
 20
67.6845739482
 30
0.0
 10
76.92729322879999
 20
67.82860279899999
 30
0.0
 10
77.1809013527
 20
67.97547317420001
 30
0.0
 10
77.4293319687
 20
68.12695940319999
 30
0.0
 10
77.67481036949999
 20
68.2839948245
 30
0.0
 10
77.91659594959999
 20
68.4462459045
 30
0.0
 10
78.2336846108
 20
68.669317506
 30
0.0
 10
78.62016389819999
 20
68.9607514483
 30
0.0
 10
79.06744271699999
 20
69.3298887161
 30
0.0
 10
79.4971278557
 20
69.7173205341
 30
0.0
 10
80.0445714063
 20
70.2559150789
 30
0.0
 10
80.6811196578
 20
70.96983044819999
 30
0.0
 10
81.36474668060001
 20
71.88472060630001
 30
0.0
 10
81.9638993592
 20
72.84932349199999
 30
0.0
 10
82.47616974539999
 20
73.85692530189999
 30
0.0
 10
83.04018159649999
 20
75.24945877430001
 30
0.0
 10
83.37795424479999
 20
76.5275132342
 30
0.0
 10
83.54669368519999
 20
77.6430673163
 30
0.0
 10
83.5974024397
 20
78.1133910291
 30
0.0
 10
83.6262968161
 20
78.491713441
 30
0.0
 10
83.64733802219999
 20
78.8732897659
 30
0.0
 10
83.65355863180001
 20
79.1605818791
 30
0.0
 10
83.65358990199998
 20
79.3524261072
 30
0.0
  0
SPLINE
  5
175E
330
21A
100
AcDbEntity
  8
0
  6
Continuous
 62
     7
100
AcDbSpline
210
0.0
220
0.0
230
1.0
 70
     8
 71
     3
 72
    62
 73
    58
 74
     0
 42
0.0000000001
 43
0.0000000001
 40
0.0
 40
0.0
 40
0.0
 40
0.0
 40
0.0312513464
 40
0.0468770948
 40
0.0625028389
 40
0.078128578
 40
0.0937543158
 40
0.1250054686
 40
0.1562566443
 40
0.187507785
 40
0.2031335144
 40
0.218759244
 40
0.2343849737
 40
0.2500107037
 40
0.2656364439
 40
0.2812621943
 40
0.2968879436
 40
0.3125136916
 40
0.3281394423
 40
0.3437651969
 40
0.3750164684
 40
0.4062677489000001
 40
0.4375190558
 40
0.4687703220000001
 40
0.4843961268000001
 40
0.5000219159000001
 40
0.5312728354000001
 40
0.5625234881
 40
0.5781491632
 40
0.5937748109000001
 40
0.6094004286
 40
0.6250260165000001
 40
0.6406515685000001
 40
0.6562771055
 40
0.6640899615000001
 40
0.6719027434
 40
0.6797154137
 40
0.6875280853
 40
0.6953407555
 40
0.7031534361000001
 40
0.7109661339
 40
0.7187788579000002
 40
0.7344030324
 40
0.7500273437000001
 40
0.7656517916
 40
0.7812764826000001
 40
0.8125158218000001
 40
0.8437558741
 40
0.8593813820000001
 40
0.8750068689
 40
0.9062469359000001
 40
0.9218724418
 40
0.9374979377
 40
0.9531234334
 40
0.9687489514000001
 40
0.9843744493999999
 40
1.0
 40
1.0
 40
1.0
 40
1.0
 10
52.2332192
 20
98.38237864079999
 30
0.0
 10
51.72449141729999
 20
98.38221362290001
 30
0.0
 10
50.9613868393
 20
98.37728853649998
 30
0.0
 10
49.9440602552
 20
98.3605881533
 30
0.0
 10
49.1811671768
 20
98.34271562840001
 30
0.0
 10
48.41843692
 20
98.3188284941
 30
0.0
 10
47.401788832
 20
98.27801953339999
 30
0.0
 10
46.1317778237
 20
98.2087768242
 30
0.0
 10
44.6095743117
 20
98.09765176090001
 30
0.0
 10
43.3429676613
 20
97.9818017348
 30
0.0
 10
42.3311180652
 20
97.8750427037
 30
0.0
 10
41.57299649289999
 20
97.7879678124
 30
0.0
 10
40.81570693889999
 20
97.6939355258
 30
0.0
 10
40.0593249871
 20
97.59285777469999
 30
0.0
 10
39.3038743131
 20
97.4850586211
 30
0.0
 10
38.5491992818
 20
97.37197621760001
 30
0.0
 10
37.795246178
 20
97.2541720613
 30
0.0
 10
37.0421396757
 20
97.13106501750001
 30
0.0
 10
36.2899591646
 20
97.0024153632
 30
0.0
 10
35.2883880833
 20
96.823278084
 30
0.0
 10
34.0390958571
 20
96.5846501074
 30
0.0
 10
32.5449132951
 20
96.2734151094
 30
0.0
 10
31.0563439079
 20
95.9363324179
 30
0.0
 10
29.8212418726
 20
95.63256740499999
 30
0.0
 10
28.8370709145
 20
95.3743731109
 30
0.0
 10
27.8557212485
 20
95.1056799947
 30
0.0
 10
26.6348866952
 20
94.7487761698
 30
0.0
 10
25.4238681354
 20
94.3596970968
 30
0.0
 10
24.462348144
 20
94.0269180758
 30
0.0
 10
23.7451889461
 20
93.7660703977
 30
0.0
 10
23.0324495497
 20
93.4933745893
 30
0.0
 10
22.3245508933
 20
93.2083428435
 30
0.0
 10
21.6219325267
 20
92.91052657739999
 30
0.0
 10
21.0413347753
 20
92.6510270602
 30
0.0
 10
20.5798755032
 20
92.43688177219999
 30
0.0
 10
20.23549067
 20
92.2725900308
 30
0.0
 10
19.8955002268
 20
92.09933757809999
 30
0.0
 10
19.5602156827
 20
91.91715933499999
 30
0.0
 10
19.2299376434
 20
91.72605090629998
 30
0.0
 10
18.9048164005
 20
91.52629881770002
 30
0.0
 10
18.5850987054
 20
91.3179993608
 30
0.0
 10
18.1663458007
 20
91.02908704129999
 30
0.0
 10
17.657460714
 20
90.6472888659
 30
0.0
 10
17.0719548161
 20
90.15747738100001
 30
0.0
 10
16.5131782389
 20
89.63732173510001
 30
0.0
 10
15.806082086
 20
88.9054996151
 30
0.0
 10
14.9963426116
 20
87.92197385079999
 30
0.0
 10
14.2953571167
 20
86.85821359190001
 30
0.0
 10
13.804421589
 20
85.9667672564
 30
0.0
 10
13.3614374103
 20
85.0505967377
 30
0.0
 10
12.9920837035
 20
84.1003124722
 30
0.0
 10
12.6996550233
 20
83.12561388909999
 30
0.0
 10
12.5193075149
 20
82.38375460749999
 30
0.0
 10
12.3786116264
 20
81.6333961577
 30
0.0
 10
12.2778535629
 20
80.8766318864
 30
0.0
 10
12.2170837862
 20
80.11562715489999
 30
0.0
 10
12.2037361489
 20
79.60679980180001
 30
0.0
 10
12.2036405788
 20
79.3524379103
 30
0.0
  0
SPLINE
  5
175F
330
21A
100
AcDbEntity
  8
0
  6
Continuous
 62
     7
100
AcDbSpline
210
0.0
220
0.0
230
1.0
 70
     8
 71
     3
 72
    74
 73
    70
 74
     0
 42
0.0000000001
 43
0.0000000001
 40
0.0
 40
0.0
 40
0.0
 40
0.0
 40
0.0078128568
 40
0.0156259417
 40
0.0234388531
 40
0.0312518737
 40
0.0390650207
 40
0.0468782055
 40
0.0625038153
 40
0.0937481237
 40
0.1093739364
 40
0.1249997216
 40
0.1562441292
 40
0.1718699366
 40
0.1874957154
 40
0.2031214316
 40
0.2187469757
 40
0.2499901639
 40
0.2656150334
 40
0.2812397632
 40
0.2968644304
 40
0.3124890263
 40
0.3281135123999999
 40
0.3437379064
 40
0.3515505315
 40
0.359363159
 40
0.3671757771
 40
0.3749883863
 40
0.3788947539
 40
0.3828011225
 40
0.3867074911999999
 40
0.3906138622
 40
0.3984265782
 40
0.4062393139
 40
0.4140520519
 40
0.4218647902
 40
0.4374901208
 40
0.4531154678
 40
0.468740818
 40
0.4843661843
 40
0.4999915755
 40
0.5312413045000001
 40
0.5624910861
 40
0.5937408748
 40
0.624990595
 40
0.6562402443
 40
0.671865605
 40
0.6874909596
 40
0.7031163152
 40
0.7187416553000001
 40
0.7343669785
 40
0.7421797140999999
 40
0.7499924516
 40
0.7578051909
 40
0.7656179386000001
 40
0.7734306925
 40
0.7812434475
 40
0.7890562023000001
 40
0.7968689569
 40
0.8046817118999999
 40
0.8124944668999999
 40
0.8281199599
 40
0.8437454534
 40
0.8593709493
 40
0.8749964480999999
 40
0.9062473159000001
 40
0.9374981956999999
 40
0.9687490878
 40
1.0
 40
1.0
 40
1.0
 40
1.0
 10
86.2635382196
 20
79.3524263647
 30
0.0
 10
86.2635374241
 20
79.4658678588
 30
0.0
 10
86.2608338459
 20
79.6927607053
 30
0.0
 10
86.2496031558
 20
80.03292572779999
 30
0.0
 10
86.2314391369
 20
80.37279697589999
 30
0.0
 10
86.20597070379998
 20
80.7122009893
 30
0.0
 10
86.17324095909999
 20
81.05098543969999
 30
0.0
 10
86.11993612639999
 20
81.50165203
 30
0.0
 10
86.00121579420001
 20
82.2869219036
 30
0.0
 10
85.80728739619999
 20
83.174752832
 30
0.0
 10
85.55699220380001
 20
84.04721389130001
 30
0.0
 10
85.26961313319999
 20
84.90817763709999
 30
0.0
 10
84.9268384211
 20
85.7498186623
 30
0.0
 10
84.53116548009999
 20
86.5666779546
 30
0.0
 10
84.20821088629999
 20
87.16608360930001
 30
0.0
 10
83.8598459495
 20
87.75107927909999
 30
0.0
 10
83.36247240829999
 20
88.51028653680002
 30
0.0
 10
82.81642242009999
 20
89.2366698026
 30
0.0
 10
82.2256167113
 20
89.92563508259999
 30
0.0
 10
81.7605876162
 20
90.4229090529
 30
0.0
 10
81.2745882863
 20
90.8996733893
 30
0.0
 10
80.76861403470001
 20
91.35518877
 30
0.0
 10
80.24353696549999
 20
91.78852469969999
 30
0.0
 10
79.7909141362
 20
92.13062015590001
 30
0.0
 10
79.42016118229999
 20
92.39224764499999
 30
0.0
 10
79.13798556679999
 20
92.58253221430001
 30
0.0
 10
78.851912759
 20
92.7669054683
 30
0.0
 10
78.61011658449999
 20
92.9151487018
 30
0.0
 10
78.41476704850001
 20
93.03053301930001
 30
0.0
 10
78.2673551412
 20
93.11553399040001
 30
0.0
 10
78.11905002279999
 20
93.19896617759999
 30
0.0
 10
77.9202390352
 20
93.3082809851
 30
0.0
 10
77.67016498
 20
93.4420549476
 30
0.0
 10
77.36878060329999
 20
93.6001251681
 30
0.0
 10
77.06609139760001
 20
93.75568653909999
 30
0.0
 10
76.660836542
 20
93.95981413540001
 30
0.0
 10
76.15085035159999
 20
94.20812824059998
 30
0.0
 10
75.53393674129999
 20
94.49574092389999
 30
0.0
 10
74.9121988533
 20
94.772777423
 30
0.0
 10
74.28578343560001
 20
95.03907457510001
 30
0.0
 10
73.444609111
 20
95.3797260324
 30
0.0
 10
72.38239479419999
 20
95.77850598379999
 30
0.0
 10
71.09212616949999
 20
96.2130758864
 30
0.0
 10
69.78769760999999
 20
96.60312025559999
 30
0.0
 10
68.4707056402
 20
96.9483280298
 30
0.0
 10
67.3639501199
 20
97.1981555069
 30
0.0
 10
66.4738567845
 20
97.37520995790001
 30
0.0
 10
65.8040820683
 20
97.49650108700002
 30
0.0
 10
65.13233168550001
 20
97.6063071955
 30
0.0
 10
64.4588164588
 20
97.7047011446
 30
0.0
 10
63.89622526930001
 20
97.77706691639998
 30
0.0
 10
63.4454393209
 20
97.82894772680002
 30
0.0
 10
63.10703006899999
 20
97.86499269170001
 30
0.0
 10
62.76833425109999
 20
97.8982328462
 30
0.0
 10
62.4294105771
 20
97.92904725879999
 30
0.0
 10
62.0903613652
 20
97.9584329552
 30
0.0
 10
61.7512552524
 20
97.98715458950001
 30
0.0
 10
61.412073489
 20
98.0149720864
 30
0.0
 10
61.0728055508
 20
98.04171879540001
 30
0.0
 10
60.73345537339999
 20
98.06740067200001
 30
0.0
 10
60.280890182
 20
98.1003124218
 30
0.0
 10
59.71500578770001
 20
98.13896887600002
 30
0.0
 10
59.0356814575
 20
98.1813209477
 30
0.0
 10
58.3561176462
 20
98.21964679770001
 30
0.0
 10
57.4497469972
 20
98.265345948
 30
0.0
 10
56.3162972861
 20
98.312363029
 30
0.0
 10
54.95559227819999
 20
98.35278295010001
 30
0.0
 10
53.5945050375
 20
98.37712518780001
 30
0.0
 10
52.68697767369999
 20
98.382525605
 30
0.0
 10
52.2332192
 20
98.38237864079999
 30
0.0
  0
SPLINE
  5
1760
330
21A
100
AcDbEntity
  8
0
  6
Continuous
 62
     7
100
AcDbSpline
210
0.0
220
0.0
230
1.0
 70
     8
 71
     3
 72
    19
 73
    15
 74
     0
 42
0.0000000001
 43
0.0000000001
 40
0.0
 40
0.0
 40
0.0
 40
0.0
 40
0.0170139477
 40
0.0383380507
 40
0.0662454339
 40
0.1015919234
 40
0.1445842291
 40
0.1951072313
 40
0.2528569698
 40
0.3173995241
 40
0.4646290887
 40
0.6316357308000001
 40
0.8123199359999999
 40
1.0
 40
1.0
 40
1.0
 40
1.0
 10
28.1408017848
 20
90.60568530040001
 30
0.0
 10
28.1412861381
 20
90.6039075329
 30
0.0
 10
28.14368403780001
 20
90.6002494748
 30
0.0
 10
28.1499110475
 20
90.59645814879999
 30
0.0
 10
28.1586496761
 20
90.59358271649999
 30
0.0
 10
28.1700114413
 20
90.5915979098
 30
0.0
 10
28.1839360293
 20
90.5904960522
 30
0.0
 10
28.2003259413
 20
90.59030389600001
 30
0.0
 10
28.21903340969999
 20
90.59102764010001
 30
0.0
 10
28.2481377721
 20
90.5933209648
 30
0.0
 10
28.2888432043
 20
90.5985910673
 30
0.0
 10
28.3416323091
 20
90.60795126950001
 30
0.0
 10
28.3982964689
 20
90.6202912178
 30
0.0
 10
28.43696578
 20
90.63013223770001
 30
0.0
 10
28.4565762504
 20
90.63547511629998
 30
0.0
  0
SPLINE
  5
1761
330
21A
100
AcDbEntity
  8
0
  6
Continuous
 62
     7
100
AcDbSpline
210
0.0
220
0.0
230
1.0
 70
     8
 71
     3
 72
    73
 73
    69
 74
     0
 42
0.0000000001
 43
0.0000000001
 40
0.0
 40
0.0
 40
0.0
 40
0.0
 40
0.0156256317
 40
0.0312512732
 40
0.0468768926
 40
0.0625025156
 40
0.0937536129
 40
0.1250047021
 40
0.140630311
 40
0.1562559169
 40
0.1718815209
 40
0.1875071246
 40
0.2031327246
 40
0.2187583285
 40
0.2265711377
 40
0.2343839466
 40
0.2421967508
 40
0.2500095464
 40
0.2578223383
 40
0.2656351299
 40
0.2812605653
 40
0.2968860188
 40
0.3125114844
 40
0.3281369502
 40
0.3437624314
 40
0.3593879393
 40
0.3750134646
 40
0.4062634081
 40
0.4375133886000001
 40
0.4687633403
 40
0.5000132382000001
 40
0.5312630615999999
 40
0.5468885185
 40
0.5625139718
 40
0.5703267691000001
 40
0.5781395649000001
 40
0.5859523575
 40
0.5937651468000001
 40
0.6015779423
 40
0.6093907148
 40
0.6132971121999999
 40
0.6172035068000001
 40
0.6211099026
 40
0.6250163010000001
 40
0.6328289891
 40
0.6406416958
 40
0.6484544133
 40
0.6562671286999999
 40
0.6718916721
 40
0.6875162923999999
 40
0.7031410372
 40
0.7187659369000001
 40
0.7343910342000001
 40
0.7500163815000001
 40
0.7812605851000001
 40
0.8125051941
 40
0.8281310771999999
 40
0.8437569668000001
 40
0.8750015604000001
 40
0.9062461584999999
 40
0.9218719532999999
 40
0.9374975512999998
 40
0.9531229354999998
 40
0.9687481051999998
 40
0.9765611067
 40
0.9843740411
 40
0.9921871170000001
 40
1.0
 40
1.0
 40
1.0
 40
1.0
 10
52.23320983149999
 20
60.3224735972
 30
0.0
 10
52.4600898922
 20
60.32233063949999
 30
0.0
 10
52.9138519996
 20
60.3237074127
 30
0.0
 10
53.59446877479999
 20
60.329762055
 30
0.0
 10
54.2750380488
 20
60.33988546029999
 30
0.0
 10
55.1823627549
 20
60.35881385359999
 30
0.0
 10
56.3162861536
 20
60.3924867194
 30
0.0
 10
57.4497349259
 20
60.43950332539999
 30
0.0
 10
58.3561050109
 20
60.485207366
 30
0.0
 10
59.0356690531
 20
60.523524447
 30
0.0
 10
59.7149918282
 20
60.5658977139
 30
0.0
 10
60.3940555304
 20
60.6122377391
 30
0.0
 10
61.0728282538
 20
60.6626641366
 30
0.0
 10
61.6382081354
 20
60.7080997141
 30
0.0
 10
62.0903611987
 20
60.74625448609999
 30
0.0
 10
62.4293912207
 20
60.775861333
 30
0.0
 10
62.7683092503
 20
60.80673073029999
 30
0.0
 10
63.10701859459999
 20
60.8398314497
 30
0.0
 10
63.445427752
 20
60.8758799959
 30
0.0
 10
63.8962083614
 20
60.927804471
 30
0.0
 10
64.4588028572
 20
61.0001419356
 30
0.0
 10
65.13231680130001
 20
61.09854411579999
 30
0.0
 10
65.8040673046
 20
61.20835013579999
 30
0.0
 10
66.47384071649999
 20
61.3296389288
 30
0.0
 10
67.1414302283
 20
61.4624236629
 30
0.0
 10
67.80664891229999
 20
61.6066287497
 30
0.0
 10
68.69016668090001
 20
61.8140295445
 30
0.0
 10
69.7876815947
 20
62.10176000609999
 30
0.0
 10
71.0920810392
 20
62.4918519427
 30
0.0
 10
72.38240719779999
 20
62.92627610180001
 30
0.0
 10
73.65700785920001
 20
63.4048412441
 30
0.0
 10
74.70494011719999
 20
63.8397590465
 30
0.0
 10
75.5339298312
 20
64.20906464249999
 30
0.0
 10
76.04802122629999
 20
64.44876494669999
 30
0.0
 10
76.4567783701
 20
64.6457851615
 30
0.0
 10
76.76208848529999
 20
64.7961373449
 30
0.0
 10
77.06612211140001
 20
64.9490542634
 30
0.0
 10
77.36873928299999
 20
65.1047573409
 30
0.0
 10
77.670040826
 20
65.2629828355
 30
0.0
 10
77.92025560029999
 20
65.3964925616
 30
0.0
 10
78.11910648979999
 20
65.5057358279
 30
0.0
 10
78.2673871495
 20
65.58921157029999
 30
0.0
 10
78.41477894509999
 20
65.67424714399999
 30
0.0
 10
78.61009661279999
 20
65.7896863707
 30
0.0
 10
78.85183661949999
 20
65.9380212093
 30
0.0
 10
79.13795707430001
 20
66.1223205839
 30
0.0
 10
79.4201766703
 20
66.31254426229999
 30
0.0
 10
79.7908809739
 20
66.5742435195
 30
0.0
 10
80.24352390909999
 20
66.9163116097
 30
0.0
 10
80.7686073866
 20
67.3496430392
 30
0.0
 10
81.27458105149999
 20
67.80516330170001
 30
0.0
 10
81.76053512880001
 20
68.2819832472
 30
0.0
 10
82.2256044184
 20
68.77922567979999
 30
0.0
 10
82.81647019220001
 20
69.4682003203
 30
0.0
 10
83.49882889449999
 20
70.376038448
 30
0.0
 10
84.100669005
 20
71.339143689
 30
0.0
 10
84.5311932865
 20
72.1382213568
 30
0.0
 10
84.92687748299999
 20
72.95511124079999
 30
0.0
 10
85.35523247350001
 20
74.0069252353
 30
0.0
 10
85.691595983
 20
75.0916654026
 30
0.0
 10
85.90429052979999
 20
75.97404975259999
 30
0.0
 10
86.03511152870002
 20
76.642225523
 30
0.0
 10
86.1369123625
 20
77.3154060218
 30
0.0
 10
86.19746774440001
 20
77.8795481302
 30
0.0
 10
86.23144479530001
 20
78.3320605291
 30
0.0
 10
86.2496146816
 20
78.6719305812
 30
0.0
 10
86.26080720919999
 20
79.012094268
 30
0.0
 10
86.26353993290001
 20
79.2389853371
 30
0.0
 10
86.2635382196
 20
79.3524263647
 30
0.0
  0
ENDSEC
  0
SECTION
  2
OBJECTS
  0
DICTIONARY
  5
C
330
0
100
AcDbDictionary
281
     1
  3
ACAD_COLOR
350
1931
  3
ACAD_DETAILVIEWSTYLE
350
194B
  3
ACAD_GROUP
350
D
  3
ACAD_LAYOUT
350
1A
  3
ACAD_MATERIAL
350
18FF
  3
ACAD_MLEADERSTYLE
350
1946
  3
ACAD_MLINESTYLE
350
17
  3
ACAD_PLOTSETTINGS
350
19
  3
ACAD_PLOTSTYLENAME
350
E
  3
ACAD_SCALELIST
350
1934
  3
ACAD_SECTIONVIEWSTYLE
350
1948
  3
ACAD_TABLESTYLE
350
1932
  3
ACAD_VISUALSTYLE
350
1918
  3
ACDB_RECOMPOSE_DATA
350
1950
  3
AcDbVariableDictionary
350
198D
  3
DWGPROPS
350
19DF
  0
DICTIONARY
  5
1951
330
8
100
AcDbDictionary
280
     1
281
     1
  0
DICTIONARY
  5
19A0
330
10
100
AcDbDictionary
280
     1
281
     1
  3
ADSK_XREC_LAYER_RECONCILED
360
19A1
  0
DICTIONARY
  5
19A2
330
1FA
100
AcDbDictionary
280
     1
281
     1
  3
ADSK_XREC_LAYER_RECONCILED
360
19A3
  0
DICTIONARY
  5
19A4
330
1FB
100
AcDbDictionary
280
     1
281
     1
  3
ADSK_XREC_LAYER_RECONCILED
360
19A5
  0
DICTIONARY
  5
19A6
330
1FC
100
AcDbDictionary
280
     1
281
     1
  3
ADSK_XREC_LAYER_RECONCILED
360
19A7
  0
DICTIONARY
  5
19A8
330
1FD
100
AcDbDictionary
280
     1
281
     1
  3
ADSK_XREC_LAYER_RECONCILED
360
19A9
  0
DICTIONARY
  5
19AA
330
1FE
100
AcDbDictionary
280
     1
281
     1
  3
ADSK_XREC_LAYER_RECONCILED
360
19AB
  0
DICTIONARY
  5
19AC
330
1FF
100
AcDbDictionary
280
     1
281
     1
  3
ADSK_XREC_LAYER_RECONCILED
360
19AD
  0
DICTIONARY
  5
19AE
330
200
100
AcDbDictionary
280
     1
281
     1
  3
ADSK_XREC_LAYER_RECONCILED
360
19AF
  0
DICTIONARY
  5
19B0
330
201
100
AcDbDictionary
280
     1
281
     1
  3
ADSK_XREC_LAYER_RECONCILED
360
19B1
  0
DICTIONARY
  5
19B2
330
202
100
AcDbDictionary
280
     1
281
     1
  3
ADSK_XREC_LAYER_RECONCILED
360
19B3
  0
DICTIONARY
  5
19B4
330
203
100
AcDbDictionary
280
     1
281
     1
  3
ADSK_XREC_LAYER_RECONCILED
360
19B5
  0
DICTIONARY
  5
19B6
330
204
100
AcDbDictionary
280
     1
281
     1
  3
ADSK_XREC_LAYER_RECONCILED
360
19B7
  0
DICTIONARY
  5
19B8
330
205
100
AcDbDictionary
280
     1
281
     1
  3
ADSK_XREC_LAYER_RECONCILED
360
19B9
  0
DICTIONARY
  5
19BA
330
206
100
AcDbDictionary
280
     1
281
     1
  3
ADSK_XREC_LAYER_RECONCILED
360
19BB
  0
DICTIONARY
  5
19BC
330
207
100
AcDbDictionary
280
     1
281
     1
  3
ADSK_XREC_LAYER_RECONCILED
360
19BD
  0
DICTIONARY
  5
19BE
330
208
100
AcDbDictionary
280
     1
281
     1
  3
ADSK_XREC_LAYER_RECONCILED
360
19BF
  0
DICTIONARY
  5
19C0
330
209
100
AcDbDictionary
280
     1
281
     1
  3
ADSK_XREC_LAYER_RECONCILED
360
19C1
  0
DICTIONARY
  5
19C2
330
20A
100
AcDbDictionary
280
     1
281
     1
  3
ADSK_XREC_LAYER_RECONCILED
360
19C3
  0
DICTIONARY
  5
19C4
330
20B
100
AcDbDictionary
280
     1
281
     1
  3
ADSK_XREC_LAYER_RECONCILED
360
19C5
  0
DICTIONARY
  5
19C6
330
20C
100
AcDbDictionary
280
     1
281
     1
  3
ADSK_XREC_LAYER_RECONCILED
360
19C7
  0
DICTIONARY
  5
19C8
330
20D
100
AcDbDictionary
280
     1
281
     1
  3
ADSK_XREC_LAYER_RECONCILED
360
19C9
  0
DICTIONARY
  5
19CA
330
20E
100
AcDbDictionary
280
     1
281
     1
  3
ADSK_XREC_LAYER_RECONCILED
360
19CB
  0
DICTIONARY
  5
19CC
330
20F
100
AcDbDictionary
280
     1
281
     1
  3
ADSK_XREC_LAYER_RECONCILED
360
19CD
  0
DICTIONARY
  5
19CE
330
210
100
AcDbDictionary
280
     1
281
     1
  3
ADSK_XREC_LAYER_RECONCILED
360
19CF
  0
DICTIONARY
  5
19D0
330
211
100
AcDbDictionary
280
     1
281
     1
  3
ADSK_XREC_LAYER_RECONCILED
360
19D1
  0
DICTIONARY
  5
1931
102
{ACAD_REACTORS
330
C
102
}
330
C
100
AcDbDictionary
281
     1
  0
DICTIONARY
  5
194B
102
{ACAD_REACTORS
330
C
102
}
330
C
100
AcDbDictionary
281
     1
  3
Imperial24
350
194C
  0
DICTIONARY
  5
D
102
{ACAD_REACTORS
330
C
102
}
330
C
100
AcDbDictionary
281
     1
  0
DICTIONARY
  5
1A
102
{ACAD_REACTORS
330
C
102
}
330
C
100
AcDbDictionary
281
     1
  3
Layout1
350
18FB
  3
Model
350
18FA
  0
DICTIONARY
  5
18FF
102
{ACAD_REACTORS
330
C
102
}
330
C
100
AcDbDictionary
281
     1
  3
ByBlock
350
1908
  3
ByLayer
350
1900
  3
Global
350
1910
  0
DICTIONARY
  5
1946
102
{ACAD_REACTORS
330
C
102
}
330
C
100
AcDbDictionary
281
     1
  3
Standard
350
1947
  0
DICTIONARY
  5
17
102
{ACAD_REACTORS
330
C
102
}
330
C
100
AcDbDictionary
281
     1
  3
Standard
350
18
  0
DICTIONARY
  5
19
102
{ACAD_REACTORS
330
C
102
}
330
C
100
AcDbDictionary
281
     1
  0
ACDBDICTIONARYWDFLT
  5
E
102
{ACAD_REACTORS
330
C
102
}
330
C
100
AcDbDictionary
281
     1
  3
Normal
350
F
100
AcDbDictionaryWithDefault
340
F
  0
DICTIONARY
  5
1934
102
{ACAD_REACTORS
330
C
102
}
330
C
100
AcDbDictionary
281
     1
  3
A0
350
1935
  3
A1
350
1936
  3
A2
350
1937
  3
A3
350
1938
  3
A4
350
1939
  3
A5
350
193A
  3
A6
350
193B
  3
A7
350
193C
  3
A8
350
193D
  3
A9
350
193E
  3
B0
350
193F
  3
B1
350
1940
  3
B2
350
1941
  3
B3
350
1942
  3
B4
350
1943
  3
B5
350
1944
  3
B6
350
1945
  0
DICTIONARY
  5
1948
102
{ACAD_REACTORS
330
C
102
}
330
C
100
AcDbDictionary
281
     1
  3
Imperial24
350
194A
  0
DICTIONARY
  5
1932
102
{ACAD_REACTORS
330
C
102
}
330
C
100
AcDbDictionary
281
     1
  3
Standard
350
1933
  0
DICTIONARY
  5
1918
102
{ACAD_REACTORS
330
C
102
}
330
C
100
AcDbDictionary
281
     1
  3
2dWireframe
350
191E
  3
3D Hidden
350
1999
  3
3dWireframe
350
1998
  3
Basic
350
191D
  3
Brighten
350
1924
  3
ColorChange
350
1928
  3
Conceptual
350
1921
  3
Dim
350
1923
  3
EdgeColorOff
350
1930
  3
Facepattern
350
1927
  3
Flat
350
1919
  3
FlatWithEdges
350
191A
  3
Gouraud
350
191B
  3
GouraudWithEdges
350
191C
  3
Hidden
350
1920
  3
JitterOff
350
192E
  3
Linepattern
350
1926
  3
OverhangOff
350
192F
  3
Realistic
350
1922
  3
Shaded
350
192D
  3
Shaded with edges
350
192C
  3
Shades of Gray
350
1929
  3
Sketchy
350
192A
  3
Thicken
350
1925
  3
Wireframe
350
191F
  3
X-Ray
350
192B
  0
XRECORD
  5
1950
102
{ACAD_REACTORS
330
C
102
}
330
C
100
AcDbXrecord
280
     1
 90
        1
330
1933
  0
DICTIONARY
  5
198D
102
{ACAD_REACTORS
330
C
102
}
330
C
100
AcDbDictionary
281
     1
  3
CANNOSCALE
350
1992
  3
CMLEADERSTYLE
350
198F
  3
CTABLESTYLE
350
198E
  3
CVIEWDETAILSTYLE
350
1990
  3
CVIEWSECTIONSTYLE
350
1991
  3
DIMASSOC
350
1995
  3
INDEXCTL
350
1994
  3
LAYEREVAL
350
19D5
  3
LAYERNOTIFY
350
19D6
  3
LIGHTINGUNITS
350
19D4
  3
MSLTSCALE
350
19D3
  3
SORTENTS
350
1993
  3
XCLIPFRAME
350
1996
  0
XRECORD
  5
19DF
102
{ACAD_REACTORS
330
C
102
}
330
C
100
AcDbXrecord
280
     1
  1
DWGPROPS COOKIE
  2

  3

  4

  6

  7

  8
guillaumes
  9

300
=
301
=
302
=
303
=
304
=
305
=
306
=
307
=
308
=
309
=
 40
0.003733912037037
 41
2457714.391304005
 42
2457714.397472662
  1

 90
        0
  0
XRECORD
  5
19A1
102
{ACAD_REACTORS
330
19A0
102
}
330
19A0
100
AcDbXrecord
280
     1
290
     1
  0
XRECORD
  5
19A3
102
{ACAD_REACTORS
330
19A2
102
}
330
19A2
100
AcDbXrecord
280
     1
290
     1
  0
XRECORD
  5
19A5
102
{ACAD_REACTORS
330
19A4
102
}
330
19A4
100
AcDbXrecord
280
     1
290
     1
  0
XRECORD
  5
19A7
102
{ACAD_REACTORS
330
19A6
102
}
330
19A6
100
AcDbXrecord
280
     1
290
     1
  0
XRECORD
  5
19A9
102
{ACAD_REACTORS
330
19A8
102
}
330
19A8
100
AcDbXrecord
280
     1
290
     1
  0
XRECORD
  5
19AB
102
{ACAD_REACTORS
330
19AA
102
}
330
19AA
100
AcDbXrecord
280
     1
290
     1
  0
XRECORD
  5
19AD
102
{ACAD_REACTORS
330
19AC
102
}
330
19AC
100
AcDbXrecord
280
     1
290
     1
  0
XRECORD
  5
19AF
102
{ACAD_REACTORS
330
19AE
102
}
330
19AE
100
AcDbXrecord
280
     1
290
     1
  0
XRECORD
  5
19B1
102
{ACAD_REACTORS
330
19B0
102
}
330
19B0
100
AcDbXrecord
280
     1
290
     1
  0
XRECORD
  5
19B3
102
{ACAD_REACTORS
330
19B2
102
}
330
19B2
100
AcDbXrecord
280
     1
290
     1
  0
XRECORD
  5
19B5
102
{ACAD_REACTORS
330
19B4
102
}
330
19B4
100
AcDbXrecord
280
     1
290
     1
  0
XRECORD
  5
19B7
102
{ACAD_REACTORS
330
19B6
102
}
330
19B6
100
AcDbXrecord
280
     1
290
     1
  0
XRECORD
  5
19B9
102
{ACAD_REACTORS
330
19B8
102
}
330
19B8
100
AcDbXrecord
280
     1
290
     1
  0
XRECORD
  5
19BB
102
{ACAD_REACTORS
330
19BA
102
}
330
19BA
100
AcDbXrecord
280
     1
290
     1
  0
XRECORD
  5
19BD
102
{ACAD_REACTORS
330
19BC
102
}
330
19BC
100
AcDbXrecord
280
     1
290
     1
  0
XRECORD
  5
19BF
102
{ACAD_REACTORS
330
19BE
102
}
330
19BE
100
AcDbXrecord
280
     1
290
     1
  0
XRECORD
  5
19C1
102
{ACAD_REACTORS
330
19C0
102
}
330
19C0
100
AcDbXrecord
280
     1
290
     1
  0
XRECORD
  5
19C3
102
{ACAD_REACTORS
330
19C2
102
}
330
19C2
100
AcDbXrecord
280
     1
290
     1
  0
XRECORD
  5
19C5
102
{ACAD_REACTORS
330
19C4
102
}
330
19C4
100
AcDbXrecord
280
     1
290
     1
  0
XRECORD
  5
19C7
102
{ACAD_REACTORS
330
19C6
102
}
330
19C6
100
AcDbXrecord
280
     1
290
     1
  0
XRECORD
  5
19C9
102
{ACAD_REACTORS
330
19C8
102
}
330
19C8
100
AcDbXrecord
280
     1
290
     1
  0
XRECORD
  5
19CB
102
{ACAD_REACTORS
330
19CA
102
}
330
19CA
100
AcDbXrecord
280
     1
290
     1
  0
XRECORD
  5
19CD
102
{ACAD_REACTORS
330
19CC
102
}
330
19CC
100
AcDbXrecord
280
     1
290
     1
  0
XRECORD
  5
19CF
102
{ACAD_REACTORS
330
19CE
102
}
330
19CE
100
AcDbXrecord
280
     1
290
     1
  0
XRECORD
  5
19D1
102
{ACAD_REACTORS
330
19D0
102
}
330
19D0
100
AcDbXrecord
280
     1
290
     1
  0
ACAD_PROXY_OBJECT
  5
194C
102
{ACAD_REACTORS
330
194B
102
}
330
194B
100
AcDbProxyObject
 90
      499
 91
      509
 95
   983063
 70
     0
 93
     1261
310
90B496D70657269616C323400481E5C0F42F5A8DC671FC056BD1B81E856B9F81E5C0F42F5A8DC671FA33E5C0F42F5A8DC671FA02000000000000741FA02AD929E2E20B1AB30B9102B34B2BBAA3CB832902E33101112BA3198911F1290129E2E20B1AB30B9102B34B2BBA232BA30B4B624B21F12AE2829A1A0A62290129E2E2
310
0B1AB30B9102B34B2BBA9B1B0B632902E33101112B9B7111F1280233A33807
340
11
340
0
340
16
340
11
340
16
340
16
 94
        0
1001
ACAD
1000
AcRTDxfName
1000
ACDBDETAILVIEWSTYLE
  0
LAYOUT
  5
18FB
102
{ACAD_XDICTIONARY
360
19E2
102
}
102
{ACAD_REACTORS
330
1A
102
}
330
1A
100
AcDbPlotSettings
  1

  2
none_device
  4
ANSI_B_(17.00_x_11.00_Inches)
  6

 40
0.0
 41
0.0
 42
0.0
 43
0.0
 44
431.8
 45
279.4
 46
0.0
 47
0.0
 48
0.0
 49
0.0
140
0.0
141
0.0
142
1.0
143
1.0
 70
     0
 72
     0
 73
     0
 74
     0
  7

 75
     0
147
1.0
148
0.0
149
0.0
100
AcDbLayout
  1
Layout1
 70
     1
 71
     1
 10
0.0
 20
0.0
 11
12.0
 21
9.0
 12
0.0
 22
0.0
 32
0.0
 14
1.000000000000000E+20
 24
1.000000000000000E+20
 34
1.000000000000000E+20
 15
-1.000000000000000E+20
 25
-1.000000000000000E+20
 35
-1.000000000000000E+20
146
0.0
 13
0.0
 23
0.0
 33
0.0
 16
1.0
 26
0.0
 36
0.0
 17
0.0
 27
1.0
 37
0.0
 76
     0
330
21B
  0
LAYOUT
  5
18FA
102
{ACAD_XDICTIONARY
360
19E0
102
}
102
{ACAD_REACTORS
330
1A
102
}
330
1A
100
AcDbPlotSettings
  1

  2
none_device
  4
ANSI_B_(17.00_x_11.00_Inches)
  6

 40
0.0
 41
0.0
 42
0.0
 43
0.0
 44
431.8
 45
279.4
 46
0.0
 47
0.0
 48
0.0
 49
0.0
140
0.0
141
0.0
142
1.0
143
1.0
 70
  1024
 72
     0
 73
     0
 74
     0
  7

 75
     0
147
1.0
148
0.0
149
0.0
100
AcDbLayout
  1
Model
 70
     0
 71
     0
 10
0.0
 20
0.0
 11
17.0
 21
11.0
 12
0.0
 22
0.0
 32
0.0
 14
0.0
 24
0.0
 34
0.0
 15
0.0
 25
0.0
 35
0.0
146
0.0
 13
0.0
 23
0.0
 33
0.0
 16
1.0
 26
0.0
 36
0.0
 17
0.0
 27
1.0
 37
0.0
 76
     0
330
21A
331
1F4
  0
MATERIAL
  5
1908
102
{ACAD_XDICTIONARY
360
1909
102
}
102
{ACAD_REACTORS
330
18FF
102
}
330
18FF
100
AcDbMaterial
  1
ByBlock
 72
     0
 43
0.0208333333333333
 43
0.0
 43
0.0
 43
0.0
 43
0.0
 43
0.0208333333333333
 43
0.0
 43
0.0
 43
0.0
 43
0.0
 43
1.0
 43
0.0
 43
0.0
 43
0.0
 43
0.0
 43
1.0
 77
     0
 47
0.0208333333333333
 47
0.0
 47
0.0
 47
0.0
 47
0.0
 47
0.0208333333333333
 47
0.0
 47
0.0
 47
0.0
 47
0.0
 47
1.0
 47
0.0
 47
0.0
 47
0.0
 47
0.0
 47
1.0
171
     0
 49
0.0208333333333333
 49
0.0
 49
0.0
 49
0.0
 49
0.0
 49
0.0208333333333333
 49
0.0
 49
0.0
 49
0.0
 49
0.0
 49
1.0
 49
0.0
 49
0.0
 49
0.0
 49
0.0
 49
1.0
175
     0
142
0.0208333333333333
142
0.0
142
0.0
142
0.0
142
0.0
142
0.0208333333333333
142
0.0
142
0.0
142
0.0
142
0.0
142
1.0
142
0.0
142
0.0
142
0.0
142
0.0
142
1.0
179
     0
144
0.0208333333333333
144
0.0
144
0.0
144
0.0
144
0.0
144
0.0208333333333333
144
0.0
144
0.0
144
0.0
144
0.0
144
1.0
144
0.0
144
0.0
144
0.0
144
0.0
144
1.0
147
0.0208333333333333
147
0.0
147
0.0
147
0.0
147
0.0
147
0.0208333333333333
147
0.0
147
0.0
147
0.0
147
0.0
147
1.0
147
0.0
147
0.0
147
0.0
147
0.0
147
1.0
  0
MATERIAL
  5
1900
102
{ACAD_XDICTIONARY
360
1901
102
}
102
{ACAD_REACTORS
330
18FF
102
}
330
18FF
100
AcDbMaterial
  1
ByLayer
 72
     0
 43
0.0208333333333333
 43
0.0
 43
0.0
 43
0.0
 43
0.0
 43
0.0208333333333333
 43
0.0
 43
0.0
 43
0.0
 43
0.0
 43
1.0
 43
0.0
 43
0.0
 43
0.0
 43
0.0
 43
1.0
 77
     0
 47
0.0208333333333333
 47
0.0
 47
0.0
 47
0.0
 47
0.0
 47
0.0208333333333333
 47
0.0
 47
0.0
 47
0.0
 47
0.0
 47
1.0
 47
0.0
 47
0.0
 47
0.0
 47
0.0
 47
1.0
171
     0
 49
0.0208333333333333
 49
0.0
 49
0.0
 49
0.0
 49
0.0
 49
0.0208333333333333
 49
0.0
 49
0.0
 49
0.0
 49
0.0
 49
1.0
 49
0.0
 49
0.0
 49
0.0
 49
0.0
 49
1.0
175
     0
142
0.0208333333333333
142
0.0
142
0.0
142
0.0
142
0.0
142
0.0208333333333333
142
0.0
142
0.0
142
0.0
142
0.0
142
1.0
142
0.0
142
0.0
142
0.0
142
0.0
142
1.0
179
     0
144
0.0208333333333333
144
0.0
144
0.0
144
0.0
144
0.0
144
0.0208333333333333
144
0.0
144
0.0
144
0.0
144
0.0
144
1.0
144
0.0
144
0.0
144
0.0
144
0.0
144
1.0
147
0.0208333333333333
147
0.0
147
0.0
147
0.0
147
0.0
147
0.0208333333333333
147
0.0
147
0.0
147
0.0
147
0.0
147
1.0
147
0.0
147
0.0
147
0.0
147
0.0
147
1.0
  0
MATERIAL
  5
1910
102
{ACAD_XDICTIONARY
360
1911
102
}
102
{ACAD_REACTORS
330
18FF
102
}
330
18FF
100
AcDbMaterial
  1
Global
 72
     0
 43
0.0208333333333333
 43
0.0
 43
0.0
 43
0.0
 43
0.0
 43
0.0208333333333333
 43
0.0
 43
0.0
 43
0.0
 43
0.0
 43
1.0
 43
0.0
 43
0.0
 43
0.0
 43
0.0
 43
1.0
 77
     0
 47
0.0208333333333333
 47
0.0
 47
0.0
 47
0.0
 47
0.0
 47
0.0208333333333333
 47
0.0
 47
0.0
 47
0.0
 47
0.0
 47
1.0
 47
0.0
 47
0.0
 47
0.0
 47
0.0
 47
1.0
171
     0
 49
0.0208333333333333
 49
0.0
 49
0.0
 49
0.0
 49
0.0
 49
0.0208333333333333
 49
0.0
 49
0.0
 49
0.0
 49
0.0
 49
1.0
 49
0.0
 49
0.0
 49
0.0
 49
0.0
 49
1.0
175
     0
142
0.0208333333333333
142
0.0
142
0.0
142
0.0
142
0.0
142
0.0208333333333333
142
0.0
142
0.0
142
0.0
142
0.0
142
1.0
142
0.0
142
0.0
142
0.0
142
0.0
142
1.0
179
     0
144
0.0208333333333333
144
0.0
144
0.0
144
0.0
144
0.0
144
0.0208333333333333
144
0.0
144
0.0
144
0.0
144
0.0
144
1.0
144
0.0
144
0.0
144
0.0
144
0.0
144
1.0
147
0.0208333333333333
147
0.0
147
0.0
147
0.0
147
0.0
147
0.0208333333333333
147
0.0
147
0.0
147
0.0
147
0.0
147
1.0
147
0.0
147
0.0
147
0.0
147
0.0
147
1.0
  0
MLEADERSTYLE
  5
1947
102
{ACAD_REACTORS
330
1946
102
}
330
1946
100
AcDbMLeaderStyle
170
     2
171
     1
172
     0
 90
        2
 40
0.0
 41
0.0
173
     1
 91
-1056964608
340
14
 92
       -2
290
     1
 42
0.09
291
     1
 43
0.36
  3
Standard
 44
0.18
300

342
11
174
     1
178
     6
175
     1
176
     0
 93
-1056964608
 45
0.18
292
     0
297
     0
 46
0.18
 94
-1056964608
 47
1.0
 49
1.0
140
1.0
293
     1
141
0.0
294
     1
177
     0
142
1.0
295
     0
296
     0
143
0.125
1001
ACAD_MLEADERVER
1070
     2
  0
MLINESTYLE
  5
18
102
{ACAD_REACTORS
330
17
102
}
330
17
100
AcDbMlineStyle
  2
STANDARD
 70
     0
  3

 62
   256
 51
90.0
 52
90.0
 71
     2
 49
0.5
 62
   256
  6
BYLAYER
 49
-0.5
 62
   256
  6
BYLAYER
  0
ACDBPLACEHOLDER
  5
F
102
{ACAD_REACTORS
330
E
102
}
330
E
  0
SCALE
  5
1935
102
{ACAD_REACTORS
330
1934
102
}
330
1934
100
AcDbScale
 70
     0
300
1:1
140
1.0
141
1.0
290
     1
  0
SCALE
  5
1936
102
{ACAD_REACTORS
330
1934
102
}
330
1934
100
AcDbScale
 70
     0
300
1/128" = 1'-0"
140
0.0078125
141
12.0
290
     0
  0
SCALE
  5
1937
102
{ACAD_REACTORS
330
1934
102
}
330
1934
100
AcDbScale
 70
     0
300
1/64" = 1'-0"
140
0.015625
141
12.0
290
     0
  0
SCALE
  5
1938
102
{ACAD_REACTORS
330
1934
102
}
330
1934
100
AcDbScale
 70
     0
300
1/32" = 1'-0"
140
0.03125
141
12.0
290
     0
  0
SCALE
  5
1939
102
{ACAD_REACTORS
330
1934
102
}
330
1934
100
AcDbScale
 70
     0
300
1/16" = 1'-0"
140
0.0625
141
12.0
290
     0
  0
SCALE
  5
193A
102
{ACAD_REACTORS
330
1934
102
}
330
1934
100
AcDbScale
 70
     0
300
3/32" = 1'-0"
140
0.09375
141
12.0
290
     0
  0
SCALE
  5
193B
102
{ACAD_REACTORS
330
1934
102
}
330
1934
100
AcDbScale
 70
     0
300
1/8" = 1'-0"
140
0.125
141
12.0
290
     0
  0
SCALE
  5
193C
102
{ACAD_REACTORS
330
1934
102
}
330
1934
100
AcDbScale
 70
     0
300
3/16" = 1'-0"
140
0.1875
141
12.0
290
     0
  0
SCALE
  5
193D
102
{ACAD_REACTORS
330
1934
102
}
330
1934
100
AcDbScale
 70
     0
300
1/4" = 1'-0"
140
0.25
141
12.0
290
     0
  0
SCALE
  5
193E
102
{ACAD_REACTORS
330
1934
102
}
330
1934
100
AcDbScale
 70
     0
300
3/8" = 1'-0"
140
0.375
141
12.0
290
     0
  0
SCALE
  5
193F
102
{ACAD_REACTORS
330
1934
102
}
330
1934
100
AcDbScale
 70
     0
300
1/2" = 1'-0"
140
0.5
141
12.0
290
     0
  0
SCALE
  5
1940
102
{ACAD_REACTORS
330
1934
102
}
330
1934
100
AcDbScale
 70
     0
300
3/4" = 1'-0"
140
0.75
141
12.0
290
     0
  0
SCALE
  5
1941
102
{ACAD_REACTORS
330
1934
102
}
330
1934
100
AcDbScale
 70
     0
300
1" = 1'-0"
140
1.0
141
12.0
290
     0
  0
SCALE
  5
1942
102
{ACAD_REACTORS
330
1934
102
}
330
1934
100
AcDbScale
 70
     0
300
1-1/2" = 1'-0"
140
1.5
141
12.0
290
     0
  0
SCALE
  5
1943
102
{ACAD_REACTORS
330
1934
102
}
330
1934
100
AcDbScale
 70
     0
300
3" = 1'-0"
140
3.0
141
12.0
290
     0
  0
SCALE
  5
1944
102
{ACAD_REACTORS
330
1934
102
}
330
1934
100
AcDbScale
 70
     0
300
6" = 1'-0"
140
6.0
141
12.0
290
     0
  0
SCALE
  5
1945
102
{ACAD_REACTORS
330
1934
102
}
330
1934
100
AcDbScale
 70
     0
300
1'-0" = 1'-0"
140
12.0
141
12.0
290
     0
  0
ACAD_PROXY_OBJECT
  5
194A
102
{ACAD_REACTORS
330
1948
102
}
330
1948
100
AcDbProxyObject
 90
      499
 91
      508
 95
   983063
 70
     0
 93
     2303
310
90B496D70657269616C3234004A765C0F42F5A8DC671FE5C0F42F5A8DC671FA229258409E5840A25840A65840B05840B4005C0F42F5A8DC6F1FA33A659703D0BD6A3719C7E5C0F42F5A8DC671FE5C0F42F5A8DC671FA02000000000000741FA02BE929E2E20B1AB30B9102B34B2BBAA3CB832902E33101112BA3198911F129
310
0129E2E20B1AB30B9102B34B2BBA9B2B1BA34B7B729BA30B93A24B21F1296929E2E20B1AB30B9102B34B2BBA9B2B1BA34B7B722B73224B21F12AE2829A1A0A62290129E2E20B1AB30B9102B34B2BBA9B1B0B632902E33101112B9B7111F128060080A0E829CA692666200C206056BD1B81E85639FA0320D0305A88A9F643F2
310
7E32B9969C2960E81F87FA0718D4DE3E87E32B9969C2960E85F9E5129FC49EA5FA7F
340
11
340
0
340
0
340
1949
340
16
340
11
 94
        0
1001
ACAD
1000
AcRTDxfName
1000
ACDBSECTIONVIEWSTYLE
  0
TABLESTYLE
  5
1933
102
{ACAD_XDICTIONARY
360
194E
102
}
102
{ACAD_REACTORS
330
1932
102
}
330
1932
100
AcDbTableStyle
  3
Standard
 70
     0
 71
     0
 40
0.06
 41
0.06
280
     0
281
     0
  7
STANDARD
140
0.18
170
     2
 62
     0
 63
     7
283
     0
274
    -2
284
     1
 64
     0
275
    -2
285
     1
 65
     0
276
    -2
286
     1
 66
     0
277
    -2
287
     1
 67
     0
278
    -2
288
     1
 68
     0
279
    -2
289
     1
 69
     0
  7
STANDARD
140
0.25
170
     5
 62
     0
 63
     7
283
     0
274
    -2
284
     1
 64
     0
275
    -2
285
     1
 65
     0
276
    -2
286
     1
 66
     0
277
    -2
287
     1
 67
     0
278
    -2
288
     1
 68
     0
279
    -2
289
     1
 69
     0
  7
STANDARD
140
0.18
170
     5
 62
     0
 63
     7
283
     0
274
    -2
284
     1
 64
     0
275
    -2
285
     1
 65
     0
276
    -2
286
     1
 66
     0
277
    -2
287
     1
 67
     0
278
    -2
288
     1
 68
     0
279
    -2
289
     1
 69
     0
  0
VISUALSTYLE
  5
191E
102
{ACAD_XDICTIONARY
360
1965
102
}
102
{ACAD_REACTORS
330
1918
102
}
330
1918
100
AcDbVisualStyle
  2
2dWireframe
 70
     4
 71
     0
 72
     2
 73
     0
 90
        0
 40
-0.6
 41
-30.0
 62
     5
 63
     7
 74
     1
 91
        4
 64
     7
 65
   257
 75
     1
175
     1
 42
1.0
 92
        0
 66
   257
 43
1.0
 76
     1
 77
     6
 78
     2
 67
     7
 79
     5
170
     0
171
     0
290
     0
174
     0
 93
        1
 44
0.0
173
     0
291
     0
 45
0.0
1001
ACAD
1000
AcDbSavedByObjectVersion
1070
     0
  0
VISUALSTYLE
  5
1999
102
{ACAD_REACTORS
330
1918
102
}
330
1918
100
AcDbVisualStyle
  2
3D Hidden
 70
     6
 71
     1
 72
     2
 73
     2
 90
        0
 40
-0.6
 41
-30.0
 62
     5
 63
     7
 74
     2
 91
        2
 64
     7
 65
   257
 75
     2
175
     1
 42
40.0
 92
        0
 66
   257
 43
1.0
 76
     1
 77
     6
 78
     2
 67
     7
 79
     3
170
     0
171
     0
290
     0
174
     0
 93
        1
 44
0.0
173
     0
291
     0
 45
0.0
1001
ACAD
1000
AcDbSavedByObjectVersion
1070
     0
  0
VISUALSTYLE
  5
1998
102
{ACAD_REACTORS
330
1918
102
}
330
1918
100
AcDbVisualStyle
  2
3dWireframe
 70
     5
 71
     0
 72
     2
 73
     0
 90
        0
 40
-0.6
 41
-30.0
 62
     5
 63
     7
 74
     1
 91
        4
 64
     7
 65
   257
 75
     1
175
     1
 42
1.0
 92
        0
 66
   257
 43
1.0
 76
     1
 77
     6
 78
     2
 67
     7
 79
     5
170
     0
171
     0
290
     0
174
     0
 93
        1
 44
0.0
173
     0
291
     0
 45
0.0
1001
ACAD
1000
AcDbSavedByObjectVersion
1070
     0
  0
VISUALSTYLE
  5
191D
102
{ACAD_XDICTIONARY
360
1963
102
}
102
{ACAD_REACTORS
330
1918
102
}
330
1918
100
AcDbVisualStyle
  2
Basic
 70
     7
 71
     1
 72
     0
 73
     1
 90
        0
 40
-0.6
 41
-30.0
 62
     5
 63
     7
 74
     0
 91
        4
 64
     7
 65
   257
 75
     1
175
     1
 42
1.0
 92
        8
 66
     7
 43
1.0
 76
     1
 77
     6
 78
     2
 67
     7
 79
     5
170
     0
171
     0
290
     0
174
     0
 93
        1
 44
0.0
173
     0
291
     1
 45
0.0
1001
ACAD
1000
AcDbSavedByObjectVersion
1070
     0
  0
VISUALSTYLE
  5
1924
102
{ACAD_XDICTIONARY
360
1971
102
}
102
{ACAD_REACTORS
330
1918
102
}
330
1918
100
AcDbVisualStyle
  2
Brighten
 70
    12
 71
     2
 72
     2
 73
     0
 90
        0
 40
-0.6
 41
-30.0
 62
     5
 63
     7
 74
     1
 91
        4
 64
     7
 65
   257
 75
     1
175
     1
 42
1.0
 92
        8
 66
     7
 43
1.0
 76
     1
 77
     6
 78
     2
 67
     7
 79
     5
170
     0
171
     0
290
     0
174
     0
 93
        1
 44
50.0
173
     0
291
     1
 45
0.0
1001
ACAD
1000
AcDbSavedByObjectVersion
1070
     0
  0
VISUALSTYLE
  5
1928
102
{ACAD_XDICTIONARY
360
1979
102
}
102
{ACAD_REACTORS
330
1918
102
}
330
1918
100
AcDbVisualStyle
  2
ColorChange
 70
    16
 71
     2
 72
     2
 73
     3
 90
        0
 40
-0.6
 41
-30.0
 62
     5
 63
     8
 74
     1
 91
        4
 64
     7
 65
   257
 75
     1
175
     1
 42
1.0
 92
        8
 66
     8
 43
1.0
 76
     1
 77
     6
 78
     2
 67
     7
 79
     5
170
     0
171
     0
290
     0
174
     0
 93
        1
 44
0.0
173
     0
291
     1
 45
0.0
1001
ACAD
1000
AcDbSavedByObjectVersion
1070
     0
  0
VISUALSTYLE
  5
1921
102
{ACAD_XDICTIONARY
360
196B
102
}
102
{ACAD_REACTORS
330
1918
102
}
330
1918
100
AcDbVisualStyle
  2
Conceptual
 70
     9
 71
     3
 72
     2
 73
     0
 90
        0
 40
-0.6
 41
-30.0
 62
     5
 63
     7
 74
     2
 91
        2
 64
     7
 65
   257
 75
     1
175
     1
 42
179.0
 92
        8
 66
     7
 43
1.0
 76
     1
 77
     6
 78
     2
 67
     7
 79
     3
170
     0
171
     0
290
     0
174
     0
 93
        1
 44
0.0
173
     0
291
     0
 45
0.0
1001
ACAD
1000
AcDbSavedByObjectVersion
1070
     0
  0
VISUALSTYLE
  5
1923
102
{ACAD_XDICTIONARY
360
196F
102
}
102
{ACAD_REACTORS
330
1918
102
}
330
1918
100
AcDbVisualStyle
  2
Dim
 70
    11
 71
     2
 72
     2
 73
     0
 90
        0
 40
-0.6
 41
-30.0
 62
     5
 63
     7
 74
     1
 91
        4
 64
     7
 65
   257
 75
     1
175
     1
 42
1.0
 92
        8
 66
     7
 43
1.0
 76
     1
 77
     6
 78
     2
 67
     7
 79
     5
170
     0
171
     0
290
     0
174
     0
 93
        1
 44
-50.0
173
     0
291
     1
 45
0.0
1001
ACAD
1000
AcDbSavedByObjectVersion
1070
     0
  0
VISUALSTYLE
  5
1930
102
{ACAD_XDICTIONARY
360
1989
102
}
102
{ACAD_REACTORS
330
1918
102
}
330
1918
100
AcDbVisualStyle
  2
EdgeColorOff
 70
    22
 71
     2
 72
     2
 73
     0
 90
        0
 40
-0.6
 41
-30.0
 62
     5
 63
     7
 74
     1
 91
        4
 64
     7
 65
   257
 75
     1
175
     1
 42
1.0
 92
        8
 66
     7
 43
1.0
 76
     1
 77
     6
 78
     2
 67
     7
 79
     5
170
     0
171
     0
290
     0
174
     0
 93
        1
 44
0.0
173
     0
291
     1
 45
0.0
1001
ACAD
1000
AcDbSavedByObjectVersion
1070
     0
  0
VISUALSTYLE
  5
1927
102
{ACAD_XDICTIONARY
360
1977
102
}
102
{ACAD_REACTORS
330
1918
102
}
330
1918
100
AcDbVisualStyle
  2
Facepattern
 70
    15
 71
     2
 72
     2
 73
     0
 90
        0
 40
-0.6
 41
-30.0
 62
     5
 63
     7
 74
     1
 91
        4
 64
     7
 65
   257
 75
     1
175
     1
 42
1.0
 92
        8
 66
     7
 43
1.0
 76
     1
 77
     6
 78
     2
 67
     7
 79
     5
170
     0
171
     0
290
     0
174
     0
 93
        1
 44
0.0
173
     0
291
     1
 45
0.0
1001
ACAD
1000
AcDbSavedByObjectVersion
1070
     0
  0
VISUALSTYLE
  5
1919
102
{ACAD_XDICTIONARY
360
195B
102
}
102
{ACAD_REACTORS
330
1918
102
}
330
1918
100
AcDbVisualStyle
  2
Flat
 70
     0
 71
     2
 72
     1
 73
     1
 90
        2
 40
-0.6
 41
30.0
 62
     5
 63
     7
 74
     0
 91
        0
 64
     7
 65
   257
 75
     1
175
     1
 42
1.0
 92
        8
 66
     7
 43
1.0
 76
     1
 77
     6
 78
     2
 67
     7
 79
     5
170
     0
171
     0
290
     0
174
     0
 93
       13
 44
0.0
173
     0
291
     1
 45
0.0
1001
ACAD
1000
AcDbSavedByObjectVersion
1070
     0
  0
VISUALSTYLE
  5
191A
102
{ACAD_XDICTIONARY
360
195D
102
}
102
{ACAD_REACTORS
330
1918
102
}
330
1918
100
AcDbVisualStyle
  2
FlatWithEdges
 70
     1
 71
     2
 72
     1
 73
     1
 90
        2
 40
-0.6
 41
30.0
 62
     5
 63
     7
 74
     1
 91
        0
 64
     7
 65
   257
 75
     1
175
     1
 42
1.0
 92
        0
 66
   257
 43
1.0
 76
     1
 77
     6
 78
     2
 67
     7
 79
     5
170
     0
171
     0
290
     0
174
     0
 93
       13
 44
0.0
173
     0
291
     1
 45
0.0
1001
ACAD
1000
AcDbSavedByObjectVersion
1070
     0
  0
VISUALSTYLE
  5
191B
102
{ACAD_XDICTIONARY
360
195F
102
}
102
{ACAD_REACTORS
330
1918
102
}
330
1918
100
AcDbVisualStyle
  2
Gouraud
 70
     2
 71
     2
 72
     2
 73
     1
 90
        2
 40
-0.6
 41
30.0
 62
     5
 63
     7
 74
     0
 91
        0
 64
     7
 65
   257
 75
     1
175
     1
 42
1.0
 92
        0
 66
     7
 43
1.0
 76
     1
 77
     6
 78
     2
 67
     7
 79
     5
170
     0
171
     0
290
     0
174
     0
 93
       13
 44
0.0
173
     0
291
     1
 45
0.0
1001
ACAD
1000
AcDbSavedByObjectVersion
1070
     0
  0
VISUALSTYLE
  5
191C
102
{ACAD_XDICTIONARY
360
1961
102
}
102
{ACAD_REACTORS
330
1918
102
}
330
1918
100
AcDbVisualStyle
  2
GouraudWithEdges
 70
     3
 71
     2
 72
     2
 73
     1
 90
        2
 40
-0.6
 41
30.0
 62
     5
 63
     7
 74
     1
 91
        0
 64
     7
 65
   257
 75
     1
175
     1
 42
1.0
 92
        0
 66
   257
 43
1.0
 76
     1
 77
     6
 78
     2
 67
     7
 79
     5
170
     0
171
     0
290
     0
174
     0
 93
       13
 44
0.0
173
     0
291
     1
 45
0.0
1001
ACAD
1000
AcDbSavedByObjectVersion
1070
     0
  0
VISUALSTYLE
  5
1920
102
{ACAD_XDICTIONARY
360
1969
102
}
102
{ACAD_REACTORS
330
1918
102
}
330
1918
100
AcDbVisualStyle
  2
Hidden
 70
     6
 71
     1
 72
     2
 73
     2
 90
        0
 40
-0.6
 41
-30.0
 62
     5
 63
     7
 74
     2
 91
        2
 64
     7
 65
   257
 75
     2
175
     1
 42
40.0
 92
        0
 66
   257
 43
1.0
 76
     1
 77
     6
 78
     2
 67
     7
 79
     3
170
     0
171
     0
290
     0
174
     0
 93
        1
 44
0.0
173
     0
291
     0
 45
0.0
1001
ACAD
1000
AcDbSavedByObjectVersion
1070
     0
  0
VISUALSTYLE
  5
192E
102
{ACAD_XDICTIONARY
360
1985
102
}
102
{ACAD_REACTORS
330
1918
102
}
330
1918
100
AcDbVisualStyle
  2
JitterOff
 70
    20
 71
     2
 72
     2
 73
     0
 90
        0
 40
-0.6
 41
-30.0
 62
     5
 63
     7
 74
     1
 91
        4
 64
     7
 65
   257
 75
     1
175
     1
 42
1.0
 92
       10
 66
     7
 43
1.0
 76
     1
 77
     6
 78
     2
 67
     7
 79
     5
170
     0
171
     0
290
     0
174
     0
 93
        1
 44
0.0
173
     0
291
     1
 45
0.0
1001
ACAD
1000
AcDbSavedByObjectVersion
1070
     0
  0
VISUALSTYLE
  5
1926
102
{ACAD_XDICTIONARY
360
1975
102
}
102
{ACAD_REACTORS
330
1918
102
}
330
1918
100
AcDbVisualStyle
  2
Linepattern
 70
    14
 71
     2
 72
     2
 73
     0
 90
        0
 40
-0.6
 41
-30.0
 62
     5
 63
     7
 74
     1
 91
        4
 64
     7
 65
   257
 75
     7
175
     7
 42
1.0
 92
        8
 66
     7
 43
1.0
 76
     1
 77
     6
 78
     2
 67
     7
 79
     5
170
     0
171
     0
290
     0
174
     0
 93
        1
 44
0.0
173
     0
291
     1
 45
0.0
1001
ACAD
1000
AcDbSavedByObjectVersion
1070
     0
  0
VISUALSTYLE
  5
192F
102
{ACAD_XDICTIONARY
360
1987
102
}
102
{ACAD_REACTORS
330
1918
102
}
330
1918
100
AcDbVisualStyle
  2
OverhangOff
 70
    21
 71
     2
 72
     2
 73
     0
 90
        0
 40
-0.6
 41
-30.0
 62
     5
 63
     7
 74
     1
 91
        4
 64
     7
 65
   257
 75
     1
175
     1
 42
1.0
 92
        9
 66
     7
 43
1.0
 76
     1
 77
     6
 78
     2
 67
     7
 79
     5
170
     0
171
     0
290
     0
174
     0
 93
        1
 44
0.0
173
     0
291
     1
 45
0.0
1001
ACAD
1000
AcDbSavedByObjectVersion
1070
     0
  0
VISUALSTYLE
  5
1922
102
{ACAD_XDICTIONARY
360
196D
102
}
102
{ACAD_REACTORS
330
1918
102
}
330
1918
100
AcDbVisualStyle
  2
Realistic
 70
     8
 71
     2
 72
     2
 73
     0
 90
        2
 40
-0.6
 41
30.0
 62
     5
 63
     7
 74
     0
 91
        0
 64
     7
 65
   257
 75
     1
175
     1
 42
1.0
 92
        8
 66
   257
 43
1.0
 76
     1
 77
     6
 78
     2
 67
     7
 79
     3
170
     0
171
     0
290
     0
174
     0
 93
       13
 44
0.0
173
     0
291
     0
 45
0.0
1001
ACAD
1000
AcDbSavedByObjectVersion
1070
     0
  0
VISUALSTYLE
  5
192D
102
{ACAD_XDICTIONARY
360
1983
102
}
102
{ACAD_REACTORS
330
1918
102
}
330
1918
100
AcDbVisualStyle
  2
Shaded
 70
    27
 71
     2
 72
     2
 73
     1
 90
        2
 40
-0.6
 41
30.0
 62
     5
 63
     7
 74
     0
 91
        4
 64
     7
 65
   257
 75
     1
175
     1
 42
1.0
 92
        8
 66
   257
 43
1.0
 76
     1
 77
     6
 78
     2
 67
     8
 79
     3
170
     0
171
     0
290
     0
174
     0
 93
        5
 44
0.0
173
     0
291
     0
 45
0.0
1001
ACAD
1000
AcDbSavedByObjectVersion
1070
     0
  0
VISUALSTYLE
  5
192C
102
{ACAD_XDICTIONARY
360
1981
102
}
102
{ACAD_REACTORS
330
1918
102
}
330
1918
100
AcDbVisualStyle
  2
Shaded with edges
 70
    26
 71
     2
 72
     2
 73
     1
 90
        2
 40
-0.6
 41
30.0
 62
     5
 63
     7
 74
     1
 91
       10
 64
     7
 65
   257
 75
     2
175
     1
 42
1.0
 92
        8
 66
   257
 43
1.0
 76
     1
 77
     6
 78
     2
 67
     7
 79
     3
170
     0
171
     0
290
     0
174
     0
 93
        5
 44
0.0
173
     0
291
     0
 45
0.0
1001
ACAD
1000
AcDbSavedByObjectVersion
1070
     0
  0
VISUALSTYLE
  5
1929
102
{ACAD_XDICTIONARY
360
197B
102
}
102
{ACAD_REACTORS
330
1918
102
}
330
1918
100
AcDbVisualStyle
  2
Shades of Gray
 70
    23
 71
     2
 72
     2
 73
     3
 90
        0
 40
-0.6
 41
-30.0
 62
     5
 63
     7
 74
     2
 91
        2
 64
     7
 65
     7
 75
     1
175
     1
 42
40.0
 92
        8
 66
     7
 43
1.0
 76
     1
 77
     6
 78
     2
 67
     7
 79
     3
170
     0
171
     0
290
     0
174
     0
 93
        1
 44
0.0
173
     0
291
     0
 45
0.0
1001
ACAD
1000
AcDbSavedByObjectVersion
1070
     0
  0
VISUALSTYLE
  5
192A
102
{ACAD_XDICTIONARY
360
197D
102
}
102
{ACAD_REACTORS
330
1918
102
}
330
1918
100
AcDbVisualStyle
  2
Sketchy
 70
    24
 71
     1
 72
     2
 73
     2
 90
        0
 40
-0.6
 41
-30.0
 62
     5
 63
     7
 74
     2
 91
        2
 64
     7
 65
     7
 75
     1
175
     1
 42
40.0
 92
       11
 66
     7
 43
1.0
 76
     1
 77
     6
 78
     2
 67
     7
 79
     6
170
     0
171
     0
290
     0
174
     0
 93
        1
 44
0.0
173
     0
291
     0
 45
0.0
1001
ACAD
1000
AcDbSavedByObjectVersion
1070
     0
  0
VISUALSTYLE
  5
1925
102
{ACAD_XDICTIONARY
360
1973
102
}
102
{ACAD_REACTORS
330
1918
102
}
330
1918
100
AcDbVisualStyle
  2
Thicken
 70
    13
 71
     2
 72
     2
 73
     0
 90
        0
 40
-0.6
 41
-30.0
 62
     5
 63
     7
 74
     1
 91
        4
 64
     7
 65
   257
 75
     1
175
     1
 42
1.0
 92
       12
 66
     7
 43
1.0
 76
     1
 77
     6
 78
     2
 67
     7
 79
     5
170
     0
171
     0
290
     0
174
     0
 93
        1
 44
0.0
173
     0
291
     1
 45
0.0
1001
ACAD
1000
AcDbSavedByObjectVersion
1070
     0
  0
VISUALSTYLE
  5
191F
102
{ACAD_XDICTIONARY
360
1967
102
}
102
{ACAD_REACTORS
330
1918
102
}
330
1918
100
AcDbVisualStyle
  2
Wireframe
 70
     5
 71
     0
 72
     2
 73
     0
 90
        0
 40
-0.6
 41
-30.0
 62
     5
 63
     7
 74
     1
 91
        4
 64
     7
 65
   257
 75
     1
175
     1
 42
1.0
 92
        0
 66
   257
 43
1.0
 76
     1
 77
     6
 78
     2
 67
     7
 79
     3
170
     0
171
     0
290
     0
174
     0
 93
        1
 44
0.0
173
     0
291
     0
 45
0.0
1001
ACAD
1000
AcDbSavedByObjectVersion
1070
     0
  0
VISUALSTYLE
  5
192B
102
{ACAD_XDICTIONARY
360
197F
102
}
102
{ACAD_REACTORS
330
1918
102
}
330
1918
100
AcDbVisualStyle
  2
X-Ray
 70
    25
 71
     2
 72
     2
 73
     1
 90
        1
 40
0.5
 41
-30.0
 62
     5
 63
     7
 74
     1
 91
        0
 64
     7
 65
   257
 75
     1
175
     1
 42
1.0
 92
        8
 66
     7
 43
1.0
 76
     1
 77
     6
 78
     2
 67
     7
 79
     3
170
     0
171
     0
290
     0
174
     0
 93
       13
 44
0.0
173
     0
291
     0
 45
0.0
1001
ACAD
1000
AcDbSavedByObjectVersion
1070
     0
  0
DICTIONARYVAR
  5
1992
102
{ACAD_REACTORS
330
198D
102
}
330
198D
100
DictionaryVariables
280
     0
  1
1:1
  0
DICTIONARYVAR
  5
198F
102
{ACAD_REACTORS
330
198D
102
}
330
198D
100
DictionaryVariables
280
     0
  1
STANDARD
  0
DICTIONARYVAR
  5
198E
102
{ACAD_REACTORS
330
198D
102
}
330
198D
100
DictionaryVariables
280
     0
  1
STANDARD
  0
DICTIONARYVAR
  5
1990
102
{ACAD_REACTORS
330
198D
102
}
330
198D
100
DictionaryVariables
280
     0
  1
Imperial24
  0
DICTIONARYVAR
  5
1991
102
{ACAD_REACTORS
330
198D
102
}
330
198D
100
DictionaryVariables
280
     0
  1
Imperial24
  0
DICTIONARYVAR
  5
1995
102
{ACAD_REACTORS
330
198D
102
}
330
198D
100
DictionaryVariables
280
     0
  1
1
  0
DICTIONARYVAR
  5
1994
102
{ACAD_REACTORS
330
198D
102
}
330
198D
100
DictionaryVariables
280
     0
  1
0
  0
DICTIONARYVAR
  5
19D5
102
{ACAD_REACTORS
330
198D
102
}
330
198D
100
DictionaryVariables
280
     0
  1
1
  0
DICTIONARYVAR
  5
19D6
102
{ACAD_REACTORS
330
198D
102
}
330
198D
100
DictionaryVariables
280
     0
  1
15
  0
DICTIONARYVAR
  5
19D4
102
{ACAD_REACTORS
330
198D
102
}
330
198D
100
DictionaryVariables
280
     0
  1
0
  0
DICTIONARYVAR
  5
19D3
102
{ACAD_REACTORS
330
198D
102
}
330
198D
100
DictionaryVariables
280
     0
  1
0
  0
DICTIONARYVAR
  5
1993
102
{ACAD_REACTORS
330
198D
102
}
330
198D
100
DictionaryVariables
280
     0
  1
127
  0
DICTIONARYVAR
  5
1996
102
{ACAD_REACTORS
330
198D
102
}
330
198D
100
DictionaryVariables
280
     0
  1
0
  0
DICTIONARY
  5
19E2
330
18FB
100
AcDbDictionary
280
     1
281
     1
  3
ACAD_XREC_ROUNDTRIP
360
19E3
  0
DICTIONARY
  5
19E0
330
18FA
100
AcDbDictionary
280
     1
281
     1
  3
ACAD_XREC_ROUNDTRIP
360
19E1
  0
DICTIONARY
  5
1909
330
1908
100
AcDbDictionary
280
     1
281
     1
  3
ACAD_XREC_ROUNDTRIP
360
19E5
  3
BUMPTILE
360
190B
  3
DIFFUSETILE
360
190A
  3
OPACITYTILE
360
190E
  3
REFLECTIONTILE
360
190D
  3
REFRACTIONTILE
360
190F
  3
SPECULARTILE
360
190C
  0
DICTIONARY
  5
1901
330
1900
100
AcDbDictionary
280
     1
281
     1
  3
ACAD_XREC_ROUNDTRIP
360
19E4
  3
BUMPTILE
360
1903
  3
DIFFUSETILE
360
1902
  3
OPACITYTILE
360
1906
  3
REFLECTIONTILE
360
1905
  3
REFRACTIONTILE
360
1907
  3
SPECULARTILE
360
1904
  0
DICTIONARY
  5
1911
330
1910
100
AcDbDictionary
280
     1
281
     1
  3
ACAD_XREC_ROUNDTRIP
360
19E6
  3
BUMPTILE
360
1913
  3
DIFFUSETILE
360
1912
  3
OPACITYTILE
360
1916
  3
REFLECTIONTILE
360
1915
  3
REFRACTIONTILE
360
1917
  3
SPECULARTILE
360
1914
  0
DICTIONARY
  5
194E
330
1933
100
AcDbDictionary
280
     1
281
     1
  3
ACAD_ROUNDTRIP_2008_TABLESTYLE_CELLSTYLEMAP
360
19DE
  3
ACAD_XREC_ROUNDTRIP
360
19E7
  0
DICTIONARY
  5
1965
330
191E
100
AcDbDictionary
280
     1
281
     1
  3
ACAD_XREC_ROUNDTRIP
360
1966
  0
DICTIONARY
  5
1963
330
191D
100
AcDbDictionary
280
     1
281
     1
  3
ACAD_XREC_ROUNDTRIP
360
1964
  0
DICTIONARY
  5
1971
330
1924
100
AcDbDictionary
280
     1
281
     1
  3
ACAD_XREC_ROUNDTRIP
360
1972
  0
DICTIONARY
  5
1979
330
1928
100
AcDbDictionary
280
     1
281
     1
  3
ACAD_XREC_ROUNDTRIP
360
197A
  0
DICTIONARY
  5
196B
330
1921
100
AcDbDictionary
280
     1
281
     1
  3
ACAD_XREC_ROUNDTRIP
360
196C
  0
DICTIONARY
  5
196F
330
1923
100
AcDbDictionary
280
     1
281
     1
  3
ACAD_XREC_ROUNDTRIP
360
1970
  0
DICTIONARY
  5
1989
330
1930
100
AcDbDictionary
280
     1
281
     1
  3
ACAD_XREC_ROUNDTRIP
360
198A
  0
DICTIONARY
  5
1977
330
1927
100
AcDbDictionary
280
     1
281
     1
  3
ACAD_XREC_ROUNDTRIP
360
1978
  0
DICTIONARY
  5
195B
330
1919
100
AcDbDictionary
280
     1
281
     1
  3
ACAD_XREC_ROUNDTRIP
360
195C
  0
DICTIONARY
  5
195D
330
191A
100
AcDbDictionary
280
     1
281
     1
  3
ACAD_XREC_ROUNDTRIP
360
195E
  0
DICTIONARY
  5
195F
330
191B
100
AcDbDictionary
280
     1
281
     1
  3
ACAD_XREC_ROUNDTRIP
360
1960
  0
DICTIONARY
  5
1961
330
191C
100
AcDbDictionary
280
     1
281
     1
  3
ACAD_XREC_ROUNDTRIP
360
1962
  0
DICTIONARY
  5
1969
330
1920
100
AcDbDictionary
280
     1
281
     1
  3
ACAD_XREC_ROUNDTRIP
360
196A
  0
DICTIONARY
  5
1985
330
192E
100
AcDbDictionary
280
     1
281
     1
  3
ACAD_XREC_ROUNDTRIP
360
1986
  0
DICTIONARY
  5
1975
330
1926
100
AcDbDictionary
280
     1
281
     1
  3
ACAD_XREC_ROUNDTRIP
360
1976
  0
DICTIONARY
  5
1987
330
192F
100
AcDbDictionary
280
     1
281
     1
  3
ACAD_XREC_ROUNDTRIP
360
1988
  0
DICTIONARY
  5
196D
330
1922
100
AcDbDictionary
280
     1
281
     1
  3
ACAD_XREC_ROUNDTRIP
360
196E
  0
DICTIONARY
  5
1983
330
192D
100
AcDbDictionary
280
     1
281
     1
  3
ACAD_XREC_ROUNDTRIP
360
1984
  0
DICTIONARY
  5
1981
330
192C
100
AcDbDictionary
280
     1
281
     1
  3
ACAD_XREC_ROUNDTRIP
360
1982
  0
DICTIONARY
  5
197B
330
1929
100
AcDbDictionary
280
     1
281
     1
  3
ACAD_XREC_ROUNDTRIP
360
197C
  0
DICTIONARY
  5
197D
330
192A
100
AcDbDictionary
280
     1
281
     1
  3
ACAD_XREC_ROUNDTRIP
360
197E
  0
DICTIONARY
  5
1973
330
1925
100
AcDbDictionary
280
     1
281
     1
  3
ACAD_XREC_ROUNDTRIP
360
1974
  0
DICTIONARY
  5
1967
330
191F
100
AcDbDictionary
280
     1
281
     1
  3
ACAD_XREC_ROUNDTRIP
360
1968
  0
DICTIONARY
  5
197F
330
192B
100
AcDbDictionary
280
     1
281
     1
  3
ACAD_XREC_ROUNDTRIP
360
1980
  0
XRECORD
  5
19E3
102
{ACAD_REACTORS
330
19E2
102
}
330
19E2
100
AcDbXrecord
280
     1
102
SHADEPLOT
 70
     0
102
SHADEPLOTRESLEVEL
 70
     2
102
SHADEPLOTCUSTOMDPI
 70
   300
  0
XRECORD
  5
19E1
102
{ACAD_REACTORS
330
19E0
102
}
330
19E0
100
AcDbXrecord
280
     1
102
SHADEPLOT
 70
     0
102
SHADEPLOTRESLEVEL
 70
     2
102
SHADEPLOTCUSTOMDPI
 70
   300
  0
XRECORD
  5
19E5
102
{ACAD_REACTORS
330
1909
102
}
330
1909
100
AcDbXrecord
280
     1
102
MATERIAL
148
0.0
149
0.0
149
0.0
 93
        0
 94
      127
282
     0
 72
     0
 77
     0
171
     0
175
     0
179
     0
273
     0
  0
XRECORD
  5
190B
102
{ACAD_REACTORS
330
1909
102
}
330
1909
100
AcDbXrecord
280
     1
270
     1
271
     1
  0
XRECORD
  5
190A
102
{ACAD_REACTORS
330
1909
102
}
330
1909
100
AcDbXrecord
280
     1
270
     1
271
     1
  0
XRECORD
  5
190E
102
{ACAD_REACTORS
330
1909
102
}
330
1909
100
AcDbXrecord
280
     1
270
     1
271
     1
  0
XRECORD
  5
190D
102
{ACAD_REACTORS
330
1909
102
}
330
1909
100
AcDbXrecord
280
     1
270
     1
271
     1
  0
XRECORD
  5
190F
102
{ACAD_REACTORS
330
1909
102
}
330
1909
100
AcDbXrecord
280
     1
270
     1
271
     1
  0
XRECORD
  5
190C
102
{ACAD_REACTORS
330
1909
102
}
330
1909
100
AcDbXrecord
280
     1
270
     1
271
     1
  0
XRECORD
  5
19E4
102
{ACAD_REACTORS
330
1901
102
}
330
1901
100
AcDbXrecord
280
     1
102
MATERIAL
148
0.0
149
0.0
149
0.0
 93
        0
 94
      127
282
     0
 72
     0
 77
     0
171
     0
175
     0
179
     0
273
     0
  0
XRECORD
  5
1903
102
{ACAD_REACTORS
330
1901
102
}
330
1901
100
AcDbXrecord
280
     1
270
     1
271
     1
  0
XRECORD
  5
1902
102
{ACAD_REACTORS
330
1901
102
}
330
1901
100
AcDbXrecord
280
     1
270
     1
271
     1
  0
XRECORD
  5
1906
102
{ACAD_REACTORS
330
1901
102
}
330
1901
100
AcDbXrecord
280
     1
270
     1
271
     1
  0
XRECORD
  5
1905
102
{ACAD_REACTORS
330
1901
102
}
330
1901
100
AcDbXrecord
280
     1
270
     1
271
     1
  0
XRECORD
  5
1907
102
{ACAD_REACTORS
330
1901
102
}
330
1901
100
AcDbXrecord
280
     1
270
     1
271
     1
  0
XRECORD
  5
1904
102
{ACAD_REACTORS
330
1901
102
}
330
1901
100
AcDbXrecord
280
     1
270
     1
271
     1
  0
XRECORD
  5
19E6
102
{ACAD_REACTORS
330
1911
102
}
330
1911
100
AcDbXrecord
280
     1
102
MATERIAL
148
0.0
149
0.0
149
0.0
 93
        0
 94
      127
282
     0
 72
     0
 77
     0
171
     0
175
     0
179
     0
273
     0
  0
XRECORD
  5
1913
102
{ACAD_REACTORS
330
1911
102
}
330
1911
100
AcDbXrecord
280
     1
270
     1
271
     1
  0
XRECORD
  5
1912
102
{ACAD_REACTORS
330
1911
102
}
330
1911
100
AcDbXrecord
280
     1
270
     1
271
     1
  0
XRECORD
  5
1916
102
{ACAD_REACTORS
330
1911
102
}
330
1911
100
AcDbXrecord
280
     1
270
     1
271
     1
  0
XRECORD
  5
1915
102
{ACAD_REACTORS
330
1911
102
}
330
1911
100
AcDbXrecord
280
     1
270
     1
271
     1
  0
XRECORD
  5
1917
102
{ACAD_REACTORS
330
1911
102
}
330
1911
100
AcDbXrecord
280
     1
270
     1
271
     1
  0
XRECORD
  5
1914
102
{ACAD_REACTORS
330
1911
102
}
330
1911
100
AcDbXrecord
280
     1
270
     1
271
     1
  0
CELLSTYLEMAP
  5
19DE
102
{ACAD_REACTORS
330
194E
102
}
330
194E
100
AcDbCellStyleMap
 90
        3
300
CELLSTYLE
  1
TABLEFORMAT_BEGIN
 90
        5
170
     1
 91
        0
 92
    32768
 62
   257
 93
        1
300
CONTENTFORMAT
  1
CONTENTFORMAT_BEGIN
 90
        0
 91
        0
 92
      512
 93
        0
300

 40
0.0
140
1.0
 94
        5
 62
     0
340
11
144
0.25
309
CONTENTFORMAT_END
171
     0
 94
        0
309
TABLEFORMAT_END
  1
CELLSTYLE_BEGIN
 90
        1
 91
        1
300
_TITLE
309
CELLSTYLE_END
300
CELLSTYLE
  1
TABLEFORMAT_BEGIN
 90
        5
170
     1
 91
        0
 92
        0
 62
   257
 93
        1
300
CONTENTFORMAT
  1
CONTENTFORMAT_BEGIN
 90
        0
 91
        0
 92
      512
 93
        0
300

 40
0.0
140
1.0
 94
        5
 62
     0
340
11
144
0.18
309
CONTENTFORMAT_END
171
     0
 94
        0
309
TABLEFORMAT_END
  1
CELLSTYLE_BEGIN
 90
        2
 91
        1
300
_HEADER
309
CELLSTYLE_END
300
CELLSTYLE
  1
TABLEFORMAT_BEGIN
 90
        5
170
     1
 91
        0
 92
        0
 62
   257
 93
        1
300
CONTENTFORMAT
  1
CONTENTFORMAT_BEGIN
 90
        0
 91
        0
 92
      512
 93
        0
300

 40
0.0
140
1.0
 94
        2
 62
     0
340
11
144
0.18
309
CONTENTFORMAT_END
171
     0
 94
        0
309
TABLEFORMAT_END
  1
CELLSTYLE_BEGIN
 90
        3
 91
        2
300
_DATA
309
CELLSTYLE_END
  0
XRECORD
  5
19E7
102
{ACAD_REACTORS
330
194E
102
}
330
194E
100
AcDbXrecord
280
     1
102
ACAD_ROUNDTRIP_PRE2007_TABLESTYLE
 90
      512
 91
        0
  1

 92
      512
 93
        0
  2

 94
      512
 95
        0
  3

  0
XRECORD
  5
1966
102
{ACAD_REACTORS
330
1965
102
}
330
1965
100
AcDbXrecord
280
     1
102
RTVSPost2010Prop28
280
     1
102
RTVSPost2010PropOp28
 70
     1
102
RTVSPost2010Prop29
280
     1
102
RTVSPost2010PropOp29
 70
     1
102
RTVSPost2010Prop30
280
     0
102
RTVSPost2010PropOp30
 70
     1
102
RTVSPost2010Prop31
280
     0
102
RTVSPost2010PropOp31
 70
     1
102
RTVSPost2010Prop32
280
     0
102
RTVSPost2010PropOp32
 70
     1
102
RTVSPost2010Prop33
280
     0
102
RTVSPost2010PropOp33
 70
     1
102
RTVSPost2010Prop34
280
     0
102
RTVSPost2010PropOp34
 70
     1
102
RTVSPost2010Prop35
280
     0
102
RTVSPost2010PropOp35
 70
     1
102
RTVSPost2010Prop36
280
     0
102
RTVSPost2010PropOp36
 70
     1
102
RTVSPost2010Prop37
 90
       50
102
RTVSPost2010PropOp37
 70
     1
102
RTVSPost2010Prop38
140
0.0
102
RTVSPost2010PropOp38
 70
     1
102
RTVSPost2010Prop39
140
1.0
102
RTVSPost2010PropOp39
 70
     1
102
RTVSPost2010Prop40
 90
        0
102
RTVSPost2010PropOp40
 70
     1
102
RTVSPost2010Prop41ColorIndex
 90
       18
102
RTVSPost2010Prop41ColorRGB
 90
        0
102
RTVSPost2010PropOp41
 70
     1
102
RTVSPost2010Prop42
 90
       50
102
RTVSPost2010PropOp42
 70
     1
102
RTVSPost2010Prop43
 90
        3
102
RTVSPost2010PropOp43
 70
     1
102
RTVSPost2010Prop44ColorIndex
 90
        5
102
RTVSPost2010Prop44ColorRGB
 90
      255
102
RTVSPost2010PropOp44
 70
     1
102
RTVSPost2010Prop45
280
     0
102
RTVSPost2010PropOp45
 70
     1
102
RTVSPost2010Prop46
 90
       50
102
RTVSPost2010PropOp46
 70
     1
102
RTVSPost2010Prop47
 90
       50
102
RTVSPost2010PropOp47
 70
     1
102
RTVSPost2010Prop48
 90
       50
102
RTVSPost2010PropOp48
 70
     1
102
RTVSPost2010Prop49
280
     0
102
RTVSPost2010PropOp49
 70
     1
102
RTVSPost2010Prop50
 90
       50
102
RTVSPost2010PropOp50
 70
     1
102
RTVSPost2010Prop51ColorIndex
 90
      256
102
RTVSPost2010Prop51ColorRGB
 90
-16777216
102
RTVSPost2010PropOp51
 70
     0
102
RTVSPost2010Prop52
140
1.0
102
RTVSPost2010PropOp52
 70
     0
102
RTVSPost2010Prop53
 90
        2
102
RTVSPost2010PropOp53
 70
     1
102
RTVSPost2010Prop54
  1
strokes_ogs.tif
102
RTVSPost2010PropOp54
 70
     1
102
RTVSPost2010Prop55
280
     0
102
RTVSPost2010PropOp55
 70
     1
102
RTVSPost2010Prop56
140
1.0
102
RTVSPost2010PropOp56
 70
     1
102
RTVSPost2010Prop57
140
1.0
102
RTVSPost2010PropOp57
 70
     1
102
RTVSPropertyOp0
 70
     1
102
RTVSPropertyOp1
 70
     1
102
RTVSPropertyOp2
 70
     1
102
RTVSPropertyOp3
 70
     1
102
RTVSPropertyOp4
 70
     1
102
RTVSPropertyOp5
 70
     1
102
RTVSPropertyOp6
 70
     1
102
RTVSPropertyOp7
 70
     1
102
RTVSPropertyOp8
 70
     1
102
RTVSPropertyOp9
 70
     1
102
RTVSPropertyOp10
 70
     1
102
RTVSPropertyOp11
 70
     1
102
RTVSPropertyOp12
 70
     1
102
RTVSPropertyOp13
 70
     1
102
RTVSPropertyOp14
 70
     1
102
RTVSPropertyOp15
 70
     1
102
RTVSPropertyOp16
 70
     1
102
RTVSPropertyOp17
 70
     1
102
RTVSPropertyOp18
 70
     1
102
RTVSPropertyOp19
 70
     1
102
RTVSPropertyOp20
 70
     1
102
RTVSPropertyOp21
 70
     1
102
RTVSPropertyOp22
 70
     1
102
RTVSPropertyOp23
 70
     1
102
RTVSPropertyOp24
 70
     1
102
RTVSPropertyOp25
 70
     1
102
RTVSPropertyOp26
 70
     1
102
RTVSPropertyOp27
 70
     1
102
RTVSPropertyOp28
 70
     1
102
RTVSPropertyOp29
 70
     1
102
RTVSPropertyOp30
 70
     1
102
RTVSPropertyOp31
 70
     1
102
RTVSPropertyOp32
 70
     1
102
RTVSPropertyOp33
 70
     1
102
RTVSPropertyOp34
 70
     1
102
RTVSPropertyOp35
 70
     1
102
RTVSPropertyOp36
 70
     1
102
RTVSPropertyOp37
 70
     1
102
RTVSPropertyOp38
 70
     1
102
RTVSPropertyOp39
 70
     1
102
RTVSPropertyOp40
 70
     1
102
RTVSPropertyOp41
 70
     1
102
RTVSPropertyOp42
 70
     1
102
RTVSPropertyOp43
 70
     1
102
RTVSPropertyOp44
 70
     1
102
RTVSPropertyOp45
 70
     1
102
RTVSPropertyOp46
 70
     1
102
RTVSPropertyOp47
 70
     1
102
RTVSPropertyOp48
 70
     1
102
RTVSPropertyOp49
 70
     1
102
RTVSPropertyOp50
 70
     1
102
RTVSPropertyOp51
 70
     0
102
RTVSPropertyOp52
 70
     0
102
RTVSPropertyOp53
 70
     1
102
RTVSPropertyOp54
 70
     1
102
RTVSPropertyOp55
 70
     1
102
RTVSPropertyOp56
 70
     1
102
RTVSPropertyOp57
 70
     1
102
RTVSPropertyOp58
 70
     1
102
RTVSPropertyOp59
 70
     1
102
RTVSPropertyOp60
 70
     1
102
RTVSPropertyOp61
 70
     1
102
RTVSPropertyOp62
 70
     1
  0
XRECORD
  5
1964
102
{ACAD_REACTORS
330
1963
102
}
330
1963
100
AcDbXrecord
280
     1
102
RTVSPost2010Prop28
280
     0
102
RTVSPost2010PropOp28
 70
     1
102
RTVSPost2010Prop29
280
     1
102
RTVSPost2010PropOp29
 70
     1
102
RTVSPost2010Prop30
280
     1
102
RTVSPost2010PropOp30
 70
     1
102
RTVSPost2010Prop31
280
     0
102
RTVSPost2010PropOp31
 70
     1
102
RTVSPost2010Prop32
280
     0
102
RTVSPost2010PropOp32
 70
     1
102
RTVSPost2010Prop33
280
     0
102
RTVSPost2010PropOp33
 70
     1
102
RTVSPost2010Prop34
280
     0
102
RTVSPost2010PropOp34
 70
     1
102
RTVSPost2010Prop35
280
     0
102
RTVSPost2010PropOp35
 70
     1
102
RTVSPost2010Prop36
280
     0
102
RTVSPost2010PropOp36
 70
     1
102
RTVSPost2010Prop37
 90
       50
102
RTVSPost2010PropOp37
 70
     1
102
RTVSPost2010Prop38
140
0.0
102
RTVSPost2010PropOp38
 70
     1
102
RTVSPost2010Prop39
140
1.0
102
RTVSPost2010PropOp39
 70
     1
102
RTVSPost2010Prop40
 90
        0
102
RTVSPost2010PropOp40
 70
     1
102
RTVSPost2010Prop41ColorIndex
 90
       18
102
RTVSPost2010Prop41ColorRGB
 90
        0
102
RTVSPost2010PropOp41
 70
     1
102
RTVSPost2010Prop42
 90
       50
102
RTVSPost2010PropOp42
 70
     1
102
RTVSPost2010Prop43
 90
        3
102
RTVSPost2010PropOp43
 70
     1
102
RTVSPost2010Prop44ColorIndex
 90
        5
102
RTVSPost2010Prop44ColorRGB
 90
      255
102
RTVSPost2010PropOp44
 70
     1
102
RTVSPost2010Prop45
280
     0
102
RTVSPost2010PropOp45
 70
     1
102
RTVSPost2010Prop46
 90
       50
102
RTVSPost2010PropOp46
 70
     1
102
RTVSPost2010Prop47
 90
       50
102
RTVSPost2010PropOp47
 70
     1
102
RTVSPost2010Prop48
 90
       50
102
RTVSPost2010PropOp48
 70
     1
102
RTVSPost2010Prop49
280
     0
102
RTVSPost2010PropOp49
 70
     1
102
RTVSPost2010Prop50
 90
       50
102
RTVSPost2010PropOp50
 70
     1
102
RTVSPost2010Prop51ColorIndex
 90
      256
102
RTVSPost2010Prop51ColorRGB
 90
-16777216
102
RTVSPost2010PropOp51
 70
     0
102
RTVSPost2010Prop52
140
1.0
102
RTVSPost2010PropOp52
 70
     0
102
RTVSPost2010Prop53
 90
        2
102
RTVSPost2010PropOp53
 70
     1
102
RTVSPost2010Prop54
  1
strokes_ogs.tif
102
RTVSPost2010PropOp54
 70
     1
102
RTVSPost2010Prop55
280
     0
102
RTVSPost2010PropOp55
 70
     1
102
RTVSPost2010Prop56
140
1.0
102
RTVSPost2010PropOp56
 70
     1
102
RTVSPost2010Prop57
140
1.0
102
RTVSPost2010PropOp57
 70
     1
102
RTVSPropertyOp0
 70
     1
102
RTVSPropertyOp1
 70
     1
102
RTVSPropertyOp2
 70
     1
102
RTVSPropertyOp3
 70
     1
102
RTVSPropertyOp4
 70
     1
102
RTVSPropertyOp5
 70
     1
102
RTVSPropertyOp6
 70
     1
102
RTVSPropertyOp7
 70
     1
102
RTVSPropertyOp8
 70
     1
102
RTVSPropertyOp9
 70
     1
102
RTVSPropertyOp10
 70
     1
102
RTVSPropertyOp11
 70
     1
102
RTVSPropertyOp12
 70
     1
102
RTVSPropertyOp13
 70
     1
102
RTVSPropertyOp14
 70
     1
102
RTVSPropertyOp15
 70
     1
102
RTVSPropertyOp16
 70
     1
102
RTVSPropertyOp17
 70
     1
102
RTVSPropertyOp18
 70
     1
102
RTVSPropertyOp19
 70
     1
102
RTVSPropertyOp20
 70
     1
102
RTVSPropertyOp21
 70
     1
102
RTVSPropertyOp22
 70
     1
102
RTVSPropertyOp23
 70
     1
102
RTVSPropertyOp24
 70
     1
102
RTVSPropertyOp25
 70
     1
102
RTVSPropertyOp26
 70
     1
102
RTVSPropertyOp27
 70
     1
102
RTVSPropertyOp28
 70
     1
102
RTVSPropertyOp29
 70
     1
102
RTVSPropertyOp30
 70
     1
102
RTVSPropertyOp31
 70
     1
102
RTVSPropertyOp32
 70
     1
102
RTVSPropertyOp33
 70
     1
102
RTVSPropertyOp34
 70
     1
102
RTVSPropertyOp35
 70
     1
102
RTVSPropertyOp36
 70
     1
102
RTVSPropertyOp37
 70
     1
102
RTVSPropertyOp38
 70
     1
102
RTVSPropertyOp39
 70
     1
102
RTVSPropertyOp40
 70
     1
102
RTVSPropertyOp41
 70
     1
102
RTVSPropertyOp42
 70
     1
102
RTVSPropertyOp43
 70
     1
102
RTVSPropertyOp44
 70
     1
102
RTVSPropertyOp45
 70
     1
102
RTVSPropertyOp46
 70
     1
102
RTVSPropertyOp47
 70
     1
102
RTVSPropertyOp48
 70
     1
102
RTVSPropertyOp49
 70
     1
102
RTVSPropertyOp50
 70
     1
102
RTVSPropertyOp51
 70
     0
102
RTVSPropertyOp52
 70
     0
102
RTVSPropertyOp53
 70
     1
102
RTVSPropertyOp54
 70
     1
102
RTVSPropertyOp55
 70
     1
102
RTVSPropertyOp56
 70
     1
102
RTVSPropertyOp57
 70
     1
102
RTVSPropertyOp58
 70
     1
102
RTVSPropertyOp59
 70
     1
102
RTVSPropertyOp60
 70
     1
102
RTVSPropertyOp61
 70
     1
102
RTVSPropertyOp62
 70
     1
  0
XRECORD
  5
1972
102
{ACAD_REACTORS
330
1971
102
}
330
1971
100
AcDbXrecord
280
     1
102
RTVSPost2010Prop28
280
     0
102
RTVSPost2010PropOp28
 70
     1
102
RTVSPost2010Prop29
280
     1
102
RTVSPost2010PropOp29
 70
     1
102
RTVSPost2010Prop30
280
     1
102
RTVSPost2010PropOp30
 70
     1
102
RTVSPost2010Prop31
280
     0
102
RTVSPost2010PropOp31
 70
     1
102
RTVSPost2010Prop32
280
     0
102
RTVSPost2010PropOp32
 70
     1
102
RTVSPost2010Prop33
280
     0
102
RTVSPost2010PropOp33
 70
     1
102
RTVSPost2010Prop34
280
     0
102
RTVSPost2010PropOp34
 70
     1
102
RTVSPost2010Prop35
280
     0
102
RTVSPost2010PropOp35
 70
     1
102
RTVSPost2010Prop36
280
     0
102
RTVSPost2010PropOp36
 70
     1
102
RTVSPost2010Prop37
 90
       50
102
RTVSPost2010PropOp37
 70
     1
102
RTVSPost2010Prop38
140
0.0
102
RTVSPost2010PropOp38
 70
     1
102
RTVSPost2010Prop39
140
1.0
102
RTVSPost2010PropOp39
 70
     1
102
RTVSPost2010Prop40
 90
        0
102
RTVSPost2010PropOp40
 70
     1
102
RTVSPost2010Prop41ColorIndex
 90
       18
102
RTVSPost2010Prop41ColorRGB
 90
        0
102
RTVSPost2010PropOp41
 70
     1
102
RTVSPost2010Prop42
 90
       50
102
RTVSPost2010PropOp42
 70
     1
102
RTVSPost2010Prop43
 90
        3
102
RTVSPost2010PropOp43
 70
     1
102
RTVSPost2010Prop44ColorIndex
 90
        5
102
RTVSPost2010Prop44ColorRGB
 90
      255
102
RTVSPost2010PropOp44
 70
     1
102
RTVSPost2010Prop45
280
     0
102
RTVSPost2010PropOp45
 70
     1
102
RTVSPost2010Prop46
 90
       50
102
RTVSPost2010PropOp46
 70
     1
102
RTVSPost2010Prop47
 90
       50
102
RTVSPost2010PropOp47
 70
     1
102
RTVSPost2010Prop48
 90
       50
102
RTVSPost2010PropOp48
 70
     1
102
RTVSPost2010Prop49
280
     0
102
RTVSPost2010PropOp49
 70
     1
102
RTVSPost2010Prop50
 90
       50
102
RTVSPost2010PropOp50
 70
     1
102
RTVSPost2010Prop51ColorIndex
 90
      256
102
RTVSPost2010Prop51ColorRGB
 90
-16777216
102
RTVSPost2010PropOp51
 70
     0
102
RTVSPost2010Prop52
140
1.0
102
RTVSPost2010PropOp52
 70
     0
102
RTVSPost2010Prop53
 90
        2
102
RTVSPost2010PropOp53
 70
     1
102
RTVSPost2010Prop54
  1
strokes_ogs.tif
102
RTVSPost2010PropOp54
 70
     1
102
RTVSPost2010Prop55
280
     0
102
RTVSPost2010PropOp55
 70
     1
102
RTVSPost2010Prop56
140
1.0
102
RTVSPost2010PropOp56
 70
     1
102
RTVSPost2010Prop57
140
1.0
102
RTVSPost2010PropOp57
 70
     1
102
RTVSPropertyOp0
 70
     1
102
RTVSPropertyOp1
 70
     1
102
RTVSPropertyOp2
 70
     1
102
RTVSPropertyOp3
 70
     1
102
RTVSPropertyOp4
 70
     1
102
RTVSPropertyOp5
 70
     1
102
RTVSPropertyOp6
 70
     1
102
RTVSPropertyOp7
 70
     1
102
RTVSPropertyOp8
 70
     1
102
RTVSPropertyOp9
 70
     1
102
RTVSPropertyOp10
 70
     1
102
RTVSPropertyOp11
 70
     1
102
RTVSPropertyOp12
 70
     1
102
RTVSPropertyOp13
 70
     1
102
RTVSPropertyOp14
 70
     1
102
RTVSPropertyOp15
 70
     1
102
RTVSPropertyOp16
 70
     1
102
RTVSPropertyOp17
 70
     1
102
RTVSPropertyOp18
 70
     1
102
RTVSPropertyOp19
 70
     1
102
RTVSPropertyOp20
 70
     1
102
RTVSPropertyOp21
 70
     1
102
RTVSPropertyOp22
 70
     1
102
RTVSPropertyOp23
 70
     1
102
RTVSPropertyOp24
 70
     1
102
RTVSPropertyOp25
 70
     1
102
RTVSPropertyOp26
 70
     1
102
RTVSPropertyOp27
 70
     1
102
RTVSPropertyOp28
 70
     1
102
RTVSPropertyOp29
 70
     1
102
RTVSPropertyOp30
 70
     1
102
RTVSPropertyOp31
 70
     1
102
RTVSPropertyOp32
 70
     1
102
RTVSPropertyOp33
 70
     1
102
RTVSPropertyOp34
 70
     1
102
RTVSPropertyOp35
 70
     1
102
RTVSPropertyOp36
 70
     1
102
RTVSPropertyOp37
 70
     1
102
RTVSPropertyOp38
 70
     1
102
RTVSPropertyOp39
 70
     1
102
RTVSPropertyOp40
 70
     1
102
RTVSPropertyOp41
 70
     1
102
RTVSPropertyOp42
 70
     1
102
RTVSPropertyOp43
 70
     1
102
RTVSPropertyOp44
 70
     1
102
RTVSPropertyOp45
 70
     1
102
RTVSPropertyOp46
 70
     1
102
RTVSPropertyOp47
 70
     1
102
RTVSPropertyOp48
 70
     1
102
RTVSPropertyOp49
 70
     1
102
RTVSPropertyOp50
 70
     1
102
RTVSPropertyOp51
 70
     0
102
RTVSPropertyOp52
 70
     0
102
RTVSPropertyOp53
 70
     1
102
RTVSPropertyOp54
 70
     1
102
RTVSPropertyOp55
 70
     1
102
RTVSPropertyOp56
 70
     1
102
RTVSPropertyOp57
 70
     1
102
RTVSPropertyOp58
 70
     1
102
RTVSPropertyOp59
 70
     1
102
RTVSPropertyOp60
 70
     1
102
RTVSPropertyOp61
 70
     1
102
RTVSPropertyOp62
 70
     1
  0
XRECORD
  5
197A
102
{ACAD_REACTORS
330
1979
102
}
330
1979
100
AcDbXrecord
280
     1
102
RTVSPost2010Prop28
280
     0
102
RTVSPost2010PropOp28
 70
     1
102
RTVSPost2010Prop29
280
     1
102
RTVSPost2010PropOp29
 70
     1
102
RTVSPost2010Prop30
280
     1
102
RTVSPost2010PropOp30
 70
     1
102
RTVSPost2010Prop31
280
     0
102
RTVSPost2010PropOp31
 70
     1
102
RTVSPost2010Prop32
280
     0
102
RTVSPost2010PropOp32
 70
     1
102
RTVSPost2010Prop33
280
     0
102
RTVSPost2010PropOp33
 70
     1
102
RTVSPost2010Prop34
280
     0
102
RTVSPost2010PropOp34
 70
     1
102
RTVSPost2010Prop35
280
     0
102
RTVSPost2010PropOp35
 70
     1
102
RTVSPost2010Prop36
280
     0
102
RTVSPost2010PropOp36
 70
     1
102
RTVSPost2010Prop37
 90
       50
102
RTVSPost2010PropOp37
 70
     1
102
RTVSPost2010Prop38
140
0.0
102
RTVSPost2010PropOp38
 70
     1
102
RTVSPost2010Prop39
140
1.0
102
RTVSPost2010PropOp39
 70
     1
102
RTVSPost2010Prop40
 90
        0
102
RTVSPost2010PropOp40
 70
     1
102
RTVSPost2010Prop41ColorIndex
 90
       18
102
RTVSPost2010Prop41ColorRGB
 90
        0
102
RTVSPost2010PropOp41
 70
     1
102
RTVSPost2010Prop42
 90
       50
102
RTVSPost2010PropOp42
 70
     1
102
RTVSPost2010Prop43
 90
        3
102
RTVSPost2010PropOp43
 70
     1
102
RTVSPost2010Prop44ColorIndex
 90
        5
102
RTVSPost2010Prop44ColorRGB
 90
      255
102
RTVSPost2010PropOp44
 70
     1
102
RTVSPost2010Prop45
280
     0
102
RTVSPost2010PropOp45
 70
     1
102
RTVSPost2010Prop46
 90
       50
102
RTVSPost2010PropOp46
 70
     1
102
RTVSPost2010Prop47
 90
       50
102
RTVSPost2010PropOp47
 70
     1
102
RTVSPost2010Prop48
 90
       50
102
RTVSPost2010PropOp48
 70
     1
102
RTVSPost2010Prop49
280
     0
102
RTVSPost2010PropOp49
 70
     1
102
RTVSPost2010Prop50
 90
       50
102
RTVSPost2010PropOp50
 70
     1
102
RTVSPost2010Prop51ColorIndex
 90
      256
102
RTVSPost2010Prop51ColorRGB
 90
-16777216
102
RTVSPost2010PropOp51
 70
     0
102
RTVSPost2010Prop52
140
1.0
102
RTVSPost2010PropOp52
 70
     0
102
RTVSPost2010Prop53
 90
        2
102
RTVSPost2010PropOp53
 70
     1
102
RTVSPost2010Prop54
  1
strokes_ogs.tif
102
RTVSPost2010PropOp54
 70
     1
102
RTVSPost2010Prop55
280
     0
102
RTVSPost2010PropOp55
 70
     1
102
RTVSPost2010Prop56
140
1.0
102
RTVSPost2010PropOp56
 70
     1
102
RTVSPost2010Prop57
140
1.0
102
RTVSPost2010PropOp57
 70
     1
102
RTVSPropertyOp0
 70
     1
102
RTVSPropertyOp1
 70
     1
102
RTVSPropertyOp2
 70
     1
102
RTVSPropertyOp3
 70
     1
102
RTVSPropertyOp4
 70
     1
102
RTVSPropertyOp5
 70
     1
102
RTVSPropertyOp6
 70
     1
102
RTVSPropertyOp7
 70
     1
102
RTVSPropertyOp8
 70
     1
102
RTVSPropertyOp9
 70
     1
102
RTVSPropertyOp10
 70
     1
102
RTVSPropertyOp11
 70
     1
102
RTVSPropertyOp12
 70
     1
102
RTVSPropertyOp13
 70
     1
102
RTVSPropertyOp14
 70
     1
102
RTVSPropertyOp15
 70
     1
102
RTVSPropertyOp16
 70
     1
102
RTVSPropertyOp17
 70
     1
102
RTVSPropertyOp18
 70
     1
102
RTVSPropertyOp19
 70
     1
102
RTVSPropertyOp20
 70
     1
102
RTVSPropertyOp21
 70
     1
102
RTVSPropertyOp22
 70
     1
102
RTVSPropertyOp23
 70
     1
102
RTVSPropertyOp24
 70
     1
102
RTVSPropertyOp25
 70
     1
102
RTVSPropertyOp26
 70
     1
102
RTVSPropertyOp27
 70
     1
102
RTVSPropertyOp28
 70
     1
102
RTVSPropertyOp29
 70
     1
102
RTVSPropertyOp30
 70
     1
102
RTVSPropertyOp31
 70
     1
102
RTVSPropertyOp32
 70
     1
102
RTVSPropertyOp33
 70
     1
102
RTVSPropertyOp34
 70
     1
102
RTVSPropertyOp35
 70
     1
102
RTVSPropertyOp36
 70
     1
102
RTVSPropertyOp37
 70
     1
102
RTVSPropertyOp38
 70
     1
102
RTVSPropertyOp39
 70
     1
102
RTVSPropertyOp40
 70
     1
102
RTVSPropertyOp41
 70
     1
102
RTVSPropertyOp42
 70
     1
102
RTVSPropertyOp43
 70
     1
102
RTVSPropertyOp44
 70
     1
102
RTVSPropertyOp45
 70
     1
102
RTVSPropertyOp46
 70
     1
102
RTVSPropertyOp47
 70
     1
102
RTVSPropertyOp48
 70
     1
102
RTVSPropertyOp49
 70
     1
102
RTVSPropertyOp50
 70
     1
102
RTVSPropertyOp51
 70
     0
102
RTVSPropertyOp52
 70
     0
102
RTVSPropertyOp53
 70
     1
102
RTVSPropertyOp54
 70
     1
102
RTVSPropertyOp55
 70
     1
102
RTVSPropertyOp56
 70
     1
102
RTVSPropertyOp57
 70
     1
102
RTVSPropertyOp58
 70
     1
102
RTVSPropertyOp59
 70
     1
102
RTVSPropertyOp60
 70
     1
102
RTVSPropertyOp61
 70
     1
102
RTVSPropertyOp62
 70
     1
  0
XRECORD
  5
196C
102
{ACAD_REACTORS
330
196B
102
}
330
196B
100
AcDbXrecord
280
     1
102
RTVSPost2010Prop28
280
     0
102
RTVSPost2010PropOp28
 70
     1
102
RTVSPost2010Prop29
280
     1
102
RTVSPost2010PropOp29
 70
     1
102
RTVSPost2010Prop30
280
     1
102
RTVSPost2010PropOp30
 70
     1
102
RTVSPost2010Prop31
280
     0
102
RTVSPost2010PropOp31
 70
     1
102
RTVSPost2010Prop32
280
     0
102
RTVSPost2010PropOp32
 70
     1
102
RTVSPost2010Prop33
280
     0
102
RTVSPost2010PropOp33
 70
     1
102
RTVSPost2010Prop34
280
     0
102
RTVSPost2010PropOp34
 70
     1
102
RTVSPost2010Prop35
280
     0
102
RTVSPost2010PropOp35
 70
     1
102
RTVSPost2010Prop36
280
     0
102
RTVSPost2010PropOp36
 70
     1
102
RTVSPost2010Prop37
 90
       50
102
RTVSPost2010PropOp37
 70
     1
102
RTVSPost2010Prop38
140
0.0
102
RTVSPost2010PropOp38
 70
     1
102
RTVSPost2010Prop39
140
1.0
102
RTVSPost2010PropOp39
 70
     1
102
RTVSPost2010Prop40
 90
        0
102
RTVSPost2010PropOp40
 70
     1
102
RTVSPost2010Prop41ColorIndex
 90
       18
102
RTVSPost2010Prop41ColorRGB
 90
        0
102
RTVSPost2010PropOp41
 70
     1
102
RTVSPost2010Prop42
 90
       50
102
RTVSPost2010PropOp42
 70
     1
102
RTVSPost2010Prop43
 90
        3
102
RTVSPost2010PropOp43
 70
     1
102
RTVSPost2010Prop44ColorIndex
 90
        5
102
RTVSPost2010Prop44ColorRGB
 90
      255
102
RTVSPost2010PropOp44
 70
     1
102
RTVSPost2010Prop45
280
     0
102
RTVSPost2010PropOp45
 70
     1
102
RTVSPost2010Prop46
 90
       50
102
RTVSPost2010PropOp46
 70
     1
102
RTVSPost2010Prop47
 90
       50
102
RTVSPost2010PropOp47
 70
     1
102
RTVSPost2010Prop48
 90
       50
102
RTVSPost2010PropOp48
 70
     1
102
RTVSPost2010Prop49
280
     0
102
RTVSPost2010PropOp49
 70
     1
102
RTVSPost2010Prop50
 90
       50
102
RTVSPost2010PropOp50
 70
     1
102
RTVSPost2010Prop51ColorIndex
 90
      256
102
RTVSPost2010Prop51ColorRGB
 90
-16777216
102
RTVSPost2010PropOp51
 70
     0
102
RTVSPost2010Prop52
140
1.0
102
RTVSPost2010PropOp52
 70
     0
102
RTVSPost2010Prop53
 90
        2
102
RTVSPost2010PropOp53
 70
     1
102
RTVSPost2010Prop54
  1
strokes_ogs.tif
102
RTVSPost2010PropOp54
 70
     1
102
RTVSPost2010Prop55
280
     0
102
RTVSPost2010PropOp55
 70
     1
102
RTVSPost2010Prop56
140
1.0
102
RTVSPost2010PropOp56
 70
     1
102
RTVSPost2010Prop57
140
1.0
102
RTVSPost2010PropOp57
 70
     1
102
RTVSPropertyOp0
 70
     1
102
RTVSPropertyOp1
 70
     1
102
RTVSPropertyOp2
 70
     1
102
RTVSPropertyOp3
 70
     1
102
RTVSPropertyOp4
 70
     1
102
RTVSPropertyOp5
 70
     1
102
RTVSPropertyOp6
 70
     1
102
RTVSPropertyOp7
 70
     1
102
RTVSPropertyOp8
 70
     1
102
RTVSPropertyOp9
 70
     1
102
RTVSPropertyOp10
 70
     1
102
RTVSPropertyOp11
 70
     1
102
RTVSPropertyOp12
 70
     1
102
RTVSPropertyOp13
 70
     1
102
RTVSPropertyOp14
 70
     1
102
RTVSPropertyOp15
 70
     1
102
RTVSPropertyOp16
 70
     1
102
RTVSPropertyOp17
 70
     1
102
RTVSPropertyOp18
 70
     1
102
RTVSPropertyOp19
 70
     1
102
RTVSPropertyOp20
 70
     1
102
RTVSPropertyOp21
 70
     1
102
RTVSPropertyOp22
 70
     1
102
RTVSPropertyOp23
 70
     1
102
RTVSPropertyOp24
 70
     1
102
RTVSPropertyOp25
 70
     1
102
RTVSPropertyOp26
 70
     1
102
RTVSPropertyOp27
 70
     1
102
RTVSPropertyOp28
 70
     1
102
RTVSPropertyOp29
 70
     1
102
RTVSPropertyOp30
 70
     1
102
RTVSPropertyOp31
 70
     1
102
RTVSPropertyOp32
 70
     1
102
RTVSPropertyOp33
 70
     1
102
RTVSPropertyOp34
 70
     1
102
RTVSPropertyOp35
 70
     1
102
RTVSPropertyOp36
 70
     1
102
RTVSPropertyOp37
 70
     1
102
RTVSPropertyOp38
 70
     1
102
RTVSPropertyOp39
 70
     1
102
RTVSPropertyOp40
 70
     1
102
RTVSPropertyOp41
 70
     1
102
RTVSPropertyOp42
 70
     1
102
RTVSPropertyOp43
 70
     1
102
RTVSPropertyOp44
 70
     1
102
RTVSPropertyOp45
 70
     1
102
RTVSPropertyOp46
 70
     1
102
RTVSPropertyOp47
 70
     1
102
RTVSPropertyOp48
 70
     1
102
RTVSPropertyOp49
 70
     1
102
RTVSPropertyOp50
 70
     1
102
RTVSPropertyOp51
 70
     0
102
RTVSPropertyOp52
 70
     0
102
RTVSPropertyOp53
 70
     1
102
RTVSPropertyOp54
 70
     1
102
RTVSPropertyOp55
 70
     1
102
RTVSPropertyOp56
 70
     1
102
RTVSPropertyOp57
 70
     1
102
RTVSPropertyOp58
 70
     1
102
RTVSPropertyOp59
 70
     1
102
RTVSPropertyOp60
 70
     1
102
RTVSPropertyOp61
 70
     1
102
RTVSPropertyOp62
 70
     1
  0
XRECORD
  5
1970
102
{ACAD_REACTORS
330
196F
102
}
330
196F
100
AcDbXrecord
280
     1
102
RTVSPost2010Prop28
280
     0
102
RTVSPost2010PropOp28
 70
     1
102
RTVSPost2010Prop29
280
     1
102
RTVSPost2010PropOp29
 70
     1
102
RTVSPost2010Prop30
280
     1
102
RTVSPost2010PropOp30
 70
     1
102
RTVSPost2010Prop31
280
     0
102
RTVSPost2010PropOp31
 70
     1
102
RTVSPost2010Prop32
280
     0
102
RTVSPost2010PropOp32
 70
     1
102
RTVSPost2010Prop33
280
     0
102
RTVSPost2010PropOp33
 70
     1
102
RTVSPost2010Prop34
280
     0
102
RTVSPost2010PropOp34
 70
     1
102
RTVSPost2010Prop35
280
     0
102
RTVSPost2010PropOp35
 70
     1
102
RTVSPost2010Prop36
280
     0
102
RTVSPost2010PropOp36
 70
     1
102
RTVSPost2010Prop37
 90
       50
102
RTVSPost2010PropOp37
 70
     1
102
RTVSPost2010Prop38
140
0.0
102
RTVSPost2010PropOp38
 70
     1
102
RTVSPost2010Prop39
140
1.0
102
RTVSPost2010PropOp39
 70
     1
102
RTVSPost2010Prop40
 90
        0
102
RTVSPost2010PropOp40
 70
     1
102
RTVSPost2010Prop41ColorIndex
 90
       18
102
RTVSPost2010Prop41ColorRGB
 90
        0
102
RTVSPost2010PropOp41
 70
     1
102
RTVSPost2010Prop42
 90
       50
102
RTVSPost2010PropOp42
 70
     1
102
RTVSPost2010Prop43
 90
        3
102
RTVSPost2010PropOp43
 70
     1
102
RTVSPost2010Prop44ColorIndex
 90
        5
102
RTVSPost2010Prop44ColorRGB
 90
      255
102
RTVSPost2010PropOp44
 70
     1
102
RTVSPost2010Prop45
280
     0
102
RTVSPost2010PropOp45
 70
     1
102
RTVSPost2010Prop46
 90
       50
102
RTVSPost2010PropOp46
 70
     1
102
RTVSPost2010Prop47
 90
       50
102
RTVSPost2010PropOp47
 70
     1
102
RTVSPost2010Prop48
 90
       50
102
RTVSPost2010PropOp48
 70
     1
102
RTVSPost2010Prop49
280
     0
102
RTVSPost2010PropOp49
 70
     1
102
RTVSPost2010Prop50
 90
       50
102
RTVSPost2010PropOp50
 70
     1
102
RTVSPost2010Prop51ColorIndex
 90
      256
102
RTVSPost2010Prop51ColorRGB
 90
-16777216
102
RTVSPost2010PropOp51
 70
     0
102
RTVSPost2010Prop52
140
1.0
102
RTVSPost2010PropOp52
 70
     0
102
RTVSPost2010Prop53
 90
        2
102
RTVSPost2010PropOp53
 70
     1
102
RTVSPost2010Prop54
  1
strokes_ogs.tif
102
RTVSPost2010PropOp54
 70
     1
102
RTVSPost2010Prop55
280
     0
102
RTVSPost2010PropOp55
 70
     1
102
RTVSPost2010Prop56
140
1.0
102
RTVSPost2010PropOp56
 70
     1
102
RTVSPost2010Prop57
140
1.0
102
RTVSPost2010PropOp57
 70
     1
102
RTVSPropertyOp0
 70
     1
102
RTVSPropertyOp1
 70
     1
102
RTVSPropertyOp2
 70
     1
102
RTVSPropertyOp3
 70
     1
102
RTVSPropertyOp4
 70
     1
102
RTVSPropertyOp5
 70
     1
102
RTVSPropertyOp6
 70
     1
102
RTVSPropertyOp7
 70
     1
102
RTVSPropertyOp8
 70
     1
102
RTVSPropertyOp9
 70
     1
102
RTVSPropertyOp10
 70
     1
102
RTVSPropertyOp11
 70
     1
102
RTVSPropertyOp12
 70
     1
102
RTVSPropertyOp13
 70
     1
102
RTVSPropertyOp14
 70
     1
102
RTVSPropertyOp15
 70
     1
102
RTVSPropertyOp16
 70
     1
102
RTVSPropertyOp17
 70
     1
102
RTVSPropertyOp18
 70
     1
102
RTVSPropertyOp19
 70
     1
102
RTVSPropertyOp20
 70
     1
102
RTVSPropertyOp21
 70
     1
102
RTVSPropertyOp22
 70
     1
102
RTVSPropertyOp23
 70
     1
102
RTVSPropertyOp24
 70
     1
102
RTVSPropertyOp25
 70
     1
102
RTVSPropertyOp26
 70
     1
102
RTVSPropertyOp27
 70
     1
102
RTVSPropertyOp28
 70
     1
102
RTVSPropertyOp29
 70
     1
102
RTVSPropertyOp30
 70
     1
102
RTVSPropertyOp31
 70
     1
102
RTVSPropertyOp32
 70
     1
102
RTVSPropertyOp33
 70
     1
102
RTVSPropertyOp34
 70
     1
102
RTVSPropertyOp35
 70
     1
102
RTVSPropertyOp36
 70
     1
102
RTVSPropertyOp37
 70
     1
102
RTVSPropertyOp38
 70
     1
102
RTVSPropertyOp39
 70
     1
102
RTVSPropertyOp40
 70
     1
102
RTVSPropertyOp41
 70
     1
102
RTVSPropertyOp42
 70
     1
102
RTVSPropertyOp43
 70
     1
102
RTVSPropertyOp44
 70
     1
102
RTVSPropertyOp45
 70
     1
102
RTVSPropertyOp46
 70
     1
102
RTVSPropertyOp47
 70
     1
102
RTVSPropertyOp48
 70
     1
102
RTVSPropertyOp49
 70
     1
102
RTVSPropertyOp50
 70
     1
102
RTVSPropertyOp51
 70
     0
102
RTVSPropertyOp52
 70
     0
102
RTVSPropertyOp53
 70
     1
102
RTVSPropertyOp54
 70
     1
102
RTVSPropertyOp55
 70
     1
102
RTVSPropertyOp56
 70
     1
102
RTVSPropertyOp57
 70
     1
102
RTVSPropertyOp58
 70
     1
102
RTVSPropertyOp59
 70
     1
102
RTVSPropertyOp60
 70
     1
102
RTVSPropertyOp61
 70
     1
102
RTVSPropertyOp62
 70
     1
  0
XRECORD
  5
198A
102
{ACAD_REACTORS
330
1989
102
}
330
1989
100
AcDbXrecord
280
     1
102
RTVSPost2010Prop28
280
     0
102
RTVSPost2010PropOp28
 70
     1
102
RTVSPost2010Prop29
280
     1
102
RTVSPost2010PropOp29
 70
     1
102
RTVSPost2010Prop30
280
     1
102
RTVSPost2010PropOp30
 70
     1
102
RTVSPost2010Prop31
280
     0
102
RTVSPost2010PropOp31
 70
     1
102
RTVSPost2010Prop32
280
     0
102
RTVSPost2010PropOp32
 70
     1
102
RTVSPost2010Prop33
280
     0
102
RTVSPost2010PropOp33
 70
     1
102
RTVSPost2010Prop34
280
     0
102
RTVSPost2010PropOp34
 70
     1
102
RTVSPost2010Prop35
280
     0
102
RTVSPost2010PropOp35
 70
     1
102
RTVSPost2010Prop36
280
     0
102
RTVSPost2010PropOp36
 70
     1
102
RTVSPost2010Prop37
 90
       50
102
RTVSPost2010PropOp37
 70
     0
102
RTVSPost2010Prop38
140
0.0
102
RTVSPost2010PropOp38
 70
     0
102
RTVSPost2010Prop39
140
1.0
102
RTVSPost2010PropOp39
 70
     0
102
RTVSPost2010Prop40
 90
        0
102
RTVSPost2010PropOp40
 70
     0
102
RTVSPost2010Prop41ColorIndex
 90
       18
102
RTVSPost2010Prop41ColorRGB
 90
        0
102
RTVSPost2010PropOp41
 70
     0
102
RTVSPost2010Prop42
 90
       50
102
RTVSPost2010PropOp42
 70
     0
102
RTVSPost2010Prop43
 90
        3
102
RTVSPost2010PropOp43
 70
     0
102
RTVSPost2010Prop44ColorIndex
 90
        5
102
RTVSPost2010Prop44ColorRGB
 90
      255
102
RTVSPost2010PropOp44
 70
     0
102
RTVSPost2010Prop45
280
     0
102
RTVSPost2010PropOp45
 70
     1
102
RTVSPost2010Prop46
 90
       50
102
RTVSPost2010PropOp46
 70
     0
102
RTVSPost2010Prop47
 90
       50
102
RTVSPost2010PropOp47
 70
     0
102
RTVSPost2010Prop48
 90
       50
102
RTVSPost2010PropOp48
 70
     0
102
RTVSPost2010Prop49
280
     0
102
RTVSPost2010PropOp49
 70
     1
102
RTVSPost2010Prop50
 90
       50
102
RTVSPost2010PropOp50
 70
     0
102
RTVSPost2010Prop51ColorIndex
 90
      256
102
RTVSPost2010Prop51ColorRGB
 90
-16777216
102
RTVSPost2010PropOp51
 70
     0
102
RTVSPost2010Prop52
140
1.0
102
RTVSPost2010PropOp52
 70
     0
102
RTVSPost2010Prop53
 90
        2
102
RTVSPost2010PropOp53
 70
     0
102
RTVSPost2010Prop54
  1
strokes_ogs.tif
102
RTVSPost2010PropOp54
 70
     0
102
RTVSPost2010Prop55
280
     0
102
RTVSPost2010PropOp55
 70
     1
102
RTVSPost2010Prop56
140
1.0
102
RTVSPost2010PropOp56
 70
     0
102
RTVSPost2010Prop57
140
1.0
102
RTVSPost2010PropOp57
 70
     0
102
RTVSPropertyOp0
 70
     0
102
RTVSPropertyOp1
 70
     0
102
RTVSPropertyOp2
 70
     0
102
RTVSPropertyOp3
 70
     0
102
RTVSPropertyOp4
 70
     0
102
RTVSPropertyOp5
 70
     0
102
RTVSPropertyOp6
 70
     0
102
RTVSPropertyOp7
 70
     0
102
RTVSPropertyOp8
 70
     0
102
RTVSPropertyOp9
 70
     0
102
RTVSPropertyOp10
 70
     0
102
RTVSPropertyOp11
 70
     0
102
RTVSPropertyOp12
 70
     0
102
RTVSPropertyOp13
 70
     0
102
RTVSPropertyOp14
 70
     2
102
RTVSPropertyOp15
 70
     0
102
RTVSPropertyOp16
 70
     0
102
RTVSPropertyOp17
 70
     0
102
RTVSPropertyOp18
 70
     0
102
RTVSPropertyOp19
 70
     0
102
RTVSPropertyOp20
 70
     0
102
RTVSPropertyOp21
 70
     0
102
RTVSPropertyOp22
 70
     0
102
RTVSPropertyOp23
 70
     0
102
RTVSPropertyOp24
 70
     0
102
RTVSPropertyOp25
 70
     0
102
RTVSPropertyOp26
 70
     0
102
RTVSPropertyOp27
 70
     0
102
RTVSPropertyOp28
 70
     1
102
RTVSPropertyOp29
 70
     1
102
RTVSPropertyOp30
 70
     1
102
RTVSPropertyOp31
 70
     1
102
RTVSPropertyOp32
 70
     1
102
RTVSPropertyOp33
 70
     1
102
RTVSPropertyOp34
 70
     1
102
RTVSPropertyOp35
 70
     1
102
RTVSPropertyOp36
 70
     1
102
RTVSPropertyOp37
 70
     0
102
RTVSPropertyOp38
 70
     0
102
RTVSPropertyOp39
 70
     0
102
RTVSPropertyOp40
 70
     0
102
RTVSPropertyOp41
 70
     0
102
RTVSPropertyOp42
 70
     0
102
RTVSPropertyOp43
 70
     0
102
RTVSPropertyOp44
 70
     0
102
RTVSPropertyOp45
 70
     1
102
RTVSPropertyOp46
 70
     0
102
RTVSPropertyOp47
 70
     0
102
RTVSPropertyOp48
 70
     0
102
RTVSPropertyOp49
 70
     1
102
RTVSPropertyOp50
 70
     0
102
RTVSPropertyOp51
 70
     0
102
RTVSPropertyOp52
 70
     0
102
RTVSPropertyOp53
 70
     0
102
RTVSPropertyOp54
 70
     0
102
RTVSPropertyOp55
 70
     1
102
RTVSPropertyOp56
 70
     0
102
RTVSPropertyOp57
 70
     0
102
RTVSPropertyOp58
 70
     0
102
RTVSPropertyOp59
 70
     0
102
RTVSPropertyOp60
 70
     0
102
RTVSPropertyOp61
 70
     0
102
RTVSPropertyOp62
 70
     0
  0
XRECORD
  5
1978
102
{ACAD_REACTORS
330
1977
102
}
330
1977
100
AcDbXrecord
280
     1
102
RTVSPost2010Prop28
280
     0
102
RTVSPost2010PropOp28
 70
     1
102
RTVSPost2010Prop29
280
     1
102
RTVSPost2010PropOp29
 70
     1
102
RTVSPost2010Prop30
280
     1
102
RTVSPost2010PropOp30
 70
     1
102
RTVSPost2010Prop31
280
     0
102
RTVSPost2010PropOp31
 70
     1
102
RTVSPost2010Prop32
280
     0
102
RTVSPost2010PropOp32
 70
     1
102
RTVSPost2010Prop33
280
     0
102
RTVSPost2010PropOp33
 70
     1
102
RTVSPost2010Prop34
280
     0
102
RTVSPost2010PropOp34
 70
     1
102
RTVSPost2010Prop35
280
     0
102
RTVSPost2010PropOp35
 70
     1
102
RTVSPost2010Prop36
280
     0
102
RTVSPost2010PropOp36
 70
     1
102
RTVSPost2010Prop37
 90
       50
102
RTVSPost2010PropOp37
 70
     1
102
RTVSPost2010Prop38
140
0.0
102
RTVSPost2010PropOp38
 70
     1
102
RTVSPost2010Prop39
140
1.0
102
RTVSPost2010PropOp39
 70
     1
102
RTVSPost2010Prop40
 90
        0
102
RTVSPost2010PropOp40
 70
     1
102
RTVSPost2010Prop41ColorIndex
 90
       18
102
RTVSPost2010Prop41ColorRGB
 90
        0
102
RTVSPost2010PropOp41
 70
     1
102
RTVSPost2010Prop42
 90
       50
102
RTVSPost2010PropOp42
 70
     1
102
RTVSPost2010Prop43
 90
        3
102
RTVSPost2010PropOp43
 70
     1
102
RTVSPost2010Prop44ColorIndex
 90
        5
102
RTVSPost2010Prop44ColorRGB
 90
      255
102
RTVSPost2010PropOp44
 70
     1
102
RTVSPost2010Prop45
280
     0
102
RTVSPost2010PropOp45
 70
     1
102
RTVSPost2010Prop46
 90
       50
102
RTVSPost2010PropOp46
 70
     1
102
RTVSPost2010Prop47
 90
       50
102
RTVSPost2010PropOp47
 70
     1
102
RTVSPost2010Prop48
 90
       50
102
RTVSPost2010PropOp48
 70
     1
102
RTVSPost2010Prop49
280
     0
102
RTVSPost2010PropOp49
 70
     1
102
RTVSPost2010Prop50
 90
       50
102
RTVSPost2010PropOp50
 70
     1
102
RTVSPost2010Prop51ColorIndex
 90
      256
102
RTVSPost2010Prop51ColorRGB
 90
-16777216
102
RTVSPost2010PropOp51
 70
     0
102
RTVSPost2010Prop52
140
1.0
102
RTVSPost2010PropOp52
 70
     0
102
RTVSPost2010Prop53
 90
        2
102
RTVSPost2010PropOp53
 70
     1
102
RTVSPost2010Prop54
  1
strokes_ogs.tif
102
RTVSPost2010PropOp54
 70
     1
102
RTVSPost2010Prop55
280
     0
102
RTVSPost2010PropOp55
 70
     1
102
RTVSPost2010Prop56
140
1.0
102
RTVSPost2010PropOp56
 70
     1
102
RTVSPost2010Prop57
140
1.0
102
RTVSPost2010PropOp57
 70
     1
102
RTVSPropertyOp0
 70
     1
102
RTVSPropertyOp1
 70
     1
102
RTVSPropertyOp2
 70
     1
102
RTVSPropertyOp3
 70
     1
102
RTVSPropertyOp4
 70
     1
102
RTVSPropertyOp5
 70
     1
102
RTVSPropertyOp6
 70
     1
102
RTVSPropertyOp7
 70
     1
102
RTVSPropertyOp8
 70
     1
102
RTVSPropertyOp9
 70
     1
102
RTVSPropertyOp10
 70
     1
102
RTVSPropertyOp11
 70
     1
102
RTVSPropertyOp12
 70
     1
102
RTVSPropertyOp13
 70
     1
102
RTVSPropertyOp14
 70
     1
102
RTVSPropertyOp15
 70
     1
102
RTVSPropertyOp16
 70
     1
102
RTVSPropertyOp17
 70
     1
102
RTVSPropertyOp18
 70
     1
102
RTVSPropertyOp19
 70
     1
102
RTVSPropertyOp20
 70
     1
102
RTVSPropertyOp21
 70
     1
102
RTVSPropertyOp22
 70
     1
102
RTVSPropertyOp23
 70
     1
102
RTVSPropertyOp24
 70
     1
102
RTVSPropertyOp25
 70
     1
102
RTVSPropertyOp26
 70
     1
102
RTVSPropertyOp27
 70
     1
102
RTVSPropertyOp28
 70
     1
102
RTVSPropertyOp29
 70
     1
102
RTVSPropertyOp30
 70
     1
102
RTVSPropertyOp31
 70
     1
102
RTVSPropertyOp32
 70
     1
102
RTVSPropertyOp33
 70
     1
102
RTVSPropertyOp34
 70
     1
102
RTVSPropertyOp35
 70
     1
102
RTVSPropertyOp36
 70
     1
102
RTVSPropertyOp37
 70
     1
102
RTVSPropertyOp38
 70
     1
102
RTVSPropertyOp39
 70
     1
102
RTVSPropertyOp40
 70
     1
102
RTVSPropertyOp41
 70
     1
102
RTVSPropertyOp42
 70
     1
102
RTVSPropertyOp43
 70
     1
102
RTVSPropertyOp44
 70
     1
102
RTVSPropertyOp45
 70
     1
102
RTVSPropertyOp46
 70
     1
102
RTVSPropertyOp47
 70
     1
102
RTVSPropertyOp48
 70
     1
102
RTVSPropertyOp49
 70
     1
102
RTVSPropertyOp50
 70
     1
102
RTVSPropertyOp51
 70
     0
102
RTVSPropertyOp52
 70
     0
102
RTVSPropertyOp53
 70
     1
102
RTVSPropertyOp54
 70
     1
102
RTVSPropertyOp55
 70
     1
102
RTVSPropertyOp56
 70
     1
102
RTVSPropertyOp57
 70
     1
102
RTVSPropertyOp58
 70
     1
102
RTVSPropertyOp59
 70
     1
102
RTVSPropertyOp60
 70
     1
102
RTVSPropertyOp61
 70
     1
102
RTVSPropertyOp62
 70
     1
  0
XRECORD
  5
195C
102
{ACAD_REACTORS
330
195B
102
}
330
195B
100
AcDbXrecord
280
     1
102
RTVSPost2010Prop28
280
     0
102
RTVSPost2010PropOp28
 70
     1
102
RTVSPost2010Prop29
280
     1
102
RTVSPost2010PropOp29
 70
     1
102
RTVSPost2010Prop30
280
     1
102
RTVSPost2010PropOp30
 70
     1
102
RTVSPost2010Prop31
280
     0
102
RTVSPost2010PropOp31
 70
     1
102
RTVSPost2010Prop32
280
     0
102
RTVSPost2010PropOp32
 70
     1
102
RTVSPost2010Prop33
280
     0
102
RTVSPost2010PropOp33
 70
     1
102
RTVSPost2010Prop34
280
     0
102
RTVSPost2010PropOp34
 70
     1
102
RTVSPost2010Prop35
280
     0
102
RTVSPost2010PropOp35
 70
     1
102
RTVSPost2010Prop36
280
     0
102
RTVSPost2010PropOp36
 70
     1
102
RTVSPost2010Prop37
 90
       50
102
RTVSPost2010PropOp37
 70
     1
102
RTVSPost2010Prop38
140
0.0
102
RTVSPost2010PropOp38
 70
     1
102
RTVSPost2010Prop39
140
1.0
102
RTVSPost2010PropOp39
 70
     1
102
RTVSPost2010Prop40
 90
        0
102
RTVSPost2010PropOp40
 70
     1
102
RTVSPost2010Prop41ColorIndex
 90
       18
102
RTVSPost2010Prop41ColorRGB
 90
        0
102
RTVSPost2010PropOp41
 70
     1
102
RTVSPost2010Prop42
 90
       50
102
RTVSPost2010PropOp42
 70
     1
102
RTVSPost2010Prop43
 90
        3
102
RTVSPost2010PropOp43
 70
     1
102
RTVSPost2010Prop44ColorIndex
 90
        5
102
RTVSPost2010Prop44ColorRGB
 90
      255
102
RTVSPost2010PropOp44
 70
     1
102
RTVSPost2010Prop45
280
     0
102
RTVSPost2010PropOp45
 70
     1
102
RTVSPost2010Prop46
 90
       50
102
RTVSPost2010PropOp46
 70
     1
102
RTVSPost2010Prop47
 90
       50
102
RTVSPost2010PropOp47
 70
     1
102
RTVSPost2010Prop48
 90
       50
102
RTVSPost2010PropOp48
 70
     1
102
RTVSPost2010Prop49
280
     0
102
RTVSPost2010PropOp49
 70
     1
102
RTVSPost2010Prop50
 90
       50
102
RTVSPost2010PropOp50
 70
     1
102
RTVSPost2010Prop51ColorIndex
 90
      256
102
RTVSPost2010Prop51ColorRGB
 90
-16777216
102
RTVSPost2010PropOp51
 70
     0
102
RTVSPost2010Prop52
140
1.0
102
RTVSPost2010PropOp52
 70
     0
102
RTVSPost2010Prop53
 90
        2
102
RTVSPost2010PropOp53
 70
     1
102
RTVSPost2010Prop54
  1
strokes_ogs.tif
102
RTVSPost2010PropOp54
 70
     1
102
RTVSPost2010Prop55
280
     0
102
RTVSPost2010PropOp55
 70
     1
102
RTVSPost2010Prop56
140
1.0
102
RTVSPost2010PropOp56
 70
     1
102
RTVSPost2010Prop57
140
1.0
102
RTVSPost2010PropOp57
 70
     1
102
RTVSPropertyOp0
 70
     1
102
RTVSPropertyOp1
 70
     1
102
RTVSPropertyOp2
 70
     1
102
RTVSPropertyOp3
 70
     1
102
RTVSPropertyOp4
 70
     1
102
RTVSPropertyOp5
 70
     1
102
RTVSPropertyOp6
 70
     1
102
RTVSPropertyOp7
 70
     1
102
RTVSPropertyOp8
 70
     1
102
RTVSPropertyOp9
 70
     1
102
RTVSPropertyOp10
 70
     1
102
RTVSPropertyOp11
 70
     1
102
RTVSPropertyOp12
 70
     1
102
RTVSPropertyOp13
 70
     1
102
RTVSPropertyOp14
 70
     1
102
RTVSPropertyOp15
 70
     1
102
RTVSPropertyOp16
 70
     1
102
RTVSPropertyOp17
 70
     1
102
RTVSPropertyOp18
 70
     1
102
RTVSPropertyOp19
 70
     1
102
RTVSPropertyOp20
 70
     1
102
RTVSPropertyOp21
 70
     1
102
RTVSPropertyOp22
 70
     1
102
RTVSPropertyOp23
 70
     1
102
RTVSPropertyOp24
 70
     1
102
RTVSPropertyOp25
 70
     1
102
RTVSPropertyOp26
 70
     1
102
RTVSPropertyOp27
 70
     1
102
RTVSPropertyOp28
 70
     1
102
RTVSPropertyOp29
 70
     1
102
RTVSPropertyOp30
 70
     1
102
RTVSPropertyOp31
 70
     1
102
RTVSPropertyOp32
 70
     1
102
RTVSPropertyOp33
 70
     1
102
RTVSPropertyOp34
 70
     1
102
RTVSPropertyOp35
 70
     1
102
RTVSPropertyOp36
 70
     1
102
RTVSPropertyOp37
 70
     1
102
RTVSPropertyOp38
 70
     1
102
RTVSPropertyOp39
 70
     1
102
RTVSPropertyOp40
 70
     1
102
RTVSPropertyOp41
 70
     1
102
RTVSPropertyOp42
 70
     1
102
RTVSPropertyOp43
 70
     1
102
RTVSPropertyOp44
 70
     1
102
RTVSPropertyOp45
 70
     1
102
RTVSPropertyOp46
 70
     1
102
RTVSPropertyOp47
 70
     1
102
RTVSPropertyOp48
 70
     1
102
RTVSPropertyOp49
 70
     1
102
RTVSPropertyOp50
 70
     1
102
RTVSPropertyOp51
 70
     0
102
RTVSPropertyOp52
 70
     0
102
RTVSPropertyOp53
 70
     1
102
RTVSPropertyOp54
 70
     1
102
RTVSPropertyOp55
 70
     1
102
RTVSPropertyOp56
 70
     1
102
RTVSPropertyOp57
 70
     1
102
RTVSPropertyOp58
 70
     1
102
RTVSPropertyOp59
 70
     1
102
RTVSPropertyOp60
 70
     1
102
RTVSPropertyOp61
 70
     1
102
RTVSPropertyOp62
 70
     1
  0
XRECORD
  5
195E
102
{ACAD_REACTORS
330
195D
102
}
330
195D
100
AcDbXrecord
280
     1
102
RTVSPost2010Prop28
280
     0
102
RTVSPost2010PropOp28
 70
     1
102
RTVSPost2010Prop29
280
     1
102
RTVSPost2010PropOp29
 70
     1
102
RTVSPost2010Prop30
280
     1
102
RTVSPost2010PropOp30
 70
     1
102
RTVSPost2010Prop31
280
     0
102
RTVSPost2010PropOp31
 70
     1
102
RTVSPost2010Prop32
280
     0
102
RTVSPost2010PropOp32
 70
     1
102
RTVSPost2010Prop33
280
     0
102
RTVSPost2010PropOp33
 70
     1
102
RTVSPost2010Prop34
280
     0
102
RTVSPost2010PropOp34
 70
     1
102
RTVSPost2010Prop35
280
     0
102
RTVSPost2010PropOp35
 70
     1
102
RTVSPost2010Prop36
280
     0
102
RTVSPost2010PropOp36
 70
     1
102
RTVSPost2010Prop37
 90
       50
102
RTVSPost2010PropOp37
 70
     1
102
RTVSPost2010Prop38
140
0.0
102
RTVSPost2010PropOp38
 70
     1
102
RTVSPost2010Prop39
140
1.0
102
RTVSPost2010PropOp39
 70
     1
102
RTVSPost2010Prop40
 90
        0
102
RTVSPost2010PropOp40
 70
     1
102
RTVSPost2010Prop41ColorIndex
 90
       18
102
RTVSPost2010Prop41ColorRGB
 90
        0
102
RTVSPost2010PropOp41
 70
     1
102
RTVSPost2010Prop42
 90
       50
102
RTVSPost2010PropOp42
 70
     1
102
RTVSPost2010Prop43
 90
        3
102
RTVSPost2010PropOp43
 70
     1
102
RTVSPost2010Prop44ColorIndex
 90
        5
102
RTVSPost2010Prop44ColorRGB
 90
      255
102
RTVSPost2010PropOp44
 70
     1
102
RTVSPost2010Prop45
280
     0
102
RTVSPost2010PropOp45
 70
     1
102
RTVSPost2010Prop46
 90
       50
102
RTVSPost2010PropOp46
 70
     1
102
RTVSPost2010Prop47
 90
       50
102
RTVSPost2010PropOp47
 70
     1
102
RTVSPost2010Prop48
 90
       50
102
RTVSPost2010PropOp48
 70
     1
102
RTVSPost2010Prop49
280
     0
102
RTVSPost2010PropOp49
 70
     1
102
RTVSPost2010Prop50
 90
       50
102
RTVSPost2010PropOp50
 70
     1
102
RTVSPost2010Prop51ColorIndex
 90
      256
102
RTVSPost2010Prop51ColorRGB
 90
-16777216
102
RTVSPost2010PropOp51
 70
     0
102
RTVSPost2010Prop52
140
1.0
102
RTVSPost2010PropOp52
 70
     0
102
RTVSPost2010Prop53
 90
        2
102
RTVSPost2010PropOp53
 70
     1
102
RTVSPost2010Prop54
  1
strokes_ogs.tif
102
RTVSPost2010PropOp54
 70
     1
102
RTVSPost2010Prop55
280
     0
102
RTVSPost2010PropOp55
 70
     1
102
RTVSPost2010Prop56
140
1.0
102
RTVSPost2010PropOp56
 70
     1
102
RTVSPost2010Prop57
140
1.0
102
RTVSPost2010PropOp57
 70
     1
102
RTVSPropertyOp0
 70
     1
102
RTVSPropertyOp1
 70
     1
102
RTVSPropertyOp2
 70
     1
102
RTVSPropertyOp3
 70
     1
102
RTVSPropertyOp4
 70
     1
102
RTVSPropertyOp5
 70
     1
102
RTVSPropertyOp6
 70
     1
102
RTVSPropertyOp7
 70
     1
102
RTVSPropertyOp8
 70
     1
102
RTVSPropertyOp9
 70
     1
102
RTVSPropertyOp10
 70
     1
102
RTVSPropertyOp11
 70
     1
102
RTVSPropertyOp12
 70
     1
102
RTVSPropertyOp13
 70
     1
102
RTVSPropertyOp14
 70
     1
102
RTVSPropertyOp15
 70
     1
102
RTVSPropertyOp16
 70
     1
102
RTVSPropertyOp17
 70
     1
102
RTVSPropertyOp18
 70
     1
102
RTVSPropertyOp19
 70
     1
102
RTVSPropertyOp20
 70
     1
102
RTVSPropertyOp21
 70
     1
102
RTVSPropertyOp22
 70
     1
102
RTVSPropertyOp23
 70
     1
102
RTVSPropertyOp24
 70
     1
102
RTVSPropertyOp25
 70
     1
102
RTVSPropertyOp26
 70
     1
102
RTVSPropertyOp27
 70
     1
102
RTVSPropertyOp28
 70
     1
102
RTVSPropertyOp29
 70
     1
102
RTVSPropertyOp30
 70
     1
102
RTVSPropertyOp31
 70
     1
102
RTVSPropertyOp32
 70
     1
102
RTVSPropertyOp33
 70
     1
102
RTVSPropertyOp34
 70
     1
102
RTVSPropertyOp35
 70
     1
102
RTVSPropertyOp36
 70
     1
102
RTVSPropertyOp37
 70
     1
102
RTVSPropertyOp38
 70
     1
102
RTVSPropertyOp39
 70
     1
102
RTVSPropertyOp40
 70
     1
102
RTVSPropertyOp41
 70
     1
102
RTVSPropertyOp42
 70
     1
102
RTVSPropertyOp43
 70
     1
102
RTVSPropertyOp44
 70
     1
102
RTVSPropertyOp45
 70
     1
102
RTVSPropertyOp46
 70
     1
102
RTVSPropertyOp47
 70
     1
102
RTVSPropertyOp48
 70
     1
102
RTVSPropertyOp49
 70
     1
102
RTVSPropertyOp50
 70
     1
102
RTVSPropertyOp51
 70
     0
102
RTVSPropertyOp52
 70
     0
102
RTVSPropertyOp53
 70
     1
102
RTVSPropertyOp54
 70
     1
102
RTVSPropertyOp55
 70
     1
102
RTVSPropertyOp56
 70
     1
102
RTVSPropertyOp57
 70
     1
102
RTVSPropertyOp58
 70
     1
102
RTVSPropertyOp59
 70
     1
102
RTVSPropertyOp60
 70
     1
102
RTVSPropertyOp61
 70
     1
102
RTVSPropertyOp62
 70
     1
  0
XRECORD
  5
1960
102
{ACAD_REACTORS
330
195F
102
}
330
195F
100
AcDbXrecord
280
     1
102
RTVSPost2010Prop28
280
     0
102
RTVSPost2010PropOp28
 70
     1
102
RTVSPost2010Prop29
280
     1
102
RTVSPost2010PropOp29
 70
     1
102
RTVSPost2010Prop30
280
     1
102
RTVSPost2010PropOp30
 70
     1
102
RTVSPost2010Prop31
280
     0
102
RTVSPost2010PropOp31
 70
     1
102
RTVSPost2010Prop32
280
     0
102
RTVSPost2010PropOp32
 70
     1
102
RTVSPost2010Prop33
280
     0
102
RTVSPost2010PropOp33
 70
     1
102
RTVSPost2010Prop34
280
     0
102
RTVSPost2010PropOp34
 70
     1
102
RTVSPost2010Prop35
280
     0
102
RTVSPost2010PropOp35
 70
     1
102
RTVSPost2010Prop36
280
     0
102
RTVSPost2010PropOp36
 70
     1
102
RTVSPost2010Prop37
 90
       50
102
RTVSPost2010PropOp37
 70
     1
102
RTVSPost2010Prop38
140
0.0
102
RTVSPost2010PropOp38
 70
     1
102
RTVSPost2010Prop39
140
1.0
102
RTVSPost2010PropOp39
 70
     1
102
RTVSPost2010Prop40
 90
        0
102
RTVSPost2010PropOp40
 70
     1
102
RTVSPost2010Prop41ColorIndex
 90
       18
102
RTVSPost2010Prop41ColorRGB
 90
        0
102
RTVSPost2010PropOp41
 70
     1
102
RTVSPost2010Prop42
 90
       50
102
RTVSPost2010PropOp42
 70
     1
102
RTVSPost2010Prop43
 90
        3
102
RTVSPost2010PropOp43
 70
     1
102
RTVSPost2010Prop44ColorIndex
 90
        5
102
RTVSPost2010Prop44ColorRGB
 90
      255
102
RTVSPost2010PropOp44
 70
     1
102
RTVSPost2010Prop45
280
     0
102
RTVSPost2010PropOp45
 70
     1
102
RTVSPost2010Prop46
 90
       50
102
RTVSPost2010PropOp46
 70
     1
102
RTVSPost2010Prop47
 90
       50
102
RTVSPost2010PropOp47
 70
     1
102
RTVSPost2010Prop48
 90
       50
102
RTVSPost2010PropOp48
 70
     1
102
RTVSPost2010Prop49
280
     0
102
RTVSPost2010PropOp49
 70
     1
102
RTVSPost2010Prop50
 90
       50
102
RTVSPost2010PropOp50
 70
     1
102
RTVSPost2010Prop51ColorIndex
 90
      256
102
RTVSPost2010Prop51ColorRGB
 90
-16777216
102
RTVSPost2010PropOp51
 70
     0
102
RTVSPost2010Prop52
140
1.0
102
RTVSPost2010PropOp52
 70
     0
102
RTVSPost2010Prop53
 90
        2
102
RTVSPost2010PropOp53
 70
     1
102
RTVSPost2010Prop54
  1
strokes_ogs.tif
102
RTVSPost2010PropOp54
 70
     1
102
RTVSPost2010Prop55
280
     0
102
RTVSPost2010PropOp55
 70
     1
102
RTVSPost2010Prop56
140
1.0
102
RTVSPost2010PropOp56
 70
     1
102
RTVSPost2010Prop57
140
1.0
102
RTVSPost2010PropOp57
 70
     1
102
RTVSPropertyOp0
 70
     1
102
RTVSPropertyOp1
 70
     1
102
RTVSPropertyOp2
 70
     1
102
RTVSPropertyOp3
 70
     1
102
RTVSPropertyOp4
 70
     1
102
RTVSPropertyOp5
 70
     1
102
RTVSPropertyOp6
 70
     1
102
RTVSPropertyOp7
 70
     1
102
RTVSPropertyOp8
 70
     1
102
RTVSPropertyOp9
 70
     1
102
RTVSPropertyOp10
 70
     1
102
RTVSPropertyOp11
 70
     1
102
RTVSPropertyOp12
 70
     1
102
RTVSPropertyOp13
 70
     1
102
RTVSPropertyOp14
 70
     1
102
RTVSPropertyOp15
 70
     1
102
RTVSPropertyOp16
 70
     1
102
RTVSPropertyOp17
 70
     1
102
RTVSPropertyOp18
 70
     1
102
RTVSPropertyOp19
 70
     1
102
RTVSPropertyOp20
 70
     1
102
RTVSPropertyOp21
 70
     1
102
RTVSPropertyOp22
 70
     1
102
RTVSPropertyOp23
 70
     1
102
RTVSPropertyOp24
 70
     1
102
RTVSPropertyOp25
 70
     1
102
RTVSPropertyOp26
 70
     1
102
RTVSPropertyOp27
 70
     1
102
RTVSPropertyOp28
 70
     1
102
RTVSPropertyOp29
 70
     1
102
RTVSPropertyOp30
 70
     1
102
RTVSPropertyOp31
 70
     1
102
RTVSPropertyOp32
 70
     1
102
RTVSPropertyOp33
 70
     1
102
RTVSPropertyOp34
 70
     1
102
RTVSPropertyOp35
 70
     1
102
RTVSPropertyOp36
 70
     1
102
RTVSPropertyOp37
 70
     1
102
RTVSPropertyOp38
 70
     1
102
RTVSPropertyOp39
 70
     1
102
RTVSPropertyOp40
 70
     1
102
RTVSPropertyOp41
 70
     1
102
RTVSPropertyOp42
 70
     1
102
RTVSPropertyOp43
 70
     1
102
RTVSPropertyOp44
 70
     1
102
RTVSPropertyOp45
 70
     1
102
RTVSPropertyOp46
 70
     1
102
RTVSPropertyOp47
 70
     1
102
RTVSPropertyOp48
 70
     1
102
RTVSPropertyOp49
 70
     1
102
RTVSPropertyOp50
 70
     1
102
RTVSPropertyOp51
 70
     0
102
RTVSPropertyOp52
 70
     0
102
RTVSPropertyOp53
 70
     1
102
RTVSPropertyOp54
 70
     1
102
RTVSPropertyOp55
 70
     1
102
RTVSPropertyOp56
 70
     1
102
RTVSPropertyOp57
 70
     1
102
RTVSPropertyOp58
 70
     1
102
RTVSPropertyOp59
 70
     1
102
RTVSPropertyOp60
 70
     1
102
RTVSPropertyOp61
 70
     1
102
RTVSPropertyOp62
 70
     1
  0
XRECORD
  5
1962
102
{ACAD_REACTORS
330
1961
102
}
330
1961
100
AcDbXrecord
280
     1
102
RTVSPost2010Prop28
280
     0
102
RTVSPost2010PropOp28
 70
     1
102
RTVSPost2010Prop29
280
     1
102
RTVSPost2010PropOp29
 70
     1
102
RTVSPost2010Prop30
280
     1
102
RTVSPost2010PropOp30
 70
     1
102
RTVSPost2010Prop31
280
     0
102
RTVSPost2010PropOp31
 70
     1
102
RTVSPost2010Prop32
280
     0
102
RTVSPost2010PropOp32
 70
     1
102
RTVSPost2010Prop33
280
     0
102
RTVSPost2010PropOp33
 70
     1
102
RTVSPost2010Prop34
280
     0
102
RTVSPost2010PropOp34
 70
     1
102
RTVSPost2010Prop35
280
     0
102
RTVSPost2010PropOp35
 70
     1
102
RTVSPost2010Prop36
280
     0
102
RTVSPost2010PropOp36
 70
     1
102
RTVSPost2010Prop37
 90
       50
102
RTVSPost2010PropOp37
 70
     1
102
RTVSPost2010Prop38
140
0.0
102
RTVSPost2010PropOp38
 70
     1
102
RTVSPost2010Prop39
140
1.0
102
RTVSPost2010PropOp39
 70
     1
102
RTVSPost2010Prop40
 90
        0
102
RTVSPost2010PropOp40
 70
     1
102
RTVSPost2010Prop41ColorIndex
 90
       18
102
RTVSPost2010Prop41ColorRGB
 90
        0
102
RTVSPost2010PropOp41
 70
     1
102
RTVSPost2010Prop42
 90
       50
102
RTVSPost2010PropOp42
 70
     1
102
RTVSPost2010Prop43
 90
        3
102
RTVSPost2010PropOp43
 70
     1
102
RTVSPost2010Prop44ColorIndex
 90
        5
102
RTVSPost2010Prop44ColorRGB
 90
      255
102
RTVSPost2010PropOp44
 70
     1
102
RTVSPost2010Prop45
280
     0
102
RTVSPost2010PropOp45
 70
     1
102
RTVSPost2010Prop46
 90
       50
102
RTVSPost2010PropOp46
 70
     1
102
RTVSPost2010Prop47
 90
       50
102
RTVSPost2010PropOp47
 70
     1
102
RTVSPost2010Prop48
 90
       50
102
RTVSPost2010PropOp48
 70
     1
102
RTVSPost2010Prop49
280
     0
102
RTVSPost2010PropOp49
 70
     1
102
RTVSPost2010Prop50
 90
       50
102
RTVSPost2010PropOp50
 70
     1
102
RTVSPost2010Prop51ColorIndex
 90
      256
102
RTVSPost2010Prop51ColorRGB
 90
-16777216
102
RTVSPost2010PropOp51
 70
     0
102
RTVSPost2010Prop52
140
1.0
102
RTVSPost2010PropOp52
 70
     0
102
RTVSPost2010Prop53
 90
        2
102
RTVSPost2010PropOp53
 70
     1
102
RTVSPost2010Prop54
  1
strokes_ogs.tif
102
RTVSPost2010PropOp54
 70
     1
102
RTVSPost2010Prop55
280
     0
102
RTVSPost2010PropOp55
 70
     1
102
RTVSPost2010Prop56
140
1.0
102
RTVSPost2010PropOp56
 70
     1
102
RTVSPost2010Prop57
140
1.0
102
RTVSPost2010PropOp57
 70
     1
102
RTVSPropertyOp0
 70
     1
102
RTVSPropertyOp1
 70
     1
102
RTVSPropertyOp2
 70
     1
102
RTVSPropertyOp3
 70
     1
102
RTVSPropertyOp4
 70
     1
102
RTVSPropertyOp5
 70
     1
102
RTVSPropertyOp6
 70
     1
102
RTVSPropertyOp7
 70
     1
102
RTVSPropertyOp8
 70
     1
102
RTVSPropertyOp9
 70
     1
102
RTVSPropertyOp10
 70
     1
102
RTVSPropertyOp11
 70
     1
102
RTVSPropertyOp12
 70
     1
102
RTVSPropertyOp13
 70
     1
102
RTVSPropertyOp14
 70
     1
102
RTVSPropertyOp15
 70
     1
102
RTVSPropertyOp16
 70
     1
102
RTVSPropertyOp17
 70
     1
102
RTVSPropertyOp18
 70
     1
102
RTVSPropertyOp19
 70
     1
102
RTVSPropertyOp20
 70
     1
102
RTVSPropertyOp21
 70
     1
102
RTVSPropertyOp22
 70
     1
102
RTVSPropertyOp23
 70
     1
102
RTVSPropertyOp24
 70
     1
102
RTVSPropertyOp25
 70
     1
102
RTVSPropertyOp26
 70
     1
102
RTVSPropertyOp27
 70
     1
102
RTVSPropertyOp28
 70
     1
102
RTVSPropertyOp29
 70
     1
102
RTVSPropertyOp30
 70
     1
102
RTVSPropertyOp31
 70
     1
102
RTVSPropertyOp32
 70
     1
102
RTVSPropertyOp33
 70
     1
102
RTVSPropertyOp34
 70
     1
102
RTVSPropertyOp35
 70
     1
102
RTVSPropertyOp36
 70
     1
102
RTVSPropertyOp37
 70
     1
102
RTVSPropertyOp38
 70
     1
102
RTVSPropertyOp39
 70
     1
102
RTVSPropertyOp40
 70
     1
102
RTVSPropertyOp41
 70
     1
102
RTVSPropertyOp42
 70
     1
102
RTVSPropertyOp43
 70
     1
102
RTVSPropertyOp44
 70
     1
102
RTVSPropertyOp45
 70
     1
102
RTVSPropertyOp46
 70
     1
102
RTVSPropertyOp47
 70
     1
102
RTVSPropertyOp48
 70
     1
102
RTVSPropertyOp49
 70
     1
102
RTVSPropertyOp50
 70
     1
102
RTVSPropertyOp51
 70
     0
102
RTVSPropertyOp52
 70
     0
102
RTVSPropertyOp53
 70
     1
102
RTVSPropertyOp54
 70
     1
102
RTVSPropertyOp55
 70
     1
102
RTVSPropertyOp56
 70
     1
102
RTVSPropertyOp57
 70
     1
102
RTVSPropertyOp58
 70
     1
102
RTVSPropertyOp59
 70
     1
102
RTVSPropertyOp60
 70
     1
102
RTVSPropertyOp61
 70
     1
102
RTVSPropertyOp62
 70
     1
  0
XRECORD
  5
196A
102
{ACAD_REACTORS
330
1969
102
}
330
1969
100
AcDbXrecord
280
     1
102
RTVSPost2010Prop28
280
     0
102
RTVSPost2010PropOp28
 70
     1
102
RTVSPost2010Prop29
280
     1
102
RTVSPost2010PropOp29
 70
     1
102
RTVSPost2010Prop30
280
     1
102
RTVSPost2010PropOp30
 70
     1
102
RTVSPost2010Prop31
280
     0
102
RTVSPost2010PropOp31
 70
     1
102
RTVSPost2010Prop32
280
     0
102
RTVSPost2010PropOp32
 70
     1
102
RTVSPost2010Prop33
280
     0
102
RTVSPost2010PropOp33
 70
     1
102
RTVSPost2010Prop34
280
     0
102
RTVSPost2010PropOp34
 70
     1
102
RTVSPost2010Prop35
280
     0
102
RTVSPost2010PropOp35
 70
     1
102
RTVSPost2010Prop36
280
     0
102
RTVSPost2010PropOp36
 70
     1
102
RTVSPost2010Prop37
 90
       50
102
RTVSPost2010PropOp37
 70
     1
102
RTVSPost2010Prop38
140
0.0
102
RTVSPost2010PropOp38
 70
     1
102
RTVSPost2010Prop39
140
1.0
102
RTVSPost2010PropOp39
 70
     1
102
RTVSPost2010Prop40
 90
        0
102
RTVSPost2010PropOp40
 70
     1
102
RTVSPost2010Prop41ColorIndex
 90
       18
102
RTVSPost2010Prop41ColorRGB
 90
        0
102
RTVSPost2010PropOp41
 70
     1
102
RTVSPost2010Prop42
 90
       50
102
RTVSPost2010PropOp42
 70
     1
102
RTVSPost2010Prop43
 90
        3
102
RTVSPost2010PropOp43
 70
     1
102
RTVSPost2010Prop44ColorIndex
 90
        5
102
RTVSPost2010Prop44ColorRGB
 90
      255
102
RTVSPost2010PropOp44
 70
     1
102
RTVSPost2010Prop45
280
     0
102
RTVSPost2010PropOp45
 70
     1
102
RTVSPost2010Prop46
 90
       50
102
RTVSPost2010PropOp46
 70
     1
102
RTVSPost2010Prop47
 90
       50
102
RTVSPost2010PropOp47
 70
     1
102
RTVSPost2010Prop48
 90
       50
102
RTVSPost2010PropOp48
 70
     1
102
RTVSPost2010Prop49
280
     0
102
RTVSPost2010PropOp49
 70
     1
102
RTVSPost2010Prop50
 90
       50
102
RTVSPost2010PropOp50
 70
     1
102
RTVSPost2010Prop51ColorIndex
 90
      256
102
RTVSPost2010Prop51ColorRGB
 90
-16777216
102
RTVSPost2010PropOp51
 70
     0
102
RTVSPost2010Prop52
140
1.0
102
RTVSPost2010PropOp52
 70
     0
102
RTVSPost2010Prop53
 90
        2
102
RTVSPost2010PropOp53
 70
     1
102
RTVSPost2010Prop54
  1
strokes_ogs.tif
102
RTVSPost2010PropOp54
 70
     1
102
RTVSPost2010Prop55
280
     0
102
RTVSPost2010PropOp55
 70
     1
102
RTVSPost2010Prop56
140
1.0
102
RTVSPost2010PropOp56
 70
     1
102
RTVSPost2010Prop57
140
1.0
102
RTVSPost2010PropOp57
 70
     1
102
RTVSPropertyOp0
 70
     1
102
RTVSPropertyOp1
 70
     1
102
RTVSPropertyOp2
 70
     1
102
RTVSPropertyOp3
 70
     1
102
RTVSPropertyOp4
 70
     1
102
RTVSPropertyOp5
 70
     1
102
RTVSPropertyOp6
 70
     1
102
RTVSPropertyOp7
 70
     1
102
RTVSPropertyOp8
 70
     1
102
RTVSPropertyOp9
 70
     1
102
RTVSPropertyOp10
 70
     1
102
RTVSPropertyOp11
 70
     1
102
RTVSPropertyOp12
 70
     1
102
RTVSPropertyOp13
 70
     1
102
RTVSPropertyOp14
 70
     1
102
RTVSPropertyOp15
 70
     1
102
RTVSPropertyOp16
 70
     1
102
RTVSPropertyOp17
 70
     1
102
RTVSPropertyOp18
 70
     1
102
RTVSPropertyOp19
 70
     1
102
RTVSPropertyOp20
 70
     1
102
RTVSPropertyOp21
 70
     1
102
RTVSPropertyOp22
 70
     1
102
RTVSPropertyOp23
 70
     1
102
RTVSPropertyOp24
 70
     1
102
RTVSPropertyOp25
 70
     1
102
RTVSPropertyOp26
 70
     1
102
RTVSPropertyOp27
 70
     1
102
RTVSPropertyOp28
 70
     1
102
RTVSPropertyOp29
 70
     1
102
RTVSPropertyOp30
 70
     1
102
RTVSPropertyOp31
 70
     1
102
RTVSPropertyOp32
 70
     1
102
RTVSPropertyOp33
 70
     1
102
RTVSPropertyOp34
 70
     1
102
RTVSPropertyOp35
 70
     1
102
RTVSPropertyOp36
 70
     1
102
RTVSPropertyOp37
 70
     1
102
RTVSPropertyOp38
 70
     1
102
RTVSPropertyOp39
 70
     1
102
RTVSPropertyOp40
 70
     1
102
RTVSPropertyOp41
 70
     1
102
RTVSPropertyOp42
 70
     1
102
RTVSPropertyOp43
 70
     1
102
RTVSPropertyOp44
 70
     1
102
RTVSPropertyOp45
 70
     1
102
RTVSPropertyOp46
 70
     1
102
RTVSPropertyOp47
 70
     1
102
RTVSPropertyOp48
 70
     1
102
RTVSPropertyOp49
 70
     1
102
RTVSPropertyOp50
 70
     1
102
RTVSPropertyOp51
 70
     0
102
RTVSPropertyOp52
 70
     0
102
RTVSPropertyOp53
 70
     1
102
RTVSPropertyOp54
 70
     1
102
RTVSPropertyOp55
 70
     1
102
RTVSPropertyOp56
 70
     1
102
RTVSPropertyOp57
 70
     1
102
RTVSPropertyOp58
 70
     1
102
RTVSPropertyOp59
 70
     1
102
RTVSPropertyOp60
 70
     1
102
RTVSPropertyOp61
 70
     1
102
RTVSPropertyOp62
 70
     1
  0
XRECORD
  5
1986
102
{ACAD_REACTORS
330
1985
102
}
330
1985
100
AcDbXrecord
280
     1
102
RTVSPost2010Prop28
280
     0
102
RTVSPost2010PropOp28
 70
     1
102
RTVSPost2010Prop29
280
     1
102
RTVSPost2010PropOp29
 70
     1
102
RTVSPost2010Prop30
280
     1
102
RTVSPost2010PropOp30
 70
     1
102
RTVSPost2010Prop31
280
     0
102
RTVSPost2010PropOp31
 70
     1
102
RTVSPost2010Prop32
280
     0
102
RTVSPost2010PropOp32
 70
     1
102
RTVSPost2010Prop33
280
     0
102
RTVSPost2010PropOp33
 70
     1
102
RTVSPost2010Prop34
280
     0
102
RTVSPost2010PropOp34
 70
     1
102
RTVSPost2010Prop35
280
     0
102
RTVSPost2010PropOp35
 70
     1
102
RTVSPost2010Prop36
280
     0
102
RTVSPost2010PropOp36
 70
     1
102
RTVSPost2010Prop37
 90
       50
102
RTVSPost2010PropOp37
 70
     0
102
RTVSPost2010Prop38
140
0.0
102
RTVSPost2010PropOp38
 70
     0
102
RTVSPost2010Prop39
140
1.0
102
RTVSPost2010PropOp39
 70
     0
102
RTVSPost2010Prop40
 90
        0
102
RTVSPost2010PropOp40
 70
     0
102
RTVSPost2010Prop41ColorIndex
 90
       18
102
RTVSPost2010Prop41ColorRGB
 90
        0
102
RTVSPost2010PropOp41
 70
     0
102
RTVSPost2010Prop42
 90
       50
102
RTVSPost2010PropOp42
 70
     0
102
RTVSPost2010Prop43
 90
        3
102
RTVSPost2010PropOp43
 70
     0
102
RTVSPost2010Prop44ColorIndex
 90
        5
102
RTVSPost2010Prop44ColorRGB
 90
      255
102
RTVSPost2010PropOp44
 70
     0
102
RTVSPost2010Prop45
280
     0
102
RTVSPost2010PropOp45
 70
     1
102
RTVSPost2010Prop46
 90
       50
102
RTVSPost2010PropOp46
 70
     0
102
RTVSPost2010Prop47
 90
       50
102
RTVSPost2010PropOp47
 70
     0
102
RTVSPost2010Prop48
 90
       50
102
RTVSPost2010PropOp48
 70
     0
102
RTVSPost2010Prop49
280
     0
102
RTVSPost2010PropOp49
 70
     1
102
RTVSPost2010Prop50
 90
       50
102
RTVSPost2010PropOp50
 70
     0
102
RTVSPost2010Prop51ColorIndex
 90
      256
102
RTVSPost2010Prop51ColorRGB
 90
-16777216
102
RTVSPost2010PropOp51
 70
     0
102
RTVSPost2010Prop52
140
1.0
102
RTVSPost2010PropOp52
 70
     0
102
RTVSPost2010Prop53
 90
        2
102
RTVSPost2010PropOp53
 70
     0
102
RTVSPost2010Prop54
  1
strokes_ogs.tif
102
RTVSPost2010PropOp54
 70
     0
102
RTVSPost2010Prop55
280
     0
102
RTVSPost2010PropOp55
 70
     1
102
RTVSPost2010Prop56
140
1.0
102
RTVSPost2010PropOp56
 70
     0
102
RTVSPost2010Prop57
140
1.0
102
RTVSPost2010PropOp57
 70
     0
102
RTVSPropertyOp0
 70
     0
102
RTVSPropertyOp1
 70
     0
102
RTVSPropertyOp2
 70
     0
102
RTVSPropertyOp3
 70
     0
102
RTVSPropertyOp4
 70
     0
102
RTVSPropertyOp5
 70
     0
102
RTVSPropertyOp6
 70
     0
102
RTVSPropertyOp7
 70
     0
102
RTVSPropertyOp8
 70
     0
102
RTVSPropertyOp9
 70
     0
102
RTVSPropertyOp10
 70
     0
102
RTVSPropertyOp11
 70
     0
102
RTVSPropertyOp12
 70
     0
102
RTVSPropertyOp13
 70
     0
102
RTVSPropertyOp14
 70
     2
102
RTVSPropertyOp15
 70
     0
102
RTVSPropertyOp16
 70
     0
102
RTVSPropertyOp17
 70
     0
102
RTVSPropertyOp18
 70
     0
102
RTVSPropertyOp19
 70
     0
102
RTVSPropertyOp20
 70
     0
102
RTVSPropertyOp21
 70
     0
102
RTVSPropertyOp22
 70
     0
102
RTVSPropertyOp23
 70
     0
102
RTVSPropertyOp24
 70
     0
102
RTVSPropertyOp25
 70
     0
102
RTVSPropertyOp26
 70
     0
102
RTVSPropertyOp27
 70
     0
102
RTVSPropertyOp28
 70
     1
102
RTVSPropertyOp29
 70
     1
102
RTVSPropertyOp30
 70
     1
102
RTVSPropertyOp31
 70
     1
102
RTVSPropertyOp32
 70
     1
102
RTVSPropertyOp33
 70
     1
102
RTVSPropertyOp34
 70
     1
102
RTVSPropertyOp35
 70
     1
102
RTVSPropertyOp36
 70
     1
102
RTVSPropertyOp37
 70
     0
102
RTVSPropertyOp38
 70
     0
102
RTVSPropertyOp39
 70
     0
102
RTVSPropertyOp40
 70
     0
102
RTVSPropertyOp41
 70
     0
102
RTVSPropertyOp42
 70
     0
102
RTVSPropertyOp43
 70
     0
102
RTVSPropertyOp44
 70
     0
102
RTVSPropertyOp45
 70
     1
102
RTVSPropertyOp46
 70
     0
102
RTVSPropertyOp47
 70
     0
102
RTVSPropertyOp48
 70
     0
102
RTVSPropertyOp49
 70
     1
102
RTVSPropertyOp50
 70
     0
102
RTVSPropertyOp51
 70
     0
102
RTVSPropertyOp52
 70
     0
102
RTVSPropertyOp53
 70
     0
102
RTVSPropertyOp54
 70
     0
102
RTVSPropertyOp55
 70
     1
102
RTVSPropertyOp56
 70
     0
102
RTVSPropertyOp57
 70
     0
102
RTVSPropertyOp58
 70
     0
102
RTVSPropertyOp59
 70
     0
102
RTVSPropertyOp60
 70
     0
102
RTVSPropertyOp61
 70
     0
102
RTVSPropertyOp62
 70
     0
  0
XRECORD
  5
1976
102
{ACAD_REACTORS
330
1975
102
}
330
1975
100
AcDbXrecord
280
     1
102
RTVSPost2010Prop28
280
     0
102
RTVSPost2010PropOp28
 70
     1
102
RTVSPost2010Prop29
280
     1
102
RTVSPost2010PropOp29
 70
     1
102
RTVSPost2010Prop30
280
     1
102
RTVSPost2010PropOp30
 70
     1
102
RTVSPost2010Prop31
280
     0
102
RTVSPost2010PropOp31
 70
     1
102
RTVSPost2010Prop32
280
     0
102
RTVSPost2010PropOp32
 70
     1
102
RTVSPost2010Prop33
280
     0
102
RTVSPost2010PropOp33
 70
     1
102
RTVSPost2010Prop34
280
     0
102
RTVSPost2010PropOp34
 70
     1
102
RTVSPost2010Prop35
280
     0
102
RTVSPost2010PropOp35
 70
     1
102
RTVSPost2010Prop36
280
     0
102
RTVSPost2010PropOp36
 70
     1
102
RTVSPost2010Prop37
 90
       50
102
RTVSPost2010PropOp37
 70
     1
102
RTVSPost2010Prop38
140
0.0
102
RTVSPost2010PropOp38
 70
     1
102
RTVSPost2010Prop39
140
1.0
102
RTVSPost2010PropOp39
 70
     1
102
RTVSPost2010Prop40
 90
        0
102
RTVSPost2010PropOp40
 70
     1
102
RTVSPost2010Prop41ColorIndex
 90
       18
102
RTVSPost2010Prop41ColorRGB
 90
        0
102
RTVSPost2010PropOp41
 70
     1
102
RTVSPost2010Prop42
 90
       50
102
RTVSPost2010PropOp42
 70
     1
102
RTVSPost2010Prop43
 90
        3
102
RTVSPost2010PropOp43
 70
     1
102
RTVSPost2010Prop44ColorIndex
 90
        5
102
RTVSPost2010Prop44ColorRGB
 90
      255
102
RTVSPost2010PropOp44
 70
     1
102
RTVSPost2010Prop45
280
     0
102
RTVSPost2010PropOp45
 70
     1
102
RTVSPost2010Prop46
 90
       50
102
RTVSPost2010PropOp46
 70
     1
102
RTVSPost2010Prop47
 90
       50
102
RTVSPost2010PropOp47
 70
     1
102
RTVSPost2010Prop48
 90
       50
102
RTVSPost2010PropOp48
 70
     1
102
RTVSPost2010Prop49
280
     0
102
RTVSPost2010PropOp49
 70
     1
102
RTVSPost2010Prop50
 90
       50
102
RTVSPost2010PropOp50
 70
     1
102
RTVSPost2010Prop51ColorIndex
 90
      256
102
RTVSPost2010Prop51ColorRGB
 90
-16777216
102
RTVSPost2010PropOp51
 70
     0
102
RTVSPost2010Prop52
140
1.0
102
RTVSPost2010PropOp52
 70
     0
102
RTVSPost2010Prop53
 90
        2
102
RTVSPost2010PropOp53
 70
     1
102
RTVSPost2010Prop54
  1
strokes_ogs.tif
102
RTVSPost2010PropOp54
 70
     1
102
RTVSPost2010Prop55
280
     0
102
RTVSPost2010PropOp55
 70
     1
102
RTVSPost2010Prop56
140
1.0
102
RTVSPost2010PropOp56
 70
     1
102
RTVSPost2010Prop57
140
1.0
102
RTVSPost2010PropOp57
 70
     1
102
RTVSPropertyOp0
 70
     1
102
RTVSPropertyOp1
 70
     1
102
RTVSPropertyOp2
 70
     1
102
RTVSPropertyOp3
 70
     1
102
RTVSPropertyOp4
 70
     1
102
RTVSPropertyOp5
 70
     1
102
RTVSPropertyOp6
 70
     1
102
RTVSPropertyOp7
 70
     1
102
RTVSPropertyOp8
 70
     1
102
RTVSPropertyOp9
 70
     1
102
RTVSPropertyOp10
 70
     1
102
RTVSPropertyOp11
 70
     1
102
RTVSPropertyOp12
 70
     1
102
RTVSPropertyOp13
 70
     1
102
RTVSPropertyOp14
 70
     1
102
RTVSPropertyOp15
 70
     1
102
RTVSPropertyOp16
 70
     1
102
RTVSPropertyOp17
 70
     1
102
RTVSPropertyOp18
 70
     1
102
RTVSPropertyOp19
 70
     1
102
RTVSPropertyOp20
 70
     1
102
RTVSPropertyOp21
 70
     1
102
RTVSPropertyOp22
 70
     1
102
RTVSPropertyOp23
 70
     1
102
RTVSPropertyOp24
 70
     1
102
RTVSPropertyOp25
 70
     1
102
RTVSPropertyOp26
 70
     1
102
RTVSPropertyOp27
 70
     1
102
RTVSPropertyOp28
 70
     1
102
RTVSPropertyOp29
 70
     1
102
RTVSPropertyOp30
 70
     1
102
RTVSPropertyOp31
 70
     1
102
RTVSPropertyOp32
 70
     1
102
RTVSPropertyOp33
 70
     1
102
RTVSPropertyOp34
 70
     1
102
RTVSPropertyOp35
 70
     1
102
RTVSPropertyOp36
 70
     1
102
RTVSPropertyOp37
 70
     1
102
RTVSPropertyOp38
 70
     1
102
RTVSPropertyOp39
 70
     1
102
RTVSPropertyOp40
 70
     1
102
RTVSPropertyOp41
 70
     1
102
RTVSPropertyOp42
 70
     1
102
RTVSPropertyOp43
 70
     1
102
RTVSPropertyOp44
 70
     1
102
RTVSPropertyOp45
 70
     1
102
RTVSPropertyOp46
 70
     1
102
RTVSPropertyOp47
 70
     1
102
RTVSPropertyOp48
 70
     1
102
RTVSPropertyOp49
 70
     1
102
RTVSPropertyOp50
 70
     1
102
RTVSPropertyOp51
 70
     0
102
RTVSPropertyOp52
 70
     0
102
RTVSPropertyOp53
 70
     1
102
RTVSPropertyOp54
 70
     1
102
RTVSPropertyOp55
 70
     1
102
RTVSPropertyOp56
 70
     1
102
RTVSPropertyOp57
 70
     1
102
RTVSPropertyOp58
 70
     1
102
RTVSPropertyOp59
 70
     1
102
RTVSPropertyOp60
 70
     1
102
RTVSPropertyOp61
 70
     1
102
RTVSPropertyOp62
 70
     1
  0
XRECORD
  5
1988
102
{ACAD_REACTORS
330
1987
102
}
330
1987
100
AcDbXrecord
280
     1
102
RTVSPost2010Prop28
280
     0
102
RTVSPost2010PropOp28
 70
     1
102
RTVSPost2010Prop29
280
     1
102
RTVSPost2010PropOp29
 70
     1
102
RTVSPost2010Prop30
280
     1
102
RTVSPost2010PropOp30
 70
     1
102
RTVSPost2010Prop31
280
     0
102
RTVSPost2010PropOp31
 70
     1
102
RTVSPost2010Prop32
280
     0
102
RTVSPost2010PropOp32
 70
     1
102
RTVSPost2010Prop33
280
     0
102
RTVSPost2010PropOp33
 70
     1
102
RTVSPost2010Prop34
280
     0
102
RTVSPost2010PropOp34
 70
     1
102
RTVSPost2010Prop35
280
     0
102
RTVSPost2010PropOp35
 70
     1
102
RTVSPost2010Prop36
280
     0
102
RTVSPost2010PropOp36
 70
     1
102
RTVSPost2010Prop37
 90
       50
102
RTVSPost2010PropOp37
 70
     0
102
RTVSPost2010Prop38
140
0.0
102
RTVSPost2010PropOp38
 70
     0
102
RTVSPost2010Prop39
140
1.0
102
RTVSPost2010PropOp39
 70
     0
102
RTVSPost2010Prop40
 90
        0
102
RTVSPost2010PropOp40
 70
     0
102
RTVSPost2010Prop41ColorIndex
 90
       18
102
RTVSPost2010Prop41ColorRGB
 90
        0
102
RTVSPost2010PropOp41
 70
     0
102
RTVSPost2010Prop42
 90
       50
102
RTVSPost2010PropOp42
 70
     0
102
RTVSPost2010Prop43
 90
        3
102
RTVSPost2010PropOp43
 70
     0
102
RTVSPost2010Prop44ColorIndex
 90
        5
102
RTVSPost2010Prop44ColorRGB
 90
      255
102
RTVSPost2010PropOp44
 70
     0
102
RTVSPost2010Prop45
280
     0
102
RTVSPost2010PropOp45
 70
     1
102
RTVSPost2010Prop46
 90
       50
102
RTVSPost2010PropOp46
 70
     0
102
RTVSPost2010Prop47
 90
       50
102
RTVSPost2010PropOp47
 70
     0
102
RTVSPost2010Prop48
 90
       50
102
RTVSPost2010PropOp48
 70
     0
102
RTVSPost2010Prop49
280
     0
102
RTVSPost2010PropOp49
 70
     1
102
RTVSPost2010Prop50
 90
       50
102
RTVSPost2010PropOp50
 70
     0
102
RTVSPost2010Prop51ColorIndex
 90
      256
102
RTVSPost2010Prop51ColorRGB
 90
-16777216
102
RTVSPost2010PropOp51
 70
     0
102
RTVSPost2010Prop52
140
1.0
102
RTVSPost2010PropOp52
 70
     0
102
RTVSPost2010Prop53
 90
        2
102
RTVSPost2010PropOp53
 70
     0
102
RTVSPost2010Prop54
  1
strokes_ogs.tif
102
RTVSPost2010PropOp54
 70
     0
102
RTVSPost2010Prop55
280
     0
102
RTVSPost2010PropOp55
 70
     1
102
RTVSPost2010Prop56
140
1.0
102
RTVSPost2010PropOp56
 70
     0
102
RTVSPost2010Prop57
140
1.0
102
RTVSPost2010PropOp57
 70
     0
102
RTVSPropertyOp0
 70
     0
102
RTVSPropertyOp1
 70
     0
102
RTVSPropertyOp2
 70
     0
102
RTVSPropertyOp3
 70
     0
102
RTVSPropertyOp4
 70
     0
102
RTVSPropertyOp5
 70
     0
102
RTVSPropertyOp6
 70
     0
102
RTVSPropertyOp7
 70
     0
102
RTVSPropertyOp8
 70
     0
102
RTVSPropertyOp9
 70
     0
102
RTVSPropertyOp10
 70
     0
102
RTVSPropertyOp11
 70
     0
102
RTVSPropertyOp12
 70
     0
102
RTVSPropertyOp13
 70
     0
102
RTVSPropertyOp14
 70
     2
102
RTVSPropertyOp15
 70
     0
102
RTVSPropertyOp16
 70
     0
102
RTVSPropertyOp17
 70
     0
102
RTVSPropertyOp18
 70
     0
102
RTVSPropertyOp19
 70
     0
102
RTVSPropertyOp20
 70
     0
102
RTVSPropertyOp21
 70
     0
102
RTVSPropertyOp22
 70
     0
102
RTVSPropertyOp23
 70
     0
102
RTVSPropertyOp24
 70
     0
102
RTVSPropertyOp25
 70
     0
102
RTVSPropertyOp26
 70
     0
102
RTVSPropertyOp27
 70
     0
102
RTVSPropertyOp28
 70
     1
102
RTVSPropertyOp29
 70
     1
102
RTVSPropertyOp30
 70
     1
102
RTVSPropertyOp31
 70
     1
102
RTVSPropertyOp32
 70
     1
102
RTVSPropertyOp33
 70
     1
102
RTVSPropertyOp34
 70
     1
102
RTVSPropertyOp35
 70
     1
102
RTVSPropertyOp36
 70
     1
102
RTVSPropertyOp37
 70
     0
102
RTVSPropertyOp38
 70
     0
102
RTVSPropertyOp39
 70
     0
102
RTVSPropertyOp40
 70
     0
102
RTVSPropertyOp41
 70
     0
102
RTVSPropertyOp42
 70
     0
102
RTVSPropertyOp43
 70
     0
102
RTVSPropertyOp44
 70
     0
102
RTVSPropertyOp45
 70
     1
102
RTVSPropertyOp46
 70
     0
102
RTVSPropertyOp47
 70
     0
102
RTVSPropertyOp48
 70
     0
102
RTVSPropertyOp49
 70
     1
102
RTVSPropertyOp50
 70
     0
102
RTVSPropertyOp51
 70
     0
102
RTVSPropertyOp52
 70
     0
102
RTVSPropertyOp53
 70
     0
102
RTVSPropertyOp54
 70
     0
102
RTVSPropertyOp55
 70
     1
102
RTVSPropertyOp56
 70
     0
102
RTVSPropertyOp57
 70
     0
102
RTVSPropertyOp58
 70
     0
102
RTVSPropertyOp59
 70
     0
102
RTVSPropertyOp60
 70
     0
102
RTVSPropertyOp61
 70
     0
102
RTVSPropertyOp62
 70
     0
  0
XRECORD
  5
196E
102
{ACAD_REACTORS
330
196D
102
}
330
196D
100
AcDbXrecord
280
     1
102
RTVSPost2010Prop28
280
     0
102
RTVSPost2010PropOp28
 70
     1
102
RTVSPost2010Prop29
280
     1
102
RTVSPost2010PropOp29
 70
     1
102
RTVSPost2010Prop30
280
     1
102
RTVSPost2010PropOp30
 70
     1
102
RTVSPost2010Prop31
280
     0
102
RTVSPost2010PropOp31
 70
     1
102
RTVSPost2010Prop32
280
     0
102
RTVSPost2010PropOp32
 70
     1
102
RTVSPost2010Prop33
280
     0
102
RTVSPost2010PropOp33
 70
     1
102
RTVSPost2010Prop34
280
     0
102
RTVSPost2010PropOp34
 70
     1
102
RTVSPost2010Prop35
280
     0
102
RTVSPost2010PropOp35
 70
     1
102
RTVSPost2010Prop36
280
     0
102
RTVSPost2010PropOp36
 70
     1
102
RTVSPost2010Prop37
 90
       50
102
RTVSPost2010PropOp37
 70
     1
102
RTVSPost2010Prop38
140
0.0
102
RTVSPost2010PropOp38
 70
     1
102
RTVSPost2010Prop39
140
1.0
102
RTVSPost2010PropOp39
 70
     1
102
RTVSPost2010Prop40
 90
        0
102
RTVSPost2010PropOp40
 70
     1
102
RTVSPost2010Prop41ColorIndex
 90
       18
102
RTVSPost2010Prop41ColorRGB
 90
        0
102
RTVSPost2010PropOp41
 70
     1
102
RTVSPost2010Prop42
 90
       50
102
RTVSPost2010PropOp42
 70
     1
102
RTVSPost2010Prop43
 90
        3
102
RTVSPost2010PropOp43
 70
     1
102
RTVSPost2010Prop44ColorIndex
 90
        5
102
RTVSPost2010Prop44ColorRGB
 90
      255
102
RTVSPost2010PropOp44
 70
     1
102
RTVSPost2010Prop45
280
     0
102
RTVSPost2010PropOp45
 70
     1
102
RTVSPost2010Prop46
 90
       50
102
RTVSPost2010PropOp46
 70
     1
102
RTVSPost2010Prop47
 90
       50
102
RTVSPost2010PropOp47
 70
     1
102
RTVSPost2010Prop48
 90
       50
102
RTVSPost2010PropOp48
 70
     1
102
RTVSPost2010Prop49
280
     0
102
RTVSPost2010PropOp49
 70
     1
102
RTVSPost2010Prop50
 90
       50
102
RTVSPost2010PropOp50
 70
     1
102
RTVSPost2010Prop51ColorIndex
 90
      256
102
RTVSPost2010Prop51ColorRGB
 90
-16777216
102
RTVSPost2010PropOp51
 70
     0
102
RTVSPost2010Prop52
140
1.0
102
RTVSPost2010PropOp52
 70
     0
102
RTVSPost2010Prop53
 90
        2
102
RTVSPost2010PropOp53
 70
     1
102
RTVSPost2010Prop54
  1
strokes_ogs.tif
102
RTVSPost2010PropOp54
 70
     1
102
RTVSPost2010Prop55
280
     0
102
RTVSPost2010PropOp55
 70
     1
102
RTVSPost2010Prop56
140
1.0
102
RTVSPost2010PropOp56
 70
     1
102
RTVSPost2010Prop57
140
1.0
102
RTVSPost2010PropOp57
 70
     1
102
RTVSPropertyOp0
 70
     1
102
RTVSPropertyOp1
 70
     1
102
RTVSPropertyOp2
 70
     1
102
RTVSPropertyOp3
 70
     1
102
RTVSPropertyOp4
 70
     1
102
RTVSPropertyOp5
 70
     1
102
RTVSPropertyOp6
 70
     1
102
RTVSPropertyOp7
 70
     1
102
RTVSPropertyOp8
 70
     1
102
RTVSPropertyOp9
 70
     1
102
RTVSPropertyOp10
 70
     1
102
RTVSPropertyOp11
 70
     1
102
RTVSPropertyOp12
 70
     1
102
RTVSPropertyOp13
 70
     1
102
RTVSPropertyOp14
 70
     1
102
RTVSPropertyOp15
 70
     1
102
RTVSPropertyOp16
 70
     1
102
RTVSPropertyOp17
 70
     1
102
RTVSPropertyOp18
 70
     1
102
RTVSPropertyOp19
 70
     1
102
RTVSPropertyOp20
 70
     1
102
RTVSPropertyOp21
 70
     1
102
RTVSPropertyOp22
 70
     1
102
RTVSPropertyOp23
 70
     1
102
RTVSPropertyOp24
 70
     1
102
RTVSPropertyOp25
 70
     1
102
RTVSPropertyOp26
 70
     1
102
RTVSPropertyOp27
 70
     1
102
RTVSPropertyOp28
 70
     1
102
RTVSPropertyOp29
 70
     1
102
RTVSPropertyOp30
 70
     1
102
RTVSPropertyOp31
 70
     1
102
RTVSPropertyOp32
 70
     1
102
RTVSPropertyOp33
 70
     1
102
RTVSPropertyOp34
 70
     1
102
RTVSPropertyOp35
 70
     1
102
RTVSPropertyOp36
 70
     1
102
RTVSPropertyOp37
 70
     1
102
RTVSPropertyOp38
 70
     1
102
RTVSPropertyOp39
 70
     1
102
RTVSPropertyOp40
 70
     1
102
RTVSPropertyOp41
 70
     1
102
RTVSPropertyOp42
 70
     1
102
RTVSPropertyOp43
 70
     1
102
RTVSPropertyOp44
 70
     1
102
RTVSPropertyOp45
 70
     1
102
RTVSPropertyOp46
 70
     1
102
RTVSPropertyOp47
 70
     1
102
RTVSPropertyOp48
 70
     1
102
RTVSPropertyOp49
 70
     1
102
RTVSPropertyOp50
 70
     1
102
RTVSPropertyOp51
 70
     0
102
RTVSPropertyOp52
 70
     0
102
RTVSPropertyOp53
 70
     1
102
RTVSPropertyOp54
 70
     1
102
RTVSPropertyOp55
 70
     1
102
RTVSPropertyOp56
 70
     1
102
RTVSPropertyOp57
 70
     1
102
RTVSPropertyOp58
 70
     1
102
RTVSPropertyOp59
 70
     1
102
RTVSPropertyOp60
 70
     1
102
RTVSPropertyOp61
 70
     1
102
RTVSPropertyOp62
 70
     1
  0
XRECORD
  5
1984
102
{ACAD_REACTORS
330
1983
102
}
330
1983
100
AcDbXrecord
280
     1
102
RTVSPost2010Prop28
280
     0
102
RTVSPost2010PropOp28
 70
     1
102
RTVSPost2010Prop29
280
     1
102
RTVSPost2010PropOp29
 70
     1
102
RTVSPost2010Prop30
280
     1
102
RTVSPost2010PropOp30
 70
     1
102
RTVSPost2010Prop31
280
     0
102
RTVSPost2010PropOp31
 70
     1
102
RTVSPost2010Prop32
280
     0
102
RTVSPost2010PropOp32
 70
     1
102
RTVSPost2010Prop33
280
     0
102
RTVSPost2010PropOp33
 70
     1
102
RTVSPost2010Prop34
280
     0
102
RTVSPost2010PropOp34
 70
     1
102
RTVSPost2010Prop35
280
     0
102
RTVSPost2010PropOp35
 70
     1
102
RTVSPost2010Prop36
280
     0
102
RTVSPost2010PropOp36
 70
     1
102
RTVSPost2010Prop37
 90
       50
102
RTVSPost2010PropOp37
 70
     1
102
RTVSPost2010Prop38
140
0.0
102
RTVSPost2010PropOp38
 70
     1
102
RTVSPost2010Prop39
140
1.0
102
RTVSPost2010PropOp39
 70
     1
102
RTVSPost2010Prop40
 90
        0
102
RTVSPost2010PropOp40
 70
     1
102
RTVSPost2010Prop41ColorIndex
 90
       18
102
RTVSPost2010Prop41ColorRGB
 90
        0
102
RTVSPost2010PropOp41
 70
     1
102
RTVSPost2010Prop42
 90
       50
102
RTVSPost2010PropOp42
 70
     1
102
RTVSPost2010Prop43
 90
        3
102
RTVSPost2010PropOp43
 70
     1
102
RTVSPost2010Prop44ColorIndex
 90
        5
102
RTVSPost2010Prop44ColorRGB
 90
      255
102
RTVSPost2010PropOp44
 70
     1
102
RTVSPost2010Prop45
280
     0
102
RTVSPost2010PropOp45
 70
     1
102
RTVSPost2010Prop46
 90
       50
102
RTVSPost2010PropOp46
 70
     1
102
RTVSPost2010Prop47
 90
       50
102
RTVSPost2010PropOp47
 70
     1
102
RTVSPost2010Prop48
 90
       50
102
RTVSPost2010PropOp48
 70
     1
102
RTVSPost2010Prop49
280
     0
102
RTVSPost2010PropOp49
 70
     1
102
RTVSPost2010Prop50
 90
       50
102
RTVSPost2010PropOp50
 70
     1
102
RTVSPost2010Prop51ColorIndex
 90
      256
102
RTVSPost2010Prop51ColorRGB
 90
-16777216
102
RTVSPost2010PropOp51
 70
     0
102
RTVSPost2010Prop52
140
1.0
102
RTVSPost2010PropOp52
 70
     0
102
RTVSPost2010Prop53
 90
        2
102
RTVSPost2010PropOp53
 70
     1
102
RTVSPost2010Prop54
  1
strokes_ogs.tif
102
RTVSPost2010PropOp54
 70
     1
102
RTVSPost2010Prop55
280
     0
102
RTVSPost2010PropOp55
 70
     1
102
RTVSPost2010Prop56
140
1.0
102
RTVSPost2010PropOp56
 70
     1
102
RTVSPost2010Prop57
140
1.0
102
RTVSPost2010PropOp57
 70
     1
102
RTVSPropertyOp0
 70
     1
102
RTVSPropertyOp1
 70
     1
102
RTVSPropertyOp2
 70
     1
102
RTVSPropertyOp3
 70
     1
102
RTVSPropertyOp4
 70
     1
102
RTVSPropertyOp5
 70
     1
102
RTVSPropertyOp6
 70
     1
102
RTVSPropertyOp7
 70
     1
102
RTVSPropertyOp8
 70
     1
102
RTVSPropertyOp9
 70
     1
102
RTVSPropertyOp10
 70
     1
102
RTVSPropertyOp11
 70
     1
102
RTVSPropertyOp12
 70
     1
102
RTVSPropertyOp13
 70
     1
102
RTVSPropertyOp14
 70
     1
102
RTVSPropertyOp15
 70
     1
102
RTVSPropertyOp16
 70
     1
102
RTVSPropertyOp17
 70
     1
102
RTVSPropertyOp18
 70
     1
102
RTVSPropertyOp19
 70
     1
102
RTVSPropertyOp20
 70
     1
102
RTVSPropertyOp21
 70
     1
102
RTVSPropertyOp22
 70
     1
102
RTVSPropertyOp23
 70
     1
102
RTVSPropertyOp24
 70
     1
102
RTVSPropertyOp25
 70
     1
102
RTVSPropertyOp26
 70
     1
102
RTVSPropertyOp27
 70
     1
102
RTVSPropertyOp28
 70
     1
102
RTVSPropertyOp29
 70
     1
102
RTVSPropertyOp30
 70
     1
102
RTVSPropertyOp31
 70
     1
102
RTVSPropertyOp32
 70
     1
102
RTVSPropertyOp33
 70
     1
102
RTVSPropertyOp34
 70
     1
102
RTVSPropertyOp35
 70
     1
102
RTVSPropertyOp36
 70
     1
102
RTVSPropertyOp37
 70
     1
102
RTVSPropertyOp38
 70
     1
102
RTVSPropertyOp39
 70
     1
102
RTVSPropertyOp40
 70
     1
102
RTVSPropertyOp41
 70
     1
102
RTVSPropertyOp42
 70
     1
102
RTVSPropertyOp43
 70
     1
102
RTVSPropertyOp44
 70
     1
102
RTVSPropertyOp45
 70
     1
102
RTVSPropertyOp46
 70
     1
102
RTVSPropertyOp47
 70
     1
102
RTVSPropertyOp48
 70
     1
102
RTVSPropertyOp49
 70
     1
102
RTVSPropertyOp50
 70
     1
102
RTVSPropertyOp51
 70
     0
102
RTVSPropertyOp52
 70
     0
102
RTVSPropertyOp53
 70
     1
102
RTVSPropertyOp54
 70
     1
102
RTVSPropertyOp55
 70
     1
102
RTVSPropertyOp56
 70
     1
102
RTVSPropertyOp57
 70
     1
102
RTVSPropertyOp58
 70
     1
102
RTVSPropertyOp59
 70
     1
102
RTVSPropertyOp60
 70
     1
102
RTVSPropertyOp61
 70
     1
102
RTVSPropertyOp62
 70
     1
  0
XRECORD
  5
1982
102
{ACAD_REACTORS
330
1981
102
}
330
1981
100
AcDbXrecord
280
     1
102
RTVSPost2010Prop28
280
     0
102
RTVSPost2010PropOp28
 70
     1
102
RTVSPost2010Prop29
280
     1
102
RTVSPost2010PropOp29
 70
     1
102
RTVSPost2010Prop30
280
     1
102
RTVSPost2010PropOp30
 70
     1
102
RTVSPost2010Prop31
280
     0
102
RTVSPost2010PropOp31
 70
     1
102
RTVSPost2010Prop32
280
     0
102
RTVSPost2010PropOp32
 70
     1
102
RTVSPost2010Prop33
280
     0
102
RTVSPost2010PropOp33
 70
     1
102
RTVSPost2010Prop34
280
     0
102
RTVSPost2010PropOp34
 70
     1
102
RTVSPost2010Prop35
280
     0
102
RTVSPost2010PropOp35
 70
     1
102
RTVSPost2010Prop36
280
     0
102
RTVSPost2010PropOp36
 70
     1
102
RTVSPost2010Prop37
 90
       50
102
RTVSPost2010PropOp37
 70
     1
102
RTVSPost2010Prop38
140
0.0
102
RTVSPost2010PropOp38
 70
     1
102
RTVSPost2010Prop39
140
1.0
102
RTVSPost2010PropOp39
 70
     1
102
RTVSPost2010Prop40
 90
        0
102
RTVSPost2010PropOp40
 70
     1
102
RTVSPost2010Prop41ColorIndex
 90
       18
102
RTVSPost2010Prop41ColorRGB
 90
        0
102
RTVSPost2010PropOp41
 70
     1
102
RTVSPost2010Prop42
 90
       50
102
RTVSPost2010PropOp42
 70
     1
102
RTVSPost2010Prop43
 90
        3
102
RTVSPost2010PropOp43
 70
     1
102
RTVSPost2010Prop44ColorIndex
 90
        5
102
RTVSPost2010Prop44ColorRGB
 90
      255
102
RTVSPost2010PropOp44
 70
     1
102
RTVSPost2010Prop45
280
     0
102
RTVSPost2010PropOp45
 70
     1
102
RTVSPost2010Prop46
 90
       50
102
RTVSPost2010PropOp46
 70
     1
102
RTVSPost2010Prop47
 90
       50
102
RTVSPost2010PropOp47
 70
     1
102
RTVSPost2010Prop48
 90
       50
102
RTVSPost2010PropOp48
 70
     1
102
RTVSPost2010Prop49
280
     0
102
RTVSPost2010PropOp49
 70
     1
102
RTVSPost2010Prop50
 90
       50
102
RTVSPost2010PropOp50
 70
     1
102
RTVSPost2010Prop51ColorIndex
 90
      256
102
RTVSPost2010Prop51ColorRGB
 90
-16777216
102
RTVSPost2010PropOp51
 70
     0
102
RTVSPost2010Prop52
140
1.0
102
RTVSPost2010PropOp52
 70
     0
102
RTVSPost2010Prop53
 90
        2
102
RTVSPost2010PropOp53
 70
     1
102
RTVSPost2010Prop54
  1
strokes_ogs.tif
102
RTVSPost2010PropOp54
 70
     1
102
RTVSPost2010Prop55
280
     0
102
RTVSPost2010PropOp55
 70
     1
102
RTVSPost2010Prop56
140
1.0
102
RTVSPost2010PropOp56
 70
     1
102
RTVSPost2010Prop57
140
1.0
102
RTVSPost2010PropOp57
 70
     1
102
RTVSPropertyOp0
 70
     1
102
RTVSPropertyOp1
 70
     1
102
RTVSPropertyOp2
 70
     1
102
RTVSPropertyOp3
 70
     1
102
RTVSPropertyOp4
 70
     1
102
RTVSPropertyOp5
 70
     1
102
RTVSPropertyOp6
 70
     1
102
RTVSPropertyOp7
 70
     1
102
RTVSPropertyOp8
 70
     1
102
RTVSPropertyOp9
 70
     1
102
RTVSPropertyOp10
 70
     1
102
RTVSPropertyOp11
 70
     1
102
RTVSPropertyOp12
 70
     1
102
RTVSPropertyOp13
 70
     1
102
RTVSPropertyOp14
 70
     1
102
RTVSPropertyOp15
 70
     1
102
RTVSPropertyOp16
 70
     1
102
RTVSPropertyOp17
 70
     1
102
RTVSPropertyOp18
 70
     1
102
RTVSPropertyOp19
 70
     1
102
RTVSPropertyOp20
 70
     1
102
RTVSPropertyOp21
 70
     1
102
RTVSPropertyOp22
 70
     1
102
RTVSPropertyOp23
 70
     1
102
RTVSPropertyOp24
 70
     1
102
RTVSPropertyOp25
 70
     1
102
RTVSPropertyOp26
 70
     1
102
RTVSPropertyOp27
 70
     1
102
RTVSPropertyOp28
 70
     1
102
RTVSPropertyOp29
 70
     1
102
RTVSPropertyOp30
 70
     1
102
RTVSPropertyOp31
 70
     1
102
RTVSPropertyOp32
 70
     1
102
RTVSPropertyOp33
 70
     1
102
RTVSPropertyOp34
 70
     1
102
RTVSPropertyOp35
 70
     1
102
RTVSPropertyOp36
 70
     1
102
RTVSPropertyOp37
 70
     1
102
RTVSPropertyOp38
 70
     1
102
RTVSPropertyOp39
 70
     1
102
RTVSPropertyOp40
 70
     1
102
RTVSPropertyOp41
 70
     1
102
RTVSPropertyOp42
 70
     1
102
RTVSPropertyOp43
 70
     1
102
RTVSPropertyOp44
 70
     1
102
RTVSPropertyOp45
 70
     1
102
RTVSPropertyOp46
 70
     1
102
RTVSPropertyOp47
 70
     1
102
RTVSPropertyOp48
 70
     1
102
RTVSPropertyOp49
 70
     1
102
RTVSPropertyOp50
 70
     1
102
RTVSPropertyOp51
 70
     0
102
RTVSPropertyOp52
 70
     0
102
RTVSPropertyOp53
 70
     1
102
RTVSPropertyOp54
 70
     1
102
RTVSPropertyOp55
 70
     1
102
RTVSPropertyOp56
 70
     1
102
RTVSPropertyOp57
 70
     1
102
RTVSPropertyOp58
 70
     1
102
RTVSPropertyOp59
 70
     1
102
RTVSPropertyOp60
 70
     1
102
RTVSPropertyOp61
 70
     1
102
RTVSPropertyOp62
 70
     1
  0
XRECORD
  5
197C
102
{ACAD_REACTORS
330
197B
102
}
330
197B
100
AcDbXrecord
280
     1
102
RTVSPost2010Prop28
280
     0
102
RTVSPost2010PropOp28
 70
     1
102
RTVSPost2010Prop29
280
     1
102
RTVSPost2010PropOp29
 70
     1
102
RTVSPost2010Prop30
280
     1
102
RTVSPost2010PropOp30
 70
     1
102
RTVSPost2010Prop31
280
     0
102
RTVSPost2010PropOp31
 70
     1
102
RTVSPost2010Prop32
280
     0
102
RTVSPost2010PropOp32
 70
     1
102
RTVSPost2010Prop33
280
     0
102
RTVSPost2010PropOp33
 70
     1
102
RTVSPost2010Prop34
280
     0
102
RTVSPost2010PropOp34
 70
     1
102
RTVSPost2010Prop35
280
     0
102
RTVSPost2010PropOp35
 70
     1
102
RTVSPost2010Prop36
280
     0
102
RTVSPost2010PropOp36
 70
     1
102
RTVSPost2010Prop37
 90
       50
102
RTVSPost2010PropOp37
 70
     1
102
RTVSPost2010Prop38
140
0.0
102
RTVSPost2010PropOp38
 70
     1
102
RTVSPost2010Prop39
140
1.0
102
RTVSPost2010PropOp39
 70
     1
102
RTVSPost2010Prop40
 90
        0
102
RTVSPost2010PropOp40
 70
     1
102
RTVSPost2010Prop41ColorIndex
 90
       18
102
RTVSPost2010Prop41ColorRGB
 90
        0
102
RTVSPost2010PropOp41
 70
     1
102
RTVSPost2010Prop42
 90
       50
102
RTVSPost2010PropOp42
 70
     1
102
RTVSPost2010Prop43
 90
        3
102
RTVSPost2010PropOp43
 70
     1
102
RTVSPost2010Prop44ColorIndex
 90
        5
102
RTVSPost2010Prop44ColorRGB
 90
      255
102
RTVSPost2010PropOp44
 70
     1
102
RTVSPost2010Prop45
280
     0
102
RTVSPost2010PropOp45
 70
     1
102
RTVSPost2010Prop46
 90
       50
102
RTVSPost2010PropOp46
 70
     1
102
RTVSPost2010Prop47
 90
       50
102
RTVSPost2010PropOp47
 70
     1
102
RTVSPost2010Prop48
 90
       50
102
RTVSPost2010PropOp48
 70
     1
102
RTVSPost2010Prop49
280
     0
102
RTVSPost2010PropOp49
 70
     1
102
RTVSPost2010Prop50
 90
       50
102
RTVSPost2010PropOp50
 70
     1
102
RTVSPost2010Prop51ColorIndex
 90
      256
102
RTVSPost2010Prop51ColorRGB
 90
-16777216
102
RTVSPost2010PropOp51
 70
     0
102
RTVSPost2010Prop52
140
1.0
102
RTVSPost2010PropOp52
 70
     0
102
RTVSPost2010Prop53
 90
        2
102
RTVSPost2010PropOp53
 70
     1
102
RTVSPost2010Prop54
  1
strokes_ogs.tif
102
RTVSPost2010PropOp54
 70
     1
102
RTVSPost2010Prop55
280
     0
102
RTVSPost2010PropOp55
 70
     1
102
RTVSPost2010Prop56
140
1.0
102
RTVSPost2010PropOp56
 70
     1
102
RTVSPost2010Prop57
140
1.0
102
RTVSPost2010PropOp57
 70
     1
102
RTVSPropertyOp0
 70
     1
102
RTVSPropertyOp1
 70
     1
102
RTVSPropertyOp2
 70
     1
102
RTVSPropertyOp3
 70
     1
102
RTVSPropertyOp4
 70
     1
102
RTVSPropertyOp5
 70
     1
102
RTVSPropertyOp6
 70
     1
102
RTVSPropertyOp7
 70
     1
102
RTVSPropertyOp8
 70
     1
102
RTVSPropertyOp9
 70
     1
102
RTVSPropertyOp10
 70
     1
102
RTVSPropertyOp11
 70
     1
102
RTVSPropertyOp12
 70
     1
102
RTVSPropertyOp13
 70
     1
102
RTVSPropertyOp14
 70
     1
102
RTVSPropertyOp15
 70
     1
102
RTVSPropertyOp16
 70
     1
102
RTVSPropertyOp17
 70
     1
102
RTVSPropertyOp18
 70
     1
102
RTVSPropertyOp19
 70
     1
102
RTVSPropertyOp20
 70
     1
102
RTVSPropertyOp21
 70
     1
102
RTVSPropertyOp22
 70
     1
102
RTVSPropertyOp23
 70
     1
102
RTVSPropertyOp24
 70
     1
102
RTVSPropertyOp25
 70
     1
102
RTVSPropertyOp26
 70
     1
102
RTVSPropertyOp27
 70
     1
102
RTVSPropertyOp28
 70
     1
102
RTVSPropertyOp29
 70
     1
102
RTVSPropertyOp30
 70
     1
102
RTVSPropertyOp31
 70
     1
102
RTVSPropertyOp32
 70
     1
102
RTVSPropertyOp33
 70
     1
102
RTVSPropertyOp34
 70
     1
102
RTVSPropertyOp35
 70
     1
102
RTVSPropertyOp36
 70
     1
102
RTVSPropertyOp37
 70
     1
102
RTVSPropertyOp38
 70
     1
102
RTVSPropertyOp39
 70
     1
102
RTVSPropertyOp40
 70
     1
102
RTVSPropertyOp41
 70
     1
102
RTVSPropertyOp42
 70
     1
102
RTVSPropertyOp43
 70
     1
102
RTVSPropertyOp44
 70
     1
102
RTVSPropertyOp45
 70
     1
102
RTVSPropertyOp46
 70
     1
102
RTVSPropertyOp47
 70
     1
102
RTVSPropertyOp48
 70
     1
102
RTVSPropertyOp49
 70
     1
102
RTVSPropertyOp50
 70
     1
102
RTVSPropertyOp51
 70
     0
102
RTVSPropertyOp52
 70
     0
102
RTVSPropertyOp53
 70
     1
102
RTVSPropertyOp54
 70
     1
102
RTVSPropertyOp55
 70
     1
102
RTVSPropertyOp56
 70
     1
102
RTVSPropertyOp57
 70
     1
102
RTVSPropertyOp58
 70
     1
102
RTVSPropertyOp59
 70
     1
102
RTVSPropertyOp60
 70
     1
102
RTVSPropertyOp61
 70
     1
102
RTVSPropertyOp62
 70
     1
  0
XRECORD
  5
197E
102
{ACAD_REACTORS
330
197D
102
}
330
197D
100
AcDbXrecord
280
     1
102
RTVSPost2010Prop28
280
     0
102
RTVSPost2010PropOp28
 70
     1
102
RTVSPost2010Prop29
280
     1
102
RTVSPost2010PropOp29
 70
     1
102
RTVSPost2010Prop30
280
     1
102
RTVSPost2010PropOp30
 70
     1
102
RTVSPost2010Prop31
280
     0
102
RTVSPost2010PropOp31
 70
     1
102
RTVSPost2010Prop32
280
     0
102
RTVSPost2010PropOp32
 70
     1
102
RTVSPost2010Prop33
280
     0
102
RTVSPost2010PropOp33
 70
     1
102
RTVSPost2010Prop34
280
     0
102
RTVSPost2010PropOp34
 70
     1
102
RTVSPost2010Prop35
280
     0
102
RTVSPost2010PropOp35
 70
     1
102
RTVSPost2010Prop36
280
     0
102
RTVSPost2010PropOp36
 70
     1
102
RTVSPost2010Prop37
 90
       50
102
RTVSPost2010PropOp37
 70
     1
102
RTVSPost2010Prop38
140
0.0
102
RTVSPost2010PropOp38
 70
     1
102
RTVSPost2010Prop39
140
1.0
102
RTVSPost2010PropOp39
 70
     1
102
RTVSPost2010Prop40
 90
        0
102
RTVSPost2010PropOp40
 70
     1
102
RTVSPost2010Prop41ColorIndex
 90
       18
102
RTVSPost2010Prop41ColorRGB
 90
        0
102
RTVSPost2010PropOp41
 70
     1
102
RTVSPost2010Prop42
 90
       50
102
RTVSPost2010PropOp42
 70
     1
102
RTVSPost2010Prop43
 90
        3
102
RTVSPost2010PropOp43
 70
     1
102
RTVSPost2010Prop44ColorIndex
 90
        5
102
RTVSPost2010Prop44ColorRGB
 90
      255
102
RTVSPost2010PropOp44
 70
     1
102
RTVSPost2010Prop45
280
     0
102
RTVSPost2010PropOp45
 70
     1
102
RTVSPost2010Prop46
 90
       50
102
RTVSPost2010PropOp46
 70
     1
102
RTVSPost2010Prop47
 90
       50
102
RTVSPost2010PropOp47
 70
     1
102
RTVSPost2010Prop48
 90
       50
102
RTVSPost2010PropOp48
 70
     1
102
RTVSPost2010Prop49
280
     0
102
RTVSPost2010PropOp49
 70
     1
102
RTVSPost2010Prop50
 90
       50
102
RTVSPost2010PropOp50
 70
     1
102
RTVSPost2010Prop51ColorIndex
 90
      256
102
RTVSPost2010Prop51ColorRGB
 90
-16777216
102
RTVSPost2010PropOp51
 70
     0
102
RTVSPost2010Prop52
140
1.0
102
RTVSPost2010PropOp52
 70
     0
102
RTVSPost2010Prop53
 90
        2
102
RTVSPost2010PropOp53
 70
     1
102
RTVSPost2010Prop54
  1
strokes_ogs.tif
102
RTVSPost2010PropOp54
 70
     1
102
RTVSPost2010Prop55
280
     0
102
RTVSPost2010PropOp55
 70
     1
102
RTVSPost2010Prop56
140
1.0
102
RTVSPost2010PropOp56
 70
     1
102
RTVSPost2010Prop57
140
1.0
102
RTVSPost2010PropOp57
 70
     1
102
RTVSPropertyOp0
 70
     1
102
RTVSPropertyOp1
 70
     1
102
RTVSPropertyOp2
 70
     1
102
RTVSPropertyOp3
 70
     1
102
RTVSPropertyOp4
 70
     1
102
RTVSPropertyOp5
 70
     1
102
RTVSPropertyOp6
 70
     1
102
RTVSPropertyOp7
 70
     1
102
RTVSPropertyOp8
 70
     1
102
RTVSPropertyOp9
 70
     1
102
RTVSPropertyOp10
 70
     1
102
RTVSPropertyOp11
 70
     1
102
RTVSPropertyOp12
 70
     1
102
RTVSPropertyOp13
 70
     1
102
RTVSPropertyOp14
 70
     1
102
RTVSPropertyOp15
 70
     1
102
RTVSPropertyOp16
 70
     1
102
RTVSPropertyOp17
 70
     1
102
RTVSPropertyOp18
 70
     1
102
RTVSPropertyOp19
 70
     1
102
RTVSPropertyOp20
 70
     1
102
RTVSPropertyOp21
 70
     1
102
RTVSPropertyOp22
 70
     1
102
RTVSPropertyOp23
 70
     1
102
RTVSPropertyOp24
 70
     1
102
RTVSPropertyOp25
 70
     1
102
RTVSPropertyOp26
 70
     1
102
RTVSPropertyOp27
 70
     1
102
RTVSPropertyOp28
 70
     1
102
RTVSPropertyOp29
 70
     1
102
RTVSPropertyOp30
 70
     1
102
RTVSPropertyOp31
 70
     1
102
RTVSPropertyOp32
 70
     1
102
RTVSPropertyOp33
 70
     1
102
RTVSPropertyOp34
 70
     1
102
RTVSPropertyOp35
 70
     1
102
RTVSPropertyOp36
 70
     1
102
RTVSPropertyOp37
 70
     1
102
RTVSPropertyOp38
 70
     1
102
RTVSPropertyOp39
 70
     1
102
RTVSPropertyOp40
 70
     1
102
RTVSPropertyOp41
 70
     1
102
RTVSPropertyOp42
 70
     1
102
RTVSPropertyOp43
 70
     1
102
RTVSPropertyOp44
 70
     1
102
RTVSPropertyOp45
 70
     1
102
RTVSPropertyOp46
 70
     1
102
RTVSPropertyOp47
 70
     1
102
RTVSPropertyOp48
 70
     1
102
RTVSPropertyOp49
 70
     1
102
RTVSPropertyOp50
 70
     1
102
RTVSPropertyOp51
 70
     0
102
RTVSPropertyOp52
 70
     0
102
RTVSPropertyOp53
 70
     1
102
RTVSPropertyOp54
 70
     1
102
RTVSPropertyOp55
 70
     1
102
RTVSPropertyOp56
 70
     1
102
RTVSPropertyOp57
 70
     1
102
RTVSPropertyOp58
 70
     1
102
RTVSPropertyOp59
 70
     1
102
RTVSPropertyOp60
 70
     1
102
RTVSPropertyOp61
 70
     1
102
RTVSPropertyOp62
 70
     1
  0
XRECORD
  5
1974
102
{ACAD_REACTORS
330
1973
102
}
330
1973
100
AcDbXrecord
280
     1
102
RTVSPost2010Prop28
280
     0
102
RTVSPost2010PropOp28
 70
     1
102
RTVSPost2010Prop29
280
     1
102
RTVSPost2010PropOp29
 70
     1
102
RTVSPost2010Prop30
280
     1
102
RTVSPost2010PropOp30
 70
     1
102
RTVSPost2010Prop31
280
     0
102
RTVSPost2010PropOp31
 70
     1
102
RTVSPost2010Prop32
280
     0
102
RTVSPost2010PropOp32
 70
     1
102
RTVSPost2010Prop33
280
     0
102
RTVSPost2010PropOp33
 70
     1
102
RTVSPost2010Prop34
280
     0
102
RTVSPost2010PropOp34
 70
     1
102
RTVSPost2010Prop35
280
     0
102
RTVSPost2010PropOp35
 70
     1
102
RTVSPost2010Prop36
280
     0
102
RTVSPost2010PropOp36
 70
     1
102
RTVSPost2010Prop37
 90
       50
102
RTVSPost2010PropOp37
 70
     1
102
RTVSPost2010Prop38
140
0.0
102
RTVSPost2010PropOp38
 70
     1
102
RTVSPost2010Prop39
140
1.0
102
RTVSPost2010PropOp39
 70
     1
102
RTVSPost2010Prop40
 90
        0
102
RTVSPost2010PropOp40
 70
     1
102
RTVSPost2010Prop41ColorIndex
 90
       18
102
RTVSPost2010Prop41ColorRGB
 90
        0
102
RTVSPost2010PropOp41
 70
     1
102
RTVSPost2010Prop42
 90
       50
102
RTVSPost2010PropOp42
 70
     1
102
RTVSPost2010Prop43
 90
        3
102
RTVSPost2010PropOp43
 70
     1
102
RTVSPost2010Prop44ColorIndex
 90
        5
102
RTVSPost2010Prop44ColorRGB
 90
      255
102
RTVSPost2010PropOp44
 70
     1
102
RTVSPost2010Prop45
280
     0
102
RTVSPost2010PropOp45
 70
     1
102
RTVSPost2010Prop46
 90
       50
102
RTVSPost2010PropOp46
 70
     1
102
RTVSPost2010Prop47
 90
       50
102
RTVSPost2010PropOp47
 70
     1
102
RTVSPost2010Prop48
 90
       50
102
RTVSPost2010PropOp48
 70
     1
102
RTVSPost2010Prop49
280
     0
102
RTVSPost2010PropOp49
 70
     1
102
RTVSPost2010Prop50
 90
       50
102
RTVSPost2010PropOp50
 70
     1
102
RTVSPost2010Prop51ColorIndex
 90
      256
102
RTVSPost2010Prop51ColorRGB
 90
-16777216
102
RTVSPost2010PropOp51
 70
     0
102
RTVSPost2010Prop52
140
1.0
102
RTVSPost2010PropOp52
 70
     0
102
RTVSPost2010Prop53
 90
        2
102
RTVSPost2010PropOp53
 70
     1
102
RTVSPost2010Prop54
  1
strokes_ogs.tif
102
RTVSPost2010PropOp54
 70
     1
102
RTVSPost2010Prop55
280
     0
102
RTVSPost2010PropOp55
 70
     1
102
RTVSPost2010Prop56
140
1.0
102
RTVSPost2010PropOp56
 70
     1
102
RTVSPost2010Prop57
140
1.0
102
RTVSPost2010PropOp57
 70
     1
102
RTVSPropertyOp0
 70
     1
102
RTVSPropertyOp1
 70
     1
102
RTVSPropertyOp2
 70
     1
102
RTVSPropertyOp3
 70
     1
102
RTVSPropertyOp4
 70
     1
102
RTVSPropertyOp5
 70
     1
102
RTVSPropertyOp6
 70
     1
102
RTVSPropertyOp7
 70
     1
102
RTVSPropertyOp8
 70
     1
102
RTVSPropertyOp9
 70
     1
102
RTVSPropertyOp10
 70
     1
102
RTVSPropertyOp11
 70
     1
102
RTVSPropertyOp12
 70
     1
102
RTVSPropertyOp13
 70
     1
102
RTVSPropertyOp14
 70
     1
102
RTVSPropertyOp15
 70
     1
102
RTVSPropertyOp16
 70
     1
102
RTVSPropertyOp17
 70
     1
102
RTVSPropertyOp18
 70
     1
102
RTVSPropertyOp19
 70
     1
102
RTVSPropertyOp20
 70
     1
102
RTVSPropertyOp21
 70
     1
102
RTVSPropertyOp22
 70
     1
102
RTVSPropertyOp23
 70
     1
102
RTVSPropertyOp24
 70
     1
102
RTVSPropertyOp25
 70
     1
102
RTVSPropertyOp26
 70
     1
102
RTVSPropertyOp27
 70
     1
102
RTVSPropertyOp28
 70
     1
102
RTVSPropertyOp29
 70
     1
102
RTVSPropertyOp30
 70
     1
102
RTVSPropertyOp31
 70
     1
102
RTVSPropertyOp32
 70
     1
102
RTVSPropertyOp33
 70
     1
102
RTVSPropertyOp34
 70
     1
102
RTVSPropertyOp35
 70
     1
102
RTVSPropertyOp36
 70
     1
102
RTVSPropertyOp37
 70
     1
102
RTVSPropertyOp38
 70
     1
102
RTVSPropertyOp39
 70
     1
102
RTVSPropertyOp40
 70
     1
102
RTVSPropertyOp41
 70
     1
102
RTVSPropertyOp42
 70
     1
102
RTVSPropertyOp43
 70
     1
102
RTVSPropertyOp44
 70
     1
102
RTVSPropertyOp45
 70
     1
102
RTVSPropertyOp46
 70
     1
102
RTVSPropertyOp47
 70
     1
102
RTVSPropertyOp48
 70
     1
102
RTVSPropertyOp49
 70
     1
102
RTVSPropertyOp50
 70
     1
102
RTVSPropertyOp51
 70
     0
102
RTVSPropertyOp52
 70
     0
102
RTVSPropertyOp53
 70
     1
102
RTVSPropertyOp54
 70
     1
102
RTVSPropertyOp55
 70
     1
102
RTVSPropertyOp56
 70
     1
102
RTVSPropertyOp57
 70
     1
102
RTVSPropertyOp58
 70
     1
102
RTVSPropertyOp59
 70
     1
102
RTVSPropertyOp60
 70
     1
102
RTVSPropertyOp61
 70
     1
102
RTVSPropertyOp62
 70
     1
  0
XRECORD
  5
1968
102
{ACAD_REACTORS
330
1967
102
}
330
1967
100
AcDbXrecord
280
     1
102
RTVSPost2010Prop28
280
     0
102
RTVSPost2010PropOp28
 70
     1
102
RTVSPost2010Prop29
280
     1
102
RTVSPost2010PropOp29
 70
     1
102
RTVSPost2010Prop30
280
     1
102
RTVSPost2010PropOp30
 70
     1
102
RTVSPost2010Prop31
280
     0
102
RTVSPost2010PropOp31
 70
     1
102
RTVSPost2010Prop32
280
     0
102
RTVSPost2010PropOp32
 70
     1
102
RTVSPost2010Prop33
280
     0
102
RTVSPost2010PropOp33
 70
     1
102
RTVSPost2010Prop34
280
     0
102
RTVSPost2010PropOp34
 70
     1
102
RTVSPost2010Prop35
280
     0
102
RTVSPost2010PropOp35
 70
     1
102
RTVSPost2010Prop36
280
     0
102
RTVSPost2010PropOp36
 70
     1
102
RTVSPost2010Prop37
 90
       50
102
RTVSPost2010PropOp37
 70
     1
102
RTVSPost2010Prop38
140
0.0
102
RTVSPost2010PropOp38
 70
     1
102
RTVSPost2010Prop39
140
1.0
102
RTVSPost2010PropOp39
 70
     1
102
RTVSPost2010Prop40
 90
        0
102
RTVSPost2010PropOp40
 70
     1
102
RTVSPost2010Prop41ColorIndex
 90
       18
102
RTVSPost2010Prop41ColorRGB
 90
        0
102
RTVSPost2010PropOp41
 70
     1
102
RTVSPost2010Prop42
 90
       50
102
RTVSPost2010PropOp42
 70
     1
102
RTVSPost2010Prop43
 90
        3
102
RTVSPost2010PropOp43
 70
     1
102
RTVSPost2010Prop44ColorIndex
 90
        5
102
RTVSPost2010Prop44ColorRGB
 90
      255
102
RTVSPost2010PropOp44
 70
     1
102
RTVSPost2010Prop45
280
     0
102
RTVSPost2010PropOp45
 70
     1
102
RTVSPost2010Prop46
 90
       50
102
RTVSPost2010PropOp46
 70
     1
102
RTVSPost2010Prop47
 90
       50
102
RTVSPost2010PropOp47
 70
     1
102
RTVSPost2010Prop48
 90
       50
102
RTVSPost2010PropOp48
 70
     1
102
RTVSPost2010Prop49
280
     0
102
RTVSPost2010PropOp49
 70
     1
102
RTVSPost2010Prop50
 90
       50
102
RTVSPost2010PropOp50
 70
     1
102
RTVSPost2010Prop51ColorIndex
 90
      256
102
RTVSPost2010Prop51ColorRGB
 90
-16777216
102
RTVSPost2010PropOp51
 70
     0
102
RTVSPost2010Prop52
140
1.0
102
RTVSPost2010PropOp52
 70
     0
102
RTVSPost2010Prop53
 90
        2
102
RTVSPost2010PropOp53
 70
     1
102
RTVSPost2010Prop54
  1
strokes_ogs.tif
102
RTVSPost2010PropOp54
 70
     1
102
RTVSPost2010Prop55
280
     0
102
RTVSPost2010PropOp55
 70
     1
102
RTVSPost2010Prop56
140
1.0
102
RTVSPost2010PropOp56
 70
     1
102
RTVSPost2010Prop57
140
1.0
102
RTVSPost2010PropOp57
 70
     1
102
RTVSPropertyOp0
 70
     1
102
RTVSPropertyOp1
 70
     1
102
RTVSPropertyOp2
 70
     1
102
RTVSPropertyOp3
 70
     1
102
RTVSPropertyOp4
 70
     1
102
RTVSPropertyOp5
 70
     1
102
RTVSPropertyOp6
 70
     1
102
RTVSPropertyOp7
 70
     1
102
RTVSPropertyOp8
 70
     1
102
RTVSPropertyOp9
 70
     1
102
RTVSPropertyOp10
 70
     1
102
RTVSPropertyOp11
 70
     1
102
RTVSPropertyOp12
 70
     1
102
RTVSPropertyOp13
 70
     1
102
RTVSPropertyOp14
 70
     1
102
RTVSPropertyOp15
 70
     1
102
RTVSPropertyOp16
 70
     1
102
RTVSPropertyOp17
 70
     1
102
RTVSPropertyOp18
 70
     1
102
RTVSPropertyOp19
 70
     1
102
RTVSPropertyOp20
 70
     1
102
RTVSPropertyOp21
 70
     1
102
RTVSPropertyOp22
 70
     1
102
RTVSPropertyOp23
 70
     1
102
RTVSPropertyOp24
 70
     1
102
RTVSPropertyOp25
 70
     1
102
RTVSPropertyOp26
 70
     1
102
RTVSPropertyOp27
 70
     1
102
RTVSPropertyOp28
 70
     1
102
RTVSPropertyOp29
 70
     1
102
RTVSPropertyOp30
 70
     1
102
RTVSPropertyOp31
 70
     1
102
RTVSPropertyOp32
 70
     1
102
RTVSPropertyOp33
 70
     1
102
RTVSPropertyOp34
 70
     1
102
RTVSPropertyOp35
 70
     1
102
RTVSPropertyOp36
 70
     1
102
RTVSPropertyOp37
 70
     1
102
RTVSPropertyOp38
 70
     1
102
RTVSPropertyOp39
 70
     1
102
RTVSPropertyOp40
 70
     1
102
RTVSPropertyOp41
 70
     1
102
RTVSPropertyOp42
 70
     1
102
RTVSPropertyOp43
 70
     1
102
RTVSPropertyOp44
 70
     1
102
RTVSPropertyOp45
 70
     1
102
RTVSPropertyOp46
 70
     1
102
RTVSPropertyOp47
 70
     1
102
RTVSPropertyOp48
 70
     1
102
RTVSPropertyOp49
 70
     1
102
RTVSPropertyOp50
 70
     1
102
RTVSPropertyOp51
 70
     0
102
RTVSPropertyOp52
 70
     0
102
RTVSPropertyOp53
 70
     1
102
RTVSPropertyOp54
 70
     1
102
RTVSPropertyOp55
 70
     1
102
RTVSPropertyOp56
 70
     1
102
RTVSPropertyOp57
 70
     1
102
RTVSPropertyOp58
 70
     1
102
RTVSPropertyOp59
 70
     1
102
RTVSPropertyOp60
 70
     1
102
RTVSPropertyOp61
 70
     1
102
RTVSPropertyOp62
 70
     1
  0
XRECORD
  5
1980
102
{ACAD_REACTORS
330
197F
102
}
330
197F
100
AcDbXrecord
280
     1
102
RTVSPost2010Prop28
280
     0
102
RTVSPost2010PropOp28
 70
     1
102
RTVSPost2010Prop29
280
     1
102
RTVSPost2010PropOp29
 70
     1
102
RTVSPost2010Prop30
280
     1
102
RTVSPost2010PropOp30
 70
     1
102
RTVSPost2010Prop31
280
     0
102
RTVSPost2010PropOp31
 70
     1
102
RTVSPost2010Prop32
280
     0
102
RTVSPost2010PropOp32
 70
     1
102
RTVSPost2010Prop33
280
     0
102
RTVSPost2010PropOp33
 70
     1
102
RTVSPost2010Prop34
280
     0
102
RTVSPost2010PropOp34
 70
     1
102
RTVSPost2010Prop35
280
     0
102
RTVSPost2010PropOp35
 70
     1
102
RTVSPost2010Prop36
280
     0
102
RTVSPost2010PropOp36
 70
     1
102
RTVSPost2010Prop37
 90
       50
102
RTVSPost2010PropOp37
 70
     1
102
RTVSPost2010Prop38
140
0.0
102
RTVSPost2010PropOp38
 70
     1
102
RTVSPost2010Prop39
140
1.0
102
RTVSPost2010PropOp39
 70
     1
102
RTVSPost2010Prop40
 90
        0
102
RTVSPost2010PropOp40
 70
     1
102
RTVSPost2010Prop41ColorIndex
 90
       18
102
RTVSPost2010Prop41ColorRGB
 90
        0
102
RTVSPost2010PropOp41
 70
     1
102
RTVSPost2010Prop42
 90
       50
102
RTVSPost2010PropOp42
 70
     1
102
RTVSPost2010Prop43
 90
        3
102
RTVSPost2010PropOp43
 70
     1
102
RTVSPost2010Prop44ColorIndex
 90
        5
102
RTVSPost2010Prop44ColorRGB
 90
      255
102
RTVSPost2010PropOp44
 70
     1
102
RTVSPost2010Prop45
280
     0
102
RTVSPost2010PropOp45
 70
     1
102
RTVSPost2010Prop46
 90
       50
102
RTVSPost2010PropOp46
 70
     1
102
RTVSPost2010Prop47
 90
       50
102
RTVSPost2010PropOp47
 70
     1
102
RTVSPost2010Prop48
 90
       50
102
RTVSPost2010PropOp48
 70
     1
102
RTVSPost2010Prop49
280
     0
102
RTVSPost2010PropOp49
 70
     1
102
RTVSPost2010Prop50
 90
       50
102
RTVSPost2010PropOp50
 70
     1
102
RTVSPost2010Prop51ColorIndex
 90
      256
102
RTVSPost2010Prop51ColorRGB
 90
-16777216
102
RTVSPost2010PropOp51
 70
     0
102
RTVSPost2010Prop52
140
1.0
102
RTVSPost2010PropOp52
 70
     0
102
RTVSPost2010Prop53
 90
        2
102
RTVSPost2010PropOp53
 70
     1
102
RTVSPost2010Prop54
  1
strokes_ogs.tif
102
RTVSPost2010PropOp54
 70
     1
102
RTVSPost2010Prop55
280
     0
102
RTVSPost2010PropOp55
 70
     1
102
RTVSPost2010Prop56
140
1.0
102
RTVSPost2010PropOp56
 70
     1
102
RTVSPost2010Prop57
140
1.0
102
RTVSPost2010PropOp57
 70
     1
102
RTVSPropertyOp0
 70
     1
102
RTVSPropertyOp1
 70
     1
102
RTVSPropertyOp2
 70
     1
102
RTVSPropertyOp3
 70
     1
102
RTVSPropertyOp4
 70
     1
102
RTVSPropertyOp5
 70
     1
102
RTVSPropertyOp6
 70
     1
102
RTVSPropertyOp7
 70
     1
102
RTVSPropertyOp8
 70
     1
102
RTVSPropertyOp9
 70
     1
102
RTVSPropertyOp10
 70
     1
102
RTVSPropertyOp11
 70
     1
102
RTVSPropertyOp12
 70
     1
102
RTVSPropertyOp13
 70
     1
102
RTVSPropertyOp14
 70
     1
102
RTVSPropertyOp15
 70
     1
102
RTVSPropertyOp16
 70
     1
102
RTVSPropertyOp17
 70
     1
102
RTVSPropertyOp18
 70
     1
102
RTVSPropertyOp19
 70
     1
102
RTVSPropertyOp20
 70
     1
102
RTVSPropertyOp21
 70
     1
102
RTVSPropertyOp22
 70
     1
102
RTVSPropertyOp23
 70
     1
102
RTVSPropertyOp24
 70
     1
102
RTVSPropertyOp25
 70
     1
102
RTVSPropertyOp26
 70
     1
102
RTVSPropertyOp27
 70
     1
102
RTVSPropertyOp28
 70
     1
102
RTVSPropertyOp29
 70
     1
102
RTVSPropertyOp30
 70
     1
102
RTVSPropertyOp31
 70
     1
102
RTVSPropertyOp32
 70
     1
102
RTVSPropertyOp33
 70
     1
102
RTVSPropertyOp34
 70
     1
102
RTVSPropertyOp35
 70
     1
102
RTVSPropertyOp36
 70
     1
102
RTVSPropertyOp37
 70
     1
102
RTVSPropertyOp38
 70
     1
102
RTVSPropertyOp39
 70
     1
102
RTVSPropertyOp40
 70
     1
102
RTVSPropertyOp41
 70
     1
102
RTVSPropertyOp42
 70
     1
102
RTVSPropertyOp43
 70
     1
102
RTVSPropertyOp44
 70
     1
102
RTVSPropertyOp45
 70
     1
102
RTVSPropertyOp46
 70
     1
102
RTVSPropertyOp47
 70
     1
102
RTVSPropertyOp48
 70
     1
102
RTVSPropertyOp49
 70
     1
102
RTVSPropertyOp50
 70
     1
102
RTVSPropertyOp51
 70
     0
102
RTVSPropertyOp52
 70
     0
102
RTVSPropertyOp53
 70
     1
102
RTVSPropertyOp54
 70
     1
102
RTVSPropertyOp55
 70
     1
102
RTVSPropertyOp56
 70
     1
102
RTVSPropertyOp57
 70
     1
102
RTVSPropertyOp58
 70
     1
102
RTVSPropertyOp59
 70
     1
102
RTVSPropertyOp60
 70
     1
102
RTVSPropertyOp61
 70
     1
102
RTVSPropertyOp62
 70
     1
  0
ENDSEC
  0
EOF
