  0
SECTION
  2
HEADER
  9
$ACADVER
  1
AC1018
  9
$ACADMAINTVER
 70
   104
  9
$DWGCODEPAGE
  3
ANSI_1252
  9
$LASTSAVEDBY
  1
francoisbu
  9
$INSBASE
 10
0.0
 20
0.0
 30
0.0
  9
$EXTMIN
 10
97.25195366039793
 20
17.21077503280239
 30
-0.0015258207003583
  9
$EXTMAX
 10
133.2635094807978
 20
48.29150409904901
 30
0.0000000349246037
  9
$LIMMIN
 10
0.0
 20
0.0
  9
$LIMMAX
 10
181.3333333333
 20
117.3333333333
  9
$ORTHOMODE
 70
     0
  9
$REGENMODE
 70
     1
  9
$FILLMODE
 70
     1
  9
$QTEXTMODE
 70
     0
  9
$MIRRTEXT
 70
     0
  9
$LTSCALE
 40
9.973333333300001
  9
$ATTMODE
 70
     1
  9
$TEXTSIZE
 40
0.2
  9
$TRACEWID
 40
0.05
  9
$TEXTSTYLE
  7
STANDARD
  9
$CLAYER
  8
0
  9
$CELTYPE
  6
BYLAYER
  9
$CECOLOR
 62
   256
  9
$CELTSCALE
 40
1.0
  9
$DISPSILH
 70
     0
  9
$DIMSCALE
 40
1.0
  9
$DIMASZ
 40
2.0
  9
$DIMEXO
 40
0.0625
  9
$DIMDLI
 40
6.890666666699999
  9
$DIMRND
 40
0.0
  9
$DIMDLE
 40
0.0
  9
$DIMEXE
 40
0.125
  9
$DIMTP
 40
0.00001
  9
$DIMTM
 40
0.00001
  9
$DIMTXT
 40
1.333333333299999
  9
$DIMCEN
 40
1.631999999999999
  9
$DIMTSZ
 40
0.0
  9
$DIMTOL
 70
     1
  9
$DIMLIM
 70
     0
  9
$DIMTIH
 70
     1
  9
$DIMTOH
 70
     1
  9
$DIMSE1
 70
     0
  9
$DIMSE2
 70
     0
  9
$DIMTAD
 70
     0
  9
$DIMZIN
 70
     0
  9
$DIMBLK
  1
_FILLED
  9
$DIMASO
 70
     1
  9
$DIMSHO
 70
     1
  9
$DIMPOST
  1

  9
$DIMAPOST
  1

  9
$DIMALT
 70
     0
  9
$DIMALTD
 70
     2
  9
$DIMALTF
 40
25.4
  9
$DIMLFAC
 40
1.0
  9
$DIMTOFL
 70
     0
  9
$DIMTVP
 40
0.0
  9
$DIMTIX
 70
     0
  9
$DIMSOXD
 70
     0
  9
$DIMSAH
 70
     0
  9
$DIMBLK1
  1

  9
$DIMBLK2
  1

  9
$DIMSTYLE
  2
STANDARD
  9
$DIMCLRD
 70
     0
  9
$DIMCLRE
 70
     0
  9
$DIMCLRT
 70
     0
  9
$DIMTFAC
 40
1.0
  9
$DIMGAP
 40
0.09
  9
$DIMJUST
 70
     0
  9
$DIMSD1
 70
     0
  9
$DIMSD2
 70
     0
  9
$DIMTOLJ
 70
     1
  9
$DIMTZIN
 70
     0
  9
$DIMALTZ
 70
     0
  9
$DIMALTTZ
 70
     0
  9
$DIMUPT
 70
     0
  9
$DIMDEC
 70
     4
  9
$DIMTDEC
 70
     4
  9
$DIMALTU
 70
     2
  9
$DIMALTTD
 70
     2
  9
$DIMTXSTY
  7
STANDARD
  9
$DIMAUNIT
 70
     0
  9
$DIMADEC
 70
     0
  9
$DIMALTRND
 40
0.0
  9
$DIMAZIN
 70
     0
  9
$DIMDSEP
 70
    46
  9
$DIMATFIT
 70
     3
  9
$DIMFRAC
 70
     0
  9
$DIMLDRBLK
  1

  9
$DIMLUNIT
 70
     2
  9
$DIMLWD
 70
    -2
  9
$DIMLWE
 70
    -2
  9
$DIMTMOVE
 70
     0
  9
$LUNITS
 70
     2
  9
$LUPREC
 70
     4
  9
$SKETCHINC
 40
0.1
  9
$FILLETRAD
 40
0.0
  9
$AUNITS
 70
     0
  9
$AUPREC
 70
     0
  9
$MENU
  1
.
  9
$ELEVATION
 40
0.0
  9
$PELEVATION
 40
0.0
  9
$THICKNESS
 40
0.0
  9
$LIMCHECK
 70
     0
  9
$CHAMFERA
 40
0.0
  9
$CHAMFERB
 40
0.0
  9
$CHAMFERC
 40
0.0
  9
$CHAMFERD
 40
0.0
  9
$SKPOLY
 70
     0
  9
$TDCREATE
 40
2457281.497215289
  9
$TDUCREATE
 40
2457281.663881957
  9
$TDUPDATE
 40
2457281.546931146
  9
$TDUUPDATE
 40
2457281.713597813
  9
$TDINDWG
 40
0.0006934028
  9
$TDUSRTIMER
 40
0.0006934028
  9
$USRTIMER
 70
     1
  9
$ANGBASE
 50
0.0
  9
$ANGDIR
 70
     0
  9
$PDMODE
 70
     3
  9
$PDSIZE
 40
0.03125
  9
$PLINEWID
 40
0.0
  9
$SPLFRAME
 70
     0
  9
$SPLINETYPE
 70
     6
  9
$SPLINESEGS
 70
     8
  9
$HANDSEED
  5
167A
  9
$SURFTAB1
 70
     6
  9
$SURFTAB2
 70
     6
  9
$SURFTYPE
 70
     6
  9
$SURFU
 70
     6
  9
$SURFV
 70
     6
  9
$UCSBASE
  2

  9
$UCSNAME
  2

  9
$UCSORG
 10
0.0
 20
0.0
 30
0.0
  9
$UCSXDIR
 10
1.0
 20
0.0
 30
0.0
  9
$UCSYDIR
 10
0.0
 20
1.0
 30
0.0
  9
$UCSORTHOREF
  2

  9
$UCSORTHOVIEW
 70
     0
  9
$UCSORGTOP
 10
0.0
 20
0.0
 30
0.0
  9
$UCSORGBOTTOM
 10
0.0
 20
0.0
 30
0.0
  9
$UCSORGLEFT
 10
0.0
 20
0.0
 30
0.0
  9
$UCSORGRIGHT
 10
0.0
 20
0.0
 30
0.0
  9
$UCSORGFRONT
 10
0.0
 20
0.0
 30
0.0
  9
$UCSORGBACK
 10
0.0
 20
0.0
 30
0.0
  9
$PUCSBASE
  2

  9
$PUCSNAME
  2

  9
$PUCSORG
 10
0.0
 20
0.0
 30
0.0
  9
$PUCSXDIR
 10
1.0
 20
0.0
 30
0.0
  9
$PUCSYDIR
 10
0.0
 20
1.0
 30
0.0
  9
$PUCSORTHOREF
  2

  9
$PUCSORTHOVIEW
 70
     0
  9
$PUCSORGTOP
 10
0.0
 20
0.0
 30
0.0
  9
$PUCSORGBOTTOM
 10
0.0
 20
0.0
 30
0.0
  9
$PUCSORGLEFT
 10
0.0
 20
0.0
 30
0.0
  9
$PUCSORGRIGHT
 10
0.0
 20
0.0
 30
0.0
  9
$PUCSORGFRONT
 10
0.0
 20
0.0
 30
0.0
  9
$PUCSORGBACK
 10
0.0
 20
0.0
 30
0.0
  9
$USERI1
 70
     0
  9
$USERI2
 70
     0
  9
$USERI3
 70
     0
  9
$USERI4
 70
     0
  9
$USERI5
 70
     0
  9
$USERR1
 40
0.0
  9
$USERR2
 40
0.0
  9
$USERR3
 40
0.0
  9
$USERR4
 40
0.0
  9
$USERR5
 40
0.0
  9
$WORLDVIEW
 70
     1
  9
$SHADEDGE
 70
     3
  9
$SHADEDIF
 70
    70
  9
$TILEMODE
 70
     1
  9
$MAXACTVP
 70
    64
  9
$PINSBASE
 10
0.0
 20
0.0
 30
0.0
  9
$PLIMCHECK
 70
     0
  9
$PEXTMIN
 10
1.000000000000000E+20
 20
1.000000000000000E+20
 30
1.000000000000000E+20
  9
$PEXTMAX
 10
-1.000000000000000E+20
 20
-1.000000000000000E+20
 30
-1.000000000000000E+20
  9
$PLIMMIN
 10
0.0
 20
0.0
  9
$PLIMMAX
 10
12.0
 20
9.0
  9
$UNITMODE
 70
     0
  9
$VISRETAIN
 70
     1
  9
$PLINEGEN
 70
     0
  9
$PSLTSCALE
 70
     1
  9
$TREEDEPTH
 70
  3020
  9
$CMLSTYLE
  2
Standard
  9
$CMLJUST
 70
     0
  9
$CMLSCALE
 40
1.0
  9
$PROXYGRAPHICS
 70
     1
  9
$MEASUREMENT
 70
     0
  9
$CELWEIGHT
370
    -1
  9
$ENDCAPS
280
     0
  9
$JOINSTYLE
280
     0
  9
$LWDISPLAY
290
     0
  9
$INSUNITS
 70
     1
  9
$HYPERLINKBASE
  1

  9
$STYLESHEET
  1

  9
$XEDIT
290
     1
  9
$CEPSNTYPE
380
     0
  9
$PSTYLEMODE
290
     1
  9
$FINGERPRINTGUID
  2
{768F07B8-940F-4A16-9BD1-D0F14C2C9E7B}
  9
$VERSIONGUID
  2
{5D2457B9-6FA4-461B-896B-F7FB0F6E2537}
  9
$EXTNAMES
290
     1
  9
$PSVPSCALE
 40
0.0
  9
$OLESTARTUP
290
     0
  9
$SORTENTS
280
   127
  9
$INDEXCTL
280
     0
  9
$HIDETEXT
280
     0
  9
$XCLIPFRAME
290
     0
  9
$HALOGAP
280
     0
  9
$OBSCOLOR
 70
   257
  9
$OBSLTYPE
280
     0
  9
$INTERSECTIONDISPLAY
280
     0
  9
$INTERSECTIONCOLOR
 70
   257
  9
$DIMASSOC
280
     1
  9
$PROJECTNAME
  1

  0
ENDSEC
  0
SECTION
  2
CLASSES
  0
CLASS
  1
ACDBDICTIONARYWDFLT
  2
AcDbDictionaryWithDefault
  3
ObjectDBX Classes
 90
        0
 91
        1
280
     0
281
     0
  0
CLASS
  1
ACDBPLACEHOLDER
  2
AcDbPlaceHolder
  3
ObjectDBX Classes
 90
        0
 91
        1
280
     0
281
     0
  0
CLASS
  1
LAYOUT
  2
AcDbLayout
  3
ObjectDBX Classes
 90
        0
 91
        2
280
     0
281
     0
  0
CLASS
  1
MATERIAL
  2
AcDbMaterial
  3
ObjectDBX Classes
 90
     1153
 91
        3
280
     0
281
     0
  0
CLASS
  1
VISUALSTYLE
  2
AcDbVisualStyle
  3
ObjectDBX Classes
 90
     4095
 91
       26
280
     0
281
     0
  0
CLASS
  1
TABLESTYLE
  2
AcDbTableStyle
  3
ObjectDBX Classes
 90
     4095
 91
        1
280
     0
281
     0
  0
CLASS
  1
SCALE
  2
AcDbScale
  3
ObjectDBX Classes
 90
     1153
 91
       17
280
     0
281
     0
  0
CLASS
  1
MLEADERSTYLE
  2
AcDbMLeaderStyle
  3
ACDB_MLEADERSTYLE_CLASS
 90
     4095
 91
        1
280
     0
281
     0
  0
CLASS
  1
ACDBSECTIONVIEWSTYLE
  2
AcDbSectionViewStyle
  3
ObjectDBX Classes
 90
     1025
 91
        1
280
     0
281
     0
  0
CLASS
  1
ACDBDETAILVIEWSTYLE
  2
AcDbDetailViewStyle
  3
ObjectDBX Classes
 90
     1025
 91
        1
280
     0
281
     0
  0
CLASS
  1
CELLSTYLEMAP
  2
AcDbCellStyleMap
  3
ObjectDBX Classes
 90
     1152
 91
        3
280
     0
281
     0
  0
CLASS
  1
DICTIONARYVAR
  2
AcDbDictionaryVar
  3
ObjectDBX Classes
 90
        0
 91
        9
280
     0
281
     0
  0
ENDSEC
  0
SECTION
  2
TABLES
  0
TABLE
  2
VPORT
  5
8
102
{ACAD_XDICTIONARY
360
15F6
102
}
330
0
100
AcDbSymbolTable
 70
     1
  0
VPORT
  5
1F4
330
8
100
AcDbSymbolTableRecord
100
AcDbViewportTableRecord
  2
*ACTIVE
 70
     0
 10
0.0
 20
0.0
 11
1.0
 21
1.0
 12
115.2577315705978
 22
32.7511395659257
 13
0.0
 23
0.0
 14
1.0
 24
1.0
 15
0.0
 25
0.0
 16
0.0
 26
0.0
 36
1.0
 17
0.0
 27
0.0
 37
0.0
 40
31.31209925780677
 41
1.765217391304347
 42
50.0
 43
0.0
 44
0.0
 50
0.0
 51
0.0
 71
     0
 72
   100
 73
     1
 74
     1
 75
     0
 76
     0
 77
     0
 78
     0
281
     0
 65
     1
110
0.0
120
0.0
130
0.0
111
1.0
121
0.0
131
0.0
112
0.0
122
1.0
132
0.0
 79
     0
146
0.0
  0
ENDTAB
  0
TABLE
  2
LTYPE
  5
5
330
0
100
AcDbSymbolTable
 70
     7
  0
LTYPE
  5
14
330
5
100
AcDbSymbolTableRecord
100
AcDbLinetypeTableRecord
  2
BYBLOCK
 70
     0
  3

 72
    65
 73
     0
 40
0.0
  0
LTYPE
  5
15
330
5
100
AcDbSymbolTableRecord
100
AcDbLinetypeTableRecord
  2
BYLAYER
 70
     0
  3

 72
    65
 73
     0
 40
0.0
  0
LTYPE
  5
16
330
5
100
AcDbSymbolTableRecord
100
AcDbLinetypeTableRecord
  2
CONTINUOUS
 70
     0
  3
Solid line
 72
    65
 73
     0
 40
0.0
  0
LTYPE
  5
1F5
330
5
100
AcDbSymbolTableRecord
100
AcDbLinetypeTableRecord
  2
CENTER
 70
     0
  3
____ _ ____ _ ____ _ ____ _ ____ _ ____ _ ____
 72
    65
 73
     4
 40
0.6
 49
0.375
 74
     0
 49
-0.075
 74
     0
 49
0.075
 74
     0
 49
-0.075
 74
     0
  0
LTYPE
  5
1F6
330
5
100
AcDbSymbolTableRecord
100
AcDbLinetypeTableRecord
  2
HIDDEN
 70
     0
  3
- - - - - - - - - - - - - - - - - - - -
 72
    65
 73
     2
 40
0.2
 49
0.1
 74
     0
 49
-0.1
 74
     0
  0
LTYPE
  5
1F7
330
5
100
AcDbSymbolTableRecord
100
AcDbLinetypeTableRecord
  2
PHANTOM
 70
     0
  3
_____ _ _ _____ _ _ _____ _ _ _____
 72
    65
 73
     6
 40
0.8
 49
0.45
 74
     0
 49
-0.05
 74
     0
 49
0.1
 74
     0
 49
-0.05
 74
     0
 49
0.1
 74
     0
 49
-0.05
 74
     0
  0
LTYPE
  5
1F8
330
5
100
AcDbSymbolTableRecord
100
AcDbLinetypeTableRecord
  2
DOT
 70
     0
  3
. . . . . . . . . . . . . . . . . . . .
 72
    65
 73
     2
 40
0.2
 49
0.1
 74
     0
 49
-0.1
 74
     0
  0
LTYPE
  5
1F9
330
5
100
AcDbSymbolTableRecord
100
AcDbLinetypeTableRecord
  2
DASHED
 70
     0
  3
- - - - - - - - - - - - - - - - - - - -
 72
    65
 73
     2
 40
0.2
 49
0.1
 74
     0
 49
-0.1
 74
     0
  0
LTYPE
  5
15EF
330
5
100
AcDbSymbolTableRecord
100
AcDbLinetypeTableRecord
  2
PHANTOM2
 70
     0
  3
___ _ _ ___ _ _ ___ _ _ ___ _ _
 72
    65
 73
     6
 40
1.25
 49
0.625
 74
     0
 49
-0.125
 74
     0
 49
0.125
 74
     0
 49
-0.125
 74
     0
 49
0.125
 74
     0
 49
-0.125
 74
     0
  0
ENDTAB
  0
TABLE
  2
LAYER
  5
2
330
0
100
AcDbSymbolTable
 70
    21
  0
LAYER
  5
10
102
{ACAD_XDICTIONARY
360
1645
102
}
330
2
100
AcDbSymbolTableRecord
100
AcDbLayerTableRecord
  2
0
 70
     0
 62
     7
  6
CONTINUOUS
370
    -3
390
F
  0
LAYER
  5
1FA
102
{ACAD_XDICTIONARY
360
1647
102
}
330
2
100
AcDbSymbolTableRecord
100
AcDbLayerTableRecord
  2
DEFAULT_1
 70
     0
 62
     7
  6
CENTER
370
    -3
390
F
  0
LAYER
  5
1FB
102
{ACAD_XDICTIONARY
360
1649
102
}
330
2
100
AcDbSymbolTableRecord
100
AcDbLayerTableRecord
  2
DEFAULT_2
 70
     0
 62
     7
  6
HIDDEN
370
    -3
390
F
  0
LAYER
  5
1FC
102
{ACAD_XDICTIONARY
360
164B
102
}
330
2
100
AcDbSymbolTableRecord
100
AcDbLayerTableRecord
  2
DEFAULT_3
 70
     0
 62
     7
  6
PHANTOM
370
    -3
390
F
  0
LAYER
  5
1FD
102
{ACAD_XDICTIONARY
360
164D
102
}
330
2
100
AcDbSymbolTableRecord
100
AcDbLayerTableRecord
  2
1_CURVES
 70
     0
 62
     7
  6
CONTINUOUS
370
    -3
390
F
  0
LAYER
  5
1FE
102
{ACAD_XDICTIONARY
360
164F
102
}
330
2
100
AcDbSymbolTableRecord
100
AcDbLayerTableRecord
  2
1_CURVES_DOT
 70
     0
 62
     7
  6
CONTINUOUS
370
    -3
390
F
  0
LAYER
  5
1FF
102
{ACAD_XDICTIONARY
360
1651
102
}
330
2
100
AcDbSymbolTableRecord
100
AcDbLayerTableRecord
  2
1_CURVES_JETS
 70
     0
 62
     7
  6
CONTINUOUS
370
    -3
390
F
  0
LAYER
  5
200
102
{ACAD_XDICTIONARY
360
1653
102
}
330
2
100
AcDbSymbolTableRecord
100
AcDbLayerTableRecord
  2
1_CURVES_SPEC_FRONT
 70
     0
 62
     7
  6
CONTINUOUS
370
    -3
390
F
  0
LAYER
  5
201
102
{ACAD_XDICTIONARY
360
1655
102
}
330
2
100
AcDbSymbolTableRecord
100
AcDbLayerTableRecord
  2
1_CURVES_SPEC_RIGHT
 70
     0
 62
     7
  6
CONTINUOUS
370
    -3
390
F
  0
LAYER
  5
202
102
{ACAD_XDICTIONARY
360
1657
102
}
330
2
100
AcDbSymbolTableRecord
100
AcDbLayerTableRecord
  2
2_PLANES
 70
     0
 62
     7
  6
CONTINUOUS
370
    -3
390
F
  0
LAYER
  5
203
102
{ACAD_XDICTIONARY
360
1659
102
}
330
2
100
AcDbSymbolTableRecord
100
AcDbLayerTableRecord
  2
2_PLANES_JETS
 70
     0
 62
     7
  6
CONTINUOUS
370
    -3
390
F
  0
LAYER
  5
204
102
{ACAD_XDICTIONARY
360
165B
102
}
330
2
100
AcDbSymbolTableRecord
100
AcDbLayerTableRecord
  2
3_POINTS
 70
     0
 62
     7
  6
CONTINUOUS
370
    -3
390
F
  0
LAYER
  5
205
102
{ACAD_XDICTIONARY
360
165D
102
}
330
2
100
AcDbSymbolTableRecord
100
AcDbLayerTableRecord
  2
3_POINTS_JETS
 70
     0
 62
     7
  6
CONTINUOUS
370
    -3
390
F
  0
LAYER
  5
206
102
{ACAD_XDICTIONARY
360
165F
102
}
330
2
100
AcDbSymbolTableRecord
100
AcDbLayerTableRecord
  2
4_CSYS
 70
     0
 62
     7
  6
CONTINUOUS
370
    -3
390
F
  0
LAYER
  5
207
102
{ACAD_XDICTIONARY
360
1661
102
}
330
2
100
AcDbSymbolTableRecord
100
AcDbLayerTableRecord
  2
5_AXIS
 70
     0
 62
     7
  6
CONTINUOUS
370
    -3
390
F
  0
LAYER
  5
208
102
{ACAD_XDICTIONARY
360
1663
102
}
330
2
100
AcDbSymbolTableRecord
100
AcDbLayerTableRecord
  2
5_AXIS_JETS
 70
     0
 62
     7
  6
CONTINUOUS
370
    -3
390
F
  0
LAYER
  5
209
102
{ACAD_XDICTIONARY
360
1665
102
}
330
2
100
AcDbSymbolTableRecord
100
AcDbLayerTableRecord
  2
6_SURFACES
 70
     0
 62
     7
  6
CONTINUOUS
370
    -3
390
F
  0
LAYER
  5
20A
102
{ACAD_XDICTIONARY
360
1667
102
}
330
2
100
AcDbSymbolTableRecord
100
AcDbLayerTableRecord
  2
6_SURFACES_OFFSET_FIBRE_ACRYLIQ
 70
     0
 62
     7
  6
CONTINUOUS
370
    -3
390
F
  0
LAYER
  5
20B
102
{ACAD_XDICTIONARY
360
1669
102
}
330
2
100
AcDbSymbolTableRecord
100
AcDbLayerTableRecord
  2
6_SURFACES_TOOLING
 70
     0
 62
     7
  6
CONTINUOUS
370
    -3
390
F
  0
LAYER
  5
20C
102
{ACAD_XDICTIONARY
360
166B
102
}
330
2
100
AcDbSymbolTableRecord
100
AcDbLayerTableRecord
  2
7_NOTES
 70
     0
 62
     7
  6
CONTINUOUS
370
    -3
390
F
  0
LAYER
  5
20D
102
{ACAD_XDICTIONARY
360
166D
102
}
330
2
100
AcDbSymbolTableRecord
100
AcDbLayerTableRecord
  2
XSEC_DATUMS
 70
     0
 62
     7
  6
CONTINUOUS
370
    -3
390
F
  0
ENDTAB
  0
TABLE
  2
STYLE
  5
3
330
0
100
AcDbSymbolTable
 70
     8
  0
STYLE
  5
11
330
3
100
AcDbSymbolTableRecord
100
AcDbTextStyleTableRecord
  2
STANDARD
 70
     0
 40
0.0
 41
0.8
 50
0.0
 71
     0
 42
0.2
  3
txt
  4

  0
STYLE
  5
20E
330
3
100
AcDbSymbolTableRecord
100
AcDbTextStyleTableRecord
  2
TEXTSTYLE_1
 70
     0
 40
0.0
 41
0.8
 50
0.0
 71
     0
 42
0.2
  3
gdt
  4

  0
STYLE
  5
20F
330
3
100
AcDbSymbolTableRecord
100
AcDbTextStyleTableRecord
  2
TEXTSTYLE_2
 70
     0
 40
0.0
 41
1.0
 50
0.0
 71
     0
 42
0.2
  3
trium.ttf
  4

  0
STYLE
  5
210
330
3
100
AcDbSymbolTableRecord
100
AcDbTextStyleTableRecord
  2
TEXTSTYLE_3
 70
     0
 40
0.0
 41
1.0
 50
0.0
 71
     0
 42
0.2
  3
trium.ttf
  4

  0
STYLE
  5
211
330
3
100
AcDbSymbolTableRecord
100
AcDbTextStyleTableRecord
  2
TEXTSTYLE_4
 70
     0
 40
0.0
 41
1.0
 50
0.0
 71
     0
 42
0.2
  3
txt
  4

1001
ACAD
1000
txt
1071
        2
  0
STYLE
  5
212
330
3
100
AcDbSymbolTableRecord
100
AcDbTextStyleTableRecord
  2
TEXTSTYLE_5
 70
     0
 40
0.0
 41
1.0
 50
0.0
 71
     0
 42
0.2
  3
txt
  4

  0
STYLE
  5
213
330
3
100
AcDbSymbolTableRecord
100
AcDbTextStyleTableRecord
  2
TEXTSTYLE_6
 70
     0
 40
0.0
 41
1.0
 50
0.0
 71
     0
 42
0.2
  3
trium.ttf
  4

  0
STYLE
  5
214
330
3
100
AcDbSymbolTableRecord
100
AcDbTextStyleTableRecord
  2
TEXTSTYLE_7
 70
     0
 40
0.0
 41
0.8
 50
0.0
 71
     0
 42
0.2
  3
txt
  4

  0
ENDTAB
  0
TABLE
  2
VIEW
  5
6
330
0
100
AcDbSymbolTable
 70
     0
  0
ENDTAB
  0
TABLE
  2
UCS
  5
7
330
0
100
AcDbSymbolTable
 70
     0
  0
ENDTAB
  0
TABLE
  2
APPID
  5
9
330
0
100
AcDbSymbolTable
 70
     2
  0
APPID
  5
215
330
9
100
AcDbSymbolTableRecord
100
AcDbRegAppTableRecord
  2
ACAD
 70
     0
  0
APPID
  5
1631
330
9
100
AcDbSymbolTableRecord
100
AcDbRegAppTableRecord
  2
ACAD_MLEADERVER
 70
     0
  0
ENDTAB
  0
TABLE
  2
DIMSTYLE
  5
A
330
0
100
AcDbSymbolTable
 70
     6
100
AcDbDimStyleTable
 71
     0
  0
DIMSTYLE
105
233
330
A
100
AcDbSymbolTableRecord
100
AcDbDimStyleTableRecord
  2
STANDARD
 70
     0
 41
2.0
 44
0.125
 47
0.00001
 48
0.00001
 71
     1
 78
     4
140
1.333333333299999
271
     5
272
     5
284
     4
340
11
341
218
342
218
343
218
344
218
  0
DIMSTYLE
105
234
330
A
100
AcDbSymbolTableRecord
100
AcDbDimStyleTableRecord
  2
DIMSTYLE_1
 70
     0
 41
2.0
 44
0.125
 47
0.00001
 48
0.00001
 78
     4
140
1.333333333299999
147
0.0625
271
     3
272
     3
284
     4
340
11
341
218
342
218
343
218
344
218
  0
DIMSTYLE
105
235
330
A
100
AcDbSymbolTableRecord
100
AcDbDimStyleTableRecord
  2
DIMSTYLE_2
 70
     0
 41
2.0
 44
0.125
 47
0.001
 48
0.001
 78
     4
140
1.333333333299999
147
0.0625
271
     3
272
     3
284
     4
340
11
341
218
342
218
343
218
344
218
  0
DIMSTYLE
105
236
330
A
100
AcDbSymbolTableRecord
100
AcDbDimStyleTableRecord
  2
DIMSTYLE_3
 70
     0
 41
2.0
 44
0.125
 47
1.0
 48
1.0
 78
     4
140
1.333333333299999
147
0.0625
271
     0
272
     0
284
     4
340
11
341
218
342
218
343
218
344
218
  0
DIMSTYLE
105
237
330
A
100
AcDbSymbolTableRecord
100
AcDbDimStyleTableRecord
  2
DIMSTYLE_4
 70
     0
 41
2.0
 44
0.125
 47
0.00001
 48
0.00001
 78
     4
140
1.333333333299999
147
0.0625
271
     6
272
     6
284
     4
340
11
341
218
342
218
343
218
344
218
  0
DIMSTYLE
105
238
330
A
100
AcDbSymbolTableRecord
100
AcDbDimStyleTableRecord
  2
DIMSTYLE_5
 70
     0
 41
2.0
 44
0.125
 47
0.5
 48
0.5
 78
     4
140
1.333333333299999
147
0.0625
271
     6
272
     6
284
     4
340
11
341
218
342
218
343
218
344
218
  0
ENDTAB
  0
TABLE
  2
BLOCK_RECORD
  5
1
330
0
100
AcDbSymbolTable
 70
    27
  0
BLOCK_RECORD
  5
216
330
1
100
AcDbSymbolTableRecord
100
AcDbBlockTableRecord
  2
*Model_Space
340
15A1
  0
BLOCK_RECORD
  5
217
330
1
100
AcDbSymbolTableRecord
100
AcDbBlockTableRecord
  2
*Paper_Space
340
15A2
  0
BLOCK_RECORD
  5
218
330
1
100
AcDbSymbolTableRecord
100
AcDbBlockTableRecord
  2
_FILLED
340
0
102
{BLKREFS
331
319
331
31A
331
322
331
323
331
32B
331
32C
331
334
331
335
331
33D
331
33E
331
346
331
347
331
34F
331
350
331
358
331
359
331
362
331
363
331
36B
331
36C
331
374
331
375
331
385
331
386
331
38F
331
390
331
398
331
399
331
3A2
331
3A3
331
3AB
331
3AC
331
3B4
331
3B5
331
3BD
331
3BE
331
3C6
331
3C7
102
}
  0
BLOCK_RECORD
  5
219
330
1
100
AcDbSymbolTableRecord
100
AcDbBlockTableRecord
  2
*D1
340
0
  0
BLOCK_RECORD
  5
21A
330
1
100
AcDbSymbolTableRecord
100
AcDbBlockTableRecord
  2
*D2
340
0
  0
BLOCK_RECORD
  5
21B
330
1
100
AcDbSymbolTableRecord
100
AcDbBlockTableRecord
  2
*D3
340
0
  0
BLOCK_RECORD
  5
21C
330
1
100
AcDbSymbolTableRecord
100
AcDbBlockTableRecord
  2
*D4
340
0
  0
BLOCK_RECORD
  5
21D
330
1
100
AcDbSymbolTableRecord
100
AcDbBlockTableRecord
  2
*D5
340
0
  0
BLOCK_RECORD
  5
21E
330
1
100
AcDbSymbolTableRecord
100
AcDbBlockTableRecord
  2
*D6
340
0
  0
BLOCK_RECORD
  5
21F
330
1
100
AcDbSymbolTableRecord
100
AcDbBlockTableRecord
  2
*D7
340
0
  0
BLOCK_RECORD
  5
220
330
1
100
AcDbSymbolTableRecord
100
AcDbBlockTableRecord
  2
*D8
340
0
  0
BLOCK_RECORD
  5
221
330
1
100
AcDbSymbolTableRecord
100
AcDbBlockTableRecord
  2
*D9
340
0
  0
BLOCK_RECORD
  5
222
330
1
100
AcDbSymbolTableRecord
100
AcDbBlockTableRecord
  2
*D10
340
0
  0
BLOCK_RECORD
  5
223
330
1
100
AcDbSymbolTableRecord
100
AcDbBlockTableRecord
  2
*D11
340
0
  0
BLOCK_RECORD
  5
224
330
1
100
AcDbSymbolTableRecord
100
AcDbBlockTableRecord
  2
*D12
340
0
  0
BLOCK_RECORD
  5
225
330
1
100
AcDbSymbolTableRecord
100
AcDbBlockTableRecord
  2
*D13
340
0
  0
BLOCK_RECORD
  5
226
330
1
100
AcDbSymbolTableRecord
100
AcDbBlockTableRecord
  2
*D14
340
0
  0
BLOCK_RECORD
  5
227
330
1
100
AcDbSymbolTableRecord
100
AcDbBlockTableRecord
  2
*D15
340
0
  0
BLOCK_RECORD
  5
228
330
1
100
AcDbSymbolTableRecord
100
AcDbBlockTableRecord
  2
*D16
340
0
  0
BLOCK_RECORD
  5
229
330
1
100
AcDbSymbolTableRecord
100
AcDbBlockTableRecord
  2
*D17
340
0
  0
BLOCK_RECORD
  5
22A
330
1
100
AcDbSymbolTableRecord
100
AcDbBlockTableRecord
  2
*D18
340
0
  0
BLOCK_RECORD
  5
22B
330
1
100
AcDbSymbolTableRecord
100
AcDbBlockTableRecord
  2
*D19
340
0
  0
BLOCK_RECORD
  5
22C
330
1
100
AcDbSymbolTableRecord
100
AcDbBlockTableRecord
  2
*D20
340
0
  0
BLOCK_RECORD
  5
22D
330
1
100
AcDbSymbolTableRecord
100
AcDbBlockTableRecord
  2
*D21
340
0
  0
BLOCK_RECORD
  5
22E
330
1
100
AcDbSymbolTableRecord
100
AcDbBlockTableRecord
  2
*D22
340
0
  0
BLOCK_RECORD
  5
22F
330
1
100
AcDbSymbolTableRecord
100
AcDbBlockTableRecord
  2
L03-MOTEUR-CONTROLE-LED_BL3
340
0
  0
BLOCK_RECORD
  5
230
330
1
100
AcDbSymbolTableRecord
100
AcDbBlockTableRecord
  2
L03-MOTEUR-CONTROLE-LED_BL2
340
0
  0
BLOCK_RECORD
  5
231
330
1
100
AcDbSymbolTableRecord
100
AcDbBlockTableRecord
  2
L03-USAGE_INTERNE_SEULEM_BL1
340
0
  0
BLOCK_RECORD
  5
232
330
1
100
AcDbSymbolTableRecord
100
AcDbBlockTableRecord
  2
L03-NOTE_SPECS_BAINS_BL0
340
0
  0
ENDTAB
  0
ENDSEC
  0
SECTION
  2
BLOCKS
  0
BLOCK
  5
20
330
216
100
AcDbEntity
  8
0
100
AcDbBlockBegin
  2
*Model_Space
 70
     0
 10
0.0
 20
0.0
 30
0.0
  3
*Model_Space
  1

  0
ENDBLK
  5
21
330
216
100
AcDbEntity
  8
0
100
AcDbBlockEnd
  0
BLOCK
  5
1C
330
217
100
AcDbEntity
 67
     1
  8
0
100
AcDbBlockBegin
  2
*Paper_Space
 70
     0
 10
0.0
 20
0.0
 30
0.0
  3
*Paper_Space
  1

  0
ENDBLK
  5
1D
330
217
100
AcDbEntity
 67
     1
  8
0
100
AcDbBlockEnd
  0
BLOCK
  5
310
330
218
100
AcDbEntity
  8
0
100
AcDbBlockBegin
  2
_FILLED
 70
     0
 10
0.0
 20
0.0
 30
0.0
  3
_FILLED
  1

  0
SOLID
  5
311
330
218
100
AcDbEntity
  8
0
  6
ByBlock
 62
     0
100
AcDbTrace
 10
0.0
 20
0.0
 30
0.0
 11
-1.0
 21
0.1666666667
 31
0.0
 12
-1.0
 22
-0.1666666667
 32
0.0
 13
-1.0
 23
-0.1666666667
 33
0.0
  0
ENDBLK
  5
312
330
218
100
AcDbEntity
  8
0
  6
ByBlock
 62
     0
100
AcDbBlockEnd
  0
BLOCK
  5
313
330
219
100
AcDbEntity
  8
0
  6
Continuous
 62
     7
100
AcDbBlockBegin
  2
*D1
 70
     1
 10
0.0
 20
0.0
 30
0.0
  3
*D1
  1

  0
MTEXT
  5
314
330
219
100
AcDbEntity
  8
0
  6
Continuous
 62
     7
100
AcDbMText
 10
51.0381922459
 20
109.6342169693
 30
0.0
 40
1.333333333299999
 41
7.466666666699999
 71
     2
 72
     1
  1
59\P[149,9]
 73
     1
 44
0.9
  0
LINE
  5
315
330
219
100
AcDbEntity
  8
0
  6
Continuous
 62
     7
100
AcDbLine
 10
83.20485823549999
 20
81.07219413140001
 30
0.0
 11
83.20485823549999
 21
110.3008836359
 31
0.0
  0
LINE
  5
316
330
219
100
AcDbEntity
  8
0
  6
Continuous
 62
     7
100
AcDbLine
 10
24.2048595896
 20
81.07219413140001
 30
0.0
 11
24.2048595896
 21
110.3008836359
 31
0.0
  0
LINE
  5
317
330
219
100
AcDbEntity
  8
0
  6
Continuous
 62
     7
100
AcDbLine
 10
83.20485823549999
 20
108.9675503026
 30
0.0
 11
58.1048589126
 21
108.9675503026
 31
0.0
  0
LINE
  5
318
330
219
100
AcDbEntity
  8
0
  6
Continuous
 62
     7
100
AcDbLine
 10
24.2048595896
 20
108.9675503026
 30
0.0
 11
49.3048589126
 21
108.9675503026
 31
0.0
  0
INSERT
  5
319
330
219
100
AcDbEntity
  8
0
  6
Continuous
 62
     7
100
AcDbBlockReference
  2
_FILLED
 10
83.20485823549999
 20
108.9675503026
 30
0.0
 41
2.0
 42
2.0
 43
2.0
  0
INSERT
  5
31A
330
219
100
AcDbEntity
  8
0
  6
Continuous
 62
     7
100
AcDbBlockReference
  2
_FILLED
 10
24.2048595896
 20
108.9675503026
 30
0.0
 41
2.0
 42
2.0
 43
2.0
 50
180.0
  0
ENDBLK
  5
31B
330
219
100
AcDbEntity
  8
0
  6
ByBlock
 62
     0
100
AcDbBlockEnd
  0
BLOCK
  5
31C
330
21A
100
AcDbEntity
  8
0
  6
Continuous
 62
     7
100
AcDbBlockBegin
  2
*D2
 70
     1
 10
0.0
 20
0.0
 30
0.0
  3
*D2
  1

  0
MTEXT
  5
31D
330
21A
100
AcDbEntity
  8
0
  6
Continuous
 62
     7
100
AcDbMText
 10
107.8249077446
 20
81.07219413140001
 30
0.0
 40
1.333333333299999
 41
6.4
 71
     2
 72
     1
  1
36\P[91,4]
 73
     1
 44
0.9
  0
LINE
  5
31E
330
21A
100
AcDbEntity
  8
0
  6
Continuous
 62
     7
100
AcDbLine
 10
50.8715262379
 20
98.4055267181
 30
0.0
 11
111.2915744113
 21
98.4055267181
 31
0.0
  0
LINE
  5
31F
330
21A
100
AcDbEntity
  8
0
  6
Continuous
 62
     7
100
AcDbLine
 10
50.8715262379
 20
62.4055282113
 30
0.0
 11
111.2915744113
 21
62.4055282113
 31
0.0
  0
LINE
  5
320
330
21A
100
AcDbEntity
  8
0
  6
Continuous
 62
     7
100
AcDbLine
 10
109.9582410779
 20
98.4055267181
 30
0.0
 11
109.9582410779
 21
81.738860798
 31
0.0
  0
LINE
  5
321
330
21A
100
AcDbEntity
  8
0
  6
Continuous
 62
     7
100
AcDbLine
 10
109.9582410779
 20
62.4055282113
 30
0.0
 11
109.9582410779
 21
77.07219413140001
 31
0.0
  0
INSERT
  5
322
330
21A
100
AcDbEntity
  8
0
  6
Continuous
 62
     7
100
AcDbBlockReference
  2
_FILLED
 10
109.9582410779
 20
98.4055267181
 30
0.0
 41
2.0
 42
2.0
 43
2.0
 50
90.0
  0
INSERT
  5
323
330
21A
100
AcDbEntity
  8
0
  6
Continuous
 62
     7
100
AcDbBlockReference
  2
_FILLED
 10
109.9582410779
 20
62.4055282113
 30
0.0
 41
2.0
 42
2.0
 43
2.0
 50
270.0
  0
ENDBLK
  5
324
330
21A
100
AcDbEntity
  8
0
  6
ByBlock
 62
     0
100
AcDbBlockEnd
  0
BLOCK
  5
325
330
21B
100
AcDbEntity
  8
0
  6
Continuous
 62
     7
100
AcDbBlockBegin
  2
*D3
 70
     1
 10
0.0
 20
0.0
 30
0.0
  3
*D3
  1

  0
MTEXT
  5
326
330
21B
100
AcDbEntity
  8
0
  6
Continuous
 62
     7
100
AcDbMText
 10
91.7321133769
 20
33.6292834796
 30
0.0
 40
1.333333333299999
 41
6.4
 71
     2
 72
     1
  1
28-1/2\P[72,4]
 73
     1
 44
0.9
  0
LINE
  5
327
330
21B
100
AcDbEntity
  8
0
  6
Continuous
 62
     7
100
AcDbLine
 10
76.0657876451
 20
18.7126168129
 30
0.0
 11
93.06544671020001
 21
18.7126168129
 31
0.0
  0
LINE
  5
328
330
21B
100
AcDbEntity
  8
0
  6
Continuous
 62
     7
100
AcDbLine
 10
84.7513338555
 20
47.2126168129
 30
0.0
 11
93.06544671020001
 21
47.2126168129
 31
0.0
  0
LINE
  5
329
330
21B
100
AcDbEntity
  8
0
  6
Continuous
 62
     7
100
AcDbLine
 10
91.7321133769
 20
18.7126168129
 30
0.0
 11
91.7321133769
 21
29.6292834796
 31
0.0
  0
LINE
  5
32A
330
21B
100
AcDbEntity
  8
0
  6
Continuous
 62
     7
100
AcDbLine
 10
91.7321133769
 20
47.2126168129
 30
0.0
 11
91.7321133769
 21
34.2959501463
 31
0.0
  0
INSERT
  5
32B
330
21B
100
AcDbEntity
  8
0
  6
Continuous
 62
     7
100
AcDbBlockReference
  2
_FILLED
 10
91.7321133769
 20
18.7126168129
 30
0.0
 41
2.0
 42
2.0
 43
2.0
 50
270.0
  0
INSERT
  5
32C
330
21B
100
AcDbEntity
  8
0
  6
Continuous
 62
     7
100
AcDbBlockReference
  2
_FILLED
 10
91.7321133769
 20
47.2126168129
 30
0.0
 41
2.0
 42
2.0
 43
2.0
 50
90.0
  0
ENDBLK
  5
32D
330
21B
100
AcDbEntity
  8
0
  6
ByBlock
 62
     0
100
AcDbBlockEnd
  0
BLOCK
  5
32E
330
21C
100
AcDbEntity
  8
0
  6
Continuous
 62
     7
100
AcDbBlockBegin
  2
*D4
 70
     1
 10
0.0
 20
0.0
 30
0.0
  3
*D4
  1

  0
MTEXT
  5
32F
330
21C
100
AcDbEntity
  8
0
  6
Continuous
 62
     7
100
AcDbMText
 10
16.6880471365
 20
31.1292834796
 30
0.0
 40
1.333333333299999
 41
6.4
 71
     2
 72
     1
  1
23-1/2\P[59,7]
 73
     1
 44
0.9
  0
LINE
  5
330
330
21C
100
AcDbEntity
  8
0
  6
Continuous
 62
     7
100
AcDbLine
 10
32.2723384076
 20
18.7126168129
 30
0.0
 11
15.3547138032
 21
18.7126168129
 31
0.0
  0
LINE
  5
331
330
21C
100
AcDbEntity
  8
0
  6
Continuous
 62
     7
100
AcDbLine
 10
23.7394074308
 20
42.2126168129
 30
0.0
 11
15.3547138032
 21
42.2126168129
 31
0.0
  0
LINE
  5
332
330
21C
100
AcDbEntity
  8
0
  6
Continuous
 62
     7
100
AcDbLine
 10
16.6880471365
 20
18.7126168129
 30
0.0
 11
16.6880471365
 21
27.1292834796
 31
0.0
  0
LINE
  5
333
330
21C
100
AcDbEntity
  8
0
  6
Continuous
 62
     7
100
AcDbLine
 10
16.6880471365
 20
42.2126168129
 30
0.0
 11
16.6880471365
 21
31.7959501463
 31
0.0
  0
INSERT
  5
334
330
21C
100
AcDbEntity
  8
0
  6
Continuous
 62
     7
100
AcDbBlockReference
  2
_FILLED
 10
16.6880471365
 20
18.7126168129
 30
0.0
 41
2.0
 42
2.0
 43
2.0
 50
270.0
  0
INSERT
  5
335
330
21C
100
AcDbEntity
  8
0
  6
Continuous
 62
     7
100
AcDbBlockReference
  2
_FILLED
 10
16.6880471365
 20
42.2126168129
 30
0.0
 41
2.0
 42
2.0
 43
2.0
 50
90.0
  0
ENDBLK
  5
336
330
21C
100
AcDbEntity
  8
0
  6
ByBlock
 62
     0
100
AcDbBlockEnd
  0
BLOCK
  5
337
330
21D
100
AcDbEntity
  8
0
  6
Continuous
 62
     7
100
AcDbBlockBegin
  2
*D5
 70
     1
 10
0.0
 20
0.0
 30
0.0
  3
*D5
  1

  0
MTEXT
  5
338
330
21D
100
AcDbEntity
  8
0
  6
Continuous
 62
     7
100
AcDbMText
 10
50.8070297159
 20
14.0813690103
 30
0.0
 40
1.333333333299999
 41
7.466666666699999
 71
     2
 72
     1
  1
47-3/8\P[120,4]
 73
     1
 44
0.9
  0
LINE
  5
339
330
21D
100
AcDbEntity
  8
0
  6
Continuous
 62
     7
100
AcDbLine
 10
75.0326160771
 20
18.0459501463
 30
0.0
 11
75.0326160771
 21
12.0813690103
 31
0.0
  0
LINE
  5
33A
330
21D
100
AcDbEntity
  8
0
  6
Continuous
 62
     7
100
AcDbLine
 10
27.6481100214
 20
18.0459501463
 30
0.0
 11
27.6481100214
 21
12.0813690103
 31
0.0
  0
LINE
  5
33B
330
21D
100
AcDbEntity
  8
0
  6
Continuous
 62
     7
100
AcDbLine
 10
75.0326160771
 20
13.4147023436
 30
0.0
 11
55.7403630493
 21
13.4147023436
 31
0.0
  0
LINE
  5
33C
330
21D
100
AcDbEntity
  8
0
  6
Continuous
 62
     7
100
AcDbLine
 10
27.6481100214
 20
13.4147023436
 30
0.0
 11
46.9403630493
 21
13.4147023436
 31
0.0
  0
INSERT
  5
33D
330
21D
100
AcDbEntity
  8
0
  6
Continuous
 62
     7
100
AcDbBlockReference
  2
_FILLED
 10
75.0326160771
 20
13.4147023436
 30
0.0
 41
2.0
 42
2.0
 43
2.0
  0
INSERT
  5
33E
330
21D
100
AcDbEntity
  8
0
  6
Continuous
 62
     7
100
AcDbBlockReference
  2
_FILLED
 10
27.6481100214
 20
13.4147023436
 30
0.0
 41
2.0
 42
2.0
 43
2.0
 50
180.0
  0
ENDBLK
  5
33F
330
21D
100
AcDbEntity
  8
0
  6
ByBlock
 62
     0
100
AcDbBlockEnd
  0
BLOCK
  5
340
330
21E
100
AcDbEntity
  8
0
  6
Continuous
 62
     7
100
AcDbBlockBegin
  2
*D6
 70
     1
 10
0.0
 20
0.0
 30
0.0
  3
*D6
  1

  0
MTEXT
  5
341
330
21E
100
AcDbEntity
  8
0
  6
Continuous
 62
     7
100
AcDbMText
 10
115.2562441493
 20
12.4723805974
 30
0.0
 40
1.333333333299999
 41
6.4
 71
     2
 72
     1
  1
26-7/8\P[68,2]
 73
     1
 44
0.9
  0
LINE
  5
342
330
21E
100
AcDbEntity
  8
0
  6
Continuous
 62
     7
100
AcDbLine
 10
128.6883068845
 20
18.0459501463
 30
0.0
 11
128.6883068845
 21
10.4723805974
 31
0.0
  0
LINE
  5
343
330
21E
100
AcDbEntity
  8
0
  6
Continuous
 62
     7
100
AcDbLine
 10
101.824181414
 20
18.0459501463
 30
0.0
 11
101.824181414
 21
10.4723805974
 31
0.0
  0
LINE
  5
344
330
21E
100
AcDbEntity
  8
0
  6
Continuous
 62
     7
100
AcDbLine
 10
128.6883068845
 20
11.8057139307
 30
0.0
 11
119.1229108159
 21
11.8057139307
 31
0.0
  0
LINE
  5
345
330
21E
100
AcDbEntity
  8
0
  6
Continuous
 62
     7
100
AcDbLine
 10
101.824181414
 20
11.8057139307
 30
0.0
 11
111.3895774826
 21
11.8057139307
 31
0.0
  0
INSERT
  5
346
330
21E
100
AcDbEntity
  8
0
  6
Continuous
 62
     7
100
AcDbBlockReference
  2
_FILLED
 10
128.6883068845
 20
11.8057139307
 30
0.0
 41
2.0
 42
2.0
 43
2.0
  0
INSERT
  5
347
330
21E
100
AcDbEntity
  8
0
  6
Continuous
 62
     7
100
AcDbBlockReference
  2
_FILLED
 10
101.824181414
 20
11.8057139307
 30
0.0
 41
2.0
 42
2.0
 43
2.0
 50
180.0
  0
ENDBLK
  5
348
330
21E
100
AcDbEntity
  8
0
  6
ByBlock
 62
     0
100
AcDbBlockEnd
  0
BLOCK
  5
349
330
21F
100
AcDbEntity
  8
0
  6
Continuous
 62
     7
100
AcDbBlockBegin
  2
*D7
 70
     1
 10
0.0
 20
0.0
 30
0.0
  3
*D7
  1

  0
MTEXT
  5
34A
330
21F
100
AcDbEntity
  8
0
  6
Continuous
 62
     7
100
AcDbMText
 10
50.32192606949999
 20
54.4502190317
 30
0.0
 40
1.333333333299999
 41
6.4
 71
     2
 72
     1
  1
41-1/2\P[105]
 73
     1
 44
0.9
  0
LINE
  5
34B
330
21F
100
AcDbEntity
  8
0
  6
Continuous
 62
     7
100
AcDbLine
 10
29.5814401324
 20
67.9236764163
 30
0.0
 11
29.5814401324
 21
52.4502190317
 31
0.0
  0
LINE
  5
34C
330
21F
100
AcDbEntity
  8
0
  6
Continuous
 62
     7
100
AcDbLine
 10
71.0624120067
 20
64.87031416029999
 30
0.0
 11
71.0624120067
 21
52.4502190317
 31
0.0
  0
LINE
  5
34D
330
21F
100
AcDbEntity
  8
0
  6
Continuous
 62
     7
100
AcDbLine
 10
29.5814401324
 20
53.783552365
 30
0.0
 11
46.45525940289999
 21
53.783552365
 31
0.0
  0
LINE
  5
34E
330
21F
100
AcDbEntity
  8
0
  6
Continuous
 62
     7
100
AcDbLine
 10
71.0624120067
 20
53.783552365
 30
0.0
 11
54.1885927362
 21
53.783552365
 31
0.0
  0
INSERT
  5
34F
330
21F
100
AcDbEntity
  8
0
  6
Continuous
 62
     7
100
AcDbBlockReference
  2
_FILLED
 10
29.5814401324
 20
53.783552365
 30
0.0
 41
2.0
 42
2.0
 43
2.0
 50
180.0
  0
INSERT
  5
350
330
21F
100
AcDbEntity
  8
0
  6
Continuous
 62
     7
100
AcDbBlockReference
  2
_FILLED
 10
71.0624120067
 20
53.783552365
 30
0.0
 41
2.0
 42
2.0
 43
2.0
  0
ENDBLK
  5
351
330
21F
100
AcDbEntity
  8
0
  6
ByBlock
 62
     0
100
AcDbBlockEnd
  0
BLOCK
  5
352
330
220
100
AcDbEntity
  8
0
  6
Continuous
 62
     7
100
AcDbBlockBegin
  2
*D8
 70
     1
 10
0.0
 20
0.0
 30
0.0
  3
*D8
  1

  0
MTEXT
  5
353
330
220
100
AcDbEntity
  8
0
  6
Continuous
 62
     7
100
AcDbMText
 10
97.40506156469999
 20
80.9906897663
 30
0.0
 40
1.333333333299999
 41
6.4
 71
     2
 72
     1
  1
23-7/8\P[61]
 73
     1
 44
0.9
  0
LINE
  5
354
330
220
100
AcDbEntity
  8
0
  6
Continuous
 62
     7
100
AcDbLine
 10
77.66776282729999
 20
92.24602840100001
 30
0.0
 11
98.73839548360001
 21
92.24602736620001
 31
0.0
  0
LINE
  5
355
330
220
100
AcDbEntity
  8
0
  6
Continuous
 62
     7
100
AcDbLine
 10
77.85384665649999
 20
68.4020197278
 30
0.0
 11
98.73839431250001
 21
68.40201870209999
 31
0.0
  0
LINE
  5
356
330
220
100
AcDbEntity
  8
0
  6
Continuous
 62
     7
100
AcDbLine
 10
97.40506215020001
 20
92.24602743170001
 30
0.0
 11
97.40506215020001
 21
81.65735643300001
 31
0.0
  0
LINE
  5
357
330
220
100
AcDbEntity
  8
0
  6
Continuous
 62
     7
100
AcDbLine
 10
97.4050609792
 20
68.4020187676
 30
0.0
 11
97.40506215020001
 21
76.99068976630001
 31
0.0
  0
INSERT
  5
358
330
220
100
AcDbEntity
  8
0
  6
Continuous
 62
     7
100
AcDbBlockReference
  2
_FILLED
 10
97.40506215020001
 20
92.24602743170001
 30
0.0
 41
2.0
 42
2.0
 43
2.0
 50
90.0
  0
INSERT
  5
359
330
220
100
AcDbEntity
  8
0
  6
Continuous
 62
     7
100
AcDbBlockReference
  2
_FILLED
 10
97.4050609792
 20
68.4020187676
 30
0.0
 41
2.0
 42
2.0
 43
2.0
 50
269.9999921879999
  0
ENDBLK
  5
35A
330
220
100
AcDbEntity
  8
0
  6
ByBlock
 62
     0
100
AcDbBlockEnd
  0
BLOCK
  5
35B
330
221
100
AcDbEntity
  8
0
  6
Continuous
 62
     7
100
AcDbBlockBegin
  2
*D9
 70
     1
 10
0.0
 20
0.0
 30
0.0
  3
*D9
  1

  0
MTEXT
  5
35C
330
221
100
AcDbEntity
  8
0
  6
Continuous
 62
     7
100
AcDbMText
 10
103.2022145901
 20
58.13458509850001
 30
0.0
 40
1.333333333299999
 41
5.333333333299999
 71
     1
 72
     1
  1
1-1/8\P[3]
 73
     1
 44
0.9
  0
LINE
  5
35D
330
221
100
AcDbEntity
  8
0
  6
Continuous
 62
     7
100
AcDbLine
 10
50.8715262379
 20
62.4055282113
 30
0.0
 11
101.8688812568
 21
62.4055282113
 31
0.0
  0
LINE
  5
35E
330
221
100
AcDbEntity
  8
0
  6
Continuous
 62
     7
100
AcDbLine
 10
67.4521967348
 20
63.5189091323
 30
0.0
 11
101.8688812568
 21
63.5189091323
 31
0.0
  0
LINE
  5
35F
330
221
100
AcDbEntity
  8
0
  6
Continuous
 62
     7
100
AcDbLine
 10
100.5355479235
 20
62.4055282113
 30
0.0
 11
100.5355479235
 21
57.46791843189999
 31
0.0
  0
LINE
  5
360
330
221
100
AcDbEntity
  8
0
  6
Continuous
 62
     7
100
AcDbLine
 10
100.5355479235
 20
57.46791843189999
 30
0.0
 11
102.5355479235
 21
57.46791843189999
 31
0.0
  0
LINE
  5
361
330
221
100
AcDbEntity
  8
0
  6
Continuous
 62
     7
100
AcDbLine
 10
100.5355479235
 20
63.5189091323
 30
0.0
 11
100.5355479235
 21
68.8522424657
 31
0.0
  0
INSERT
  5
362
330
221
100
AcDbEntity
  8
0
  6
Continuous
 62
     7
100
AcDbBlockReference
  2
_FILLED
 10
100.5355479235
 20
62.4055282113
 30
0.0
 41
2.0
 42
2.0
 43
2.0
 50
90.0
  0
INSERT
  5
363
330
221
100
AcDbEntity
  8
0
  6
Continuous
 62
     7
100
AcDbBlockReference
  2
_FILLED
 10
100.5355479235
 20
63.5189091323
 30
0.0
 41
2.0
 42
2.0
 43
2.0
 50
270.0
  0
ENDBLK
  5
364
330
221
100
AcDbEntity
  8
0
  6
ByBlock
 62
     0
100
AcDbBlockEnd
  0
BLOCK
  5
365
330
222
100
AcDbEntity
  8
0
  6
Continuous
 62
     7
100
AcDbBlockBegin
  2
*D10
 70
     1
 10
0.0
 20
0.0
 30
0.0
  3
*D10
  1

  0
MTEXT
  5
366
330
222
100
AcDbEntity
  8
0
  6
Continuous
 62
     7
100
AcDbMText
 10
15.1125520367
 20
65.52394073399999
 30
0.0
 40
1.333333333299999
 41
3.2
 71
     3
 72
     1
  1
1\P[3]
 73
     1
 44
0.9
  0
LINE
  5
367
330
222
100
AcDbEntity
  8
0
  6
Continuous
 62
     7
100
AcDbLine
 10
24.2048595896
 20
79.738860798
 30
0.0
 11
24.2048595896
 21
63.52394073399999
 31
0.0
  0
LINE
  5
368
330
222
100
AcDbEntity
  8
0
  6
Continuous
 62
     7
100
AcDbLine
 10
25.2153221106
 20
73.92327393249999
 30
0.0
 11
25.2153221106
 21
63.52394073399999
 31
0.0
  0
LINE
  5
369
330
222
100
AcDbEntity
  8
0
  6
Continuous
 62
     7
100
AcDbLine
 10
24.2048595896
 20
64.8572740674
 30
0.0
 11
17.9125520367
 21
64.8572740674
 31
0.0
  0
LINE
  5
36A
330
222
100
AcDbEntity
  8
0
  6
Continuous
 62
     7
100
AcDbLine
 10
25.2153221106
 20
64.8572740674
 30
0.0
 11
30.5486554439
 21
64.8572740674
 31
0.0
  0
INSERT
  5
36B
330
222
100
AcDbEntity
  8
0
  6
Continuous
 62
     7
100
AcDbBlockReference
  2
_FILLED
 10
24.2048595896
 20
64.8572740674
 30
0.0
 41
2.0
 42
2.0
 43
2.0
  0
INSERT
  5
36C
330
222
100
AcDbEntity
  8
0
  6
Continuous
 62
     7
100
AcDbBlockReference
  2
_FILLED
 10
25.2153221106
 20
64.8572740674
 30
0.0
 41
2.0
 42
2.0
 43
2.0
 50
180.0
  0
ENDBLK
  5
36D
330
222
100
AcDbEntity
  8
0
  6
ByBlock
 62
     0
100
AcDbBlockEnd
  0
BLOCK
  5
36E
330
223
100
AcDbEntity
  8
0
  6
Continuous
 62
     7
100
AcDbBlockBegin
  2
*D11
 70
     1
 10
0.0
 20
0.0
 30
0.0
  3
*D11
  1

  0
MTEXT
  5
36F
330
223
100
AcDbEntity
  8
0
  6
Continuous
 62
     7
100
AcDbMText
 10
138.0300916326
 20
31.3792834796
 30
0.0
 40
1.333333333299999
 41
4.266666666699999
 71
     2
 72
     1
  1
16\P[41]
 73
     1
 44
0.9
  0
LINE
  5
370
330
223
100
AcDbEntity
  8
0
  6
Continuous
 62
     7
100
AcDbLine
 10
130.2302131774
 20
22.7126168129
 30
0.0
 11
140.4300916326
 21
22.7126168129
 31
0.0
  0
LINE
  5
371
330
223
100
AcDbEntity
  8
0
  6
Continuous
 62
     7
100
AcDbLine
 10
131.3862131774
 20
38.7126168129
 30
0.0
 11
140.4300916326
 21
38.7126168129
 31
0.0
  0
LINE
  5
372
330
223
100
AcDbEntity
  8
0
  6
Continuous
 62
     7
100
AcDbLine
 10
139.0967582993
 20
22.7126168129
 30
0.0
 11
139.0967582993
 21
27.3792834796
 31
0.0
  0
LINE
  5
373
330
223
100
AcDbEntity
  8
0
  6
Continuous
 62
     7
100
AcDbLine
 10
139.0967582993
 20
38.7126168129
 30
0.0
 11
139.0967582993
 21
32.0459501463
 31
0.0
  0
INSERT
  5
374
330
223
100
AcDbEntity
  8
0
  6
Continuous
 62
     7
100
AcDbBlockReference
  2
_FILLED
 10
139.0967582993
 20
22.7126168129
 30
0.0
 41
2.0
 42
2.0
 43
2.0
 50
270.0
  0
INSERT
  5
375
330
223
100
AcDbEntity
  8
0
  6
Continuous
 62
     7
100
AcDbBlockReference
  2
_FILLED
 10
139.0967582993
 20
38.7126168129
 30
0.0
 41
2.0
 42
2.0
 43
2.0
 50
90.0
  0
ENDBLK
  5
376
330
223
100
AcDbEntity
  8
0
  6
ByBlock
 62
     0
100
AcDbBlockEnd
  0
BLOCK
  5
377
330
224
100
AcDbEntity
  8
0
  6
Continuous
 62
     7
100
AcDbBlockBegin
  2
*D12
 70
     1
 10
0.0
 20
0.0
 30
0.0
  3
*D12
  1

  0
MTEXT
  5
378
330
224
100
AcDbEntity
  8
0
  6
Continuous
 62
     7
100
AcDbMText
 10
61.04431417609999
 20
28.1220416629
 30
0.0
 40
1.333333333299999
 41
1.955555555599999
 71
     3
 72
     1
  1
2\Fgdt;{\Fgdt;~}
 73
     1
 44
0.9
  0
LINE
  5
379
330
224
100
AcDbEntity
  8
0
  6
Continuous
 62
     7
100
AcDbLine
 10
37.7464467497
 20
22.7126168129
 30
0.0
 11
65.46333724340001
 21
22.7126168129
 31
0.0
  0
ARC
  5
37A
330
224
100
AcDbEntity
  8
0
  6
Continuous
 62
     7
100
AcDbCircle
 10
37.079780083
 20
22.7126168129
 30
0.0
 40
27.0502238271
100
AcDbArc
 50
348.703328568
 51
360.0
  0
ARC
  5
37B
330
224
100
AcDbEntity
  8
0
  6
Continuous
 62
     7
100
AcDbCircle
 10
37.079780083
 20
22.7126168129
 30
0.0
 40
27.0502238271
100
AcDbArc
 50
1.5382170406
 51
10.0979539416
  0
SOLID
  5
37C
330
224
100
AcDbEntity
  8
0
  6
Continuous
 62
     7
100
AcDbTrace
 10
64.389189792
 20
20.70166336
 30
0.0
 11
64.1300039101
 21
22.7126168129
 31
0.0
 12
63.72297862439999
 22
20.7263032606
 32
0.0
 13
63.72297862439999
 23
20.7263032606
 33
0.0
  0
SOLID
  5
37D
330
224
100
AcDbEntity
  8
0
  6
Continuous
 62
     7
100
AcDbTrace
 10
63.660057482
 20
25.4134173312
 30
0.0
 11
64.12025615170001
 21
23.4387456381
 31
0.0
 12
64.32536714840001
 22
25.4559319434
 32
0.0
 13
64.32536714840001
 23
25.4559319434
 33
0.0
  0
ENDBLK
  5
37E
330
224
100
AcDbEntity
  8
0
  6
ByBlock
 62
     0
100
AcDbBlockEnd
  0
BLOCK
  5
37F
330
225
100
AcDbEntity
  8
0
  6
Continuous
 62
     7
100
AcDbBlockBegin
  2
*D13
 70
     1
 10
0.0
 20
0.0
 30
0.0
  3
*D13
  1

  0
MTEXT
  5
380
330
225
100
AcDbEntity
  8
0
  6
Continuous
 62
     7
100
AcDbMText
 10
46.0930427426
 20
59.4478627847
 30
0.0
 40
1.333333333299999
 41
6.4
 71
     1
 72
     1
  1
6-1/2\P[16,5]
 73
     1
 44
0.9
  0
LINE
  5
381
330
225
100
AcDbEntity
  8
0
  6
Continuous
 62
     7
100
AcDbLine
 10
35.2048595712
 20
63.9367210812
 30
0.0
 11
35.2048595712
 21
57.4478627847
 31
0.0
  0
LINE
  5
382
330
225
100
AcDbEntity
  8
0
  6
Continuous
 62
     7
100
AcDbLine
 10
41.70485957119999
 20
62.5114526722
 30
0.0
 11
41.70485957119999
 21
57.4478627847
 31
0.0
  0
LINE
  5
383
330
225
100
AcDbEntity
  8
0
  6
Continuous
 62
     7
100
AcDbLine
 10
35.2048595712
 20
58.7811961181
 30
0.0
 11
29.8715262379
 21
58.7811961181
 31
0.0
  0
LINE
  5
384
330
225
100
AcDbEntity
  8
0
  6
Continuous
 62
     7
100
AcDbLine
 10
41.70485957119999
 20
58.7811961181
 30
0.0
 11
45.4263760759
 21
58.7811961181
 31
0.0
  0
INSERT
  5
385
330
225
100
AcDbEntity
  8
0
  6
Continuous
 62
     7
100
AcDbBlockReference
  2
_FILLED
 10
35.2048595712
 20
58.7811961181
 30
0.0
 41
2.0
 42
2.0
 43
2.0
  0
INSERT
  5
386
330
225
100
AcDbEntity
  8
0
  6
Continuous
 62
     7
100
AcDbBlockReference
  2
_FILLED
 10
41.70485957119999
 20
58.7811961181
 30
0.0
 41
2.0
 42
2.0
 43
2.0
 50
180.0
  0
ENDBLK
  5
387
330
225
100
AcDbEntity
  8
0
  6
ByBlock
 62
     0
100
AcDbBlockEnd
  0
BLOCK
  5
388
330
226
100
AcDbEntity
  8
0
  6
Continuous
 62
     7
100
AcDbBlockBegin
  2
*D14
 70
     1
 10
0.0
 20
0.0
 30
0.0
  3
*D14
  1

  0
MTEXT
  5
389
330
226
100
AcDbEntity
  8
0
  6
Continuous
 62
     7
100
AcDbMText
 10
89.11558503709999
 20
88.38169596749999
 30
0.0
 40
1.333333333299999
 41
5.333333333299999
 71
     1
 72
     1
  1
3-1/2\P[8,9]
 73
     1
 44
0.9
  0
LINE
  5
38A
330
226
100
AcDbEntity
  8
0
  6
Continuous
 62
     7
100
AcDbLine
 10
83.75855007629999
 20
80.4055274647
 30
0.0
 11
87.78225170379998
 21
80.4055274647
 31
0.0
  0
LINE
  5
38B
330
226
100
AcDbEntity
  8
0
  6
Continuous
 62
     7
100
AcDbLine
 10
84.0277446846
 20
76.9055274647
 30
0.0
 11
87.78225170379998
 21
76.9055274647
 31
0.0
  0
LINE
  5
38C
330
226
100
AcDbEntity
  8
0
  6
Continuous
 62
     7
100
AcDbLine
 10
86.4489183705
 20
80.4055274647
 30
0.0
 11
86.4489183705
 21
87.7150293008
 31
0.0
  0
LINE
  5
38D
330
226
100
AcDbEntity
  8
0
  6
Continuous
 62
     7
100
AcDbLine
 10
86.4489183705
 20
87.7150293008
 30
0.0
 11
88.44891837049999
 21
87.7150293008
 31
0.0
  0
LINE
  5
38E
330
226
100
AcDbEntity
  8
0
  6
Continuous
 62
     7
100
AcDbLine
 10
86.4489183705
 20
76.9055274647
 30
0.0
 11
86.4489183705
 21
71.57219413140001
 31
0.0
  0
INSERT
  5
38F
330
226
100
AcDbEntity
  8
0
  6
Continuous
 62
     7
100
AcDbBlockReference
  2
_FILLED
 10
86.4489183705
 20
80.4055274647
 30
0.0
 41
2.0
 42
2.0
 43
2.0
 50
270.0
  0
INSERT
  5
390
330
226
100
AcDbEntity
  8
0
  6
Continuous
 62
     7
100
AcDbBlockReference
  2
_FILLED
 10
86.4489183705
 20
76.9055274647
 30
0.0
 41
2.0
 42
2.0
 43
2.0
 50
90.0
  0
ENDBLK
  5
391
330
226
100
AcDbEntity
  8
0
  6
ByBlock
 62
     0
100
AcDbBlockEnd
  0
BLOCK
  5
392
330
227
100
AcDbEntity
  8
0
  6
Continuous
 62
     7
100
AcDbBlockBegin
  2
*D15
 70
     1
 10
0.0
 20
0.0
 30
0.0
  3
*D15
  1

  0
MTEXT
  5
393
330
227
100
AcDbEntity
  8
0
  6
Continuous
 62
     7
100
AcDbMText
 10
56.6200330443
 20
47.78282798489999
 30
0.0
 40
1.333333333299999
 41
10.6666666667
 71
     1
 72
     1
  1
4{\Ftxt.shx;\W4.000000;\H1.333333; } DOT\P[10,2]
 73
     1
 44
0.9
  0
LINE
  5
394
330
227
100
AcDbEntity
  8
0
  6
Continuous
 62
     7
100
AcDbLine
 10
48.20485957119999
 20
39.8792834796
 30
0.0
 11
48.20485957119999
 21
48.4494946515
 31
0.0
  0
LINE
  5
395
330
227
100
AcDbEntity
  8
0
  6
Continuous
 62
     7
100
AcDbLine
 10
52.2048595712
 20
39.8792834796
 30
0.0
 11
52.2048595712
 21
48.4494946515
 31
0.0
  0
LINE
  5
396
330
227
100
AcDbEntity
  8
0
  6
Continuous
 62
     7
100
AcDbLine
 10
48.20485957119999
 20
47.1161613182
 30
0.0
 11
42.87152623789999
 21
47.1161613182
 31
0.0
  0
LINE
  5
397
330
227
100
AcDbEntity
  8
0
  6
Continuous
 62
     7
100
AcDbLine
 10
52.2048595712
 20
47.1161613182
 30
0.0
 11
55.9533663777
 21
47.1161613182
 31
0.0
  0
INSERT
  5
398
330
227
100
AcDbEntity
  8
0
  6
Continuous
 62
     7
100
AcDbBlockReference
  2
_FILLED
 10
48.20485957119999
 20
47.1161613182
 30
0.0
 41
2.0
 42
2.0
 43
2.0
  0
INSERT
  5
399
330
227
100
AcDbEntity
  8
0
  6
Continuous
 62
     7
100
AcDbBlockReference
  2
_FILLED
 10
52.2048595712
 20
47.1161613182
 30
0.0
 41
2.0
 42
2.0
 43
2.0
 50
180.0
  0
ENDBLK
  5
39A
330
227
100
AcDbEntity
  8
0
  6
ByBlock
 62
     0
100
AcDbBlockEnd
  0
BLOCK
  5
39B
330
228
100
AcDbEntity
  8
0
  6
Continuous
 62
     7
100
AcDbBlockBegin
  2
*D16
 70
     1
 10
0.0
 20
0.0
 30
0.0
  3
*D16
  1

  0
MTEXT
  5
39C
330
228
100
AcDbEntity
  8
0
  6
Continuous
 62
     7
100
AcDbMText
 10
38.3842601999
 20
47.7562087506
 30
0.0
 40
1.333333333299999
 41
9.599999999999999
 71
     3
 72
     1
  1
3{\Ftxt.shx;\W3.200000;\H1.333333; } DOT\P[7,6]
 73
     1
 44
0.9
  0
LINE
  5
39D
330
228
100
AcDbEntity
  8
0
  6
Continuous
 62
     7
100
AcDbLine
 10
47.5381929046
 20
42.2126168129
 30
0.0
 11
39.7175935332
 21
42.2126168129
 31
0.0
  0
LINE
  5
39E
330
228
100
AcDbEntity
  8
0
  6
Continuous
 62
     7
100
AcDbLine
 10
47.5381929046
 20
39.2126168129
 30
0.0
 11
39.7175935332
 21
39.2126168129
 31
0.0
  0
LINE
  5
39F
330
228
100
AcDbEntity
  8
0
  6
Continuous
 62
     7
100
AcDbLine
 10
41.05092686659999
 20
42.2126168129
 30
0.0
 11
41.05092686659999
 21
47.0895420839
 31
0.0
  0
LINE
  5
3A0
330
228
100
AcDbEntity
  8
0
  6
Continuous
 62
     7
100
AcDbLine
 10
41.05092686659999
 20
47.0895420839
 30
0.0
 11
39.0509268666
 21
47.0895420839
 31
0.0
  0
LINE
  5
3A1
330
228
100
AcDbEntity
  8
0
  6
Continuous
 62
     7
100
AcDbLine
 10
41.05092686659999
 20
39.2126168129
 30
0.0
 11
41.05092686659999
 21
33.8792834796
 31
0.0
  0
INSERT
  5
3A2
330
228
100
AcDbEntity
  8
0
  6
Continuous
 62
     7
100
AcDbBlockReference
  2
_FILLED
 10
41.05092686659999
 20
42.2126168129
 30
0.0
 41
2.0
 42
2.0
 43
2.0
 50
270.0
  0
INSERT
  5
3A3
330
228
100
AcDbEntity
  8
0
  6
Continuous
 62
     7
100
AcDbBlockReference
  2
_FILLED
 10
41.05092686659999
 20
39.2126168129
 30
0.0
 41
2.0
 42
2.0
 43
2.0
 50
90.0
  0
ENDBLK
  5
3A4
330
228
100
AcDbEntity
  8
0
  6
ByBlock
 62
     0
100
AcDbBlockEnd
  0
BLOCK
  5
3A5
330
229
100
AcDbEntity
  8
0
  6
Continuous
 62
     7
100
AcDbBlockBegin
  2
*D17
 70
     1
 10
0.0
 20
0.0
 30
0.0
  3
*D17
  1

  0
MTEXT
  5
3A6
330
229
100
AcDbEntity
  8
0
  6
Continuous
 62
     7
100
AcDbMText
 10
88.3128848768
 20
57.3721030341
 30
0.0
 40
1.333333333299999
 41
5.333333333299999
 71
     1
 72
     1
  1
1-1/8\P[3]
 73
     1
 44
0.9
  0
LINE
  5
3A7
330
229
100
AcDbEntity
  8
0
  6
Continuous
 62
     7
100
AcDbLine
 10
83.16367867370001
 20
79.738860798
 30
0.0
 11
83.1636787589
 21
55.3721030161
 31
0.0
  0
LINE
  5
3A8
330
229
100
AcDbEntity
  8
0
  6
Continuous
 62
     7
100
AcDbLine
 10
82.0826048388
 20
73.4945607638
 30
0.0
 11
82.0826049022
 21
55.3721030123
 31
0.0
  0
LINE
  5
3A9
330
229
100
AcDbEntity
  8
0
  6
Continuous
 62
     7
100
AcDbLine
 10
83.1636787542
 20
56.70543634939999
 30
0.0
 11
87.6462182102
 21
56.70543634939999
 31
0.0
  0
LINE
  5
3AA
330
229
100
AcDbEntity
  8
0
  6
Continuous
 62
     7
100
AcDbLine
 10
82.0826048976
 20
56.70543634560001
 30
0.0
 11
76.7492715642
 21
56.7054363269
 31
0.0
  0
INSERT
  5
3AB
330
229
100
AcDbEntity
  8
0
  6
Continuous
 62
     7
100
AcDbBlockReference
  2
_FILLED
 10
83.1636787542
 20
56.70543634939999
 30
0.0
 41
2.0
 42
2.0
 43
2.0
 50
180.0
  0
INSERT
  5
3AC
330
229
100
AcDbEntity
  8
0
  6
Continuous
 62
     7
100
AcDbBlockReference
  2
_FILLED
 10
82.0826048976
 20
56.70543634560001
 30
0.0
 41
2.0
 42
2.0
 43
2.0
 50
0.0000002005
  0
ENDBLK
  5
3AD
330
229
100
AcDbEntity
  8
0
  6
ByBlock
 62
     0
100
AcDbBlockEnd
  0
BLOCK
  5
3AE
330
22A
100
AcDbEntity
  8
0
  6
Continuous
 62
     7
100
AcDbBlockBegin
  2
*D18
 70
     1
 10
0.0
 20
0.0
 30
0.0
  3
*D18
  1

  0
MTEXT
  5
3AF
330
22A
100
AcDbEntity
  8
0
  6
Continuous
 62
     7
100
AcDbMText
 10
9.554298586999999
 20
33.6683205144
 30
0.0
 40
1.333333333299999
 41
6.4
 71
     2
 72
     1
  1
24-1/2\P[62,2]
 73
     1
 44
0.9
  0
LINE
  5
3B0
330
22A
100
AcDbEntity
  8
0
  6
Continuous
 62
     7
100
AcDbLine
 10
23.5381929046
 20
18.7126168129
 30
0.0
 11
8.220965253699999
 21
18.7126168129
 31
0.0
  0
LINE
  5
3B1
330
22A
100
AcDbEntity
  8
0
  6
Continuous
 62
     7
100
AcDbLine
 10
23.5381929046
 20
43.2126168129
 30
0.0
 11
8.220965253699999
 21
43.2126168129
 31
0.0
  0
LINE
  5
3B2
330
22A
100
AcDbEntity
  8
0
  6
Continuous
 62
     7
100
AcDbLine
 10
9.554298586999999
 20
18.7126168129
 30
0.0
 11
9.554298586999999
 21
29.6683205144
 31
0.0
  0
LINE
  5
3B3
330
22A
100
AcDbEntity
  8
0
  6
Continuous
 62
     7
100
AcDbLine
 10
9.554298586999999
 20
43.2126168129
 30
0.0
 11
9.554298586999999
 21
34.334987181
 31
0.0
  0
INSERT
  5
3B4
330
22A
100
AcDbEntity
  8
0
  6
Continuous
 62
     7
100
AcDbBlockReference
  2
_FILLED
 10
9.554298586999999
 20
18.7126168129
 30
0.0
 41
2.0
 42
2.0
 43
2.0
 50
270.0
  0
INSERT
  5
3B5
330
22A
100
AcDbEntity
  8
0
  6
Continuous
 62
     7
100
AcDbBlockReference
  2
_FILLED
 10
9.554298586999999
 20
43.2126168129
 30
0.0
 41
2.0
 42
2.0
 43
2.0
 50
90.0
  0
ENDBLK
  5
3B6
330
22A
100
AcDbEntity
  8
0
  6
ByBlock
 62
     0
100
AcDbBlockEnd
  0
BLOCK
  5
3B7
330
22B
100
AcDbEntity
  8
0
  6
Continuous
 62
     7
100
AcDbBlockBegin
  2
*D19
 70
     1
 10
0.0
 20
0.0
 30
0.0
  3
*D19
  1

  0
MTEXT
  5
3B8
330
22B
100
AcDbEntity
  8
0
  6
Continuous
 62
     7
100
AcDbMText
 10
28.6381929137
 20
106.8003113362
 30
0.0
 40
1.333333333299999
 41
4.266666666699999
 71
     2
 72
     1
  1
11\P[28]
 73
     1
 44
0.9
  0
LINE
  5
3B9
330
22B
100
AcDbEntity
  8
0
  6
Continuous
 62
     7
100
AcDbLine
 10
35.2048595712
 20
96.10850153040001
 30
0.0
 11
35.2048595712
 21
107.4669780028
 31
0.0
  0
LINE
  5
3BA
330
22B
100
AcDbEntity
  8
0
  6
Continuous
 62
     7
100
AcDbLine
 10
24.2048595896
 20
81.07219413140001
 30
0.0
 11
24.2048595896
 21
107.4669780028
 31
0.0
  0
LINE
  5
3BB
330
22B
100
AcDbEntity
  8
0
  6
Continuous
 62
     7
100
AcDbLine
 10
35.2048595712
 20
106.1336446695
 30
0.0
 11
32.5048595804
 21
106.1336446695
 31
0.0
  0
LINE
  5
3BC
330
22B
100
AcDbEntity
  8
0
  6
Continuous
 62
     7
100
AcDbLine
 10
24.2048595896
 20
106.1336446695
 30
0.0
 11
26.9048595804
 21
106.1336446695
 31
0.0
  0
INSERT
  5
3BD
330
22B
100
AcDbEntity
  8
0
  6
Continuous
 62
     7
100
AcDbBlockReference
  2
_FILLED
 10
35.2048595712
 20
106.1336446695
 30
0.0
 41
2.0
 42
2.0
 43
2.0
  0
INSERT
  5
3BE
330
22B
100
AcDbEntity
  8
0
  6
Continuous
 62
     7
100
AcDbBlockReference
  2
_FILLED
 10
24.2048595896
 20
106.1336446695
 30
0.0
 41
2.0
 42
2.0
 43
2.0
 50
180.0
  0
ENDBLK
  5
3BF
330
22B
100
AcDbEntity
  8
0
  6
ByBlock
 62
     0
100
AcDbBlockEnd
  0
BLOCK
  5
3C0
330
22C
100
AcDbEntity
  8
0
  6
Continuous
 62
     7
100
AcDbBlockBegin
  2
*D20
 70
     1
 10
0.0
 20
0.0
 30
0.0
  3
*D20
  1

  0
MTEXT
  5
3C1
330
22C
100
AcDbEntity
  8
0
  6
Continuous
 62
     7
100
AcDbMText
 10
44.34810114819999
 20
102.4654773165
 30
0.0
 40
1.333333333299999
 41
5.333333333299999
 71
     1
 72
     1
  1
4-1/4\P[11]
 73
     1
 44
0.9
  0
LINE
  5
3C2
330
22C
100
AcDbEntity
  8
0
  6
Continuous
 62
     7
100
AcDbLine
 10
35.2048595712
 20
96.26993146540002
 30
0.0
 11
35.2048595712
 21
103.1321439832
 31
0.0
  0
LINE
  5
3C3
330
22C
100
AcDbEntity
  8
0
  6
Continuous
 62
     7
100
AcDbLine
 10
39.4323595712
 20
97.60138791300001
 30
0.0
 11
39.4323595712
 21
103.1321439832
 31
0.0
  0
LINE
  5
3C4
330
22C
100
AcDbEntity
  8
0
  6
Continuous
 62
     7
100
AcDbLine
 10
35.2048595712
 20
101.7988106499
 30
0.0
 11
29.8715262379
 21
101.7988106499
 31
0.0
  0
LINE
  5
3C5
330
22C
100
AcDbEntity
  8
0
  6
Continuous
 62
     7
100
AcDbLine
 10
39.4323595712
 20
101.7988106499
 30
0.0
 11
43.6814344816
 21
101.7988106499
 31
0.0
  0
INSERT
  5
3C6
330
22C
100
AcDbEntity
  8
0
  6
Continuous
 62
     7
100
AcDbBlockReference
  2
_FILLED
 10
35.2048595712
 20
101.7988106499
 30
0.0
 41
2.0
 42
2.0
 43
2.0
  0
INSERT
  5
3C7
330
22C
100
AcDbEntity
  8
0
  6
Continuous
 62
     7
100
AcDbBlockReference
  2
_FILLED
 10
39.4323595712
 20
101.7988106499
 30
0.0
 41
2.0
 42
2.0
 43
2.0
 50
180.0
  0
ENDBLK
  5
3C8
330
22C
100
AcDbEntity
  8
0
  6
ByBlock
 62
     0
100
AcDbBlockEnd
  0
BLOCK
  5
3C9
330
22D
100
AcDbEntity
  8
0
  6
Continuous
 62
     7
100
AcDbBlockBegin
  2
*D21
 70
     1
 10
0.0
 20
0.0
 30
0.0
  3
*D21
  1

  0
MTEXT
  5
3CA
330
22D
100
AcDbEntity
  8
0
  6
Continuous
 62
     7
100
AcDbMText
 10
89.0364517175
 20
40.4557142352
 30
0.0
 40
1.333333333299999
 41
3.0222222222
 71
     2
 72
     1
  1
31\Fgdt;{\Fgdt;~}
 73
     1
 44
0.9
  0
LINE
  5
3CB
330
22D
100
AcDbEntity
  8
0
  6
Continuous
 62
     7
100
AcDbLine
 10
77.5932918209
 20
39.4097209708
 30
0.0
 11
76.2746900704
 21
37.2151991321
 31
0.0
  0
LINE
  5
3CC
330
22D
100
AcDbEntity
  8
0
  6
Continuous
 62
     7
100
AcDbLine
 10
82.0751531488
 20
46.2021241549
 30
0.0
 11
82.0751531488
 21
35.6065883536
 31
0.0
  0
ARC
  5
3CD
330
22D
100
AcDbEntity
  8
0
  6
Continuous
 62
     7
100
AcDbCircle
 10
82.0751531488
 20
46.86879082149999
 30
0.0
 40
9.928869134600001
100
AcDbArc
 50
208.2233338365
 51
239.0
  0
ARC
  5
3CE
330
22D
100
AcDbEntity
  8
0
  6
Continuous
 62
     7
100
AcDbCircle
 10
82.0751531488
 20
46.86879082149999
 30
0.0
 40
9.928869134600001
100
AcDbArc
 50
270.0
 51
314.5166868929
  0
SOLID
  5
3CF
330
22D
100
AcDbEntity
  8
0
  6
Continuous
 62
     7
100
AcDbTrace
 10
75.1597930792
 20
39.2883020552
 30
0.0
 11
76.9614075036
 21
38.3580888664
 31
0.0
 12
75.5588684066
 22
39.8223276422
 32
0.0
 13
75.5588684066
 23
39.8223276422
 33
0.0
  0
SOLID
  5
3D0
330
22D
100
AcDbEntity
  8
0
  6
Continuous
 62
     7
100
AcDbTrace
 10
84.03150252100001
 20
37.4726582494
 30
0.0
 11
82.0751531488
 21
36.9399216869
 31
0.0
 12
84.0985333319
 22
36.8093699902
 32
0.0
 13
84.0985333319
 23
36.8093699902
 33
0.0
  0
ENDBLK
  5
3D1
330
22D
100
AcDbEntity
  8
0
  6
ByBlock
 62
     0
100
AcDbBlockEnd
  0
BLOCK
  5
3D2
330
22E
100
AcDbEntity
  8
0
  6
Continuous
 62
     7
100
AcDbBlockBegin
  2
*D22
 70
     1
 10
0.0
 20
0.0
 30
0.0
  3
*D22
  1

  0
MTEXT
  5
3D3
330
22E
100
AcDbEntity
  8
0
  6
Continuous
 62
     7
100
AcDbMText
 10
19.4871598065
 20
39.4711984519
 30
0.0
 40
1.333333333299999
 41
3.0222222222
 71
     2
 72
     1
  1
12\Fgdt;{\Fgdt;~}
 73
     1
 44
0.9
  0
LINE
  5
3D4
330
22E
100
AcDbEntity
  8
0
  6
Continuous
 62
     7
100
AcDbLine
 10
25.2596143571
 20
42.25002008139999
 30
0.0
 11
25.2596143571
 21
34.5846297352
 31
0.0
  0
LINE
  5
3D5
330
22E
100
AcDbEntity
  8
0
  6
Continuous
 62
     7
100
AcDbLine
 10
26.4622344587
 20
37.475136435
 30
0.0
 11
27.0369244593
 21
34.7714325543
 31
0.0
  0
ARC
  5
3D6
330
22E
100
AcDbEntity
  8
0
  6
Continuous
 62
     7
100
AcDbCircle
 10
25.2596143571
 20
43.1330191753
 30
0.0
 40
7.215056106699999
100
AcDbArc
 50
216.864475289
 51
270.0
  0
ARC
  5
3D7
330
22E
100
AcDbEntity
  8
0
  6
Continuous
 62
     7
100
AcDbCircle
 10
25.2596143571
 20
43.1330191753
 30
0.0
 40
7.215056106699999
100
AcDbArc
 50
282.0
 51
324.3527532172
  0
SOLID
  5
3D8
330
22E
100
AcDbEntity
  8
0
  6
Continuous
 62
     7
100
AcDbTrace
 10
23.2327414101
 20
35.8641377214
 30
0.0
 11
25.2596143571
 21
35.9179630685
 31
0.0
 12
23.3248452406
 22
36.5244113987
 32
0.0
 13
23.3248452406
 23
36.5244113987
 33
0.0
  0
SOLID
  5
3D9
330
22E
100
AcDbEntity
  8
0
  6
Continuous
 62
     7
100
AcDbTrace
 10
28.5261109431
 20
37.0710864527
 30
0.0
 11
26.7597088716
 21
36.0756293553
 31
0.0
 12
28.7534807005
 22
36.44439080260001
 32
0.0
 13
28.7534807005
 23
36.44439080260001
 33
0.0
  0
ENDBLK
  5
3DA
330
22E
100
AcDbEntity
  8
0
  6
ByBlock
 62
     0
100
AcDbBlockEnd
  0
BLOCK
  5
239
330
22F
100
AcDbEntity
  8
0
  6
Continuous
 62
     7
100
AcDbBlockBegin
  2
L03-MOTEUR-CONTROLE-LED_BL3
 70
     0
 10
45.0003386825
 20
67.46179943840001
 30
0.0
  3
L03-MOTEUR-CONTROLE-LED_BL3
  1

  0
TEXT
  5
23A
330
22F
100
AcDbEntity
  8
0
  6
Continuous
 62
     7
100
AcDbText
 10
44.37220042729999
 20
66.8547476088
 30
0.0
 40
1.333333852099999
  1
L
 50
353.0
  7
TEXTSTYLE_2
100
AcDbText
  0
TEXT
  5
23B
330
22F
100
AcDbEntity
  8
0
  6
Continuous
 62
     7
100
AcDbText
 10
40.71659099589999
 20
67.31610403880001
 30
0.0
 40
1.333333852099999
  1
7
 50
353.0
  7
TEXTSTYLE_2
100
AcDbText
  0
TEXT
  5
23C
330
22F
100
AcDbEntity
  8
0
  6
Continuous
 62
     7
100
AcDbText
 10
48.1069907206
 20
66.4086770537
 30
0.0
 40
1.333333852099999
  1
8
 50
353.0
  7
TEXTSTYLE_2
100
AcDbText
  0
ELLIPSE
  5
23D
330
22F
100
AcDbEntity
  8
0
  6
Continuous
 62
     7
100
AcDbEllipse
 10
44.97790337699999
 20
67.4520501163
 30
0.0
 11
-1.928405578599999
 21
0.2367784322
 31
0.0
210
0.0
220
0.0
230
1.0
 40
0.6606458385
 41
0.0
 42
6.283185307179586
  0
ENDBLK
  5
23E
330
22F
100
AcDbEntity
  8
0
  6
ByBlock
 62
     0
100
AcDbBlockEnd
  0
BLOCK
  5
23F
330
230
100
AcDbEntity
  8
0
  6
Continuous
 62
     7
100
AcDbBlockBegin
  2
L03-MOTEUR-CONTROLE-LED_BL2
 70
     0
 10
60.40086044609999
 20
92.2441595076
 30
0.0
  3
L03-MOTEUR-CONTROLE-LED_BL2
  1

  0
TEXT
  5
240
330
230
100
AcDbEntity
  8
0
  6
Continuous
 62
     7
100
AcDbText
 10
59.6768515784
 20
91.75540522270001
 30
0.0
 40
1.333333852099999
  1
L
 50
343.0
  7
TEXTSTYLE_2
100
AcDbText
  0
TEXT
  5
241
330
230
100
AcDbEntity
  8
0
  6
Continuous
 62
     7
100
AcDbText
 10
55.6681145951
 20
92.99397701290001
 30
0.0
 40
1.333333852099999
  1
12
 50
343.0
  7
TEXTSTYLE_2
100
AcDbText
  0
TEXT
  5
242
330
230
100
AcDbEntity
  8
0
  6
Continuous
 62
     7
100
AcDbText
 10
62.7886644996
 20
90.8170064383
 30
0.0
 40
1.333333852099999
  1
13
 50
343.0
  7
TEXTSTYLE_2
100
AcDbText
  0
ELLIPSE
  5
243
330
230
100
AcDbEntity
  8
0
  6
Continuous
 62
     7
100
AcDbEllipse
 10
60.3770730312
 20
92.23845414959999
 30
0.0
 11
-1.8579926215
 21
0.5680453503000002
 31
0.0
210
0.0
220
0.0
230
1.0
 40
0.6606458385
 41
0.0
 42
6.283185307179586
  0
ENDBLK
  5
244
330
230
100
AcDbEntity
  8
0
  6
ByBlock
 62
     0
100
AcDbBlockEnd
  0
BLOCK
  5
245
330
231
100
AcDbEntity
  8
0
  6
Continuous
 62
     7
100
AcDbBlockBegin
  2
L03-USAGE_INTERNE_SEULEM_BL1
 70
     0
 10
126.9852929053
 20
53.1031804367
 30
0.0
  3
L03-USAGE_INTERNE_SEULEM_BL1
  1

  0
TEXT
  5
246
330
231
100
AcDbEntity
  8
0
  6
Continuous
 62
     7
100
AcDbText
 10
120.6712326035
 20
55.3482144225
 30
0.0
 40
1.1626666667
  1
INTERNAL USE 
 50
10.0
  7
TEXTSTYLE_3
100
AcDbText
  0
TEXT
  5
247
330
231
100
AcDbEntity
  8
0
  6
Continuous
 62
     7
100
AcDbText
 10
119.9275483995
 20
53.3466932448
 30
0.0
 40
1.1626666667
  1
DOCUMENT ONLY
 50
10.0
  7
TEXTSTYLE_3
100
AcDbText
  0
TEXT
  5
248
330
231
100
AcDbEntity
  8
0
  6
Continuous
 62
     7
100
AcDbText
 10
125.7122759628
 20
53.0982651943
 30
0.0
 40
1.1626666667
  1
 
 50
10.0
  7
TEXTSTYLE_5
100
AcDbText
  0
TEXT
  5
249
330
231
100
AcDbEntity
  8
0
  6
Continuous
 62
     7
100
AcDbText
 10
117.2676280798
 20
48.92117078800001
 30
0.0
 40
1.1626666667
  1
DOCUMENT POUR USAGE
 50
10.0
  7
TEXTSTYLE_3
100
AcDbText
  0
TEXT
  5
24A
330
231
100
AcDbEntity
  8
0
  6
Continuous
 62
     7
100
AcDbText
 10
117.6967275258
 20
46.9044223276
 30
0.0
 40
1.1626666667
  1
A L'INTERNE SEULEMENT
 50
10.0
  7
TEXTSTYLE_3
100
AcDbText
  0
LINE
  5
24B
330
231
100
AcDbEntity
  8
0
  6
Continuous
 62
     7
100
AcDbLine
 10
140.8418446286
 20
48.7596468187
 30
0.0
 11
140.8486035613
 21
48.7664057514
 31
0.0
  0
LINE
  5
24C
330
231
100
AcDbEntity
  8
0
  6
Continuous
 62
     7
100
AcDbLine
 10
140.1092750622
 20
48.6304750389
 30
0.0
 11
140.7581565073
 21
49.2793564841
 31
0.0
  0
LINE
  5
24D
330
231
100
AcDbEntity
  8
0
  6
Continuous
 62
     7
100
AcDbLine
 10
139.3767054958
 20
48.5013032591
 30
0.0
 11
140.6677094534
 21
49.7923072167
 31
0.0
  0
LINE
  5
24E
330
231
100
AcDbEntity
  8
0
  6
Continuous
 62
     7
100
AcDbLine
 10
138.6441359294
 20
48.3721314793
 30
0.0
 11
140.5772623994
 21
50.30525794939999
 31
0.0
  0
LINE
  5
24F
330
231
100
AcDbEntity
  8
0
  6
Continuous
 62
     7
100
AcDbLine
 10
137.9115663629
 20
48.2429596995
 30
0.0
 11
140.4868153455
 21
50.8182086821
 31
0.0
  0
LINE
  5
250
330
231
100
AcDbEntity
  8
0
  6
Continuous
 62
     7
100
AcDbLine
 10
137.1789967965
 20
48.1137879197
 30
0.0
 11
138.7200006113
 21
49.6547917345
 31
0.0
  0
LINE
  5
251
330
231
100
AcDbEntity
  8
0
  6
Continuous
 62
     7
100
AcDbLine
 10
139.317345804
 20
50.25213692720001
 30
0.0
 11
140.3963682915
 21
51.3311594147
 31
0.0
  0
LINE
  5
252
330
231
100
AcDbEntity
  8
0
  6
Continuous
 62
     7
100
AcDbLine
 10
136.4464272301
 20
47.98461613989999
 30
0.0
 11
137.9874310449
 21
49.5256199547
 31
0.0
  0
LINE
  5
253
330
231
100
AcDbEntity
  8
0
  6
Continuous
 62
     7
100
AcDbLine
 10
139.2268987501
 20
50.76508765989999
 30
0.0
 11
140.3059212376
 21
51.8441101474
 31
0.0
  0
LINE
  5
254
330
231
100
AcDbEntity
  8
0
  6
Continuous
 62
     7
100
AcDbLine
 10
135.7138576637
 20
47.8554443601
 30
0.0
 11
137.2548614785
 21
49.39644817489999
 31
0.0
  0
LINE
  5
255
330
231
100
AcDbEntity
  8
0
  6
Continuous
 62
     7
100
AcDbLine
 10
139.1364516961
 20
51.2780383926
 30
0.0
 11
140.2154741837
 21
52.3570608801
 31
0.0
  0
LINE
  5
256
330
231
100
AcDbEntity
  8
0
  6
Continuous
 62
     7
100
AcDbLine
 10
134.9812880973
 20
47.72627258029999
 30
0.0
 11
136.522291912
 21
49.26727639510001
 31
0.0
  0
LINE
  5
257
330
231
100
AcDbEntity
  8
0
  6
Continuous
 62
     7
100
AcDbLine
 10
139.0460046422
 20
51.7909891252
 30
0.0
 11
140.1250271297
 21
52.8700116127
 31
0.0
  0
LINE
  5
258
330
231
100
AcDbEntity
  8
0
  6
Continuous
 62
     7
100
AcDbLine
 10
134.2487185309
 20
47.5971008005
 30
0.0
 11
135.7897223456
 21
49.13810461529999
 31
0.0
  0
LINE
  5
259
330
231
100
AcDbEntity
  8
0
  6
Continuous
 62
     7
100
AcDbLine
 10
138.9555575883
 20
52.3039398579
 30
0.0
 11
140.0345800758
 21
53.3829623454
 31
0.0
  0
LINE
  5
25A
330
231
100
AcDbEntity
  8
0
  6
Continuous
 62
     7
100
AcDbLine
 10
133.5161489644
 20
47.4679290207
 30
0.0
 11
135.0571527792
 21
49.00893283550001
 31
0.0
  0
LINE
  5
25B
330
231
100
AcDbEntity
  8
0
  6
Continuous
 62
     7
100
AcDbLine
 10
138.8651105343
 20
52.8168905906
 30
0.0
 11
139.9441330218
 21
53.8959130781
 31
0.0
  0
LINE
  5
25C
330
231
100
AcDbEntity
  8
0
  6
Continuous
 62
     7
100
AcDbLine
 10
132.783579398
 20
47.3387572409
 30
0.0
 11
134.3245832128
 21
48.87976105569999
 31
0.0
  0
LINE
  5
25D
330
231
100
AcDbEntity
  8
0
  6
Continuous
 62
     7
100
AcDbLine
 10
138.7746634804
 20
53.3298413232
 30
0.0
 11
139.8536859679
 21
54.4088638108
 31
0.0
  0
LINE
  5
25E
330
231
100
AcDbEntity
  8
0
  6
Continuous
 62
     7
100
AcDbLine
 10
132.0510098316
 20
47.2095854611
 30
0.0
 11
133.5920136464
 21
48.7505892759
 31
0.0
  0
LINE
  5
25F
330
231
100
AcDbEntity
  8
0
  6
Continuous
 62
     7
100
AcDbLine
 10
138.6842164264
 20
53.8427920559
 30
0.0
 11
139.7632389139
 21
54.9218145434
 31
0.0
  0
LINE
  5
260
330
231
100
AcDbEntity
  8
0
  6
Continuous
 62
     7
100
AcDbLine
 10
131.3184402652
 20
47.08041368129999
 30
0.0
 11
132.85944408
 21
48.6214174961
 31
0.0
  0
LINE
  5
261
330
231
100
AcDbEntity
  8
0
  6
Continuous
 62
     7
100
AcDbLine
 10
138.5937693725
 20
54.35574278859999
 30
0.0
 11
139.67279186
 21
55.4347652761
 31
0.0
  0
LINE
  5
262
330
231
100
AcDbEntity
  8
0
  6
Continuous
 62
     7
100
AcDbLine
 10
130.5858706988
 20
46.95124190149999
 30
0.0
 11
132.1268745135
 21
48.4922457163
 31
0.0
  0
LINE
  5
263
330
231
100
AcDbEntity
  8
0
  6
Continuous
 62
     7
100
AcDbLine
 10
138.2908897727
 20
54.6562609754
 30
0.0
 11
139.5823448061
 21
55.9477160088
 31
0.0
  0
LINE
  5
264
330
231
100
AcDbEntity
  8
0
  6
Continuous
 62
     7
100
AcDbLine
 10
129.8533011323
 20
46.8220701217
 30
0.0
 11
131.3943049471
 21
48.36307393640001
 31
0.0
  0
LINE
  5
265
330
231
100
AcDbEntity
  8
0
  6
Continuous
 62
     7
100
AcDbLine
 10
137.5583202062
 20
54.5270891956
 30
0.0
 11
139.4918977521
 21
56.4606667414
 31
0.0
  0
LINE
  5
266
330
231
100
AcDbEntity
  8
0
  6
Continuous
 62
     7
100
AcDbLine
 10
129.1207315659
 20
46.69289834189999
 30
0.0
 11
130.6617353807
 21
48.23390215659999
 31
0.0
  0
LINE
  5
267
330
231
100
AcDbEntity
  8
0
  6
Continuous
 62
     7
100
AcDbLine
 10
136.8257506398
 20
54.3979174157
 30
0.0
 11
137.8530929381
 21
55.42525971399999
 31
0.0
  0
LINE
  5
268
330
231
100
AcDbEntity
  8
0
  6
Continuous
 62
     7
100
AcDbLine
 10
138.3224282106
 20
55.8945949866
 30
0.0
 11
139.4014506982
 21
56.97361747409999
 31
0.0
  0
LINE
  5
269
330
231
100
AcDbEntity
  8
0
  6
Continuous
 62
     7
100
AcDbLine
 10
128.3881619995
 20
46.5637265621
 30
0.0
 11
129.9291658143
 21
48.10473037680001
 31
0.0
  0
LINE
  5
26A
330
231
100
AcDbEntity
  8
0
  6
Continuous
 62
     7
100
AcDbLine
 10
136.0931810734
 20
54.26874563590001
 30
0.0
 11
137.120523162
 21
55.2960877246
 31
0.0
  0
LINE
  5
26B
330
231
100
AcDbEntity
  8
0
  6
Continuous
 62
     7
100
AcDbLine
 10
138.2319811567
 20
56.4075457192
 30
0.0
 11
139.3110036442
 21
57.4865682068
 31
0.0
  0
LINE
  5
26C
330
231
100
AcDbEntity
  8
0
  6
Continuous
 62
     7
100
AcDbLine
 10
127.6555924331
 20
46.43455478229999
 30
0.0
 11
129.1965962479
 21
47.975558597
 31
0.0
  0
LINE
  5
26D
330
231
100
AcDbEntity
  8
0
  6
Continuous
 62
     7
100
AcDbLine
 10
135.360611507
 20
54.13957385609999
 30
0.0
 11
136.387953386
 21
55.16691573520001
 31
0.0
  0
LINE
  5
26E
330
231
100
AcDbEntity
  8
0
  6
Continuous
 62
     7
100
AcDbLine
 10
138.1415341028
 20
56.9204964519
 30
0.0
 11
139.2205565903
 21
57.9995189394
 31
0.0
  0
LINE
  5
26F
330
231
100
AcDbEntity
  8
0
  6
Continuous
 62
     7
100
AcDbLine
 10
126.9230228667
 20
46.3053830024
 30
0.0
 11
128.4640266815
 21
47.8463868172
 31
0.0
  0
LINE
  5
270
330
231
100
AcDbEntity
  8
0
  6
Continuous
 62
     7
100
AcDbLine
 10
134.6280419406
 20
54.0104020763
 30
0.0
 11
135.65538361
 21
55.0377437458
 31
0.0
  0
LINE
  5
271
330
231
100
AcDbEntity
  8
0
  6
Continuous
 62
     7
100
AcDbLine
 10
138.0510870488
 20
57.4334471846
 30
0.0
 11
139.1301095363
 21
58.5124696721
 31
0.0
  0
LINE
  5
272
330
231
100
AcDbEntity
  8
0
  6
Continuous
 62
     7
100
AcDbLine
 10
126.1904533003
 20
46.1762112226
 30
0.0
 11
127.731457115
 21
47.71721503739999
 31
0.0
  0
LINE
  5
273
330
231
100
AcDbEntity
  8
0
  6
Continuous
 62
     7
100
AcDbLine
 10
133.8954723741
 20
53.8812302965
 30
0.0
 11
134.922813834
 21
54.9085717563
 31
0.0
  0
LINE
  5
274
330
231
100
AcDbEntity
  8
0
  6
Continuous
 62
     7
100
AcDbLine
 10
137.9606399949
 20
57.94639791729999
 30
0.0
 11
139.0396624824
 21
59.0254204048
 31
0.0
  0
LINE
  5
275
330
231
100
AcDbEntity
  8
0
  6
Continuous
 62
     7
100
AcDbLine
 10
125.4578837338
 20
46.04703944279999
 30
0.0
 11
126.9988875486
 21
47.58804325759999
 31
0.0
  0
LINE
  5
276
330
231
100
AcDbEntity
  8
0
  6
Continuous
 62
     7
100
AcDbLine
 10
133.1629028077
 20
53.7520585167
 30
0.0
 11
134.1902440579
 21
54.7793997669
 31
0.0
  0
LINE
  5
277
330
231
100
AcDbEntity
  8
0
  6
Continuous
 62
     7
100
AcDbLine
 10
137.8701929409
 20
58.4593486499
 30
0.0
 11
138.9492154284
 21
59.5383711374
 31
0.0
  0
LINE
  5
278
330
231
100
AcDbEntity
  8
0
  6
Continuous
 62
     7
100
AcDbLine
 10
124.7253141674
 20
45.917867663
 30
0.0
 11
126.2663179822
 21
47.45887147779999
 31
0.0
  0
LINE
  5
279
330
231
100
AcDbEntity
  8
0
  6
Continuous
 62
     7
100
AcDbLine
 10
132.4303332413
 20
53.62288673689999
 30
0.0
 11
133.4576742819
 21
54.6502277775
 31
0.0
  0
LINE
  5
27A
330
231
100
AcDbEntity
  8
0
  6
Continuous
 62
     7
100
AcDbLine
 10
137.779745887
 20
58.9722993826
 30
0.0
 11
138.8587683745
 21
60.0513218701
 31
0.0
  0
LINE
  5
27B
330
231
100
AcDbEntity
  8
0
  6
Continuous
 62
     7
100
AcDbLine
 10
123.992744601
 20
45.78869588319999
 30
0.0
 11
125.5337484158
 21
47.329699698
 31
0.0
  0
LINE
  5
27C
330
231
100
AcDbEntity
  8
0
  6
Continuous
 62
     7
100
AcDbLine
 10
131.6977636749
 20
53.4937149571
 30
0.0
 11
132.7251045059
 21
54.52105578810001
 31
0.0
  0
LINE
  5
27D
330
231
100
AcDbEntity
  8
0
  6
Continuous
 62
     7
100
AcDbLine
 10
137.689298833
 20
59.4852501153
 30
0.0
 11
138.7683213206
 21
60.56427260279999
 31
0.0
  0
LINE
  5
27E
330
231
100
AcDbEntity
  8
0
  6
Continuous
 62
     7
100
AcDbLine
 10
123.2601750346
 20
45.6595241034
 30
0.0
 11
124.8011788494
 21
47.20052791819999
 31
0.0
  0
LINE
  5
27F
330
231
100
AcDbEntity
  8
0
  6
Continuous
 62
     7
100
AcDbLine
 10
130.9651941085
 20
53.36454317729999
 30
0.0
 11
131.9925347298
 21
54.3918837987
 31
0.0
  0
LINE
  5
280
330
231
100
AcDbEntity
  8
0
  6
Continuous
 62
     7
100
AcDbLine
 10
137.5988517791
 20
59.9982008479
 30
0.0
 11
138.6778742666
 21
61.07722333539999
 31
0.0
  0
LINE
  5
281
330
231
100
AcDbEntity
  8
0
  6
Continuous
 62
     7
100
AcDbLine
 10
122.5276054682
 20
45.5303523236
 30
0.0
 11
124.0686092829
 21
47.0713561384
 31
0.0
  0
LINE
  5
282
330
231
100
AcDbEntity
  8
0
  6
Continuous
 62
     7
100
AcDbLine
 10
130.2326245421
 20
53.2353713975
 30
0.0
 11
131.2599649538
 21
54.2627118093
 31
0.0
  0
LINE
  5
283
330
231
100
AcDbEntity
  8
0
  6
Continuous
 62
     7
100
AcDbLine
 10
137.4239756777
 20
60.42672253310001
 30
0.0
 11
138.5874272127
 21
61.59017406810001
 31
0.0
  0
LINE
  5
284
330
231
100
AcDbEntity
  8
0
  6
Continuous
 62
     7
100
AcDbLine
 10
121.7950359018
 20
45.4011805438
 30
0.0
 11
123.3360397165
 21
46.94218435859999
 31
0.0
  0
LINE
  5
285
330
231
100
AcDbEntity
  8
0
  6
Continuous
 62
     7
100
AcDbLine
 10
129.5000549756
 20
53.10619961770001
 30
0.0
 11
130.5273951778
 21
54.13353981979999
 31
0.0
  0
LINE
  5
286
330
231
100
AcDbEntity
  8
0
  6
Continuous
 62
     7
100
AcDbLine
 10
136.6914061113
 20
60.2975507533
 30
0.0
 11
138.232409926
 21
61.8385545681
 31
0.0
  0
LINE
  5
287
330
231
100
AcDbEntity
  8
0
  6
Continuous
 62
     7
100
AcDbLine
 10
121.0624663353
 20
45.272008764
 30
0.0
 11
122.6034701501
 21
46.8130125788
 31
0.0
  0
LINE
  5
288
330
231
100
AcDbEntity
  8
0
  6
Continuous
 62
     7
100
AcDbLine
 10
128.7674854092
 20
52.9770278379
 30
0.0
 11
129.7948254018
 21
54.00436783039999
 31
0.0
  0
LINE
  5
289
330
231
100
AcDbEntity
  8
0
  6
Continuous
 62
     7
100
AcDbLine
 10
135.9588365448
 20
60.16837897350001
 30
0.0
 11
137.4998403596
 21
61.7093827883
 31
0.0
  0
LINE
  5
28A
330
231
100
AcDbEntity
  8
0
  6
Continuous
 62
     7
100
AcDbLine
 10
120.3298967689
 20
45.1428369842
 30
0.0
 11
121.8709005837
 21
46.683840799
 31
0.0
  0
LINE
  5
28B
330
231
100
AcDbEntity
  8
0
  6
Continuous
 62
     7
100
AcDbLine
 10
128.0349158428
 20
52.8478560581
 30
0.0
 11
129.0622556257
 21
53.87519584100001
 31
0.0
  0
LINE
  5
28C
330
231
100
AcDbEntity
  8
0
  6
Continuous
 62
     7
100
AcDbLine
 10
135.2262669784
 20
60.0392071937
 30
0.0
 11
136.7672707932
 21
61.5802110085
 31
0.0
  0
LINE
  5
28D
330
231
100
AcDbEntity
  8
0
  6
Continuous
 62
     7
100
AcDbLine
 10
119.5973272025
 20
45.0136652044
 30
0.0
 11
121.1383310173
 21
46.55466901919999
 31
0.0
  0
LINE
  5
28E
330
231
100
AcDbEntity
  8
0
  6
Continuous
 62
     7
100
AcDbLine
 10
127.3023462764
 20
52.7186842783
 30
0.0
 11
128.3296858497
 21
53.7460238516
 31
0.0
  0
LINE
  5
28F
330
231
100
AcDbEntity
  8
0
  6
Continuous
 62
     7
100
AcDbLine
 10
134.493697412
 20
59.9100354139
 30
0.0
 11
136.0347012268
 21
61.45103922869999
 31
0.0
  0
LINE
  5
290
330
231
100
AcDbEntity
  8
0
  6
Continuous
 62
     7
100
AcDbLine
 10
118.8647576361
 20
44.8844934246
 30
0.0
 11
120.4057614509
 21
46.42549723939999
 31
0.0
  0
LINE
  5
291
330
231
100
AcDbEntity
  8
0
  6
Continuous
 62
     7
100
AcDbLine
 10
126.56977671
 20
52.5895124985
 30
0.0
 11
127.5971160737
 21
53.6168518622
 31
0.0
  0
LINE
  5
292
330
231
100
AcDbEntity
  8
0
  6
Continuous
 62
     7
100
AcDbLine
 10
133.7611278456
 20
59.7808636341
 30
0.0
 11
135.3021316604
 21
61.3218674489
 31
0.0
  0
LINE
  5
293
330
231
100
AcDbEntity
  8
0
  6
Continuous
 62
     7
100
AcDbLine
 10
118.1321880697
 20
44.75532164479999
 30
0.0
 11
119.6731918844
 21
46.29632545959999
 31
0.0
  0
LINE
  5
294
330
231
100
AcDbEntity
  8
0
  6
Continuous
 62
     7
100
AcDbLine
 10
125.8372071435
 20
52.46034071869999
 30
0.0
 11
126.8645462976
 21
53.48767987279999
 31
0.0
  0
LINE
  5
295
330
231
100
AcDbEntity
  8
0
  6
Continuous
 62
     7
100
AcDbLine
 10
133.0285582792
 20
59.6516918543
 30
0.0
 11
134.5695620939
 21
61.19269566909999
 31
0.0
  0
LINE
  5
296
330
231
100
AcDbEntity
  8
0
  6
Continuous
 62
     7
100
AcDbLine
 10
117.3996185032
 20
44.626149865
 30
0.0
 11
118.940622318
 21
46.16715367979999
 31
0.0
  0
LINE
  5
297
330
231
100
AcDbEntity
  8
0
  6
Continuous
 62
     7
100
AcDbLine
 10
125.1046375771
 20
52.33116893890001
 30
0.0
 11
126.1319765216
 21
53.3585078834
 31
0.0
  0
LINE
  5
298
330
231
100
AcDbEntity
  8
0
  6
Continuous
 62
     7
100
AcDbLine
 10
132.2959887128
 20
59.5225200745
 30
0.0
 11
133.8369925275
 21
61.0635238893
 31
0.0
  0
LINE
  5
299
330
231
100
AcDbEntity
  8
0
  6
Continuous
 62
     7
100
AcDbLine
 10
116.6670489368
 20
44.4969780852
 30
0.0
 11
118.2080527516
 21
46.0379818999
 31
0.0
  0
LINE
  5
29A
330
231
100
AcDbEntity
  8
0
  6
Continuous
 62
     7
100
AcDbLine
 10
124.3720680107
 20
52.20199715909999
 30
0.0
 11
125.3994067456
 21
53.2293358939
 31
0.0
  0
LINE
  5
29B
330
231
100
AcDbEntity
  8
0
  6
Continuous
 62
     7
100
AcDbLine
 10
131.5634191463
 20
59.3933482947
 30
0.0
 11
133.1044229611
 21
60.9343521095
 31
0.0
  0
LINE
  5
29C
330
231
100
AcDbEntity
  8
0
  6
Continuous
 62
     7
100
AcDbLine
 10
115.9344793704
 20
44.3678063054
 30
0.0
 11
117.4754831852
 21
45.9088101201
 31
0.0
  0
LINE
  5
29D
330
231
100
AcDbEntity
  8
0
  6
Continuous
 62
     7
100
AcDbLine
 10
123.6394984443
 20
52.07282537930001
 30
0.0
 11
124.6668369696
 21
53.1001639045
 31
0.0
  0
LINE
  5
29E
330
231
100
AcDbEntity
  8
0
  6
Continuous
 62
     7
100
AcDbLine
 10
130.8308495799
 20
59.2641765149
 30
0.0
 11
132.3718533947
 21
60.8051803297
 31
0.0
  0
LINE
  5
29F
330
231
100
AcDbEntity
  8
0
  6
Continuous
 62
     7
100
AcDbLine
 10
115.3831585979
 20
44.41988331949999
 30
0.0
 11
116.7429136188
 21
45.7796383403
 31
0.0
  0
LINE
  5
2A0
330
231
100
AcDbEntity
  8
0
  6
Continuous
 62
     7
100
AcDbLine
 10
122.9069288779
 20
51.94365359939999
 30
0.0
 11
123.9342671935
 21
52.9709919151
 31
0.0
  0
LINE
  5
2A1
330
231
100
AcDbEntity
  8
0
  6
Continuous
 62
     7
100
AcDbLine
 10
130.0982800135
 20
59.1350047351
 30
0.0
 11
131.6392838283
 21
60.6760085498
 31
0.0
  0
LINE
  5
2A2
330
231
100
AcDbEntity
  8
0
  6
Continuous
 62
     7
100
AcDbLine
 10
115.2927115439
 20
44.93283405209999
 30
0.0
 11
116.3717340315
 21
46.0118565396
 31
0.0
  0
LINE
  5
2A3
330
231
100
AcDbEntity
  8
0
  6
Continuous
 62
     7
100
AcDbLine
 10
122.1743593115
 20
51.8144818196
 30
0.0
 11
123.2016974175
 21
52.84181992569999
 31
0.0
  0
LINE
  5
2A4
330
231
100
AcDbEntity
  8
0
  6
Continuous
 62
     7
100
AcDbLine
 10
129.3657104471
 20
59.0058329553
 30
0.0
 11
130.9067142619
 21
60.54683676999999
 31
0.0
  0
LINE
  5
2A5
330
231
100
AcDbEntity
  8
0
  6
Continuous
 62
     7
100
AcDbLine
 10
115.20226449
 20
45.4457847848
 30
0.0
 11
116.2812869775
 21
46.52480727229999
 31
0.0
  0
LINE
  5
2A6
330
231
100
AcDbEntity
  8
0
  6
Continuous
 62
     7
100
AcDbLine
 10
121.441789745
 20
51.6853100398
 30
0.0
 11
122.4691276415
 21
52.7126479363
 31
0.0
  0
LINE
  5
2A7
330
231
100
AcDbEntity
  8
0
  6
Continuous
 62
     7
100
AcDbLine
 10
128.6331408807
 20
58.87666117550001
 30
0.0
 11
130.1741446954
 21
60.4176649902
 31
0.0
  0
LINE
  5
2A8
330
231
100
AcDbEntity
  8
0
  6
Continuous
 62
     7
100
AcDbLine
 10
115.1118174361
 20
45.9587355175
 30
0.0
 11
116.1908399236
 21
47.03775800499999
 31
0.0
  0
LINE
  5
2A9
330
231
100
AcDbEntity
  8
0
  6
Continuous
 62
     7
100
AcDbLine
 10
120.7092201786
 20
51.55613825999999
 30
0.0
 11
121.7365578654
 21
52.5834759469
 31
0.0
  0
LINE
  5
2AA
330
231
100
AcDbEntity
  8
0
  6
Continuous
 62
     7
100
AcDbLine
 10
127.9005713142
 20
58.74748939569999
 30
0.0
 11
129.441575129
 21
60.2884932104
 31
0.0
  0
LINE
  5
2AB
330
231
100
AcDbEntity
  8
0
  6
Continuous
 62
     7
100
AcDbLine
 10
115.0213703821
 20
46.47168625009999
 30
0.0
 11
116.1003928696
 21
47.5507087376
 31
0.0
  0
LINE
  5
2AC
330
231
100
AcDbEntity
  8
0
  6
Continuous
 62
     7
100
AcDbLine
 10
119.9766506122
 20
51.42696648020001
 30
0.0
 11
121.0039880894
 21
52.4543039574
 31
0.0
  0
LINE
  5
2AD
330
231
100
AcDbEntity
  8
0
  6
Continuous
 62
     7
100
AcDbLine
 10
127.1680017478
 20
58.6183176159
 30
0.0
 11
128.7090055626
 21
60.1593214306
 31
0.0
  0
LINE
  5
2AE
330
231
100
AcDbEntity
  8
0
  6
Continuous
 62
     7
100
AcDbLine
 10
114.9309233282
 20
46.9846369828
 30
0.0
 11
116.0099458157
 21
48.06365947029999
 31
0.0
  0
LINE
  5
2AF
330
231
100
AcDbEntity
  8
0
  6
Continuous
 62
     7
100
AcDbLine
 10
119.2440810458
 20
51.29779470039999
 30
0.0
 11
120.2714183134
 21
52.325131968
 31
0.0
  0
LINE
  5
2B0
330
231
100
AcDbEntity
  8
0
  6
Continuous
 62
     7
100
AcDbLine
 10
126.4354321814
 20
58.489145836
 30
0.0
 11
127.9764359962
 21
60.0301496508
 31
0.0
  0
LINE
  5
2B1
330
231
100
AcDbEntity
  8
0
  6
Continuous
 62
     7
100
AcDbLine
 10
114.8404762742
 20
47.4975877155
 30
0.0
 11
115.9194987617
 21
48.576610203
 31
0.0
  0
LINE
  5
2B2
330
231
100
AcDbEntity
  8
0
  6
Continuous
 62
     7
100
AcDbLine
 10
118.5115114794
 20
51.1686229206
 30
0.0
 11
119.5388485374
 21
52.19595997859999
 31
0.0
  0
LINE
  5
2B3
330
231
100
AcDbEntity
  8
0
  6
Continuous
 62
     7
100
AcDbLine
 10
125.702862615
 20
58.3599740562
 30
0.0
 11
127.2438664298
 21
59.900977871
 31
0.0
  0
LINE
  5
2B4
330
231
100
AcDbEntity
  8
0
  6
Continuous
 62
     7
100
AcDbLine
 10
114.7500292203
 20
48.01053844810001
 30
0.0
 11
115.8290517078
 21
49.0895609357
 31
0.0
  0
LINE
  5
2B5
330
231
100
AcDbEntity
  8
0
  6
Continuous
 62
     7
100
AcDbLine
 10
117.7789419129
 20
51.0394511408
 30
0.0
 11
118.8062787613
 21
52.0667879892
 31
0.0
  0
LINE
  5
2B6
330
231
100
AcDbEntity
  8
0
  6
Continuous
 62
     7
100
AcDbLine
 10
124.9702930486
 20
58.23080227640001
 30
0.0
 11
126.5112968634
 21
59.7718060912
 31
0.0
  0
LINE
  5
2B7
330
231
100
AcDbEntity
  8
0
  6
Continuous
 62
     7
100
AcDbLine
 10
114.6595821663
 20
48.5234891808
 30
0.0
 11
115.7386046539
 21
49.6025116683
 31
0.0
  0
LINE
  5
2B8
330
231
100
AcDbEntity
  8
0
  6
Continuous
 62
     7
100
AcDbLine
 10
117.0463723465
 20
50.910279361
 30
0.0
 11
118.0737089853
 21
51.9376159998
 31
0.0
  0
LINE
  5
2B9
330
231
100
AcDbEntity
  8
0
  6
Continuous
 62
     7
100
AcDbLine
 10
124.2377234822
 20
58.10163049659999
 30
0.0
 11
125.7787272969
 21
59.6426343114
 31
0.0
  0
LINE
  5
2BA
330
231
100
AcDbEntity
  8
0
  6
Continuous
 62
     7
100
AcDbLine
 10
114.5691351124
 20
49.0364399135
 30
0.0
 11
115.6481575999
 21
50.115462401
 31
0.0
  0
LINE
  5
2BB
330
231
100
AcDbEntity
  8
0
  6
Continuous
 62
     7
100
AcDbLine
 10
116.3138027801
 20
50.7811075812
 30
0.0
 11
117.3411392093
 21
51.8084440104
 31
0.0
  0
LINE
  5
2BC
330
231
100
AcDbEntity
  8
0
  6
Continuous
 62
     7
100
AcDbLine
 10
123.5051539157
 20
57.97245871680001
 30
0.0
 11
125.0461577305
 21
59.5134625316
 31
0.0
  0
LINE
  5
2BD
330
231
100
AcDbEntity
  8
0
  6
Continuous
 62
     7
100
AcDbLine
 10
114.4786880584
 20
49.54939064609999
 30
0.0
 11
115.557710546
 21
50.6284131337
 31
0.0
  0
LINE
  5
2BE
330
231
100
AcDbEntity
  8
0
  6
Continuous
 62
     7
100
AcDbLine
 10
115.5812332137
 20
50.6519358014
 30
0.0
 11
116.6085694332
 21
51.6792720209
 31
0.0
  0
LINE
  5
2BF
330
231
100
AcDbEntity
  8
0
  6
Continuous
 62
     7
100
AcDbLine
 10
122.7725843493
 20
57.843286937
 30
0.0
 11
124.3135881641
 21
59.3842907518
 31
0.0
  0
LINE
  5
2C0
330
231
100
AcDbEntity
  8
0
  6
Continuous
 62
     7
100
AcDbLine
 10
114.3882410045
 20
50.06234137879999
 30
0.0
 11
115.8759996572
 21
51.5501000315
 31
0.0
  0
LINE
  5
2C1
330
231
100
AcDbEntity
  8
0
  6
Continuous
 62
     7
100
AcDbLine
 10
122.0400147829
 20
57.7141151572
 30
0.0
 11
123.5810185977
 21
59.25511897199999
 31
0.0
  0
LINE
  5
2C2
330
231
100
AcDbEntity
  8
0
  6
Continuous
 62
     7
100
AcDbLine
 10
114.2977939506
 20
50.5752921115
 30
0.0
 11
115.3768164381
 21
51.65431459899999
 31
0.0
  0
LINE
  5
2C3
330
231
100
AcDbEntity
  8
0
  6
Continuous
 62
     7
100
AcDbLine
 10
121.3074452165
 20
57.5849433774
 30
0.0
 11
122.8484490313
 21
59.1259471922
 31
0.0
  0
LINE
  5
2C4
330
231
100
AcDbEntity
  8
0
  6
Continuous
 62
     7
100
AcDbLine
 10
114.2073468966
 20
51.0882428442
 30
0.0
 11
115.2863693841
 21
52.1672653317
 31
0.0
  0
LINE
  5
2C5
330
231
100
AcDbEntity
  8
0
  6
Continuous
 62
     7
100
AcDbLine
 10
120.5748756501
 20
57.4557715976
 30
0.0
 11
122.1158794648
 21
58.99677541239999
 31
0.0
  0
LINE
  5
2C6
330
231
100
AcDbEntity
  8
0
  6
Continuous
 62
     7
100
AcDbLine
 10
114.1168998427
 20
51.6011935768
 30
0.0
 11
115.1959223302
 21
52.6802160643
 31
0.0
  0
LINE
  5
2C7
330
231
100
AcDbEntity
  8
0
  6
Continuous
 62
     7
100
AcDbLine
 10
119.8423060837
 20
57.32659981779999
 30
0.0
 11
121.3833098984
 21
58.8676036326
 31
0.0
  0
LINE
  5
2C8
330
231
100
AcDbEntity
  8
0
  6
Continuous
 62
     7
100
AcDbLine
 10
114.0264527887
 20
52.1141443095
 30
0.0
 11
115.1054752762
 21
53.19316679699999
 31
0.0
  0
LINE
  5
2C9
330
231
100
AcDbEntity
  8
0
  6
Continuous
 62
     7
100
AcDbLine
 10
119.1097365172
 20
57.197428038
 30
0.0
 11
120.650740332
 21
58.7384318528
 31
0.0
  0
LINE
  5
2CA
330
231
100
AcDbEntity
  8
0
  6
Continuous
 62
     7
100
AcDbLine
 10
113.9360057348
 20
52.6270950422
 30
0.0
 11
115.0150282223
 21
53.7061175297
 31
0.0
  0
LINE
  5
2CB
330
231
100
AcDbEntity
  8
0
  6
Continuous
 62
     7
100
AcDbLine
 10
118.3771669508
 20
57.06825625819999
 30
0.0
 11
119.9181707656
 21
58.609260073
 31
0.0
  0
LINE
  5
2CC
330
231
100
AcDbEntity
  8
0
  6
Continuous
 62
     7
100
AcDbLine
 10
113.8455586808
 20
53.14004577479999
 30
0.0
 11
114.9245811684
 21
54.21906826229999
 31
0.0
  0
LINE
  5
2CD
330
231
100
AcDbEntity
  8
0
  6
Continuous
 62
     7
100
AcDbLine
 10
117.6445973844
 20
56.9390844784
 30
0.0
 11
119.1856011992
 21
58.4800882932
 31
0.0
  0
LINE
  5
2CE
330
231
100
AcDbEntity
  8
0
  6
Continuous
 62
     7
100
AcDbLine
 10
113.7551116269
 20
53.65299650749999
 30
0.0
 11
114.8341341144
 21
54.732018995
 31
0.0
  0
LINE
  5
2CF
330
231
100
AcDbEntity
  8
0
  6
Continuous
 62
     7
100
AcDbLine
 10
116.912027818
 20
56.80991269859999
 30
0.0
 11
118.4530316328
 21
58.3509165134
 31
0.0
  0
LINE
  5
2D0
330
231
100
AcDbEntity
  8
0
  6
Continuous
 62
     7
100
AcDbLine
 10
113.664664573
 20
54.16594724020001
 30
0.0
 11
114.7436870605
 21
55.2449697277
 31
0.0
  0
LINE
  5
2D1
330
231
100
AcDbEntity
  8
0
  6
Continuous
 62
     7
100
AcDbLine
 10
116.1794582516
 20
56.6807409188
 30
0.0
 11
117.7204620663
 21
58.2217447335
 31
0.0
  0
LINE
  5
2D2
330
231
100
AcDbEntity
  8
0
  6
Continuous
 62
     7
100
AcDbLine
 10
113.574217519
 20
54.67889797279999
 30
0.0
 11
114.6532400065
 21
55.7579204604
 31
0.0
  0
LINE
  5
2D3
330
231
100
AcDbEntity
  8
0
  6
Continuous
 62
     7
100
AcDbLine
 10
115.4468886851
 20
56.55156913899999
 30
0.0
 11
116.9878924999
 21
58.0925729537
 31
0.0
  0
LINE
  5
2D4
330
231
100
AcDbEntity
  8
0
  6
Continuous
 62
     7
100
AcDbLine
 10
113.4837704651
 20
55.1918487055
 30
0.0
 11
114.5627929526
 21
56.270871193
 31
0.0
  0
LINE
  5
2D5
330
231
100
AcDbEntity
  8
0
  6
Continuous
 62
     7
100
AcDbLine
 10
114.7143191187
 20
56.4223973592
 30
0.0
 11
116.2553229335
 21
57.9634011739
 31
0.0
  0
LINE
  5
2D6
330
231
100
AcDbEntity
  8
0
  6
Continuous
 62
     7
100
AcDbLine
 10
113.3933234111
 20
55.7047994382
 30
0.0
 11
115.5227533671
 21
57.8342293941
 31
0.0
  0
LINE
  5
2D7
330
231
100
AcDbEntity
  8
0
  6
Continuous
 62
     7
100
AcDbLine
 10
113.3028763572
 20
56.2177501708
 30
0.0
 11
114.7901838007
 21
57.7050576143
 31
0.0
  0
LINE
  5
2D8
330
231
100
AcDbEntity
  8
0
  6
Continuous
 62
     7
100
AcDbLine
 10
113.2124293032
 20
56.7307009035
 30
0.0
 11
114.0576142342
 21
57.5758858345
 31
0.0
  0
LINE
  5
2D9
330
231
100
AcDbEntity
  8
0
  6
Continuous
 62
     7
100
AcDbLine
 10
113.1219822493
 20
57.24365163619999
 30
0.0
 11
113.3250446678
 21
57.4467140547
 31
0.0
  0
ENDBLK
  5
2DA
330
231
100
AcDbEntity
  8
0
  6
ByBlock
 62
     0
100
AcDbBlockEnd
  0
BLOCK
  5
2DB
330
232
100
AcDbEntity
  8
0
  6
Continuous
 62
     7
100
AcDbBlockBegin
  2
L03-NOTE_SPECS_BAINS_BL0
 70
     0
 10
160.6665744185
 20
55.3333957601
 30
0.0
  3
L03-NOTE_SPECS_BAINS_BL0
  1

  0
TEXT
  5
2DC
330
232
100
AcDbEntity
  8
0
  6
Continuous
 62
     7
100
AcDbText
 10
144.4187893423
 20
63.1068291512
 30
0.0
 40
0.5
  1
Infomations Techniques/Technical Infomations
  7
TEXTSTYLE_2
100
AcDbText
  0
TEXT
  5
2DD
330
232
100
AcDbEntity
  8
0
  6
Continuous
 62
     7
100
AcDbText
 10
144.6665744185
 20
61.6667290935
 30
0.0
 40
0.6666666667
  1
NOMBRE DE JETS:     
  7
TEXTSTYLE_2
100
AcDbText
  0
TEXT
  5
2DE
330
232
100
AcDbEntity
  8
0
  6
Continuous
 62
     7
100
AcDbText
 10
154.5110188629
 20
61.6667290935
 30
0.0
 40
0.6666666667
  1
35
  7
TEXTSTYLE_2
100
AcDbText
  0
TEXT
  5
2DF
330
232
100
AcDbEntity
  8
0
  6
Continuous
 62
     7
100
AcDbText
 10
144.6665744185
 20
60.6667290935
 30
0.0
 40
0.6666666667
  1
 
  7
TEXTSTYLE_2
100
AcDbText
  0
TEXT
  5
2E0
330
232
100
AcDbEntity
  8
0
  6
Continuous
 62
     7
100
AcDbText
 10
144.6665744185
 20
59.6667290935
 30
0.0
 40
0.6666666667
  1
NIVEAU D'EAU              GALLONS(US)        LITRES        GALLONS(UK)
  7
TEXTSTYLE_2
100
AcDbText
  0
TEXT
  5
2E1
330
232
100
AcDbEntity
  8
0
  6
Continuous
 62
     7
100
AcDbText
 10
144.6665744185
 20
58.6667290935
 30
0.0
 40
0.6666666667
  1
PLEIN
  7
TEXTSTYLE_2
100
AcDbText
  0
TEXT
  5
2E2
330
232
100
AcDbEntity
  8
0
  6
Continuous
 62
     7
100
AcDbText
 10
144.6665744185
 20
57.6667290935
 30
0.0
 40
0.6666666667
  1
HAUT T.PLEIN
  7
TEXTSTYLE_2
100
AcDbText
  0
TEXT
  5
2E3
330
232
100
AcDbEntity
  8
0
  6
Continuous
 62
     7
100
AcDbText
 10
144.6665744185
 20
56.6667290935
 30
0.0
 40
0.6666666667
  1
MILIEU T.PLEIN
  7
TEXTSTYLE_2
100
AcDbText
  0
TEXT
  5
2E4
330
232
100
AcDbEntity
  8
0
  6
Continuous
 62
     7
100
AcDbText
 10
144.6665744185
 20
55.6667290935
 30
0.0
 40
0.6666666667
  1
BAS T.PLEIN
  7
TEXTSTYLE_2
100
AcDbText
  0
TEXT
  5
2E5
330
232
100
AcDbEntity
  8
0
  6
Continuous
 62
     7
100
AcDbText
 10
144.6665744185
 20
54.6667290935
 30
0.0
 40
0.6666666667
  1
3" EN BAS T.PLEIN
  7
TEXTSTYLE_2
100
AcDbText
  0
TEXT
  5
2E6
330
232
100
AcDbEntity
  8
0
  6
Continuous
 62
     7
100
AcDbText
 10
144.6665744185
 20
53.6667290935
 30
0.0
 40
0.6666666667
  1
 
  7
TEXTSTYLE_2
100
AcDbText
  0
TEXT
  5
2E7
330
232
100
AcDbEntity
  8
0
  6
Continuous
 62
     7
100
AcDbText
 10
144.4664129129
 20
53.1199421686
 30
0.0
 40
0.5
  1
Legende/Legend
  7
TEXTSTYLE_2
100
AcDbText
  0
TEXT
  5
2E8
330
232
100
AcDbEntity
  8
0
  6
Continuous
 62
     7
100
AcDbText
 10
150.995247857
 20
51.6086771909
 30
0.0
 40
0.6666666667
  1
ZONE DE ROBINETTERIE
  7
TEXTSTYLE_2
100
AcDbText
  0
TEXT
  5
2E9
330
232
100
AcDbEntity
  8
0
  6
Continuous
 62
     7
100
AcDbText
 10
145.91552329
 20
50.1134326765
 30
0.0
 40
0.6666666667
  1
L   :  SYSTEME LED       DC   :  DOUBLE DOSSIER CHAUFFANT
  7
TEXTSTYLE_2
100
AcDbText
  0
TEXT
  5
2EA
330
232
100
AcDbEntity
  8
0
  6
Continuous
 62
     7
100
AcDbText
 10
145.91552329
 20
48.7800993432
 30
0.0
 40
0.6666666667
  1
C   :  CONTROLE
  7
TEXTSTYLE_2
100
AcDbText
  0
TEXT
  5
2EB
330
232
100
AcDbEntity
  8
0
  6
Continuous
 62
     7
100
AcDbText
 10
145.91552329
 20
47.4467660099
 30
0.0
 40
0.6666666667
  1
T   :  MOTEUR
  7
TEXTSTYLE_2
100
AcDbText
  0
TEXT
  5
2EC
330
232
100
AcDbEntity
  8
0
  6
Continuous
 62
     7
100
AcDbText
 10
157.4992711178
 20
58.6667290935
 30
0.0
 40
0.6666666667
  1
85
  7
TEXTSTYLE_2
100
AcDbText
  0
TEXT
  5
2ED
330
232
100
AcDbEntity
  8
0
  6
Continuous
 62
     7
100
AcDbText
 10
157.4992711178
 20
57.6667290935
 30
0.0
 40
0.6666666667
  1
66
  7
TEXTSTYLE_2
100
AcDbText
  0
TEXT
  5
2EE
330
232
100
AcDbEntity
  8
0
  6
Continuous
 62
     7
100
AcDbText
 10
157.4992711178
 20
56.6667290935
 30
0.0
 40
0.6666666667
  1
65
  7
TEXTSTYLE_2
100
AcDbText
  0
TEXT
  5
2EF
330
232
100
AcDbEntity
  8
0
  6
Continuous
 62
     7
100
AcDbText
 10
157.4992711178
 20
55.6667290935
 30
0.0
 40
0.6666666667
  1
64
  7
TEXTSTYLE_2
100
AcDbText
  0
TEXT
  5
2F0
330
232
100
AcDbEntity
  8
0
  6
Continuous
 62
     7
100
AcDbText
 10
157.4992711178
 20
54.6667290935
 30
0.0
 40
0.6666666667
  1
49
  7
TEXTSTYLE_2
100
AcDbText
  0
TEXT
  5
2F1
330
232
100
AcDbEntity
  8
0
  6
Continuous
 62
     7
100
AcDbText
 10
164.4194770615
 20
58.68380849560001
 30
0.0
 40
0.6666666667
  1
322
  7
TEXTSTYLE_2
100
AcDbText
  0
TEXT
  5
2F2
330
232
100
AcDbEntity
  8
0
  6
Continuous
 62
     7
100
AcDbText
 10
164.4194770615
 20
57.6838084956
 30
0.0
 40
0.6666666667
  1
248
  7
TEXTSTYLE_2
100
AcDbText
  0
TEXT
  5
2F3
330
232
100
AcDbEntity
  8
0
  6
Continuous
 62
     7
100
AcDbText
 10
164.4194770615
 20
56.6838084956
 30
0.0
 40
0.6666666667
  1
244
  7
TEXTSTYLE_2
100
AcDbText
  0
TEXT
  5
2F4
330
232
100
AcDbEntity
  8
0
  6
Continuous
 62
     7
100
AcDbText
 10
164.4194770615
 20
55.6838084956
 30
0.0
 40
0.6666666667
  1
241
  7
TEXTSTYLE_2
100
AcDbText
  0
TEXT
  5
2F5
330
232
100
AcDbEntity
  8
0
  6
Continuous
 62
     7
100
AcDbText
 10
164.4194770615
 20
54.6838084956
 30
0.0
 40
0.6666666667
  1
186
  7
TEXTSTYLE_2
100
AcDbText
  0
TEXT
  5
2F6
330
232
100
AcDbEntity
  8
0
  6
Continuous
 62
     7
100
AcDbText
 10
171.364115999
 20
58.6667290935
 30
0.0
 40
0.6666666667
  1
71
  7
TEXTSTYLE_2
100
AcDbText
  0
TEXT
  5
2F7
330
232
100
AcDbEntity
  8
0
  6
Continuous
 62
     7
100
AcDbText
 10
171.364115999
 20
57.6667290935
 30
0.0
 40
0.6666666667
  1
55
  7
TEXTSTYLE_2
100
AcDbText
  0
TEXT
  5
2F8
330
232
100
AcDbEntity
  8
0
  6
Continuous
 62
     7
100
AcDbText
 10
171.364115999
 20
56.6667290935
 30
0.0
 40
0.6666666667
  1
54
  7
TEXTSTYLE_2
100
AcDbText
  0
TEXT
  5
2F9
330
232
100
AcDbEntity
  8
0
  6
Continuous
 62
     7
100
AcDbText
 10
171.364115999
 20
55.6667290935
 30
0.0
 40
0.6666666667
  1
53
  7
TEXTSTYLE_2
100
AcDbText
  0
TEXT
  5
2FA
330
232
100
AcDbEntity
  8
0
  6
Continuous
 62
     7
100
AcDbText
 10
171.364115999
 20
54.6667290935
 30
0.0
 40
0.6666666667
  1
41
  7
TEXTSTYLE_2
100
AcDbText
  0
LINE
  5
2FB
330
232
100
AcDbEntity
  8
0
  6
Continuous
 62
     7
100
AcDbLine
 10
143.9999077518
 20
64.00006242679999
 30
0.0
 11
143.9999077518
 21
46.6667290935
 31
0.0
  0
LINE
  5
2FC
330
232
100
AcDbEntity
  8
0
  6
Continuous
 62
     7
100
AcDbLine
 10
143.9999077518
 20
64.00006242679999
 30
0.0
 11
177.3332410852
 21
64.00006242679999
 31
0.0
  0
LINE
  5
2FD
330
232
100
AcDbEntity
  8
0
  6
Continuous
 62
     7
100
AcDbLine
 10
177.3332410852
 20
64.00006242679999
 30
0.0
 11
177.3332410852
 21
46.6667290935
 31
0.0
  0
LINE
  5
2FE
330
232
100
AcDbEntity
  8
0
  6
Continuous
 62
     7
100
AcDbLine
 10
143.9999077518
 20
46.6667290935
 30
0.0
 11
177.3332410852
 21
46.6667290935
 31
0.0
  0
LINE
  5
2FF
330
232
100
AcDbEntity
  8
0
  6
Continuous
 62
     7
100
AcDbLine
 10
145.3332410852
 20
54.00006242679999
 30
0.0
 11
175.9999077518
 21
54.00006242679999
 31
0.0
  0
LINE
  5
300
330
232
100
AcDbEntity
  8
0
  6
Continuous
 62
     7
100
AcDbLine
 10
145.3332410852
 20
61.0000624268
 30
0.0
 11
175.9999077518
 21
61.0000624268
 31
0.0
  0
LINE
  5
301
330
232
100
AcDbEntity
  8
0
  6
Continuous
 62
     7
100
AcDbLine
 10
144.8088143111
 20
52.3782269312
 30
0.0
 11
144.4397935688
 21
52.0092061888
 31
0.0
  0
LINE
  5
302
330
232
100
AcDbEntity
  8
0
  6
Continuous
 62
     7
100
AcDbLine
 10
145.4754809778
 20
52.3782269312
 30
0.0
 11
144.6774651873
 21
51.58021114069999
 31
0.0
  0
LINE
  5
303
330
232
100
AcDbEntity
  8
0
  6
Continuous
 62
     7
100
AcDbLine
 10
146.1421476444
 20
52.3782269312
 30
0.0
 11
145.344131854
 21
51.58021114069999
 31
0.0
  0
LINE
  5
304
330
232
100
AcDbEntity
  8
0
  6
Continuous
 62
     7
100
AcDbLine
 10
146.8088143111
 20
52.3782269312
 30
0.0
 11
146.0107985207
 21
51.58021114069999
 31
0.0
  0
LINE
  5
305
330
232
100
AcDbEntity
  8
0
  6
Continuous
 62
     7
100
AcDbLine
 10
147.4754809778
 20
52.3782269312
 30
0.0
 11
146.6774651873
 21
51.58021114069999
 31
0.0
  0
LINE
  5
306
330
232
100
AcDbEntity
  8
0
  6
Continuous
 62
     7
100
AcDbLine
 10
148.1421476444
 20
52.3782269312
 30
0.0
 11
147.344131854
 21
51.58021114069999
 31
0.0
  0
LINE
  5
307
330
232
100
AcDbEntity
  8
0
  6
Continuous
 62
     7
100
AcDbLine
 10
148.8088143111
 20
52.3782269312
 30
0.0
 11
148.0107985207
 21
51.58021114069999
 31
0.0
  0
LINE
  5
308
330
232
100
AcDbEntity
  8
0
  6
Continuous
 62
     7
100
AcDbLine
 10
149.4754809778
 20
52.3782269312
 30
0.0
 11
148.6774651873
 21
51.58021114069999
 31
0.0
  0
LINE
  5
309
330
232
100
AcDbEntity
  8
0
  6
Continuous
 62
     7
100
AcDbLine
 10
150.1421476444
 20
52.3782269312
 30
0.0
 11
149.344131854
 21
51.58021114069999
 31
0.0
  0
LINE
  5
30A
330
232
100
AcDbEntity
  8
0
  6
Continuous
 62
     7
100
AcDbLine
 10
150.5856350786
 20
52.15504769859999
 30
0.0
 11
150.0107985207
 21
51.58021114069999
 31
0.0
  0
ELLIPSE
  5
30B
330
232
100
AcDbEntity
  8
0
  6
Continuous
 62
     7
100
AcDbEllipse
 10
146.145310234
 20
50.4310101337
 30
0.0
 11
1.0473539356
 21
0.0
 31
0.0
210
0.0
220
0.0
230
1.0
 40
0.4938647983
 41
0.0
 42
6.283185307179586
  0
ELLIPSE
  5
30C
330
232
100
AcDbEntity
  8
0
  6
Continuous
 62
     7
100
AcDbEllipse
 10
146.145310234
 20
49.0976768004
 30
0.0
 11
1.0473539356
 21
0.0
 31
0.0
210
0.0
220
0.0
230
1.0
 40
0.4938647983
 41
0.0
 42
6.283185307179586
  0
ELLIPSE
  5
30D
330
232
100
AcDbEntity
  8
0
  6
Continuous
 62
     7
100
AcDbEllipse
 10
146.145310234
 20
47.7643434671
 30
0.0
 11
1.0473539356
 21
0.0
 31
0.0
210
0.0
220
0.0
230
1.0
 40
0.4938647983
 41
0.0
 42
6.283185307179586
  0
ELLIPSE
  5
30E
330
232
100
AcDbEntity
  8
0
  6
Continuous
 62
     7
100
AcDbEllipse
 10
157.1639458151
 20
50.4505314908
 30
0.0
 11
1.0473539356
 21
0.0
 31
0.0
210
0.0
220
0.0
230
1.0
 40
0.4938647983
 41
0.0
 42
6.283185307179586
  0
ENDBLK
  5
30F
330
232
100
AcDbEntity
  8
0
  6
ByBlock
 62
     0
100
AcDbBlockEnd
  0
ENDSEC
  0
SECTION
  2
ENTITIES
  0
LWPOLYLINE
  5
515
330
216
100
AcDbEntity
  8
DEFAULT_2
  6
HIDDEN
 62
     7
100
AcDbPolyline
 90
       58
 70
     0
 43
0.0
 10
124.521386717
 20
23.1645859055
 10
124.5784210019
 20
23.1665578625
 10
124.6353391096
 20
23.169828041
 10
124.6921571158
 20
23.1743964635
 10
124.7488803997
 20
23.1802622464
 10
124.8054715547
 20
23.1874208821
 10
124.8618824778
 20
23.19586695719999
 10
124.9180706055
 20
23.2055954659
 10
124.9740155324
 20
23.2166030339
 10
125.0297023928
 20
23.2288866943
 10
125.0851114594
 20
23.2424419672
 10
125.1402035596
 20
23.2572583187
 10
125.1949346592
 20
23.2733237014
 10
125.2492662961
 20
23.2906275212
 10
125.3031822968
 20
23.3091649967
 10
125.3566720595
 20
23.3289327999
 10
125.409718972
 20
23.3499248293
 10
125.4622823795
 20
23.3721238912
 10
125.5143156167
 20
23.3955100189
 10
125.5657787898
 20
23.4200661047
 10
125.616659091
 20
23.445786479
 10
125.6669504845
 20
23.4726683316
 10
125.7166401973
 20
23.5007046936
 10
125.7656885087
 20
23.5298719619
 10
125.8140489613
 20
23.560142375
 10
125.8616822325
 20
23.5914923971
 10
125.9085775403
 20
23.6239153945
 10
125.9547312379
 20
23.6574089595
 10
126.000133072
 20
23.6919653345
 10
126.0447463632
 20
23.7275553631
 10
126.0885278258
 20
23.764144539
 10
126.1314408571
 20
23.8017036072
 10
126.1734755859
 20
23.8402243179
 10
126.2146288241
 20
23.8797036725
 10
126.2548916776
 20
23.9201326546
 10
126.2942324283
 20
23.9614781774
 10
126.3326136523
 20
24.0037011363
 10
126.3700034755
 20
24.0467680647
 10
126.4063922228
 20
24.0906680493
 10
126.4417757688
 20
24.1353958146
 10
126.4761456996
 20
24.1809401352
 10
126.5094764465
 20
24.2272659864
 10
126.5417381522
 20
24.2743323932
 10
126.5729049834
 20
24.3221035562
 10
126.6029672032
 20
24.3705643778
 10
126.6319190986
 20
24.4197049357
 10
126.6597523579
 20
24.4695104463
 10
126.6864482728
 20
24.5199466801
 10
126.7119855365
 20
24.5709745462
 10
126.7363451895
 20
24.6225584228
 10
126.7595176635
 20
24.6746765635
 10
126.7814957377
 20
24.727310691
 10
126.8022713428
 20
24.7804407003
 10
126.8218330145
 20
24.8340391749
 10
126.8401684398
 20
24.8880768704
 10
126.8572667053
 20
24.9425264446
 10
126.8731224952
 20
24.9973681621
 10
126.8877318932
 20
25.0525841896
  0
LWPOLYLINE
  5
517
330
216
100
AcDbEntity
  8
DEFAULT_2
  6
HIDDEN
 62
     7
100
AcDbPolyline
 90
       38
 70
     0
 43
0.0
 10
115.2562441493
 20
23.0650677389
 10
115.5731304681
 20
23.0651441488
 10
115.8882982917
 20
23.0653801592
 10
116.2018441914
 20
23.0657855997
 10
116.5138540529
 20
23.06636975
 10
116.824427796
 20
23.0671413055
 10
117.1336758334
 20
23.0681083603
 10
117.4417426033
 20
23.0692785177
 10
117.7488532616
 20
23.070659238
 10
118.0552907957
 20
23.0722580341
 10
118.3614511603
 20
23.0740830973
 10
118.6678010147
 20
23.0761435107
 10
118.9749399324
 20
23.0784501215
 10
119.28354805
 20
23.0810157337
 10
119.594449794
 20
23.083856179
 10
119.9085661733
 20
23.0869905691
 10
120.2269828928
 20
23.0904426386
 10
120.5509040075
 20
23.0942410856
 10
120.7153535805
 20
23.0962808992
 10
120.8817135139
 20
23.0984211223
 10
121.0501861593
 20
23.1006673072
 10
121.2210011113
 20
23.1030259157
 10
121.3943983836
 20
23.1055038574
 10
121.5706324204
 20
23.1081089252
 10
121.7499611438
 20
23.1108493113
 10
121.932641957
 20
23.113733923
 10
122.1189569904
 20
23.116772482
 10
122.3092878031
 20
23.1199772524
 10
122.5040656651
 20
23.1233619504
 10
122.7038212626
 20
23.1269435598
 10
122.9090649729
 20
23.130739429
 10
123.1201265228
 20
23.1347650988
 10
123.3372717709
 20
23.1390354878
 10
123.5606917515
 20
23.1435648334
 10
123.790579943
 20
23.148367883
 10
124.027214425
 20
23.1534621043
 10
124.2708278692
 20
23.1588643033
 10
124.5213867167
 20
23.1645859189
  0
LINE
  5
518
330
216
100
AcDbEntity
  8
DEFAULT_2
  6
HIDDEN
 62
     7
100
AcDbLine
 10
116.5276907587
 20
22.2126168129
 30
0.0
 11
113.9847975399
 21
22.2126168129
 31
0.0
  0
LWPOLYLINE
  5
51C
330
216
100
AcDbEntity
  8
DEFAULT_2
  6
HIDDEN
 62
     7
100
AcDbPolyline
 90
       38
 70
     0
 43
0.0
 10
105.991101578
 20
23.164585919
 10
106.241673267
 20
23.1588640144
 10
106.4852996215
 20
23.1534615417
 10
106.7219471067
 20
23.1483670612
 10
106.9518482239
 20
23.1435637699
 10
107.1752808519
 20
23.1390342035
 10
107.3924383429
 20
23.1347636161
 10
107.6035115907
 20
23.1307377714
 10
107.8087661804
 20
23.1269417545
 10
108.008531587
 20
23.1233600273
 10
108.2033181533
 20
23.1199752399
 10
108.393656632
 20
23.1167704053
 10
108.5799785485
 20
23.1137318015
 10
108.762665704
 20
23.1108471592
 10
108.9420002294
 20
23.1081067557
 10
109.1182394845
 20
23.1055016836
 10
109.2916414141
 20
23.1030237493
 10
109.462460491
 20
23.1006651587
 10
109.6309367153
 20
23.0984190015
 10
109.7972996746
 20
23.0962788153
 10
109.9617517794
 20
23.0942390464
 10
110.2856766257
 20
23.0904407074
 10
110.6040951914
 20
23.0869887683
 10
110.9182116428
 20
23.083854525
 10
111.2291116331
 20
23.081014239
 10
111.5377162414
 20
23.0784487939
 10
111.8448498377
 20
23.0761423542
 10
112.1511925983
 20
23.0740821117
 10
112.4573440715
 20
23.0722572154
 10
112.7637709716
 20
23.0706585783
 10
113.0708692724
 20
23.0692780057
 10
113.378922065
 20
23.0681079813
 10
113.6881545944
 20
23.067141042
 10
113.9987114698
 20
23.0663695822
 10
114.3107032599
 20
23.0657855064
 10
114.6242301072
 20
23.0653801185
 10
114.9393781368
 20
23.0651441389
 10
115.2562441493
 20
23.0650677389
  0
LINE
  5
60A
330
216
100
AcDbEntity
  8
DEFAULT_2
  6
HIDDEN
 62
     7
100
AcDbLine
 10
97.25624414930001
 20
42.2126168129
 30
0.0
 11
97.92022820950002
 21
42.2126168129
 31
0.0
  0
LINE
  5
60B
330
216
100
AcDbEntity
  8
DEFAULT_2
  6
HIDDEN
 62
     7
100
AcDbLine
 10
132.592260089
 20
42.2126168129
 30
0.0
 11
133.2562441493
 21
42.2126168129
 31
0.0
  0
LINE
  5
6CD
330
216
100
AcDbEntity
  8
DEFAULT_2
  6
HIDDEN
 62
     7
100
AcDbLine
 10
113.8080208446
 20
22.2858401176
 30
0.0
 11
113.4517025683
 21
22.6421583939
 31
0.0
  0
LWPOLYLINE
  5
732
330
216
100
AcDbEntity
  8
DEFAULT_2
  6
HIDDEN
 62
     7
100
AcDbPolyline
 90
       24
 70
     0
 43
0.0
 10
98.36962615510001
 20
41.9318011386
 10
98.85552120920001
 20
40.93556724079999
 10
99.09843118819999
 20
40.4377809889
 10
99.33624515209999
 20
39.9384001875
 10
99.56409246260001
 20
39.4355236033
 10
99.78188774770002
 20
38.9289086215
 10
99.99061654590001
 20
38.4187335008
 10
100.1907627725
 20
37.9052013745
 10
100.3827053786
 20
37.3885162855
 10
100.566905082
 20
36.8688610407
 10
100.7438430417
 20
36.3464131382
 10
100.9140004171
 20
35.821350076
 10
101.1311562353
 20
35.1175067219
 10
101.3382251611
 20
34.4097622934
 10
101.5363192798
 20
33.6985493371
 10
101.7265564336
 20
32.9843022898
 10
101.9100774918
 20
32.2674631502
 10
102.0880290803
 20
31.5484758075
 10
102.3470022358
 20
30.46692880050001
 10
102.5997755589
 20
29.3829904969
 10
102.8501139679
 20
28.298110427
 10
103.1018357909
 20
27.2137626013
 10
103.3587727086
 20
26.1314271503
 10
103.6247564016
 20
25.0525842047
  0
LWPOLYLINE
  5
792
330
216
100
AcDbEntity
  8
DEFAULT_2
  6
HIDDEN
 62
     7
100
AcDbPolyline
 90
       58
 70
     0
 43
0.0
 10
103.6247564016
 20
25.0525842047
 10
103.6393658001
 20
24.9973681741
 10
103.6552215915
 20
24.9425264502
 10
103.6723198583
 20
24.8880768704
 10
103.690655284
 20
24.8340391728
 10
103.7102169554
 20
24.7804406989
 10
103.73099256
 20
24.7273106911
 10
103.752970634
 20
24.6746765641
 10
103.7761431078
 20
24.6225584233
 10
103.8005027608
 20
24.5709745464
 10
103.8260400244
 20
24.5199466802
 10
103.8527359392
 20
24.4695104464
 10
103.8805691982
 20
24.419704936
 10
103.9095210935
 20
24.3705643782
 10
103.9395833131
 20
24.3221035566
 10
103.9707501442
 20
24.2743323936
 10
104.0030118498
 20
24.2272659868
 10
104.0363425966
 20
24.1809401357
 10
104.0707125272
 20
24.1353958151
 10
104.1060960731
 20
24.0906680499
 10
104.1424848202
 20
24.0467680653
 10
104.1798746433
 20
24.0037011369
 10
104.2182558672
 20
23.9614781781
 10
104.2575966178
 20
23.9201326553
 10
104.2978594711
 20
23.8797036732
 10
104.3390127092
 20
23.8402243186
 10
104.381047438
 20
23.8017036079
 10
104.4239604691
 20
23.7641445397
 10
104.4677419317
 20
23.7275553638
 10
104.5123552228
 20
23.6919653352
 10
104.5577570567
 20
23.6574089602
 10
104.6039107543
 20
23.6239153952
 10
104.650806062
 20
23.5914923977
 10
104.6984393332
 20
23.56014237570001
 10
104.7467997856
 20
23.5298719626
 10
104.795848097
 20
23.5007046942
 10
104.8455378098
 20
23.4726683322
 10
104.8958292032
 20
23.4457864797
 10
104.9467095044
 20
23.4200661053
 10
104.9981726774
 20
23.3955100194
 10
105.0502059146
 20
23.3721238918
 10
105.1027693221
 20
23.3499248298
 10
105.1558162346
 20
23.3289328004
 10
105.2093059973
 20
23.3091649972
 10
105.2632219979
 20
23.2906275216
 10
105.3175536349
 20
23.2733237018
 10
105.3722847345
 20
23.2572583191
 10
105.4273768347
 20
23.2424419676
 10
105.4827859014
 20
23.2288866947
 10
105.5384727618
 20
23.2166030342
 10
105.5944176887
 20
23.2055954663
 10
105.6506058164
 20
23.1958669575
 10
105.7070167396
 20
23.1874208824
 10
105.7636078947
 20
23.1802622467
 10
105.8203311787
 20
23.1743964638
 10
105.8771491849
 20
23.1698280413
 10
105.9340672927
 20
23.1665578627
 10
105.9911015777
 20
23.1645859057
  0
LWPOLYLINE
  5
9B7
330
216
100
AcDbEntity
  8
DEFAULT_2
  6
HIDDEN
 62
     7
100
AcDbPolyline
 90
       23
 70
     0
 43
0.0
 10
126.8877318932
 20
25.0525841896
 10
127.0310088761
 20
25.6276775155
 10
127.1712042073
 20
26.2039616308
 10
127.3088972411
 20
26.781212705
 10
127.4446673314
 20
27.3592069078
 10
127.5790938324
 20
27.9377204087
 10
127.7127560983
 20
28.5165293775
 10
127.846233483
 20
29.0954099838
 10
127.9801053408
 20
29.6741383971
 10
128.1149510257
 20
30.2524907872
 10
128.2513498919
 20
30.8302433236
 10
128.3898812935
 20
31.407172176
 10
128.5311245845
 20
31.983053514
 10
128.6756591191
 20
32.5576635073
 10
128.8240642514
 20
33.1307783255
 10
128.9769193355
 20
33.7021741382
 10
129.1348037256
 20
34.2716271151
 10
129.2982967756
 20
34.8389134257
 10
129.4679778399
 20
35.4038092398
 10
129.6444262723
 20
35.9660907269
 10
129.8282214271
 20
36.5255340567
 10
130.0199426585
 20
37.0819153988
 10
130.2201693203
 20
37.6350109228
  0
LWPOLYLINE
  5
9B8
330
216
100
AcDbEntity
  8
DEFAULT_2
  6
HIDDEN
 62
     7
100
AcDbPolyline
 90
       24
 70
     0
 43
0.0
 10
130.2201693203
 20
37.6350109228
 10
130.2274177247
 20
37.6545193842
 10
130.2347723117
 20
37.6740591578
 10
130.2422987419
 20
37.6936124217
 10
130.2500328079
 20
37.7131273125
 10
130.2579990793
 20
37.7325456662
 10
130.2662071029
 20
37.7518181575
 10
130.2746603281
 20
37.7709030119
 10
130.2833528403
 20
37.7897798184
 10
130.289283874
 20
37.8022562681
 10
130.2953581347999
 20
37.8147187068
 10
130.3016161695
 20
37.8272522868
 10
130.3064546157
 20
37.8367494435
 10
130.3114359114
 20
37.8463648025
 10
130.3165767259
 20
37.8561286511
 10
130.3218937282
 20
37.8660712761
 10
130.3274042562
 20
37.8762242288
 10
130.3331283214
 20
37.88662411550001
 10
130.3390866043
 20
37.8973088071
 10
130.345299785
 20
37.9083161738
 10
130.3517843448
 20
37.9196787757
 10
130.3585399687
 20
37.9314079299
 10
130.3655621427
 20
37.9435096428
 10
130.3728463529
 20
37.9559899209
  0
LWPOLYLINE
  5
9B9
330
216
100
AcDbEntity
  8
DEFAULT_2
  6
HIDDEN
 62
     7
100
AcDbPolyline
 90
       21
 70
     0
 43
0.0
 10
131.1743362874
 20
39.8018636662
 10
131.2274942641
 20
39.9333731252
 10
131.2534909874
 20
39.9975688422
 10
131.2791656317
 20
40.0607883697
 10
131.3096103198
 20
40.1354158932
 10
131.3396910215
 20
40.20870358389999
 10
131.3694361581
 20
40.28064911699999
 10
131.3988741513
 20
40.3512501679
 10
131.4280334226
 20
40.42050441199999
 10
131.4521367998
 20
40.47718195699999
 10
131.4760611587999
 20
40.532898236
 10
131.4998013011
 20
40.58762887999999
 10
131.5233520281
 20
40.64134951969999
 10
131.5467081415
 20
40.6940357862
 10
131.5698644427
 20
40.7456633103
 10
131.5928165991
 20
40.79621327729999
 10
131.6155637419
 20
40.8456890904
 10
131.638105868
 20
40.8940997073
 10
131.6604429744
 20
40.9414540857
 10
131.6825750583
 20
40.98776118329999
 10
131.7045021165
 20
41.0330299577
  0
LWPOLYLINE
  5
9BA
330
216
100
AcDbEntity
  8
DEFAULT_2
  6
HIDDEN
 62
     7
100
AcDbPolyline
 90
        9
 70
     0
 43
0.0
 10
130.9393327048
 20
39.2304006381
 10
130.9710972154
 20
39.305659273
 10
131.0021031014
 20
39.3798979692
 10
131.0323880986
 20
39.4530781122
 10
131.0619899427
 20
39.5251610877
 10
131.0909463695
 20
39.5961082813
 10
131.1192951146999
 20
39.6658810789
 10
131.1470758873
 20
39.7344551957
 10
131.1743362874
 20
39.8018636662
  0
LINE
  5
9BB
330
216
100
AcDbEntity
  8
DEFAULT_2
  6
HIDDEN
 62
     7
100
AcDbLine
 10
130.4997602513
 20
38.1948328338
 30
0.0
 11
130.9393327048
 21
39.2304006381
 31
0.0
  0
LINE
  5
9BC
330
216
100
AcDbEntity
  8
DEFAULT_2
  6
HIDDEN
 62
     7
100
AcDbLine
 10
131.7045021165
 20
41.0330299577
 30
0.0
 11
132.1428621434
 21
41.9318011386
 31
0.0
  0
LWPOLYLINE
  5
9BD
330
216
100
AcDbEntity
  8
DEFAULT_2
  6
HIDDEN
 62
     7
100
AcDbPolyline
 90
       13
 70
     0
 43
0.0
 10
130.3960846653
 20
37.9956273429
 10
130.404178116
 20
38.0094971268
 10
130.4123854043
 20
38.0236584139
 10
130.4206708768
 20
38.0381011843
 10
130.4289989363
 20
38.0528182069
 10
130.4373339859
 20
38.0678022505
 10
130.4483936515
 20
38.0881740156
 10
130.4592995949
 20
38.1089315241
 10
130.4699489505
 20
38.1299986705
 10
130.4777124425
 20
38.1459648221
 10
130.4852707909
 20
38.1620804743
 10
130.4926210444
 20
38.1783637656
 10
130.4997602517
 20
38.19483283469999
  0
LINE
  5
9BE
330
216
100
AcDbEntity
  8
DEFAULT_2
  6
HIDDEN
 62
     7
100
AcDbLine
 10
130.3728463529
 20
37.9559899209
 30
0.0
 11
130.3960846653
 21
37.9956273429
 31
0.0
  0
LINE
  5
9BF
330
216
100
AcDbEntity
  8
DEFAULT_2
  6
HIDDEN
 62
     7
100
AcDbLine
 10
117.0663343031
 20
22.6477069668
 30
0.0
 11
116.704467454
 21
22.2858401176
 31
0.0
  0
LWPOLYLINE
  5
1516
330
216
100
AcDbEntity
  8
0
  6
Continuous
 62
     7
100
AcDbPolyline
 90
       42
 70
     0
 43
0.0
 10
97.25624420709999
 20
42.2126168129
 10
97.27551210160001
 20
42.2264482861
 10
97.33338602259999
 20
42.26714165149999
 10
97.4297604808
 20
42.3333750995
 10
97.564303725
 20
42.4236510678
 10
97.73666705930001
 20
42.5362487998
 10
97.94667258730001
 20
42.6695787852
 10
98.1935723003
 20
42.8217541533
 10
98.4764429546
 20
42.99066121649999
 10
98.7942770219
 20
43.174141203
 10
99.1459302287
 20
43.36999414180001
 10
99.53017887480001
 20
43.5760275871
 10
99.9449453341
 20
43.78965888489999
 10
100.3866760633
 20
44.0077147711
 10
100.8505480742
 20
44.226724389
 10
101.3321642875
 20
44.4437661631
 10
101.8270504253
 20
44.65625873979999
 10
102.3324388225
 20
44.8626513327
 10
102.8470979715
 20
45.06216026399999
 10
103.3682848424
 20
45.2536038811
 10
103.8932759643
 20
45.4359421493
 10
104.420844811
 20
45.6088560092
 10
104.9507853081
 20
45.7724164929
 10
105.4819773296
 20
45.9263901992
 10
106.013286101
 20
46.07063453689999
 10
106.5448360733
 20
46.2054089433
 10
107.0763765629
 20
46.33086508549999
 10
107.6072868761
 20
46.447063491
 10
108.1375021189
 20
46.5541921931
 10
108.6679202033
 20
46.6526230067
 10
109.1986562486
 20
46.74254475569999
 10
109.730469177
 20
46.82422075499999
 10
110.2635403965
 20
46.89779411319999
 10
110.7987366543
 20
46.96345963529999
 10
111.336668235
 20
47.02135742
 10
111.8781423193
 20
47.071580241
 10
112.4242631779
 20
47.1142273274
 10
112.975591042
 20
47.1492832188
 10
113.5335791884
 20
47.17675569559999
 10
114.098830441
 20
47.1965553709
 10
114.6727677878
 20
47.2085640589
 10
115.2562441495
 20
47.2126168129
  0
LINE
  5
1517
330
216
100
AcDbEntity
  8
0
  6
Continuous
 62
     7
100
AcDbLine
 10
110.631244631
 20
17.2126168129
 30
0.0
 11
112.8812436675
 21
17.2126168129
 31
0.0
  0
LINE
  5
1518
330
216
100
AcDbEntity
  8
0
  6
Continuous
 62
     7
100
AcDbLine
 10
101.7509358812
 20
19.0894324129
 30
0.0
 11
97.25624414930001
 21
42.2126168129
 31
0.0
  0
LWPOLYLINE
  5
1519
330
216
100
AcDbEntity
  8
0
  6
Continuous
 62
     7
100
AcDbPolyline
 90
        3
 70
     0
 43
0.0
 10
111.4043683441
 20
18.535845074
 10
111.3677458742
 20
18.5283994895
 10
111.3072046379
 20
18.5251168124
  0
LWPOLYLINE
  5
151A
330
216
100
AcDbEntity
  8
0
  6
Continuous
 62
     7
100
AcDbPolyline
 90
        8
 70
     0
 43
0.0
 10
110.8845939844
 20
18.3376168129
 10
111.0175106474
 20
18.3491589936
 10
111.147154461
 20
18.3835013289
 10
111.2703331643
 20
18.4397981965
 10
111.3840136887
 20
18.5166633807
 10
111.4853968426
 20
18.6122042056
 10
111.5719862362
 20
18.7240681389
 10
111.6030377059
 20
18.7799778354
  0
LWPOLYLINE
  5
151B
330
216
100
AcDbEntity
  8
0
  6
Continuous
 62
     7
100
AcDbPolyline
 90
        3
 70
     0
 43
0.0
 10
111.2686274494
 20
18.5114824487
 10
111.3323792891
 20
18.5150130828
 10
111.3929506306
 20
18.5250853203
  0
LWPOLYLINE
  5
151C
330
216
100
AcDbEntity
  8
0
  6
Continuous
 62
     7
100
AcDbPolyline
 90
        5
 70
     0
 43
0.0
 10
123.9407059882
 20
18.7833569921
 10
124.3464962105
 20
18.7836570527
 10
124.7425789261
 20
18.7839447414
 10
125.1269460682
 20
18.7842155985
 10
125.4983253234
 20
18.7844693093
  0
LWPOLYLINE
  5
151D
330
216
100
AcDbEntity
  8
0
  6
Continuous
 62
     7
100
AcDbPolyline
 90
        5
 70
     0
 43
0.0
 10
121.0017654547
 20
18.7811900276
 10
121.4240479195
 20
18.7814838793
 10
121.8454601709
 20
18.7817852993
 10
122.2667056751
 20
18.7820950303
 10
123.9407059882
 20
18.7833569921
  0
LWPOLYLINE
  5
151E
330
216
100
AcDbEntity
  8
0
  6
Continuous
 62
     7
100
AcDbPolyline
 90
        5
 70
     0
 43
0.0
 10
125.4983253234
 20
18.7844693093
 10
126.1997466123
 20
18.7849201635
 10
126.5286362098
 20
18.7851168605
 10
126.8423878772
 20
18.7852948461
 10
127.1385358494
 20
18.7854530203
  0
LWPOLYLINE
  5
151F
330
216
100
AcDbEntity
  8
0
  6
Continuous
 62
     7
100
AcDbPolyline
 90
        6
 70
     0
 43
0.0
 10
127.1385358494
 20
18.7854530203
 10
127.6571180085
 20
18.7857043052
 10
127.8718550422
 20
18.7857966923
 10
128.0531192587
 20
18.7858691874
 10
128.1983483217
 20
18.7859232463
 10
128.3052003705
 20
18.7859593622
  0
LINE
  5
1520
330
216
100
AcDbEntity
  8
0
  6
Continuous
 62
     7
100
AcDbLine
 10
128.3052003705
 20
18.7859593622
 30
0.0
 11
128.3935343298
 21
18.7859857974
 31
0.0
  0
LINE
  5
1521
330
216
100
AcDbEntity
  8
0
  6
Continuous
 62
     7
100
AcDbLine
 10
116.3812441493
 20
17.9951168129
 30
0.0
 11
114.1312441493
 21
17.9951168129
 31
0.0
  0
LINE
  5
1522
330
216
100
AcDbEntity
  8
0
  6
Continuous
 62
     7
100
AcDbLine
 10
110.6312441493
 20
18.0251168129
 30
0.0
 11
112.8812441493
 21
18.0251168129
 31
0.0
  0
LINE
  5
1523
330
216
100
AcDbEntity
  8
0
  6
Continuous
 62
     7
100
AcDbLine
 10
111.2279713221
 20
18.1501168129
 30
0.0
 11
110.8845939844
 21
18.1501168129
 31
0.0
  0
LINE
  5
1524
330
216
100
AcDbEntity
  8
0
  6
Continuous
 62
     7
100
AcDbLine
 10
111.5593196617
 20
18.2126168129
 30
0.0
 11
112.6937441493
 21
18.2126168129
 31
0.0
  0
LINE
  5
1525
330
216
100
AcDbEntity
  8
0
  6
Continuous
 62
     7
100
AcDbLine
 10
116.3812441493
 20
18.7751168129
 30
0.0
 11
114.1312441493
 21
18.7751168129
 31
0.0
  0
LWPOLYLINE
  5
1526
330
216
100
AcDbEntity
  8
0
  6
Continuous
 62
     7
100
AcDbPolyline
 90
       13
 70
     0
 43
0.0
 10
115.2562441493
 20
18.7791272201
 10
115.7274786086
 20
18.7791410228
 10
116.1977891744
 20
18.7791825651
 10
116.6590716574
 20
18.7792500807
 10
117.1124256097
 20
18.7793439984
 10
117.559080669
 20
18.779461917
 10
118.0001396673
 20
18.7796047816
 10
118.4367156968
 20
18.7797700758
 10
118.869738534
 20
18.7799585349
 10
119.2999540758
 20
18.7801675047
 10
119.7278736379
 20
18.7803975916
 10
120.1539123133
 20
18.7806456132
 10
121.0017654547
 20
18.7811900276
  0
LINE
  5
1527
330
216
100
AcDbEntity
  8
0
  6
Continuous
 62
     7
100
AcDbLine
 10
102.1189539899
 20
18.7859857974
 30
0.0
 11
102.6406884204
 21
18.7857966695
 31
0.0
  0
LWPOLYLINE
  5
1528
330
216
100
AcDbEntity
  8
0
  6
Continuous
 62
     7
100
AcDbPolyline
 90
       15
 70
     0
 43
0.0
 10
109.0888350478
 20
18.7814836
 10
109.5111388199
 20
18.7811897442
 10
109.9345078429
 20
18.7809094495
 10
110.3590379853
 20
18.7806453341
 10
110.7851028136
 20
18.7803973179
 10
111.2130506526
 20
18.7801672398
 10
111.6432956676
 20
18.7799582833
 10
112.0763482305
 20
18.7797698411
 10
112.5129537894
 20
18.7796045686
 10
112.9540432322
 20
18.7794617299
 10
113.400730713
 20
18.7793438409
 10
113.8541203796
 20
18.7792499559
 10
114.3154430577
 20
18.7791824781
 10
114.785799419
 20
18.7791409767
 10
115.2562441493
 20
18.7791272201
  0
LINE
  5
1529
330
216
100
AcDbEntity
  8
0
  6
Continuous
 62
     7
100
AcDbLine
 10
102.6406884204
 20
18.7857966695
 30
0.0
 11
104.3128878394
 21
18.7849200739
 31
0.0
  0
LWPOLYLINE
  5
152A
330
216
100
AcDbEntity
  8
0
  6
Continuous
 62
     7
100
AcDbPolyline
 90
        3
 70
     0
 43
0.0
 10
106.9852845535
 20
18.7830459154
 10
107.8247024274
 20
18.7824114446
 10
109.0888350478
 20
18.7814836
  0
LINE
  5
152B
330
216
100
AcDbEntity
  8
0
  6
Continuous
 62
     7
100
AcDbLine
 10
104.3128878394
 20
18.7849200739
 30
0.0
 11
106.9852845535
 21
18.7830459154
 31
0.0
  0
LWPOLYLINE
  5
152C
330
216
100
AcDbEntity
  8
0
  6
Continuous
 62
     7
100
AcDbPolyline
 90
        8
 70
     0
 43
0.0
 10
111.3072046379
 20
18.5251168124
 10
111.2591308364
 20
18.5271849728
 10
111.1511368275
 20
18.5474312211
 10
111.0617252846
 20
18.582808754
 10
110.997114081
 20
18.6223259603
 10
110.9539557285
 20
18.6587234643
 10
110.9314236148
 20
18.683412725
 10
110.9254983963
 20
18.6912120914
  0
LINE
  5
152D
330
216
100
AcDbEntity
  8
0
  6
Continuous
 62
     7
100
AcDbLine
 10
112.8812441493
 20
18.0251168129
 30
0.0
 11
112.6937441493
 21
18.2126168129
 31
0.0
  0
LWPOLYLINE
  5
152E
330
216
100
AcDbEntity
  8
0
  6
Continuous
 62
     7
100
AcDbPolyline
 90
       10
 70
     0
 43
0.0
 10
110.7594582411
 20
18.7804122459
 10
110.7827421089
 20
18.7488718371
 10
110.8459875681
 20
18.6833373983
 10
110.9062879624
 20
18.6340300054
 10
110.9639569547
 20
18.5963025682
 10
111.0209164587
 20
18.5666906461
 10
111.0799592944
 20
18.5431357051
 10
111.1417856111
 20
18.525662781
 10
111.2051244619
 20
18.5150131757
 10
111.2686274494
 20
18.5114824487
  0
LWPOLYLINE
  5
152F
330
216
100
AcDbEntity
  8
0
  6
Continuous
 62
     7
100
AcDbPolyline
 90
        8
 70
     0
 43
0.0
 10
110.1657127446
 20
18.7807656087
 10
110.1972017327
 20
18.7240681389
 10
110.2837911263
 20
18.6122042056
 10
110.3851742801
 20
18.5166633807
 10
110.4988548046
 20
18.4397981965
 10
110.6220335079
 20
18.3835013289
 10
110.7516773215
 20
18.3491589936
 10
110.8845939844
 20
18.3376168129
  0
LWPOLYLINE
  5
1530
330
216
100
AcDbEntity
  8
0
  6
Continuous
 62
     7
100
AcDbPolyline
 90
        7
 70
     0
 43
0.0
 10
110.4763602085
 20
18.7805770398
 10
110.50768218
 20
18.7241808797
 10
110.594445474
 20
18.612094244
 10
110.6956121912
 20
18.5167569991
 10
110.8095009078
 20
18.4397468018
 10
110.9324852301
 20
18.3835382454
 10
111.0398796371
 20
18.3550844853
  0
LWPOLYLINE
  5
1531
330
216
100
AcDbEntity
  8
0
  6
Continuous
 62
     7
100
AcDbPolyline
 90
        9
 70
     0
 43
0.0
 10
109.9699291613
 20
18.7808874126
 10
109.9761270644
 20
18.7643775007
 10
110.0597232824
 20
18.6138584041
 10
110.1636305546
 20
18.4796216841
 10
110.2852903393
 20
18.3649726943
 10
110.4217069686
 20
18.2727344732
 10
110.5695214126
 20
18.2051782321
 10
110.7250939889
 20
18.1639674298
 10
110.8845939844
 20
18.1501168129
  0
LINE
  5
1532
330
216
100
AcDbEntity
  8
0
  6
Continuous
 62
     7
100
AcDbLine
 10
116.3812441493
 20
18.7751168129
 30
0.0
 11
116.3771521446
 21
18.7792088176
 31
0.0
  0
LINE
  5
1533
330
216
100
AcDbEntity
  8
0
  6
Continuous
 62
     7
100
AcDbLine
 10
110.6312441493
 20
17.2126168129
 30
0.0
 11
110.6312441493
 21
18.0251168129
 31
0.0
  0
LWPOLYLINE
  5
1534
330
216
100
AcDbEntity
  8
0
  6
Continuous
 62
     7
100
AcDbPolyline
 90
        4
 70
     0
 43
0.0
 10
112.6435153337
 20
18.7795622886
 10
112.6567465594
 20
18.7121258319
 10
112.6847050466
 20
18.4617032168
 10
112.6937441493
 20
18.2126168129
  0
LINE
  5
1535
330
216
100
AcDbEntity
  8
0
  6
Continuous
 62
     7
100
AcDbLine
 10
112.8812441493
 20
17.2126168129
 30
0.0
 11
112.8812441493
 21
18.0251168129
 31
0.0
  0
LINE
  5
1536
330
216
100
AcDbEntity
  8
0
  6
Continuous
 62
     7
100
AcDbLine
 10
114.1312441493
 20
18.7751168129
 30
0.0
 11
114.1312441493
 21
17.9951168129
 31
0.0
  0
LINE
  5
1537
330
216
100
AcDbEntity
  8
0
  6
Continuous
 62
     7
100
AcDbLine
 10
115.2562441493
 20
47.0690019478
 30
0.0
 11
115.2562441493
 21
47.2126168129
 31
0.0
  0
LINE
  5
1538
330
216
100
AcDbEntity
  8
DEFAULT_1
  6
CENTER
 62
     7
100
AcDbLine
 10
115.2562441493
 20
17.6384653632
 30
0.0
 11
115.2562441493
 21
47.0690019478
 31
0.0
  0
LINE
  5
1539
330
216
100
AcDbEntity
  8
DEFAULT_1
  6
CENTER
 62
     7
100
AcDbLine
 10
115.2562441493
 20
47.2126168129
 30
0.0
 11
115.2562441493
 21
48.2867706052
 31
0.0
  0
LINE
  5
153A
330
216
100
AcDbEntity
  8
0
  6
Continuous
 62
     7
100
AcDbLine
 10
116.3812441493
 20
18.7751168129
 30
0.0
 11
116.3812441493
 21
17.9951168129
 31
0.0
  0
LWPOLYLINE
  5
153B
330
216
100
AcDbEntity
  8
0
  6
Continuous
 62
     7
100
AcDbPolyline
 90
        9
 70
     0
 43
0.0
 10
111.7988845913
 20
18.779890579
 10
111.7930609045
 20
18.7643775007
 10
111.7094646865
 20
18.6138584041
 10
111.6055574142
 20
18.4796216841
 10
111.4838976296
 20
18.3649726943
 10
111.3474810002
 20
18.2727344732
 10
111.1996665563
 20
18.2051782321
 10
111.04409398
 20
18.1639674298
 10
110.8845939844
 20
18.1501168129
  0
LWPOLYLINE
  5
153C
330
216
100
AcDbEntity
  8
0
  6
Continuous
 62
     7
100
AcDbPolyline
 90
        9
 70
     0
 43
0.0
 10
112.1422072444
 20
18.7797449109
 10
112.1364382422
 20
18.7643775007
 10
112.0528420242
 20
18.6138584041
 10
111.9489347519
 20
18.4796216841
 10
111.8272749673
 20
18.3649726943
 10
111.6908583379
 20
18.2727344732
 10
111.543043894
 20
18.2051782321
 10
111.3874713177
 20
18.1639674298
 10
111.2279713221
 20
18.1501168129
  0
LINE
  5
153D
330
216
100
AcDbEntity
  8
0
  6
Continuous
 62
     7
100
AcDbLine
 10
110.6312441493
 20
18.0251168129
 30
0.0
 11
110.7664992292
 21
18.1603718929
 31
0.0
  0
LINE
  5
153E
330
216
100
AcDbEntity
  8
0
  6
Continuous
 62
     7
100
AcDbLine
 10
114.1353361587
 20
18.7792088224
 30
0.0
 11
114.1312441493
 21
18.7751168129
 31
0.0
  0
LINE
  5
153F
330
216
100
AcDbEntity
  8
DEFAULT_1
  6
CENTER
 62
     7
100
AcDbLine
 10
128.943090892
 20
39.4666774852
 30
0.0
 11
132.5177180729
 21
37.9493382695
 31
0.0
  0
LWPOLYLINE
  5
1540
330
216
100
AcDbEntity
  8
0
  6
Continuous
 62
     7
100
AcDbPolyline
 90
       42
 70
     0
 43
0.0
 10
115.2562441495
 20
47.2126168129
 10
115.8397205112
 20
47.2085640589
 10
116.413657858
 20
47.1965553709
 10
116.9789091106
 20
47.17675569559999
 10
117.536897257
 20
47.1492832188
 10
118.0882251211
 20
47.1142273274
 10
118.6343459796
 20
47.071580241
 10
119.175820064
 20
47.02135742
 10
119.7137516446
 20
46.9634596352
 10
120.2489479024
 20
46.89779411319999
 10
120.7820191219
 20
46.82422075489999
 10
121.3138320503
 20
46.7425447556
 10
121.8445680956
 20
46.65262300659999
 10
122.37498618
 20
46.5541921931
 10
122.9052014227
 20
46.44706349089999
 10
123.436111736
 20
46.33086508549999
 10
123.9676522255
 20
46.2054089432
 10
124.4992021978
 20
46.0706345368
 10
125.0305109692
 20
45.9263901991
 10
125.5617029907
 20
45.7724164928
 10
126.0916434878
 20
45.6088560091
 10
126.6192123344
 20
45.4359421493
 10
127.1442034564
 20
45.253603881
 10
127.6653903273
 20
45.06216026399999
 10
128.1800494762
 20
44.8626513326
 10
128.6854378734
 20
44.6562587397
 10
129.1803240112
 20
44.443766163
 10
129.6619402245
 20
44.2267243889
 10
130.1258122354
 20
44.0077147711
 10
130.5675429646
 20
43.78965888489999
 10
130.9823094239
 20
43.57602758699999
 10
131.3665580699
 20
43.3699941417
 10
131.7182112767
 20
43.174141203
 10
132.036045344
 20
42.99066121649999
 10
132.3189159983
 20
42.8217541533
 10
132.5658157113
 20
42.6695787852
 10
132.7758212393
 20
42.5362487998
 10
132.9481845735
 20
42.4236510678
 10
133.0827278177
 20
42.3333750995
 10
133.1791022759
 20
42.26714165149999
 10
133.236976197
 20
42.2264482861
 10
133.2562440915
 20
42.2126168129
  0
LINE
  5
1541
330
216
100
AcDbEntity
  8
0
  6
Continuous
 62
     7
100
AcDbLine
 10
128.7615524173
 20
19.0894324129
 30
0.0
 11
133.2562441493
 21
42.2126168129
 31
0.0
  0
ARC
  5
158E
330
216
100
AcDbEntity
  8
DEFAULT_2
  6
HIDDEN
 62
     7
100
AcDbCircle
 10
132.5922598798
 20
41.7126168129
 30
0.0
 40
0.500000094
100
AcDbArc
 50
89.99997598070001
 51
154.0001643384
  0
ARC
  5
158F
330
216
100
AcDbEntity
  8
DEFAULT_2
  6
HIDDEN
 62
     7
100
AcDbCircle
 10
97.92022841879999
 20
41.7126168129
 30
0.0
 40
0.500000094
100
AcDbArc
 50
25.9998356616
 51
90.0000240195
  0
ARC
  5
1596
330
216
100
AcDbEntity
  8
DEFAULT_2
  6
HIDDEN
 62
     7
100
AcDbCircle
 10
117.2431109984
 20
22.4709302715
 30
0.0
 40
0.25
100
AcDbArc
 50
94.6749900284
 51
134.9999999937
  0
ARC
  5
1597
330
216
100
AcDbEntity
  8
DEFAULT_2
  6
HIDDEN
 62
     7
100
AcDbCircle
 10
116.5276907587
 20
22.4626168129
 30
0.0
 40
0.25
100
AcDbArc
 50
270.0
 51
315.0
  0
ARC
  5
1598
330
216
100
AcDbEntity
  8
DEFAULT_2
  6
HIDDEN
 62
     7
100
AcDbCircle
 10
113.9847975399
 20
22.4626168129
 30
0.0
 40
0.25
100
AcDbArc
 50
225.0
 51
270.0
  0
ARC
  5
1599
330
216
100
AcDbEntity
  8
DEFAULT_2
  6
HIDDEN
 62
     7
100
AcDbCircle
 10
113.274925873
 20
22.4653816986
 30
0.0
 40
0.25
100
AcDbArc
 50
45.0000000042
 51
88.46178295100001
  0
ARC
  5
159E
330
216
100
AcDbEntity
  8
0
  6
Continuous
 62
     7
100
AcDbCircle
 10
128.3934422235
 20
19.1609857861
 30
0.0
 40
0.375
100
AcDbArc
 50
270.0140728012
 51
349.0000000005001
  0
ARC
  5
159F
330
216
100
AcDbEntity
  8
0
  6
Continuous
 62
     7
100
AcDbCircle
 10
102.1190460751
 20
19.1609857861
 30
0.0
 40
0.375
100
AcDbArc
 50
190.9999999993
 51
269.9859304224
  0
ENDSEC
  0
SECTION
  2
OBJECTS
  0
DICTIONARY
  5
C
330
0
100
AcDbDictionary
281
     1
  3
ACAD_COLOR
350
15D7
  3
ACAD_DETAILVIEWSTYLE
350
15F1
  3
ACAD_GROUP
350
D
  3
ACAD_LAYOUT
350
1A
  3
ACAD_MATERIAL
350
15A5
  3
ACAD_MLEADERSTYLE
350
15EC
  3
ACAD_MLINESTYLE
350
17
  3
ACAD_PLOTSETTINGS
350
19
  3
ACAD_PLOTSTYLENAME
350
E
  3
ACAD_SCALELIST
350
15DA
  3
ACAD_SECTIONVIEWSTYLE
350
15EE
  3
ACAD_TABLESTYLE
350
15D8
  3
ACAD_VISUALSTYLE
350
15BE
  3
ACDB_RECOMPOSE_DATA
350
15F5
  3
AcDbVariableDictionary
350
1632
  0
DICTIONARY
  5
15F6
330
8
100
AcDbDictionary
280
     1
281
     1
  0
DICTIONARY
  5
1645
330
10
100
AcDbDictionary
280
     1
281
     1
  3
ADSK_XREC_LAYER_RECONCILED
360
1646
  0
DICTIONARY
  5
1647
330
1FA
100
AcDbDictionary
280
     1
281
     1
  3
ADSK_XREC_LAYER_RECONCILED
360
1648
  0
DICTIONARY
  5
1649
330
1FB
100
AcDbDictionary
280
     1
281
     1
  3
ADSK_XREC_LAYER_RECONCILED
360
164A
  0
DICTIONARY
  5
164B
330
1FC
100
AcDbDictionary
280
     1
281
     1
  3
ADSK_XREC_LAYER_RECONCILED
360
164C
  0
DICTIONARY
  5
164D
330
1FD
100
AcDbDictionary
280
     1
281
     1
  3
ADSK_XREC_LAYER_RECONCILED
360
164E
  0
DICTIONARY
  5
164F
330
1FE
100
AcDbDictionary
280
     1
281
     1
  3
ADSK_XREC_LAYER_RECONCILED
360
1650
  0
DICTIONARY
  5
1651
330
1FF
100
AcDbDictionary
280
     1
281
     1
  3
ADSK_XREC_LAYER_RECONCILED
360
1652
  0
DICTIONARY
  5
1653
330
200
100
AcDbDictionary
280
     1
281
     1
  3
ADSK_XREC_LAYER_RECONCILED
360
1654
  0
DICTIONARY
  5
1655
330
201
100
AcDbDictionary
280
     1
281
     1
  3
ADSK_XREC_LAYER_RECONCILED
360
1656
  0
DICTIONARY
  5
1657
330
202
100
AcDbDictionary
280
     1
281
     1
  3
ADSK_XREC_LAYER_RECONCILED
360
1658
  0
DICTIONARY
  5
1659
330
203
100
AcDbDictionary
280
     1
281
     1
  3
ADSK_XREC_LAYER_RECONCILED
360
165A
  0
DICTIONARY
  5
165B
330
204
100
AcDbDictionary
280
     1
281
     1
  3
ADSK_XREC_LAYER_RECONCILED
360
165C
  0
DICTIONARY
  5
165D
330
205
100
AcDbDictionary
280
     1
281
     1
  3
ADSK_XREC_LAYER_RECONCILED
360
165E
  0
DICTIONARY
  5
165F
330
206
100
AcDbDictionary
280
     1
281
     1
  3
ADSK_XREC_LAYER_RECONCILED
360
1660
  0
DICTIONARY
  5
1661
330
207
100
AcDbDictionary
280
     1
281
     1
  3
ADSK_XREC_LAYER_RECONCILED
360
1662
  0
DICTIONARY
  5
1663
330
208
100
AcDbDictionary
280
     1
281
     1
  3
ADSK_XREC_LAYER_RECONCILED
360
1664
  0
DICTIONARY
  5
1665
330
209
100
AcDbDictionary
280
     1
281
     1
  3
ADSK_XREC_LAYER_RECONCILED
360
1666
  0
DICTIONARY
  5
1667
330
20A
100
AcDbDictionary
280
     1
281
     1
  3
ADSK_XREC_LAYER_RECONCILED
360
1668
  0
DICTIONARY
  5
1669
330
20B
100
AcDbDictionary
280
     1
281
     1
  3
ADSK_XREC_LAYER_RECONCILED
360
166A
  0
DICTIONARY
  5
166B
330
20C
100
AcDbDictionary
280
     1
281
     1
  3
ADSK_XREC_LAYER_RECONCILED
360
166C
  0
DICTIONARY
  5
166D
330
20D
100
AcDbDictionary
280
     1
281
     1
  3
ADSK_XREC_LAYER_RECONCILED
360
166E
  0
DICTIONARY
  5
15D7
102
{ACAD_REACTORS
330
C
102
}
330
C
100
AcDbDictionary
281
     1
  0
DICTIONARY
  5
15F1
102
{ACAD_REACTORS
330
C
102
}
330
C
100
AcDbDictionary
281
     1
  3
Imperial24
350
15F2
  0
DICTIONARY
  5
D
102
{ACAD_REACTORS
330
C
102
}
330
C
100
AcDbDictionary
281
     1
  0
DICTIONARY
  5
1A
102
{ACAD_REACTORS
330
C
102
}
330
C
100
AcDbDictionary
281
     1
  3
Layout1
350
15A2
  3
Model
350
15A1
  0
DICTIONARY
  5
15A5
102
{ACAD_REACTORS
330
C
102
}
330
C
100
AcDbDictionary
281
     1
  3
ByBlock
350
15AE
  3
ByLayer
350
15A6
  3
Global
350
15B6
  0
DICTIONARY
  5
15EC
102
{ACAD_REACTORS
330
C
102
}
330
C
100
AcDbDictionary
281
     1
  3
Standard
350
15ED
  0
DICTIONARY
  5
17
102
{ACAD_REACTORS
330
C
102
}
330
C
100
AcDbDictionary
281
     1
  3
Standard
350
18
  0
DICTIONARY
  5
19
102
{ACAD_REACTORS
330
C
102
}
330
C
100
AcDbDictionary
281
     1
  0
ACDBDICTIONARYWDFLT
  5
E
102
{ACAD_REACTORS
330
C
102
}
330
C
100
AcDbDictionary
281
     1
  3
Normal
350
F
100
AcDbDictionaryWithDefault
340
F
  0
DICTIONARY
  5
15DA
102
{ACAD_REACTORS
330
C
102
}
330
C
100
AcDbDictionary
281
     1
  3
A0
350
15DB
  3
A1
350
15DC
  3
A2
350
15DD
  3
A3
350
15DE
  3
A4
350
15DF
  3
A5
350
15E0
  3
A6
350
15E1
  3
A7
350
15E2
  3
A8
350
15E3
  3
A9
350
15E4
  3
B0
350
15E5
  3
B1
350
15E6
  3
B2
350
15E7
  3
B3
350
15E8
  3
B4
350
15E9
  3
B5
350
15EA
  3
B6
350
15EB
  0
DICTIONARY
  5
15EE
102
{ACAD_REACTORS
330
C
102
}
330
C
100
AcDbDictionary
281
     1
  3
Imperial24
350
15F0
  0
DICTIONARY
  5
15D8
102
{ACAD_REACTORS
330
C
102
}
330
C
100
AcDbDictionary
281
     1
  3
Standard
350
15D9
  0
DICTIONARY
  5
15BE
102
{ACAD_REACTORS
330
C
102
}
330
C
100
AcDbDictionary
281
     1
  3
2dWireframe
350
15C4
  3
3D Hidden
350
163E
  3
3dWireframe
350
163D
  3
Basic
350
15C3
  3
Brighten
350
15CA
  3
ColorChange
350
15CE
  3
Conceptual
350
15C7
  3
Dim
350
15C9
  3
EdgeColorOff
350
15D6
  3
Facepattern
350
15CD
  3
Flat
350
15BF
  3
FlatWithEdges
350
15C0
  3
Gouraud
350
15C1
  3
GouraudWithEdges
350
15C2
  3
Hidden
350
15C6
  3
JitterOff
350
15D4
  3
Linepattern
350
15CC
  3
OverhangOff
350
15D5
  3
Realistic
350
15C8
  3
Shaded
350
15D3
  3
Shaded with edges
350
15D2
  3
Shades of Gray
350
15CF
  3
Sketchy
350
15D0
  3
Thicken
350
15CB
  3
Wireframe
350
15C5
  3
X-Ray
350
15D1
  0
XRECORD
  5
15F5
102
{ACAD_REACTORS
330
C
102
}
330
C
100
AcDbXrecord
280
     1
 90
        1
330
15D9
  0
DICTIONARY
  5
1632
102
{ACAD_REACTORS
330
C
102
}
330
C
100
AcDbDictionary
281
     1
  3
CANNOSCALE
350
1637
  3
CMLEADERSTYLE
350
1634
  3
CTABLESTYLE
350
1633
  3
CVIEWDETAILSTYLE
350
1635
  3
CVIEWSECTIONSTYLE
350
1636
  3
DIMASSOC
350
163A
  3
INDEXCTL
350
1639
  3
SORTENTS
350
1638
  3
XCLIPFRAME
350
163B
  0
XRECORD
  5
1646
102
{ACAD_REACTORS
330
1645
102
}
330
1645
100
AcDbXrecord
280
     1
290
     1
  0
XRECORD
  5
1648
102
{ACAD_REACTORS
330
1647
102
}
330
1647
100
AcDbXrecord
280
     1
290
     1
  0
XRECORD
  5
164A
102
{ACAD_REACTORS
330
1649
102
}
330
1649
100
AcDbXrecord
280
     1
290
     1
  0
XRECORD
  5
164C
102
{ACAD_REACTORS
330
164B
102
}
330
164B
100
AcDbXrecord
280
     1
290
     1
  0
XRECORD
  5
164E
102
{ACAD_REACTORS
330
164D
102
}
330
164D
100
AcDbXrecord
280
     1
290
     1
  0
XRECORD
  5
1650
102
{ACAD_REACTORS
330
164F
102
}
330
164F
100
AcDbXrecord
280
     1
290
     1
  0
XRECORD
  5
1652
102
{ACAD_REACTORS
330
1651
102
}
330
1651
100
AcDbXrecord
280
     1
290
     1
  0
XRECORD
  5
1654
102
{ACAD_REACTORS
330
1653
102
}
330
1653
100
AcDbXrecord
280
     1
290
     1
  0
XRECORD
  5
1656
102
{ACAD_REACTORS
330
1655
102
}
330
1655
100
AcDbXrecord
280
     1
290
     1
  0
XRECORD
  5
1658
102
{ACAD_REACTORS
330
1657
102
}
330
1657
100
AcDbXrecord
280
     1
290
     1
  0
XRECORD
  5
165A
102
{ACAD_REACTORS
330
1659
102
}
330
1659
100
AcDbXrecord
280
     1
290
     1
  0
XRECORD
  5
165C
102
{ACAD_REACTORS
330
165B
102
}
330
165B
100
AcDbXrecord
280
     1
290
     1
  0
XRECORD
  5
165E
102
{ACAD_REACTORS
330
165D
102
}
330
165D
100
AcDbXrecord
280
     1
290
     1
  0
XRECORD
  5
1660
102
{ACAD_REACTORS
330
165F
102
}
330
165F
100
AcDbXrecord
280
     1
290
     1
  0
XRECORD
  5
1662
102
{ACAD_REACTORS
330
1661
102
}
330
1661
100
AcDbXrecord
280
     1
290
     1
  0
XRECORD
  5
1664
102
{ACAD_REACTORS
330
1663
102
}
330
1663
100
AcDbXrecord
280
     1
290
     1
  0
XRECORD
  5
1666
102
{ACAD_REACTORS
330
1665
102
}
330
1665
100
AcDbXrecord
280
     1
290
     1
  0
XRECORD
  5
1668
102
{ACAD_REACTORS
330
1667
102
}
330
1667
100
AcDbXrecord
280
     1
290
     1
  0
XRECORD
  5
166A
102
{ACAD_REACTORS
330
1669
102
}
330
1669
100
AcDbXrecord
280
     1
290
     1
  0
XRECORD
  5
166C
102
{ACAD_REACTORS
330
166B
102
}
330
166B
100
AcDbXrecord
280
     1
290
     1
  0
XRECORD
  5
166E
102
{ACAD_REACTORS
330
166D
102
}
330
166D
100
AcDbXrecord
280
     1
290
     1
  0
ACAD_PROXY_OBJECT
  5
15F2
102
{ACAD_REACTORS
330
15F1
102
}
330
15F1
100
AcDbProxyObject
 90
      499
 91
      509
 95
   983063
 70
     0
 93
     1261
310
90B496D70657269616C323400481E5C0F42F5A8DC671FC056BD1B81E856B9F81E5C0F42F5A8DC671FA33E5C0F42F5A8DC671FA02000000000000741FA02AD929E2E20B1AB30B9102B34B2BBAA3CB832902E33101112BA3198911F1290129E2E20B1AB30B9102B34B2BBA232BA30B4B624B21F12AE2829A1A0A62290129E2E2
310
0B1AB30B9102B34B2BBA9B1B0B632902E33101112B9B7111F1280233A33804
340
11
340
0
340
16
340
11
340
16
340
16
 94
        0
  0
LAYOUT
  5
15A2
102
{ACAD_REACTORS
330
1A
102
}
330
1A
100
AcDbPlotSettings
  1

  2
none_device
  4
ANSI_B_(17.00_x_11.00_Inches)
  6

 40
0.0
 41
0.0
 42
0.0
 43
0.0
 44
431.8
 45
279.4
 46
0.0
 47
0.0
 48
0.0
 49
0.0
140
0.0
141
0.0
142
1.0
143
1.0
 70
     0
 72
     0
 73
     0
 74
     0
  7

 75
     0
147
1.0
 76
     0
 77
     2
 78
   300
148
0.0
149
0.0
100
AcDbLayout
  1
Layout1
 70
     1
 71
     1
 10
0.0
 20
0.0
 11
12.0
 21
9.0
 12
0.0
 22
0.0
 32
0.0
 14
1.000000000000000E+20
 24
1.000000000000000E+20
 34
1.000000000000000E+20
 15
-1.000000000000000E+20
 25
-1.000000000000000E+20
 35
-1.000000000000000E+20
146
0.0
 13
0.0
 23
0.0
 33
0.0
 16
1.0
 26
0.0
 36
0.0
 17
0.0
 27
1.0
 37
0.0
 76
     0
330
217
  0
LAYOUT
  5
15A1
102
{ACAD_REACTORS
330
1A
102
}
330
1A
100
AcDbPlotSettings
  1

  2
none_device
  4
ANSI_B_(17.00_x_11.00_Inches)
  6

 40
0.0
 41
0.0
 42
0.0
 43
0.0
 44
431.8
 45
279.4
 46
0.0
 47
0.0
 48
0.0
 49
0.0
140
0.0
141
0.0
142
1.0
143
1.0
 70
  1024
 72
     0
 73
     0
 74
     0
  7

 75
     0
147
1.0
 76
     0
 77
     2
 78
   300
148
0.0
149
0.0
100
AcDbLayout
  1
Model
 70
     0
 71
     0
 10
0.0
 20
0.0
 11
17.0
 21
11.0
 12
0.0
 22
0.0
 32
0.0
 14
0.0
 24
0.0
 34
0.0
 15
0.0
 25
0.0
 35
0.0
146
0.0
 13
0.0
 23
0.0
 33
0.0
 16
1.0
 26
0.0
 36
0.0
 17
0.0
 27
1.0
 37
0.0
 76
     0
330
216
331
1F4
  0
MATERIAL
  5
15AE
102
{ACAD_XDICTIONARY
360
15AF
102
}
102
{ACAD_REACTORS
330
15A5
102
}
330
15A5
100
AcDbMaterial
  1
ByBlock
 72
     0
 43
0.0208333333333333
 43
0.0
 43
0.0
 43
0.0
 43
0.0
 43
0.0208333333333333
 43
0.0
 43
0.0
 43
0.0
 43
0.0
 43
1.0
 43
0.0
 43
0.0
 43
0.0
 43
0.0
 43
1.0
 77
     0
 47
0.0208333333333333
 47
0.0
 47
0.0
 47
0.0
 47
0.0
 47
0.0208333333333333
 47
0.0
 47
0.0
 47
0.0
 47
0.0
 47
1.0
 47
0.0
 47
0.0
 47
0.0
 47
0.0
 47
1.0
171
     0
 49
0.0208333333333333
 49
0.0
 49
0.0
 49
0.0
 49
0.0
 49
0.0208333333333333
 49
0.0
 49
0.0
 49
0.0
 49
0.0
 49
1.0
 49
0.0
 49
0.0
 49
0.0
 49
0.0
 49
1.0
175
     0
142
0.0208333333333333
142
0.0
142
0.0
142
0.0
142
0.0
142
0.0208333333333333
142
0.0
142
0.0
142
0.0
142
0.0
142
1.0
142
0.0
142
0.0
142
0.0
142
0.0
142
1.0
179
     0
144
0.0208333333333333
144
0.0
144
0.0
144
0.0
144
0.0
144
0.0208333333333333
144
0.0
144
0.0
144
0.0
144
0.0
144
1.0
144
0.0
144
0.0
144
0.0
144
0.0
144
1.0
147
0.0208333333333333
147
0.0
147
0.0
147
0.0
147
0.0
147
0.0208333333333333
147
0.0
147
0.0
147
0.0
147
0.0
147
1.0
147
0.0
147
0.0
147
0.0
147
0.0
147
1.0
  0
MATERIAL
  5
15A6
102
{ACAD_XDICTIONARY
360
15A7
102
}
102
{ACAD_REACTORS
330
15A5
102
}
330
15A5
100
AcDbMaterial
  1
ByLayer
 72
     0
 43
0.0208333333333333
 43
0.0
 43
0.0
 43
0.0
 43
0.0
 43
0.0208333333333333
 43
0.0
 43
0.0
 43
0.0
 43
0.0
 43
1.0
 43
0.0
 43
0.0
 43
0.0
 43
0.0
 43
1.0
 77
     0
 47
0.0208333333333333
 47
0.0
 47
0.0
 47
0.0
 47
0.0
 47
0.0208333333333333
 47
0.0
 47
0.0
 47
0.0
 47
0.0
 47
1.0
 47
0.0
 47
0.0
 47
0.0
 47
0.0
 47
1.0
171
     0
 49
0.0208333333333333
 49
0.0
 49
0.0
 49
0.0
 49
0.0
 49
0.0208333333333333
 49
0.0
 49
0.0
 49
0.0
 49
0.0
 49
1.0
 49
0.0
 49
0.0
 49
0.0
 49
0.0
 49
1.0
175
     0
142
0.0208333333333333
142
0.0
142
0.0
142
0.0
142
0.0
142
0.0208333333333333
142
0.0
142
0.0
142
0.0
142
0.0
142
1.0
142
0.0
142
0.0
142
0.0
142
0.0
142
1.0
179
     0
144
0.0208333333333333
144
0.0
144
0.0
144
0.0
144
0.0
144
0.0208333333333333
144
0.0
144
0.0
144
0.0
144
0.0
144
1.0
144
0.0
144
0.0
144
0.0
144
0.0
144
1.0
147
0.0208333333333333
147
0.0
147
0.0
147
0.0
147
0.0
147
0.0208333333333333
147
0.0
147
0.0
147
0.0
147
0.0
147
1.0
147
0.0
147
0.0
147
0.0
147
0.0
147
1.0
  0
MATERIAL
  5
15B6
102
{ACAD_XDICTIONARY
360
15B7
102
}
102
{ACAD_REACTORS
330
15A5
102
}
330
15A5
100
AcDbMaterial
  1
Global
 72
     0
 43
0.0208333333333333
 43
0.0
 43
0.0
 43
0.0
 43
0.0
 43
0.0208333333333333
 43
0.0
 43
0.0
 43
0.0
 43
0.0
 43
1.0
 43
0.0
 43
0.0
 43
0.0
 43
0.0
 43
1.0
 77
     0
 47
0.0208333333333333
 47
0.0
 47
0.0
 47
0.0
 47
0.0
 47
0.0208333333333333
 47
0.0
 47
0.0
 47
0.0
 47
0.0
 47
1.0
 47
0.0
 47
0.0
 47
0.0
 47
0.0
 47
1.0
171
     0
 49
0.0208333333333333
 49
0.0
 49
0.0
 49
0.0
 49
0.0
 49
0.0208333333333333
 49
0.0
 49
0.0
 49
0.0
 49
0.0
 49
1.0
 49
0.0
 49
0.0
 49
0.0
 49
0.0
 49
1.0
175
     0
142
0.0208333333333333
142
0.0
142
0.0
142
0.0
142
0.0
142
0.0208333333333333
142
0.0
142
0.0
142
0.0
142
0.0
142
1.0
142
0.0
142
0.0
142
0.0
142
0.0
142
1.0
179
     0
144
0.0208333333333333
144
0.0
144
0.0
144
0.0
144
0.0
144
0.0208333333333333
144
0.0
144
0.0
144
0.0
144
0.0
144
1.0
144
0.0
144
0.0
144
0.0
144
0.0
144
1.0
147
0.0208333333333333
147
0.0
147
0.0
147
0.0
147
0.0
147
0.0208333333333333
147
0.0
147
0.0
147
0.0
147
0.0
147
1.0
147
0.0
147
0.0
147
0.0
147
0.0
147
1.0
  0
MLEADERSTYLE
  5
15ED
102
{ACAD_REACTORS
330
15EC
102
}
330
15EC
100
AcDbMLeaderStyle
170
     2
171
     1
172
     0
 90
        2
 40
0.0
 41
0.0
173
     1
 91
-1056964608
340
14
 92
       -2
290
     1
 42
0.09
291
     1
 43
0.36
  3
Standard
 44
0.18
300

342
11
174
     1
178
     6
175
     1
176
     0
 93
-1056964608
 45
0.18
292
     0
297
     0
 46
0.18
 94
-1056964608
 47
1.0
 49
1.0
140
1.0
293
     1
141
0.0
294
     1
177
     0
142
1.0
295
     0
296
     0
143
0.125
1001
ACAD_MLEADERVER
1070
     2
  0
MLINESTYLE
  5
18
102
{ACAD_REACTORS
330
17
102
}
330
17
100
AcDbMlineStyle
  2
STANDARD
 70
     0
  3

 62
   256
 51
90.0
 52
90.0
 71
     2
 49
0.5
 62
   256
  6
BYLAYER
 49
-0.5
 62
   256
  6
BYLAYER
  0
ACDBPLACEHOLDER
  5
F
102
{ACAD_REACTORS
330
E
102
}
330
E
  0
SCALE
  5
15DB
102
{ACAD_REACTORS
330
15DA
102
}
330
15DA
100
AcDbScale
 70
     0
300
1:1
140
1.0
141
1.0
290
     1
  0
SCALE
  5
15DC
102
{ACAD_REACTORS
330
15DA
102
}
330
15DA
100
AcDbScale
 70
     0
300
1/128" = 1'-0"
140
0.0078125
141
12.0
290
     0
  0
SCALE
  5
15DD
102
{ACAD_REACTORS
330
15DA
102
}
330
15DA
100
AcDbScale
 70
     0
300
1/64" = 1'-0"
140
0.015625
141
12.0
290
     0
  0
SCALE
  5
15DE
102
{ACAD_REACTORS
330
15DA
102
}
330
15DA
100
AcDbScale
 70
     0
300
1/32" = 1'-0"
140
0.03125
141
12.0
290
     0
  0
SCALE
  5
15DF
102
{ACAD_REACTORS
330
15DA
102
}
330
15DA
100
AcDbScale
 70
     0
300
1/16" = 1'-0"
140
0.0625
141
12.0
290
     0
  0
SCALE
  5
15E0
102
{ACAD_REACTORS
330
15DA
102
}
330
15DA
100
AcDbScale
 70
     0
300
3/32" = 1'-0"
140
0.09375
141
12.0
290
     0
  0
SCALE
  5
15E1
102
{ACAD_REACTORS
330
15DA
102
}
330
15DA
100
AcDbScale
 70
     0
300
1/8" = 1'-0"
140
0.125
141
12.0
290
     0
  0
SCALE
  5
15E2
102
{ACAD_REACTORS
330
15DA
102
}
330
15DA
100
AcDbScale
 70
     0
300
3/16" = 1'-0"
140
0.1875
141
12.0
290
     0
  0
SCALE
  5
15E3
102
{ACAD_REACTORS
330
15DA
102
}
330
15DA
100
AcDbScale
 70
     0
300
1/4" = 1'-0"
140
0.25
141
12.0
290
     0
  0
SCALE
  5
15E4
102
{ACAD_REACTORS
330
15DA
102
}
330
15DA
100
AcDbScale
 70
     0
300
3/8" = 1'-0"
140
0.375
141
12.0
290
     0
  0
SCALE
  5
15E5
102
{ACAD_REACTORS
330
15DA
102
}
330
15DA
100
AcDbScale
 70
     0
300
1/2" = 1'-0"
140
0.5
141
12.0
290
     0
  0
SCALE
  5
15E6
102
{ACAD_REACTORS
330
15DA
102
}
330
15DA
100
AcDbScale
 70
     0
300
3/4" = 1'-0"
140
0.75
141
12.0
290
     0
  0
SCALE
  5
15E7
102
{ACAD_REACTORS
330
15DA
102
}
330
15DA
100
AcDbScale
 70
     0
300
1" = 1'-0"
140
1.0
141
12.0
290
     0
  0
SCALE
  5
15E8
102
{ACAD_REACTORS
330
15DA
102
}
330
15DA
100
AcDbScale
 70
     0
300
1-1/2" = 1'-0"
140
1.5
141
12.0
290
     0
  0
SCALE
  5
15E9
102
{ACAD_REACTORS
330
15DA
102
}
330
15DA
100
AcDbScale
 70
     0
300
3" = 1'-0"
140
3.0
141
12.0
290
     0
  0
SCALE
  5
15EA
102
{ACAD_REACTORS
330
15DA
102
}
330
15DA
100
AcDbScale
 70
     0
300
6" = 1'-0"
140
6.0
141
12.0
290
     0
  0
SCALE
  5
15EB
102
{ACAD_REACTORS
330
15DA
102
}
330
15DA
100
AcDbScale
 70
     0
300
1'-0" = 1'-0"
140
12.0
141
12.0
290
     0
  0
ACAD_PROXY_OBJECT
  5
15F0
102
{ACAD_REACTORS
330
15EE
102
}
330
15EE
100
AcDbProxyObject
 90
      499
 91
      508
 95
   983063
 70
     0
 93
     2303
310
90B496D70657269616C3234004A765C0F42F5A8DC671FE5C0F42F5A8DC671FA229258409E5840A25840A65840B05840B4005C0F42F5A8DC6F1FA33A659703D0BD6A3719C7E5C0F42F5A8DC671FE5C0F42F5A8DC671FA02000000000000741FA02BE929E2E20B1AB30B9102B34B2BBAA3CB832902E33101112BA3198911F129
310
0129E2E20B1AB30B9102B34B2BBA9B2B1BA34B7B729BA30B93A24B21F1296929E2E20B1AB30B9102B34B2BBA9B2B1BA34B7B722B73224B21F12AE2829A1A0A62290129E2E20B1AB30B9102B34B2BBA9B1B0B632902E33101112B9B7111F128060080A0E829CA692666200C206056BD1B81E85639FA0320D0305A88A9F643F2
310
7E32B9969C2960E81F87FA0718D4DE3E87E32B9969C2960E85F9E5129FC49EA5FA7E
340
11
340
0
340
0
340
15EF
340
16
340
11
 94
        0
  0
TABLESTYLE
  5
15D9
102
{ACAD_XDICTIONARY
360
15F3
102
}
102
{ACAD_REACTORS
330
15D8
102
}
330
15D8
100
AcDbTableStyle
  3
Standard
 70
     0
 71
     0
 40
0.06
 41
0.06
280
     0
281
     0
  7
STANDARD
140
0.18
170
     2
 62
     0
 63
     7
283
     0
274
    -2
284
     1
 64
     0
275
    -2
285
     1
 65
     0
276
    -2
286
     1
 66
     0
277
    -2
287
     1
 67
     0
278
    -2
288
     1
 68
     0
279
    -2
289
     1
 69
     0
  7
STANDARD
140
0.25
170
     5
 62
     0
 63
     7
283
     0
274
    -2
284
     1
 64
     0
275
    -2
285
     1
 65
     0
276
    -2
286
     1
 66
     0
277
    -2
287
     1
 67
     0
278
    -2
288
     1
 68
     0
279
    -2
289
     1
 69
     0
  7
STANDARD
140
0.18
170
     5
 62
     0
 63
     7
283
     0
274
    -2
284
     1
 64
     0
275
    -2
285
     1
 65
     0
276
    -2
286
     1
 66
     0
277
    -2
287
     1
 67
     0
278
    -2
288
     1
 68
     0
279
    -2
289
     1
 69
     0
  0
VISUALSTYLE
  5
15C4
102
{ACAD_XDICTIONARY
360
160A
102
}
102
{ACAD_REACTORS
330
15BE
102
}
330
15BE
100
AcDbVisualStyle
  2
2dWireframe
 70
     4
 71
     0
 72
     2
 73
     0
 90
        0
 40
-0.6
 41
-30.0
 62
     5
 63
     7
 74
     1
 91
        4
 64
     7
 65
   257
 75
     1
175
     1
 42
1.0
 92
        0
 66
   257
 43
1.0
 76
     1
 77
     6
 78
     2
 67
     7
 79
     5
170
     0
171
     0
290
     0
174
     0
 93
        1
 44
0.0
173
     0
291
     0
 45
0.0
1001
ACAD
1000
AcDbSavedByObjectVersion
1070
     0
  0
VISUALSTYLE
  5
163E
102
{ACAD_REACTORS
330
15BE
102
}
330
15BE
100
AcDbVisualStyle
  2
3D Hidden
 70
     6
 71
     1
 72
     2
 73
     2
 90
        0
 40
-0.6
 41
-30.0
 62
     5
 63
     7
421
 16777215
 74
     2
 91
        2
 64
     7
 65
   257
 75
     2
175
     1
 42
40.0
 92
        0
 66
   257
 43
1.0
 76
     1
 77
     6
 78
     2
 67
     7
 79
     3
170
     0
171
     0
290
     0
174
     0
 93
        1
 44
0.0
173
     0
291
     0
 45
0.0
1001
ACAD
1000
AcDbSavedByObjectVersion
1070
     0
  0
VISUALSTYLE
  5
163D
102
{ACAD_REACTORS
330
15BE
102
}
330
15BE
100
AcDbVisualStyle
  2
3dWireframe
 70
     5
 71
     0
 72
     2
 73
     0
 90
        0
 40
-0.6
 41
-30.0
 62
     5
 63
     7
421
 16777215
 74
     1
 91
        4
 64
     7
 65
   257
 75
     1
175
     1
 42
1.0
 92
        0
 66
   257
 43
1.0
 76
     1
 77
     6
 78
     2
 67
     7
 79
     5
170
     0
171
     0
290
     0
174
     0
 93
        1
 44
0.0
173
     0
291
     0
 45
0.0
1001
ACAD
1000
AcDbSavedByObjectVersion
1070
     0
  0
VISUALSTYLE
  5
15C3
102
{ACAD_XDICTIONARY
360
1608
102
}
102
{ACAD_REACTORS
330
15BE
102
}
330
15BE
100
AcDbVisualStyle
  2
Basic
 70
     7
 71
     1
 72
     0
 73
     1
 90
        0
 40
-0.6
 41
-30.0
 62
     5
 63
     7
 74
     0
 91
        4
 64
     7
 65
   257
 75
     1
175
     1
 42
1.0
 92
        8
 66
     7
 43
1.0
 76
     1
 77
     6
 78
     2
 67
     7
 79
     5
170
     0
171
     0
290
     0
174
     0
 93
        1
 44
0.0
173
     0
291
     1
 45
0.0
1001
ACAD
1000
AcDbSavedByObjectVersion
1070
     0
  0
VISUALSTYLE
  5
15CA
102
{ACAD_XDICTIONARY
360
1616
102
}
102
{ACAD_REACTORS
330
15BE
102
}
330
15BE
100
AcDbVisualStyle
  2
Brighten
 70
    12
 71
     2
 72
     2
 73
     0
 90
        0
 40
-0.6
 41
-30.0
 62
     5
 63
     7
 74
     1
 91
        4
 64
     7
 65
   257
 75
     1
175
     1
 42
1.0
 92
        8
 66
     7
 43
1.0
 76
     1
 77
     6
 78
     2
 67
     7
 79
     5
170
     0
171
     0
290
     0
174
     0
 93
        1
 44
50.0
173
     0
291
     1
 45
0.0
1001
ACAD
1000
AcDbSavedByObjectVersion
1070
     0
  0
VISUALSTYLE
  5
15CE
102
{ACAD_XDICTIONARY
360
161E
102
}
102
{ACAD_REACTORS
330
15BE
102
}
330
15BE
100
AcDbVisualStyle
  2
ColorChange
 70
    16
 71
     2
 72
     2
 73
     3
 90
        0
 40
-0.6
 41
-30.0
 62
     5
 63
     8
 74
     1
 91
        4
 64
     7
 65
   257
 75
     1
175
     1
 42
1.0
 92
        8
 66
     8
 43
1.0
 76
     1
 77
     6
 78
     2
 67
     7
 79
     5
170
     0
171
     0
290
     0
174
     0
 93
        1
 44
0.0
173
     0
291
     1
 45
0.0
1001
ACAD
1000
AcDbSavedByObjectVersion
1070
     0
  0
VISUALSTYLE
  5
15C7
102
{ACAD_XDICTIONARY
360
1610
102
}
102
{ACAD_REACTORS
330
15BE
102
}
330
15BE
100
AcDbVisualStyle
  2
Conceptual
 70
     9
 71
     3
 72
     2
 73
     0
 90
        0
 40
-0.6
 41
-30.0
 62
     5
 63
     7
 74
     2
 91
        2
 64
     7
 65
   257
 75
     1
175
     1
 42
179.0
 92
        8
 66
     7
 43
1.0
 76
     1
 77
     6
 78
     2
 67
     7
 79
     3
170
     0
171
     0
290
     0
174
     0
 93
        1
 44
0.0
173
     0
291
     0
 45
0.0
1001
ACAD
1000
AcDbSavedByObjectVersion
1070
     0
  0
VISUALSTYLE
  5
15C9
102
{ACAD_XDICTIONARY
360
1614
102
}
102
{ACAD_REACTORS
330
15BE
102
}
330
15BE
100
AcDbVisualStyle
  2
Dim
 70
    11
 71
     2
 72
     2
 73
     0
 90
        0
 40
-0.6
 41
-30.0
 62
     5
 63
     7
 74
     1
 91
        4
 64
     7
 65
   257
 75
     1
175
     1
 42
1.0
 92
        8
 66
     7
 43
1.0
 76
     1
 77
     6
 78
     2
 67
     7
 79
     5
170
     0
171
     0
290
     0
174
     0
 93
        1
 44
-50.0
173
     0
291
     1
 45
0.0
1001
ACAD
1000
AcDbSavedByObjectVersion
1070
     0
  0
VISUALSTYLE
  5
15D6
102
{ACAD_XDICTIONARY
360
162E
102
}
102
{ACAD_REACTORS
330
15BE
102
}
330
15BE
100
AcDbVisualStyle
  2
EdgeColorOff
 70
    22
 71
     2
 72
     2
 73
     0
 90
        0
 40
-0.6
 41
-30.0
 62
     5
 63
     7
 74
     1
 91
        4
 64
     7
 65
   257
 75
     1
175
     1
 42
1.0
 92
        8
 66
     7
 43
1.0
 76
     1
 77
     6
 78
     2
 67
     7
 79
     5
170
     0
171
     0
290
     0
174
     0
 93
        1
 44
0.0
173
     0
291
     1
 45
0.0
1001
ACAD
1000
AcDbSavedByObjectVersion
1070
     0
  0
VISUALSTYLE
  5
15CD
102
{ACAD_XDICTIONARY
360
161C
102
}
102
{ACAD_REACTORS
330
15BE
102
}
330
15BE
100
AcDbVisualStyle
  2
Facepattern
 70
    15
 71
     2
 72
     2
 73
     0
 90
        0
 40
-0.6
 41
-30.0
 62
     5
 63
     7
 74
     1
 91
        4
 64
     7
 65
   257
 75
     1
175
     1
 42
1.0
 92
        8
 66
     7
 43
1.0
 76
     1
 77
     6
 78
     2
 67
     7
 79
     5
170
     0
171
     0
290
     0
174
     0
 93
        1
 44
0.0
173
     0
291
     1
 45
0.0
1001
ACAD
1000
AcDbSavedByObjectVersion
1070
     0
  0
VISUALSTYLE
  5
15BF
102
{ACAD_XDICTIONARY
360
1600
102
}
102
{ACAD_REACTORS
330
15BE
102
}
330
15BE
100
AcDbVisualStyle
  2
Flat
 70
     0
 71
     2
 72
     1
 73
     1
 90
        2
 40
-0.6
 41
30.0
 62
     5
 63
     7
 74
     0
 91
        0
 64
     7
 65
   257
 75
     1
175
     1
 42
1.0
 92
        8
 66
     7
 43
1.0
 76
     1
 77
     6
 78
     2
 67
     7
 79
     5
170
     0
171
     0
290
     0
174
     0
 93
       13
 44
0.0
173
     0
291
     1
 45
0.0
1001
ACAD
1000
AcDbSavedByObjectVersion
1070
     0
  0
VISUALSTYLE
  5
15C0
102
{ACAD_XDICTIONARY
360
1602
102
}
102
{ACAD_REACTORS
330
15BE
102
}
330
15BE
100
AcDbVisualStyle
  2
FlatWithEdges
 70
     1
 71
     2
 72
     1
 73
     1
 90
        2
 40
-0.6
 41
30.0
 62
     5
 63
     7
 74
     1
 91
        0
 64
     7
 65
   257
 75
     1
175
     1
 42
1.0
 92
        0
 66
   257
 43
1.0
 76
     1
 77
     6
 78
     2
 67
     7
 79
     5
170
     0
171
     0
290
     0
174
     0
 93
       13
 44
0.0
173
     0
291
     1
 45
0.0
1001
ACAD
1000
AcDbSavedByObjectVersion
1070
     0
  0
VISUALSTYLE
  5
15C1
102
{ACAD_XDICTIONARY
360
1604
102
}
102
{ACAD_REACTORS
330
15BE
102
}
330
15BE
100
AcDbVisualStyle
  2
Gouraud
 70
     2
 71
     2
 72
     2
 73
     1
 90
        2
 40
-0.6
 41
30.0
 62
     5
 63
     7
 74
     0
 91
        0
 64
     7
 65
   257
 75
     1
175
     1
 42
1.0
 92
        0
 66
     7
 43
1.0
 76
     1
 77
     6
 78
     2
 67
     7
 79
     5
170
     0
171
     0
290
     0
174
     0
 93
       13
 44
0.0
173
     0
291
     1
 45
0.0
1001
ACAD
1000
AcDbSavedByObjectVersion
1070
     0
  0
VISUALSTYLE
  5
15C2
102
{ACAD_XDICTIONARY
360
1606
102
}
102
{ACAD_REACTORS
330
15BE
102
}
330
15BE
100
AcDbVisualStyle
  2
GouraudWithEdges
 70
     3
 71
     2
 72
     2
 73
     1
 90
        2
 40
-0.6
 41
30.0
 62
     5
 63
     7
 74
     1
 91
        0
 64
     7
 65
   257
 75
     1
175
     1
 42
1.0
 92
        0
 66
   257
 43
1.0
 76
     1
 77
     6
 78
     2
 67
     7
 79
     5
170
     0
171
     0
290
     0
174
     0
 93
       13
 44
0.0
173
     0
291
     1
 45
0.0
1001
ACAD
1000
AcDbSavedByObjectVersion
1070
     0
  0
VISUALSTYLE
  5
15C6
102
{ACAD_XDICTIONARY
360
160E
102
}
102
{ACAD_REACTORS
330
15BE
102
}
330
15BE
100
AcDbVisualStyle
  2
Hidden
 70
     6
 71
     1
 72
     2
 73
     2
 90
        0
 40
-0.6
 41
-30.0
 62
     5
 63
     7
 74
     2
 91
        2
 64
     7
 65
   257
 75
     2
175
     1
 42
40.0
 92
        0
 66
   257
 43
1.0
 76
     1
 77
     6
 78
     2
 67
     7
 79
     3
170
     0
171
     0
290
     0
174
     0
 93
        1
 44
0.0
173
     0
291
     0
 45
0.0
1001
ACAD
1000
AcDbSavedByObjectVersion
1070
     0
  0
VISUALSTYLE
  5
15D4
102
{ACAD_XDICTIONARY
360
162A
102
}
102
{ACAD_REACTORS
330
15BE
102
}
330
15BE
100
AcDbVisualStyle
  2
JitterOff
 70
    20
 71
     2
 72
     2
 73
     0
 90
        0
 40
-0.6
 41
-30.0
 62
     5
 63
     7
 74
     1
 91
        4
 64
     7
 65
   257
 75
     1
175
     1
 42
1.0
 92
       10
 66
     7
 43
1.0
 76
     1
 77
     6
 78
     2
 67
     7
 79
     5
170
     0
171
     0
290
     0
174
     0
 93
        1
 44
0.0
173
     0
291
     1
 45
0.0
1001
ACAD
1000
AcDbSavedByObjectVersion
1070
     0
  0
VISUALSTYLE
  5
15CC
102
{ACAD_XDICTIONARY
360
161A
102
}
102
{ACAD_REACTORS
330
15BE
102
}
330
15BE
100
AcDbVisualStyle
  2
Linepattern
 70
    14
 71
     2
 72
     2
 73
     0
 90
        0
 40
-0.6
 41
-30.0
 62
     5
 63
     7
 74
     1
 91
        4
 64
     7
 65
   257
 75
     7
175
     7
 42
1.0
 92
        8
 66
     7
 43
1.0
 76
     1
 77
     6
 78
     2
 67
     7
 79
     5
170
     0
171
     0
290
     0
174
     0
 93
        1
 44
0.0
173
     0
291
     1
 45
0.0
1001
ACAD
1000
AcDbSavedByObjectVersion
1070
     0
  0
VISUALSTYLE
  5
15D5
102
{ACAD_XDICTIONARY
360
162C
102
}
102
{ACAD_REACTORS
330
15BE
102
}
330
15BE
100
AcDbVisualStyle
  2
OverhangOff
 70
    21
 71
     2
 72
     2
 73
     0
 90
        0
 40
-0.6
 41
-30.0
 62
     5
 63
     7
 74
     1
 91
        4
 64
     7
 65
   257
 75
     1
175
     1
 42
1.0
 92
        9
 66
     7
 43
1.0
 76
     1
 77
     6
 78
     2
 67
     7
 79
     5
170
     0
171
     0
290
     0
174
     0
 93
        1
 44
0.0
173
     0
291
     1
 45
0.0
1001
ACAD
1000
AcDbSavedByObjectVersion
1070
     0
  0
VISUALSTYLE
  5
15C8
102
{ACAD_XDICTIONARY
360
1612
102
}
102
{ACAD_REACTORS
330
15BE
102
}
330
15BE
100
AcDbVisualStyle
  2
Realistic
 70
     8
 71
     2
 72
     2
 73
     0
 90
        2
 40
-0.6
 41
30.0
 62
     5
 63
     7
 74
     0
 91
        0
 64
     7
 65
   257
 75
     1
175
     1
 42
1.0
 92
        8
 66
   257
 43
1.0
 76
     1
 77
     6
 78
     2
 67
     7
 79
     3
170
     0
171
     0
290
     0
174
     0
 93
       13
 44
0.0
173
     0
291
     0
 45
0.0
1001
ACAD
1000
AcDbSavedByObjectVersion
1070
     0
  0
VISUALSTYLE
  5
15D3
102
{ACAD_XDICTIONARY
360
1628
102
}
102
{ACAD_REACTORS
330
15BE
102
}
330
15BE
100
AcDbVisualStyle
  2
Shaded
 70
    27
 71
     2
 72
     2
 73
     1
 90
        2
 40
-0.6
 41
30.0
 62
     5
 63
     7
 74
     0
 91
        4
 64
     7
 65
   257
 75
     1
175
     1
 42
1.0
 92
        8
 66
   257
 43
1.0
 76
     1
 77
     6
 78
     2
 67
     8
 79
     3
170
     0
171
     0
290
     0
174
     0
 93
        5
 44
0.0
173
     0
291
     0
 45
0.0
1001
ACAD
1000
AcDbSavedByObjectVersion
1070
     0
  0
VISUALSTYLE
  5
15D2
102
{ACAD_XDICTIONARY
360
1626
102
}
102
{ACAD_REACTORS
330
15BE
102
}
330
15BE
100
AcDbVisualStyle
  2
Shaded with edges
 70
    26
 71
     2
 72
     2
 73
     1
 90
        2
 40
-0.6
 41
30.0
 62
     5
 63
     7
 74
     1
 91
       10
 64
     7
 65
   257
 75
     2
175
     1
 42
1.0
 92
        8
 66
   257
 43
1.0
 76
     1
 77
     6
 78
     2
 67
     7
 79
     3
170
     0
171
     0
290
     0
174
     0
 93
        5
 44
0.0
173
     0
291
     0
 45
0.0
1001
ACAD
1000
AcDbSavedByObjectVersion
1070
     0
  0
VISUALSTYLE
  5
15CF
102
{ACAD_XDICTIONARY
360
1620
102
}
102
{ACAD_REACTORS
330
15BE
102
}
330
15BE
100
AcDbVisualStyle
  2
Shades of Gray
 70
    23
 71
     2
 72
     2
 73
     3
 90
        0
 40
-0.6
 41
-30.0
 62
     5
 63
     7
 74
     2
 91
        2
 64
     7
 65
     7
 75
     1
175
     1
 42
40.0
 92
        8
 66
     7
 43
1.0
 76
     1
 77
     6
 78
     2
 67
     7
 79
     3
170
     0
171
     0
290
     0
174
     0
 93
        1
 44
0.0
173
     0
291
     0
 45
0.0
1001
ACAD
1000
AcDbSavedByObjectVersion
1070
     0
  0
VISUALSTYLE
  5
15D0
102
{ACAD_XDICTIONARY
360
1622
102
}
102
{ACAD_REACTORS
330
15BE
102
}
330
15BE
100
AcDbVisualStyle
  2
Sketchy
 70
    24
 71
     1
 72
     2
 73
     2
 90
        0
 40
-0.6
 41
-30.0
 62
     5
 63
     7
 74
     2
 91
        2
 64
     7
 65
     7
 75
     1
175
     1
 42
40.0
 92
       11
 66
     7
 43
1.0
 76
     1
 77
     6
 78
     2
 67
     7
 79
     6
170
     0
171
     0
290
     0
174
     0
 93
        1
 44
0.0
173
     0
291
     0
 45
0.0
1001
ACAD
1000
AcDbSavedByObjectVersion
1070
     0
  0
VISUALSTYLE
  5
15CB
102
{ACAD_XDICTIONARY
360
1618
102
}
102
{ACAD_REACTORS
330
15BE
102
}
330
15BE
100
AcDbVisualStyle
  2
Thicken
 70
    13
 71
     2
 72
     2
 73
     0
 90
        0
 40
-0.6
 41
-30.0
 62
     5
 63
     7
 74
     1
 91
        4
 64
     7
 65
   257
 75
     1
175
     1
 42
1.0
 92
       12
 66
     7
 43
1.0
 76
     1
 77
     6
 78
     2
 67
     7
 79
     5
170
     0
171
     0
290
     0
174
     0
 93
        1
 44
0.0
173
     0
291
     1
 45
0.0
1001
ACAD
1000
AcDbSavedByObjectVersion
1070
     0
  0
VISUALSTYLE
  5
15C5
102
{ACAD_XDICTIONARY
360
160C
102
}
102
{ACAD_REACTORS
330
15BE
102
}
330
15BE
100
AcDbVisualStyle
  2
Wireframe
 70
     5
 71
     0
 72
     2
 73
     0
 90
        0
 40
-0.6
 41
-30.0
 62
     5
 63
     7
 74
     1
 91
        4
 64
     7
 65
   257
 75
     1
175
     1
 42
1.0
 92
        0
 66
   257
 43
1.0
 76
     1
 77
     6
 78
     2
 67
     7
 79
     3
170
     0
171
     0
290
     0
174
     0
 93
        1
 44
0.0
173
     0
291
     0
 45
0.0
1001
ACAD
1000
AcDbSavedByObjectVersion
1070
     0
  0
VISUALSTYLE
  5
15D1
102
{ACAD_XDICTIONARY
360
1624
102
}
102
{ACAD_REACTORS
330
15BE
102
}
330
15BE
100
AcDbVisualStyle
  2
X-Ray
 70
    25
 71
     2
 72
     2
 73
     1
 90
        1
 40
0.5
 41
-30.0
 62
     5
 63
     7
 74
     1
 91
        0
 64
     7
 65
   257
 75
     1
175
     1
 42
1.0
 92
        8
 66
     7
 43
1.0
 76
     1
 77
     6
 78
     2
 67
     7
 79
     3
170
     0
171
     0
290
     0
174
     0
 93
       13
 44
0.0
173
     0
291
     0
 45
0.0
1001
ACAD
1000
AcDbSavedByObjectVersion
1070
     0
  0
DICTIONARYVAR
  5
1637
102
{ACAD_REACTORS
330
1632
102
}
330
1632
100
DictionaryVariables
280
     0
  1
1:1
  0
DICTIONARYVAR
  5
1634
102
{ACAD_REACTORS
330
1632
102
}
330
1632
100
DictionaryVariables
280
     0
  1
STANDARD
  0
DICTIONARYVAR
  5
1633
102
{ACAD_REACTORS
330
1632
102
}
330
1632
100
DictionaryVariables
280
     0
  1
STANDARD
  0
DICTIONARYVAR
  5
1635
102
{ACAD_REACTORS
330
1632
102
}
330
1632
100
DictionaryVariables
280
     0
  1
Imperial24
  0
DICTIONARYVAR
  5
1636
102
{ACAD_REACTORS
330
1632
102
}
330
1632
100
DictionaryVariables
280
     0
  1
Imperial24
  0
DICTIONARYVAR
  5
163A
102
{ACAD_REACTORS
330
1632
102
}
330
1632
100
DictionaryVariables
280
     0
  1
1
  0
DICTIONARYVAR
  5
1639
102
{ACAD_REACTORS
330
1632
102
}
330
1632
100
DictionaryVariables
280
     0
  1
0
  0
DICTIONARYVAR
  5
1638
102
{ACAD_REACTORS
330
1632
102
}
330
1632
100
DictionaryVariables
280
     0
  1
127
  0
DICTIONARYVAR
  5
163B
102
{ACAD_REACTORS
330
1632
102
}
330
1632
100
DictionaryVariables
280
     0
  1
2
  0
DICTIONARY
  5
15AF
330
15AE
100
AcDbDictionary
280
     1
281
     1
  3
ACAD_XREC_ROUNDTRIP
360
1677
  3
BUMPTILE
360
15B1
  3
DIFFUSETILE
360
15B0
  3
OPACITYTILE
360
15B4
  3
REFLECTIONTILE
360
15B3
  3
REFRACTIONTILE
360
15B5
  3
SPECULARTILE
360
15B2
  0
DICTIONARY
  5
15A7
330
15A6
100
AcDbDictionary
280
     1
281
     1
  3
ACAD_XREC_ROUNDTRIP
360
1676
  3
BUMPTILE
360
15A9
  3
DIFFUSETILE
360
15A8
  3
OPACITYTILE
360
15AC
  3
REFLECTIONTILE
360
15AB
  3
REFRACTIONTILE
360
15AD
  3
SPECULARTILE
360
15AA
  0
DICTIONARY
  5
15B7
330
15B6
100
AcDbDictionary
280
     1
281
     1
  3
ACAD_XREC_ROUNDTRIP
360
1678
  3
BUMPTILE
360
15B9
  3
DIFFUSETILE
360
15B8
  3
OPACITYTILE
360
15BC
  3
REFLECTIONTILE
360
15BB
  3
REFRACTIONTILE
360
15BD
  3
SPECULARTILE
360
15BA
  0
DICTIONARY
  5
15F3
330
15D9
100
AcDbDictionary
280
     1
281
     1
  3
ACAD_ROUNDTRIP_2008_TABLESTYLE_CELLSTYLEMAP
360
1675
  3
ACAD_XREC_ROUNDTRIP
360
1679
  0
DICTIONARY
  5
160A
330
15C4
100
AcDbDictionary
280
     1
281
     1
  3
ACAD_XREC_ROUNDTRIP
360
160B
  0
DICTIONARY
  5
1608
330
15C3
100
AcDbDictionary
280
     1
281
     1
  3
ACAD_XREC_ROUNDTRIP
360
1609
  0
DICTIONARY
  5
1616
330
15CA
100
AcDbDictionary
280
     1
281
     1
  3
ACAD_XREC_ROUNDTRIP
360
1617
  0
DICTIONARY
  5
161E
330
15CE
100
AcDbDictionary
280
     1
281
     1
  3
ACAD_XREC_ROUNDTRIP
360
161F
  0
DICTIONARY
  5
1610
330
15C7
100
AcDbDictionary
280
     1
281
     1
  3
ACAD_XREC_ROUNDTRIP
360
1611
  0
DICTIONARY
  5
1614
330
15C9
100
AcDbDictionary
280
     1
281
     1
  3
ACAD_XREC_ROUNDTRIP
360
1615
  0
DICTIONARY
  5
162E
330
15D6
100
AcDbDictionary
280
     1
281
     1
  3
ACAD_XREC_ROUNDTRIP
360
162F
  0
DICTIONARY
  5
161C
330
15CD
100
AcDbDictionary
280
     1
281
     1
  3
ACAD_XREC_ROUNDTRIP
360
161D
  0
DICTIONARY
  5
1600
330
15BF
100
AcDbDictionary
280
     1
281
     1
  3
ACAD_XREC_ROUNDTRIP
360
1601
  0
DICTIONARY
  5
1602
330
15C0
100
AcDbDictionary
280
     1
281
     1
  3
ACAD_XREC_ROUNDTRIP
360
1603
  0
DICTIONARY
  5
1604
330
15C1
100
AcDbDictionary
280
     1
281
     1
  3
ACAD_XREC_ROUNDTRIP
360
1605
  0
DICTIONARY
  5
1606
330
15C2
100
AcDbDictionary
280
     1
281
     1
  3
ACAD_XREC_ROUNDTRIP
360
1607
  0
DICTIONARY
  5
160E
330
15C6
100
AcDbDictionary
280
     1
281
     1
  3
ACAD_XREC_ROUNDTRIP
360
160F
  0
DICTIONARY
  5
162A
330
15D4
100
AcDbDictionary
280
     1
281
     1
  3
ACAD_XREC_ROUNDTRIP
360
162B
  0
DICTIONARY
  5
161A
330
15CC
100
AcDbDictionary
280
     1
281
     1
  3
ACAD_XREC_ROUNDTRIP
360
161B
  0
DICTIONARY
  5
162C
330
15D5
100
AcDbDictionary
280
     1
281
     1
  3
ACAD_XREC_ROUNDTRIP
360
162D
  0
DICTIONARY
  5
1612
330
15C8
100
AcDbDictionary
280
     1
281
     1
  3
ACAD_XREC_ROUNDTRIP
360
1613
  0
DICTIONARY
  5
1628
330
15D3
100
AcDbDictionary
280
     1
281
     1
  3
ACAD_XREC_ROUNDTRIP
360
1629
  0
DICTIONARY
  5
1626
330
15D2
100
AcDbDictionary
280
     1
281
     1
  3
ACAD_XREC_ROUNDTRIP
360
1627
  0
DICTIONARY
  5
1620
330
15CF
100
AcDbDictionary
280
     1
281
     1
  3
ACAD_XREC_ROUNDTRIP
360
1621
  0
DICTIONARY
  5
1622
330
15D0
100
AcDbDictionary
280
     1
281
     1
  3
ACAD_XREC_ROUNDTRIP
360
1623
  0
DICTIONARY
  5
1618
330
15CB
100
AcDbDictionary
280
     1
281
     1
  3
ACAD_XREC_ROUNDTRIP
360
1619
  0
DICTIONARY
  5
160C
330
15C5
100
AcDbDictionary
280
     1
281
     1
  3
ACAD_XREC_ROUNDTRIP
360
160D
  0
DICTIONARY
  5
1624
330
15D1
100
AcDbDictionary
280
     1
281
     1
  3
ACAD_XREC_ROUNDTRIP
360
1625
  0
XRECORD
  5
1677
102
{ACAD_REACTORS
330
15AF
102
}
330
15AF
100
AcDbXrecord
280
     1
102
MATERIAL
148
0.0
149
0.0
149
0.0
 93
        0
 94
      127
282
     0
 72
     0
 77
     0
171
     0
175
     0
179
     0
273
     0
  0
XRECORD
  5
15B1
102
{ACAD_REACTORS
330
15AF
102
}
330
15AF
100
AcDbXrecord
280
     1
270
     1
271
     1
  0
XRECORD
  5
15B0
102
{ACAD_REACTORS
330
15AF
102
}
330
15AF
100
AcDbXrecord
280
     1
270
     1
271
     1
  0
XRECORD
  5
15B4
102
{ACAD_REACTORS
330
15AF
102
}
330
15AF
100
AcDbXrecord
280
     1
270
     1
271
     1
  0
XRECORD
  5
15B3
102
{ACAD_REACTORS
330
15AF
102
}
330
15AF
100
AcDbXrecord
280
     1
270
     1
271
     1
  0
XRECORD
  5
15B5
102
{ACAD_REACTORS
330
15AF
102
}
330
15AF
100
AcDbXrecord
280
     1
270
     1
271
     1
  0
XRECORD
  5
15B2
102
{ACAD_REACTORS
330
15AF
102
}
330
15AF
100
AcDbXrecord
280
     1
270
     1
271
     1
  0
XRECORD
  5
1676
102
{ACAD_REACTORS
330
15A7
102
}
330
15A7
100
AcDbXrecord
280
     1
102
MATERIAL
148
0.0
149
0.0
149
0.0
 93
        0
 94
      127
282
     0
 72
     0
 77
     0
171
     0
175
     0
179
     0
273
     0
  0
XRECORD
  5
15A9
102
{ACAD_REACTORS
330
15A7
102
}
330
15A7
100
AcDbXrecord
280
     1
270
     1
271
     1
  0
XRECORD
  5
15A8
102
{ACAD_REACTORS
330
15A7
102
}
330
15A7
100
AcDbXrecord
280
     1
270
     1
271
     1
  0
XRECORD
  5
15AC
102
{ACAD_REACTORS
330
15A7
102
}
330
15A7
100
AcDbXrecord
280
     1
270
     1
271
     1
  0
XRECORD
  5
15AB
102
{ACAD_REACTORS
330
15A7
102
}
330
15A7
100
AcDbXrecord
280
     1
270
     1
271
     1
  0
XRECORD
  5
15AD
102
{ACAD_REACTORS
330
15A7
102
}
330
15A7
100
AcDbXrecord
280
     1
270
     1
271
     1
  0
XRECORD
  5
15AA
102
{ACAD_REACTORS
330
15A7
102
}
330
15A7
100
AcDbXrecord
280
     1
270
     1
271
     1
  0
XRECORD
  5
1678
102
{ACAD_REACTORS
330
15B7
102
}
330
15B7
100
AcDbXrecord
280
     1
102
MATERIAL
148
0.0
149
0.0
149
0.0
 93
        0
 94
      127
282
     0
 72
     0
 77
     0
171
     0
175
     0
179
     0
273
     0
  0
XRECORD
  5
15B9
102
{ACAD_REACTORS
330
15B7
102
}
330
15B7
100
AcDbXrecord
280
     1
270
     1
271
     1
  0
XRECORD
  5
15B8
102
{ACAD_REACTORS
330
15B7
102
}
330
15B7
100
AcDbXrecord
280
     1
270
     1
271
     1
  0
XRECORD
  5
15BC
102
{ACAD_REACTORS
330
15B7
102
}
330
15B7
100
AcDbXrecord
280
     1
270
     1
271
     1
  0
XRECORD
  5
15BB
102
{ACAD_REACTORS
330
15B7
102
}
330
15B7
100
AcDbXrecord
280
     1
270
     1
271
     1
  0
XRECORD
  5
15BD
102
{ACAD_REACTORS
330
15B7
102
}
330
15B7
100
AcDbXrecord
280
     1
270
     1
271
     1
  0
XRECORD
  5
15BA
102
{ACAD_REACTORS
330
15B7
102
}
330
15B7
100
AcDbXrecord
280
     1
270
     1
271
     1
  0
CELLSTYLEMAP
  5
1675
102
{ACAD_REACTORS
330
15F3
102
}
330
15F3
100
AcDbCellStyleMap
 90
        3
300
CELLSTYLE
  1
TABLEFORMAT_BEGIN
 90
        5
170
     1
 91
        0
 92
    32768
 62
   257
 93
        1
300
CONTENTFORMAT
  1
CONTENTFORMAT_BEGIN
 90
        0
 91
        0
 92
      512
 93
        0
300

 40
0.0
140
1.0
 94
        5
 62
     0
340
11
144
0.25
309
CONTENTFORMAT_END
171
     0
 94
        0
309
TABLEFORMAT_END
  1
CELLSTYLE_BEGIN
 90
        1
 91
        1
300
_TITLE
309
CELLSTYLE_END
300
CELLSTYLE
  1
TABLEFORMAT_BEGIN
 90
        5
170
     1
 91
        0
 92
        0
 62
   257
 93
        1
300
CONTENTFORMAT
  1
CONTENTFORMAT_BEGIN
 90
        0
 91
        0
 92
      512
 93
        0
300

 40
0.0
140
1.0
 94
        5
 62
     0
340
11
144
0.18
309
CONTENTFORMAT_END
171
     0
 94
        0
309
TABLEFORMAT_END
  1
CELLSTYLE_BEGIN
 90
        2
 91
        1
300
_HEADER
309
CELLSTYLE_END
300
CELLSTYLE
  1
TABLEFORMAT_BEGIN
 90
        5
170
     1
 91
        0
 92
        0
 62
   257
 93
        1
300
CONTENTFORMAT
  1
CONTENTFORMAT_BEGIN
 90
        0
 91
        0
 92
      512
 93
        0
300

 40
0.0
140
1.0
 94
        2
 62
     0
340
11
144
0.18
309
CONTENTFORMAT_END
171
     0
 94
        0
309
TABLEFORMAT_END
  1
CELLSTYLE_BEGIN
 90
        3
 91
        2
300
_DATA
309
CELLSTYLE_END
  0
XRECORD
  5
1679
102
{ACAD_REACTORS
330
15F3
102
}
330
15F3
100
AcDbXrecord
280
     1
102
ACAD_ROUNDTRIP_PRE2007_TABLESTYLE
 90
      512
 91
        0
  1

 92
      512
 93
        0
  2

 94
      512
 95
        0
  3

  0
XRECORD
  5
160B
102
{ACAD_REACTORS
330
160A
102
}
330
160A
100
AcDbXrecord
280
     1
102
RTVSPost2010Prop28
280
     1
102
RTVSPost2010PropOp28
 70
     1
102
RTVSPost2010Prop29
280
     1
102
RTVSPost2010PropOp29
 70
     1
102
RTVSPost2010Prop30
280
     0
102
RTVSPost2010PropOp30
 70
     1
102
RTVSPost2010Prop31
280
     0
102
RTVSPost2010PropOp31
 70
     1
102
RTVSPost2010Prop32
280
     0
102
RTVSPost2010PropOp32
 70
     1
102
RTVSPost2010Prop33
280
     0
102
RTVSPost2010PropOp33
 70
     1
102
RTVSPost2010Prop34
280
     0
102
RTVSPost2010PropOp34
 70
     1
102
RTVSPost2010Prop35
280
     0
102
RTVSPost2010PropOp35
 70
     1
102
RTVSPost2010Prop36
280
     0
102
RTVSPost2010PropOp36
 70
     1
102
RTVSPost2010Prop37
 90
       50
102
RTVSPost2010PropOp37
 70
     1
102
RTVSPost2010Prop38
140
0.0
102
RTVSPost2010PropOp38
 70
     1
102
RTVSPost2010Prop39
140
1.0
102
RTVSPost2010PropOp39
 70
     1
102
RTVSPost2010Prop40
 90
        0
102
RTVSPost2010PropOp40
 70
     1
102
RTVSPost2010Prop41ColorIndex
 90
       18
102
RTVSPost2010Prop41ColorRGB
 90
        0
102
RTVSPost2010PropOp41
 70
     1
102
RTVSPost2010Prop42
 90
       50
102
RTVSPost2010PropOp42
 70
     1
102
RTVSPost2010Prop43
 90
        3
102
RTVSPost2010PropOp43
 70
     1
102
RTVSPost2010Prop44ColorIndex
 90
        5
102
RTVSPost2010Prop44ColorRGB
 90
      255
102
RTVSPost2010PropOp44
 70
     1
102
RTVSPost2010Prop45
280
     0
102
RTVSPost2010PropOp45
 70
     1
102
RTVSPost2010Prop46
 90
       50
102
RTVSPost2010PropOp46
 70
     1
102
RTVSPost2010Prop47
 90
       50
102
RTVSPost2010PropOp47
 70
     1
102
RTVSPost2010Prop48
 90
       50
102
RTVSPost2010PropOp48
 70
     1
102
RTVSPost2010Prop49
280
     0
102
RTVSPost2010PropOp49
 70
     1
102
RTVSPost2010Prop50
 90
       50
102
RTVSPost2010PropOp50
 70
     1
102
RTVSPost2010Prop51ColorIndex
 90
      256
102
RTVSPost2010Prop51ColorRGB
 90
-16777216
102
RTVSPost2010PropOp51
 70
     0
102
RTVSPost2010Prop52
140
1.0
102
RTVSPost2010PropOp52
 70
     0
102
RTVSPost2010Prop53
 90
        2
102
RTVSPost2010PropOp53
 70
     1
102
RTVSPost2010Prop54
  1
strokes_ogs.tif
102
RTVSPost2010PropOp54
 70
     1
102
RTVSPost2010Prop55
280
     0
102
RTVSPost2010PropOp55
 70
     1
102
RTVSPost2010Prop56
140
1.0
102
RTVSPost2010PropOp56
 70
     1
102
RTVSPost2010Prop57
140
1.0
102
RTVSPost2010PropOp57
 70
     1
102
RTVSPropertyOp0
 70
     1
102
RTVSPropertyOp1
 70
     1
102
RTVSPropertyOp2
 70
     1
102
RTVSPropertyOp3
 70
     1
102
RTVSPropertyOp4
 70
     1
102
RTVSPropertyOp5
 70
     1
102
RTVSPropertyOp6
 70
     1
102
RTVSPropertyOp7
 70
     1
102
RTVSPropertyOp8
 70
     1
102
RTVSPropertyOp9
 70
     1
102
RTVSPropertyOp10
 70
     1
102
RTVSPropertyOp11
 70
     1
102
RTVSPropertyOp12
 70
     1
102
RTVSPropertyOp13
 70
     1
102
RTVSPropertyOp14
 70
     1
102
RTVSPropertyOp15
 70
     1
102
RTVSPropertyOp16
 70
     1
102
RTVSPropertyOp17
 70
     1
102
RTVSPropertyOp18
 70
     1
102
RTVSPropertyOp19
 70
     1
102
RTVSPropertyOp20
 70
     1
102
RTVSPropertyOp21
 70
     1
102
RTVSPropertyOp22
 70
     1
102
RTVSPropertyOp23
 70
     1
102
RTVSPropertyOp24
 70
     1
102
RTVSPropertyOp25
 70
     1
102
RTVSPropertyOp26
 70
     1
102
RTVSPropertyOp27
 70
     1
102
RTVSPropertyOp28
 70
     1
102
RTVSPropertyOp29
 70
     1
102
RTVSPropertyOp30
 70
     1
102
RTVSPropertyOp31
 70
     1
102
RTVSPropertyOp32
 70
     1
102
RTVSPropertyOp33
 70
     1
102
RTVSPropertyOp34
 70
     1
102
RTVSPropertyOp35
 70
     1
102
RTVSPropertyOp36
 70
     1
102
RTVSPropertyOp37
 70
     1
102
RTVSPropertyOp38
 70
     1
102
RTVSPropertyOp39
 70
     1
102
RTVSPropertyOp40
 70
     1
102
RTVSPropertyOp41
 70
     1
102
RTVSPropertyOp42
 70
     1
102
RTVSPropertyOp43
 70
     1
102
RTVSPropertyOp44
 70
     1
102
RTVSPropertyOp45
 70
     1
102
RTVSPropertyOp46
 70
     1
102
RTVSPropertyOp47
 70
     1
102
RTVSPropertyOp48
 70
     1
102
RTVSPropertyOp49
 70
     1
102
RTVSPropertyOp50
 70
     1
102
RTVSPropertyOp51
 70
     0
102
RTVSPropertyOp52
 70
     0
102
RTVSPropertyOp53
 70
     1
102
RTVSPropertyOp54
 70
     1
102
RTVSPropertyOp55
 70
     1
102
RTVSPropertyOp56
 70
     1
102
RTVSPropertyOp57
 70
     1
102
RTVSPropertyOp58
 70
     1
102
RTVSPropertyOp59
 70
     1
102
RTVSPropertyOp60
 70
     1
102
RTVSPropertyOp61
 70
     1
102
RTVSPropertyOp62
 70
     1
  0
XRECORD
  5
1609
102
{ACAD_REACTORS
330
1608
102
}
330
1608
100
AcDbXrecord
280
     1
102
RTVSPost2010Prop28
280
     0
102
RTVSPost2010PropOp28
 70
     1
102
RTVSPost2010Prop29
280
     1
102
RTVSPost2010PropOp29
 70
     1
102
RTVSPost2010Prop30
280
     1
102
RTVSPost2010PropOp30
 70
     1
102
RTVSPost2010Prop31
280
     0
102
RTVSPost2010PropOp31
 70
     1
102
RTVSPost2010Prop32
280
     0
102
RTVSPost2010PropOp32
 70
     1
102
RTVSPost2010Prop33
280
     0
102
RTVSPost2010PropOp33
 70
     1
102
RTVSPost2010Prop34
280
     0
102
RTVSPost2010PropOp34
 70
     1
102
RTVSPost2010Prop35
280
     0
102
RTVSPost2010PropOp35
 70
     1
102
RTVSPost2010Prop36
280
     0
102
RTVSPost2010PropOp36
 70
     1
102
RTVSPost2010Prop37
 90
       50
102
RTVSPost2010PropOp37
 70
     1
102
RTVSPost2010Prop38
140
0.0
102
RTVSPost2010PropOp38
 70
     1
102
RTVSPost2010Prop39
140
1.0
102
RTVSPost2010PropOp39
 70
     1
102
RTVSPost2010Prop40
 90
        0
102
RTVSPost2010PropOp40
 70
     1
102
RTVSPost2010Prop41ColorIndex
 90
       18
102
RTVSPost2010Prop41ColorRGB
 90
        0
102
RTVSPost2010PropOp41
 70
     1
102
RTVSPost2010Prop42
 90
       50
102
RTVSPost2010PropOp42
 70
     1
102
RTVSPost2010Prop43
 90
        3
102
RTVSPost2010PropOp43
 70
     1
102
RTVSPost2010Prop44ColorIndex
 90
        5
102
RTVSPost2010Prop44ColorRGB
 90
      255
102
RTVSPost2010PropOp44
 70
     1
102
RTVSPost2010Prop45
280
     0
102
RTVSPost2010PropOp45
 70
     1
102
RTVSPost2010Prop46
 90
       50
102
RTVSPost2010PropOp46
 70
     1
102
RTVSPost2010Prop47
 90
       50
102
RTVSPost2010PropOp47
 70
     1
102
RTVSPost2010Prop48
 90
       50
102
RTVSPost2010PropOp48
 70
     1
102
RTVSPost2010Prop49
280
     0
102
RTVSPost2010PropOp49
 70
     1
102
RTVSPost2010Prop50
 90
       50
102
RTVSPost2010PropOp50
 70
     1
102
RTVSPost2010Prop51ColorIndex
 90
      256
102
RTVSPost2010Prop51ColorRGB
 90
-16777216
102
RTVSPost2010PropOp51
 70
     0
102
RTVSPost2010Prop52
140
1.0
102
RTVSPost2010PropOp52
 70
     0
102
RTVSPost2010Prop53
 90
        2
102
RTVSPost2010PropOp53
 70
     1
102
RTVSPost2010Prop54
  1
strokes_ogs.tif
102
RTVSPost2010PropOp54
 70
     1
102
RTVSPost2010Prop55
280
     0
102
RTVSPost2010PropOp55
 70
     1
102
RTVSPost2010Prop56
140
1.0
102
RTVSPost2010PropOp56
 70
     1
102
RTVSPost2010Prop57
140
1.0
102
RTVSPost2010PropOp57
 70
     1
102
RTVSPropertyOp0
 70
     1
102
RTVSPropertyOp1
 70
     1
102
RTVSPropertyOp2
 70
     1
102
RTVSPropertyOp3
 70
     1
102
RTVSPropertyOp4
 70
     1
102
RTVSPropertyOp5
 70
     1
102
RTVSPropertyOp6
 70
     1
102
RTVSPropertyOp7
 70
     1
102
RTVSPropertyOp8
 70
     1
102
RTVSPropertyOp9
 70
     1
102
RTVSPropertyOp10
 70
     1
102
RTVSPropertyOp11
 70
     1
102
RTVSPropertyOp12
 70
     1
102
RTVSPropertyOp13
 70
     1
102
RTVSPropertyOp14
 70
     1
102
RTVSPropertyOp15
 70
     1
102
RTVSPropertyOp16
 70
     1
102
RTVSPropertyOp17
 70
     1
102
RTVSPropertyOp18
 70
     1
102
RTVSPropertyOp19
 70
     1
102
RTVSPropertyOp20
 70
     1
102
RTVSPropertyOp21
 70
     1
102
RTVSPropertyOp22
 70
     1
102
RTVSPropertyOp23
 70
     1
102
RTVSPropertyOp24
 70
     1
102
RTVSPropertyOp25
 70
     1
102
RTVSPropertyOp26
 70
     1
102
RTVSPropertyOp27
 70
     1
102
RTVSPropertyOp28
 70
     1
102
RTVSPropertyOp29
 70
     1
102
RTVSPropertyOp30
 70
     1
102
RTVSPropertyOp31
 70
     1
102
RTVSPropertyOp32
 70
     1
102
RTVSPropertyOp33
 70
     1
102
RTVSPropertyOp34
 70
     1
102
RTVSPropertyOp35
 70
     1
102
RTVSPropertyOp36
 70
     1
102
RTVSPropertyOp37
 70
     1
102
RTVSPropertyOp38
 70
     1
102
RTVSPropertyOp39
 70
     1
102
RTVSPropertyOp40
 70
     1
102
RTVSPropertyOp41
 70
     1
102
RTVSPropertyOp42
 70
     1
102
RTVSPropertyOp43
 70
     1
102
RTVSPropertyOp44
 70
     1
102
RTVSPropertyOp45
 70
     1
102
RTVSPropertyOp46
 70
     1
102
RTVSPropertyOp47
 70
     1
102
RTVSPropertyOp48
 70
     1
102
RTVSPropertyOp49
 70
     1
102
RTVSPropertyOp50
 70
     1
102
RTVSPropertyOp51
 70
     0
102
RTVSPropertyOp52
 70
     0
102
RTVSPropertyOp53
 70
     1
102
RTVSPropertyOp54
 70
     1
102
RTVSPropertyOp55
 70
     1
102
RTVSPropertyOp56
 70
     1
102
RTVSPropertyOp57
 70
     1
102
RTVSPropertyOp58
 70
     1
102
RTVSPropertyOp59
 70
     1
102
RTVSPropertyOp60
 70
     1
102
RTVSPropertyOp61
 70
     1
102
RTVSPropertyOp62
 70
     1
  0
XRECORD
  5
1617
102
{ACAD_REACTORS
330
1616
102
}
330
1616
100
AcDbXrecord
280
     1
102
RTVSPost2010Prop28
280
     0
102
RTVSPost2010PropOp28
 70
     1
102
RTVSPost2010Prop29
280
     1
102
RTVSPost2010PropOp29
 70
     1
102
RTVSPost2010Prop30
280
     1
102
RTVSPost2010PropOp30
 70
     1
102
RTVSPost2010Prop31
280
     0
102
RTVSPost2010PropOp31
 70
     1
102
RTVSPost2010Prop32
280
     0
102
RTVSPost2010PropOp32
 70
     1
102
RTVSPost2010Prop33
280
     0
102
RTVSPost2010PropOp33
 70
     1
102
RTVSPost2010Prop34
280
     0
102
RTVSPost2010PropOp34
 70
     1
102
RTVSPost2010Prop35
280
     0
102
RTVSPost2010PropOp35
 70
     1
102
RTVSPost2010Prop36
280
     0
102
RTVSPost2010PropOp36
 70
     1
102
RTVSPost2010Prop37
 90
       50
102
RTVSPost2010PropOp37
 70
     1
102
RTVSPost2010Prop38
140
0.0
102
RTVSPost2010PropOp38
 70
     1
102
RTVSPost2010Prop39
140
1.0
102
RTVSPost2010PropOp39
 70
     1
102
RTVSPost2010Prop40
 90
        0
102
RTVSPost2010PropOp40
 70
     1
102
RTVSPost2010Prop41ColorIndex
 90
       18
102
RTVSPost2010Prop41ColorRGB
 90
        0
102
RTVSPost2010PropOp41
 70
     1
102
RTVSPost2010Prop42
 90
       50
102
RTVSPost2010PropOp42
 70
     1
102
RTVSPost2010Prop43
 90
        3
102
RTVSPost2010PropOp43
 70
     1
102
RTVSPost2010Prop44ColorIndex
 90
        5
102
RTVSPost2010Prop44ColorRGB
 90
      255
102
RTVSPost2010PropOp44
 70
     1
102
RTVSPost2010Prop45
280
     0
102
RTVSPost2010PropOp45
 70
     1
102
RTVSPost2010Prop46
 90
       50
102
RTVSPost2010PropOp46
 70
     1
102
RTVSPost2010Prop47
 90
       50
102
RTVSPost2010PropOp47
 70
     1
102
RTVSPost2010Prop48
 90
       50
102
RTVSPost2010PropOp48
 70
     1
102
RTVSPost2010Prop49
280
     0
102
RTVSPost2010PropOp49
 70
     1
102
RTVSPost2010Prop50
 90
       50
102
RTVSPost2010PropOp50
 70
     1
102
RTVSPost2010Prop51ColorIndex
 90
      256
102
RTVSPost2010Prop51ColorRGB
 90
-16777216
102
RTVSPost2010PropOp51
 70
     0
102
RTVSPost2010Prop52
140
1.0
102
RTVSPost2010PropOp52
 70
     0
102
RTVSPost2010Prop53
 90
        2
102
RTVSPost2010PropOp53
 70
     1
102
RTVSPost2010Prop54
  1
strokes_ogs.tif
102
RTVSPost2010PropOp54
 70
     1
102
RTVSPost2010Prop55
280
     0
102
RTVSPost2010PropOp55
 70
     1
102
RTVSPost2010Prop56
140
1.0
102
RTVSPost2010PropOp56
 70
     1
102
RTVSPost2010Prop57
140
1.0
102
RTVSPost2010PropOp57
 70
     1
102
RTVSPropertyOp0
 70
     1
102
RTVSPropertyOp1
 70
     1
102
RTVSPropertyOp2
 70
     1
102
RTVSPropertyOp3
 70
     1
102
RTVSPropertyOp4
 70
     1
102
RTVSPropertyOp5
 70
     1
102
RTVSPropertyOp6
 70
     1
102
RTVSPropertyOp7
 70
     1
102
RTVSPropertyOp8
 70
     1
102
RTVSPropertyOp9
 70
     1
102
RTVSPropertyOp10
 70
     1
102
RTVSPropertyOp11
 70
     1
102
RTVSPropertyOp12
 70
     1
102
RTVSPropertyOp13
 70
     1
102
RTVSPropertyOp14
 70
     1
102
RTVSPropertyOp15
 70
     1
102
RTVSPropertyOp16
 70
     1
102
RTVSPropertyOp17
 70
     1
102
RTVSPropertyOp18
 70
     1
102
RTVSPropertyOp19
 70
     1
102
RTVSPropertyOp20
 70
     1
102
RTVSPropertyOp21
 70
     1
102
RTVSPropertyOp22
 70
     1
102
RTVSPropertyOp23
 70
     1
102
RTVSPropertyOp24
 70
     1
102
RTVSPropertyOp25
 70
     1
102
RTVSPropertyOp26
 70
     1
102
RTVSPropertyOp27
 70
     1
102
RTVSPropertyOp28
 70
     1
102
RTVSPropertyOp29
 70
     1
102
RTVSPropertyOp30
 70
     1
102
RTVSPropertyOp31
 70
     1
102
RTVSPropertyOp32
 70
     1
102
RTVSPropertyOp33
 70
     1
102
RTVSPropertyOp34
 70
     1
102
RTVSPropertyOp35
 70
     1
102
RTVSPropertyOp36
 70
     1
102
RTVSPropertyOp37
 70
     1
102
RTVSPropertyOp38
 70
     1
102
RTVSPropertyOp39
 70
     1
102
RTVSPropertyOp40
 70
     1
102
RTVSPropertyOp41
 70
     1
102
RTVSPropertyOp42
 70
     1
102
RTVSPropertyOp43
 70
     1
102
RTVSPropertyOp44
 70
     1
102
RTVSPropertyOp45
 70
     1
102
RTVSPropertyOp46
 70
     1
102
RTVSPropertyOp47
 70
     1
102
RTVSPropertyOp48
 70
     1
102
RTVSPropertyOp49
 70
     1
102
RTVSPropertyOp50
 70
     1
102
RTVSPropertyOp51
 70
     0
102
RTVSPropertyOp52
 70
     0
102
RTVSPropertyOp53
 70
     1
102
RTVSPropertyOp54
 70
     1
102
RTVSPropertyOp55
 70
     1
102
RTVSPropertyOp56
 70
     1
102
RTVSPropertyOp57
 70
     1
102
RTVSPropertyOp58
 70
     1
102
RTVSPropertyOp59
 70
     1
102
RTVSPropertyOp60
 70
     1
102
RTVSPropertyOp61
 70
     1
102
RTVSPropertyOp62
 70
     1
  0
XRECORD
  5
161F
102
{ACAD_REACTORS
330
161E
102
}
330
161E
100
AcDbXrecord
280
     1
102
RTVSPost2010Prop28
280
     0
102
RTVSPost2010PropOp28
 70
     1
102
RTVSPost2010Prop29
280
     1
102
RTVSPost2010PropOp29
 70
     1
102
RTVSPost2010Prop30
280
     1
102
RTVSPost2010PropOp30
 70
     1
102
RTVSPost2010Prop31
280
     0
102
RTVSPost2010PropOp31
 70
     1
102
RTVSPost2010Prop32
280
     0
102
RTVSPost2010PropOp32
 70
     1
102
RTVSPost2010Prop33
280
     0
102
RTVSPost2010PropOp33
 70
     1
102
RTVSPost2010Prop34
280
     0
102
RTVSPost2010PropOp34
 70
     1
102
RTVSPost2010Prop35
280
     0
102
RTVSPost2010PropOp35
 70
     1
102
RTVSPost2010Prop36
280
     0
102
RTVSPost2010PropOp36
 70
     1
102
RTVSPost2010Prop37
 90
       50
102
RTVSPost2010PropOp37
 70
     1
102
RTVSPost2010Prop38
140
0.0
102
RTVSPost2010PropOp38
 70
     1
102
RTVSPost2010Prop39
140
1.0
102
RTVSPost2010PropOp39
 70
     1
102
RTVSPost2010Prop40
 90
        0
102
RTVSPost2010PropOp40
 70
     1
102
RTVSPost2010Prop41ColorIndex
 90
       18
102
RTVSPost2010Prop41ColorRGB
 90
        0
102
RTVSPost2010PropOp41
 70
     1
102
RTVSPost2010Prop42
 90
       50
102
RTVSPost2010PropOp42
 70
     1
102
RTVSPost2010Prop43
 90
        3
102
RTVSPost2010PropOp43
 70
     1
102
RTVSPost2010Prop44ColorIndex
 90
        5
102
RTVSPost2010Prop44ColorRGB
 90
      255
102
RTVSPost2010PropOp44
 70
     1
102
RTVSPost2010Prop45
280
     0
102
RTVSPost2010PropOp45
 70
     1
102
RTVSPost2010Prop46
 90
       50
102
RTVSPost2010PropOp46
 70
     1
102
RTVSPost2010Prop47
 90
       50
102
RTVSPost2010PropOp47
 70
     1
102
RTVSPost2010Prop48
 90
       50
102
RTVSPost2010PropOp48
 70
     1
102
RTVSPost2010Prop49
280
     0
102
RTVSPost2010PropOp49
 70
     1
102
RTVSPost2010Prop50
 90
       50
102
RTVSPost2010PropOp50
 70
     1
102
RTVSPost2010Prop51ColorIndex
 90
      256
102
RTVSPost2010Prop51ColorRGB
 90
-16777216
102
RTVSPost2010PropOp51
 70
     0
102
RTVSPost2010Prop52
140
1.0
102
RTVSPost2010PropOp52
 70
     0
102
RTVSPost2010Prop53
 90
        2
102
RTVSPost2010PropOp53
 70
     1
102
RTVSPost2010Prop54
  1
strokes_ogs.tif
102
RTVSPost2010PropOp54
 70
     1
102
RTVSPost2010Prop55
280
     0
102
RTVSPost2010PropOp55
 70
     1
102
RTVSPost2010Prop56
140
1.0
102
RTVSPost2010PropOp56
 70
     1
102
RTVSPost2010Prop57
140
1.0
102
RTVSPost2010PropOp57
 70
     1
102
RTVSPropertyOp0
 70
     1
102
RTVSPropertyOp1
 70
     1
102
RTVSPropertyOp2
 70
     1
102
RTVSPropertyOp3
 70
     1
102
RTVSPropertyOp4
 70
     1
102
RTVSPropertyOp5
 70
     1
102
RTVSPropertyOp6
 70
     1
102
RTVSPropertyOp7
 70
     1
102
RTVSPropertyOp8
 70
     1
102
RTVSPropertyOp9
 70
     1
102
RTVSPropertyOp10
 70
     1
102
RTVSPropertyOp11
 70
     1
102
RTVSPropertyOp12
 70
     1
102
RTVSPropertyOp13
 70
     1
102
RTVSPropertyOp14
 70
     1
102
RTVSPropertyOp15
 70
     1
102
RTVSPropertyOp16
 70
     1
102
RTVSPropertyOp17
 70
     1
102
RTVSPropertyOp18
 70
     1
102
RTVSPropertyOp19
 70
     1
102
RTVSPropertyOp20
 70
     1
102
RTVSPropertyOp21
 70
     1
102
RTVSPropertyOp22
 70
     1
102
RTVSPropertyOp23
 70
     1
102
RTVSPropertyOp24
 70
     1
102
RTVSPropertyOp25
 70
     1
102
RTVSPropertyOp26
 70
     1
102
RTVSPropertyOp27
 70
     1
102
RTVSPropertyOp28
 70
     1
102
RTVSPropertyOp29
 70
     1
102
RTVSPropertyOp30
 70
     1
102
RTVSPropertyOp31
 70
     1
102
RTVSPropertyOp32
 70
     1
102
RTVSPropertyOp33
 70
     1
102
RTVSPropertyOp34
 70
     1
102
RTVSPropertyOp35
 70
     1
102
RTVSPropertyOp36
 70
     1
102
RTVSPropertyOp37
 70
     1
102
RTVSPropertyOp38
 70
     1
102
RTVSPropertyOp39
 70
     1
102
RTVSPropertyOp40
 70
     1
102
RTVSPropertyOp41
 70
     1
102
RTVSPropertyOp42
 70
     1
102
RTVSPropertyOp43
 70
     1
102
RTVSPropertyOp44
 70
     1
102
RTVSPropertyOp45
 70
     1
102
RTVSPropertyOp46
 70
     1
102
RTVSPropertyOp47
 70
     1
102
RTVSPropertyOp48
 70
     1
102
RTVSPropertyOp49
 70
     1
102
RTVSPropertyOp50
 70
     1
102
RTVSPropertyOp51
 70
     0
102
RTVSPropertyOp52
 70
     0
102
RTVSPropertyOp53
 70
     1
102
RTVSPropertyOp54
 70
     1
102
RTVSPropertyOp55
 70
     1
102
RTVSPropertyOp56
 70
     1
102
RTVSPropertyOp57
 70
     1
102
RTVSPropertyOp58
 70
     1
102
RTVSPropertyOp59
 70
     1
102
RTVSPropertyOp60
 70
     1
102
RTVSPropertyOp61
 70
     1
102
RTVSPropertyOp62
 70
     1
  0
XRECORD
  5
1611
102
{ACAD_REACTORS
330
1610
102
}
330
1610
100
AcDbXrecord
280
     1
102
RTVSPost2010Prop28
280
     0
102
RTVSPost2010PropOp28
 70
     1
102
RTVSPost2010Prop29
280
     1
102
RTVSPost2010PropOp29
 70
     1
102
RTVSPost2010Prop30
280
     1
102
RTVSPost2010PropOp30
 70
     1
102
RTVSPost2010Prop31
280
     0
102
RTVSPost2010PropOp31
 70
     1
102
RTVSPost2010Prop32
280
     0
102
RTVSPost2010PropOp32
 70
     1
102
RTVSPost2010Prop33
280
     0
102
RTVSPost2010PropOp33
 70
     1
102
RTVSPost2010Prop34
280
     0
102
RTVSPost2010PropOp34
 70
     1
102
RTVSPost2010Prop35
280
     0
102
RTVSPost2010PropOp35
 70
     1
102
RTVSPost2010Prop36
280
     0
102
RTVSPost2010PropOp36
 70
     1
102
RTVSPost2010Prop37
 90
       50
102
RTVSPost2010PropOp37
 70
     1
102
RTVSPost2010Prop38
140
0.0
102
RTVSPost2010PropOp38
 70
     1
102
RTVSPost2010Prop39
140
1.0
102
RTVSPost2010PropOp39
 70
     1
102
RTVSPost2010Prop40
 90
        0
102
RTVSPost2010PropOp40
 70
     1
102
RTVSPost2010Prop41ColorIndex
 90
       18
102
RTVSPost2010Prop41ColorRGB
 90
        0
102
RTVSPost2010PropOp41
 70
     1
102
RTVSPost2010Prop42
 90
       50
102
RTVSPost2010PropOp42
 70
     1
102
RTVSPost2010Prop43
 90
        3
102
RTVSPost2010PropOp43
 70
     1
102
RTVSPost2010Prop44ColorIndex
 90
        5
102
RTVSPost2010Prop44ColorRGB
 90
      255
102
RTVSPost2010PropOp44
 70
     1
102
RTVSPost2010Prop45
280
     0
102
RTVSPost2010PropOp45
 70
     1
102
RTVSPost2010Prop46
 90
       50
102
RTVSPost2010PropOp46
 70
     1
102
RTVSPost2010Prop47
 90
       50
102
RTVSPost2010PropOp47
 70
     1
102
RTVSPost2010Prop48
 90
       50
102
RTVSPost2010PropOp48
 70
     1
102
RTVSPost2010Prop49
280
     0
102
RTVSPost2010PropOp49
 70
     1
102
RTVSPost2010Prop50
 90
       50
102
RTVSPost2010PropOp50
 70
     1
102
RTVSPost2010Prop51ColorIndex
 90
      256
102
RTVSPost2010Prop51ColorRGB
 90
-16777216
102
RTVSPost2010PropOp51
 70
     0
102
RTVSPost2010Prop52
140
1.0
102
RTVSPost2010PropOp52
 70
     0
102
RTVSPost2010Prop53
 90
        2
102
RTVSPost2010PropOp53
 70
     1
102
RTVSPost2010Prop54
  1
strokes_ogs.tif
102
RTVSPost2010PropOp54
 70
     1
102
RTVSPost2010Prop55
280
     0
102
RTVSPost2010PropOp55
 70
     1
102
RTVSPost2010Prop56
140
1.0
102
RTVSPost2010PropOp56
 70
     1
102
RTVSPost2010Prop57
140
1.0
102
RTVSPost2010PropOp57
 70
     1
102
RTVSPropertyOp0
 70
     1
102
RTVSPropertyOp1
 70
     1
102
RTVSPropertyOp2
 70
     1
102
RTVSPropertyOp3
 70
     1
102
RTVSPropertyOp4
 70
     1
102
RTVSPropertyOp5
 70
     1
102
RTVSPropertyOp6
 70
     1
102
RTVSPropertyOp7
 70
     1
102
RTVSPropertyOp8
 70
     1
102
RTVSPropertyOp9
 70
     1
102
RTVSPropertyOp10
 70
     1
102
RTVSPropertyOp11
 70
     1
102
RTVSPropertyOp12
 70
     1
102
RTVSPropertyOp13
 70
     1
102
RTVSPropertyOp14
 70
     1
102
RTVSPropertyOp15
 70
     1
102
RTVSPropertyOp16
 70
     1
102
RTVSPropertyOp17
 70
     1
102
RTVSPropertyOp18
 70
     1
102
RTVSPropertyOp19
 70
     1
102
RTVSPropertyOp20
 70
     1
102
RTVSPropertyOp21
 70
     1
102
RTVSPropertyOp22
 70
     1
102
RTVSPropertyOp23
 70
     1
102
RTVSPropertyOp24
 70
     1
102
RTVSPropertyOp25
 70
     1
102
RTVSPropertyOp26
 70
     1
102
RTVSPropertyOp27
 70
     1
102
RTVSPropertyOp28
 70
     1
102
RTVSPropertyOp29
 70
     1
102
RTVSPropertyOp30
 70
     1
102
RTVSPropertyOp31
 70
     1
102
RTVSPropertyOp32
 70
     1
102
RTVSPropertyOp33
 70
     1
102
RTVSPropertyOp34
 70
     1
102
RTVSPropertyOp35
 70
     1
102
RTVSPropertyOp36
 70
     1
102
RTVSPropertyOp37
 70
     1
102
RTVSPropertyOp38
 70
     1
102
RTVSPropertyOp39
 70
     1
102
RTVSPropertyOp40
 70
     1
102
RTVSPropertyOp41
 70
     1
102
RTVSPropertyOp42
 70
     1
102
RTVSPropertyOp43
 70
     1
102
RTVSPropertyOp44
 70
     1
102
RTVSPropertyOp45
 70
     1
102
RTVSPropertyOp46
 70
     1
102
RTVSPropertyOp47
 70
     1
102
RTVSPropertyOp48
 70
     1
102
RTVSPropertyOp49
 70
     1
102
RTVSPropertyOp50
 70
     1
102
RTVSPropertyOp51
 70
     0
102
RTVSPropertyOp52
 70
     0
102
RTVSPropertyOp53
 70
     1
102
RTVSPropertyOp54
 70
     1
102
RTVSPropertyOp55
 70
     1
102
RTVSPropertyOp56
 70
     1
102
RTVSPropertyOp57
 70
     1
102
RTVSPropertyOp58
 70
     1
102
RTVSPropertyOp59
 70
     1
102
RTVSPropertyOp60
 70
     1
102
RTVSPropertyOp61
 70
     1
102
RTVSPropertyOp62
 70
     1
  0
XRECORD
  5
1615
102
{ACAD_REACTORS
330
1614
102
}
330
1614
100
AcDbXrecord
280
     1
102
RTVSPost2010Prop28
280
     0
102
RTVSPost2010PropOp28
 70
     1
102
RTVSPost2010Prop29
280
     1
102
RTVSPost2010PropOp29
 70
     1
102
RTVSPost2010Prop30
280
     1
102
RTVSPost2010PropOp30
 70
     1
102
RTVSPost2010Prop31
280
     0
102
RTVSPost2010PropOp31
 70
     1
102
RTVSPost2010Prop32
280
     0
102
RTVSPost2010PropOp32
 70
     1
102
RTVSPost2010Prop33
280
     0
102
RTVSPost2010PropOp33
 70
     1
102
RTVSPost2010Prop34
280
     0
102
RTVSPost2010PropOp34
 70
     1
102
RTVSPost2010Prop35
280
     0
102
RTVSPost2010PropOp35
 70
     1
102
RTVSPost2010Prop36
280
     0
102
RTVSPost2010PropOp36
 70
     1
102
RTVSPost2010Prop37
 90
       50
102
RTVSPost2010PropOp37
 70
     1
102
RTVSPost2010Prop38
140
0.0
102
RTVSPost2010PropOp38
 70
     1
102
RTVSPost2010Prop39
140
1.0
102
RTVSPost2010PropOp39
 70
     1
102
RTVSPost2010Prop40
 90
        0
102
RTVSPost2010PropOp40
 70
     1
102
RTVSPost2010Prop41ColorIndex
 90
       18
102
RTVSPost2010Prop41ColorRGB
 90
        0
102
RTVSPost2010PropOp41
 70
     1
102
RTVSPost2010Prop42
 90
       50
102
RTVSPost2010PropOp42
 70
     1
102
RTVSPost2010Prop43
 90
        3
102
RTVSPost2010PropOp43
 70
     1
102
RTVSPost2010Prop44ColorIndex
 90
        5
102
RTVSPost2010Prop44ColorRGB
 90
      255
102
RTVSPost2010PropOp44
 70
     1
102
RTVSPost2010Prop45
280
     0
102
RTVSPost2010PropOp45
 70
     1
102
RTVSPost2010Prop46
 90
       50
102
RTVSPost2010PropOp46
 70
     1
102
RTVSPost2010Prop47
 90
       50
102
RTVSPost2010PropOp47
 70
     1
102
RTVSPost2010Prop48
 90
       50
102
RTVSPost2010PropOp48
 70
     1
102
RTVSPost2010Prop49
280
     0
102
RTVSPost2010PropOp49
 70
     1
102
RTVSPost2010Prop50
 90
       50
102
RTVSPost2010PropOp50
 70
     1
102
RTVSPost2010Prop51ColorIndex
 90
      256
102
RTVSPost2010Prop51ColorRGB
 90
-16777216
102
RTVSPost2010PropOp51
 70
     0
102
RTVSPost2010Prop52
140
1.0
102
RTVSPost2010PropOp52
 70
     0
102
RTVSPost2010Prop53
 90
        2
102
RTVSPost2010PropOp53
 70
     1
102
RTVSPost2010Prop54
  1
strokes_ogs.tif
102
RTVSPost2010PropOp54
 70
     1
102
RTVSPost2010Prop55
280
     0
102
RTVSPost2010PropOp55
 70
     1
102
RTVSPost2010Prop56
140
1.0
102
RTVSPost2010PropOp56
 70
     1
102
RTVSPost2010Prop57
140
1.0
102
RTVSPost2010PropOp57
 70
     1
102
RTVSPropertyOp0
 70
     1
102
RTVSPropertyOp1
 70
     1
102
RTVSPropertyOp2
 70
     1
102
RTVSPropertyOp3
 70
     1
102
RTVSPropertyOp4
 70
     1
102
RTVSPropertyOp5
 70
     1
102
RTVSPropertyOp6
 70
     1
102
RTVSPropertyOp7
 70
     1
102
RTVSPropertyOp8
 70
     1
102
RTVSPropertyOp9
 70
     1
102
RTVSPropertyOp10
 70
     1
102
RTVSPropertyOp11
 70
     1
102
RTVSPropertyOp12
 70
     1
102
RTVSPropertyOp13
 70
     1
102
RTVSPropertyOp14
 70
     1
102
RTVSPropertyOp15
 70
     1
102
RTVSPropertyOp16
 70
     1
102
RTVSPropertyOp17
 70
     1
102
RTVSPropertyOp18
 70
     1
102
RTVSPropertyOp19
 70
     1
102
RTVSPropertyOp20
 70
     1
102
RTVSPropertyOp21
 70
     1
102
RTVSPropertyOp22
 70
     1
102
RTVSPropertyOp23
 70
     1
102
RTVSPropertyOp24
 70
     1
102
RTVSPropertyOp25
 70
     1
102
RTVSPropertyOp26
 70
     1
102
RTVSPropertyOp27
 70
     1
102
RTVSPropertyOp28
 70
     1
102
RTVSPropertyOp29
 70
     1
102
RTVSPropertyOp30
 70
     1
102
RTVSPropertyOp31
 70
     1
102
RTVSPropertyOp32
 70
     1
102
RTVSPropertyOp33
 70
     1
102
RTVSPropertyOp34
 70
     1
102
RTVSPropertyOp35
 70
     1
102
RTVSPropertyOp36
 70
     1
102
RTVSPropertyOp37
 70
     1
102
RTVSPropertyOp38
 70
     1
102
RTVSPropertyOp39
 70
     1
102
RTVSPropertyOp40
 70
     1
102
RTVSPropertyOp41
 70
     1
102
RTVSPropertyOp42
 70
     1
102
RTVSPropertyOp43
 70
     1
102
RTVSPropertyOp44
 70
     1
102
RTVSPropertyOp45
 70
     1
102
RTVSPropertyOp46
 70
     1
102
RTVSPropertyOp47
 70
     1
102
RTVSPropertyOp48
 70
     1
102
RTVSPropertyOp49
 70
     1
102
RTVSPropertyOp50
 70
     1
102
RTVSPropertyOp51
 70
     0
102
RTVSPropertyOp52
 70
     0
102
RTVSPropertyOp53
 70
     1
102
RTVSPropertyOp54
 70
     1
102
RTVSPropertyOp55
 70
     1
102
RTVSPropertyOp56
 70
     1
102
RTVSPropertyOp57
 70
     1
102
RTVSPropertyOp58
 70
     1
102
RTVSPropertyOp59
 70
     1
102
RTVSPropertyOp60
 70
     1
102
RTVSPropertyOp61
 70
     1
102
RTVSPropertyOp62
 70
     1
  0
XRECORD
  5
162F
102
{ACAD_REACTORS
330
162E
102
}
330
162E
100
AcDbXrecord
280
     1
102
RTVSPost2010Prop28
280
     0
102
RTVSPost2010PropOp28
 70
     1
102
RTVSPost2010Prop29
280
     1
102
RTVSPost2010PropOp29
 70
     1
102
RTVSPost2010Prop30
280
     1
102
RTVSPost2010PropOp30
 70
     1
102
RTVSPost2010Prop31
280
     0
102
RTVSPost2010PropOp31
 70
     1
102
RTVSPost2010Prop32
280
     0
102
RTVSPost2010PropOp32
 70
     1
102
RTVSPost2010Prop33
280
     0
102
RTVSPost2010PropOp33
 70
     1
102
RTVSPost2010Prop34
280
     0
102
RTVSPost2010PropOp34
 70
     1
102
RTVSPost2010Prop35
280
     0
102
RTVSPost2010PropOp35
 70
     1
102
RTVSPost2010Prop36
280
     0
102
RTVSPost2010PropOp36
 70
     1
102
RTVSPost2010Prop37
 90
       50
102
RTVSPost2010PropOp37
 70
     0
102
RTVSPost2010Prop38
140
0.0
102
RTVSPost2010PropOp38
 70
     0
102
RTVSPost2010Prop39
140
1.0
102
RTVSPost2010PropOp39
 70
     0
102
RTVSPost2010Prop40
 90
        0
102
RTVSPost2010PropOp40
 70
     0
102
RTVSPost2010Prop41ColorIndex
 90
       18
102
RTVSPost2010Prop41ColorRGB
 90
        0
102
RTVSPost2010PropOp41
 70
     0
102
RTVSPost2010Prop42
 90
       50
102
RTVSPost2010PropOp42
 70
     0
102
RTVSPost2010Prop43
 90
        3
102
RTVSPost2010PropOp43
 70
     0
102
RTVSPost2010Prop44ColorIndex
 90
        5
102
RTVSPost2010Prop44ColorRGB
 90
      255
102
RTVSPost2010PropOp44
 70
     0
102
RTVSPost2010Prop45
280
     0
102
RTVSPost2010PropOp45
 70
     1
102
RTVSPost2010Prop46
 90
       50
102
RTVSPost2010PropOp46
 70
     0
102
RTVSPost2010Prop47
 90
       50
102
RTVSPost2010PropOp47
 70
     0
102
RTVSPost2010Prop48
 90
       50
102
RTVSPost2010PropOp48
 70
     0
102
RTVSPost2010Prop49
280
     0
102
RTVSPost2010PropOp49
 70
     1
102
RTVSPost2010Prop50
 90
       50
102
RTVSPost2010PropOp50
 70
     0
102
RTVSPost2010Prop51ColorIndex
 90
      256
102
RTVSPost2010Prop51ColorRGB
 90
-16777216
102
RTVSPost2010PropOp51
 70
     0
102
RTVSPost2010Prop52
140
1.0
102
RTVSPost2010PropOp52
 70
     0
102
RTVSPost2010Prop53
 90
        2
102
RTVSPost2010PropOp53
 70
     0
102
RTVSPost2010Prop54
  1
strokes_ogs.tif
102
RTVSPost2010PropOp54
 70
     0
102
RTVSPost2010Prop55
280
     0
102
RTVSPost2010PropOp55
 70
     1
102
RTVSPost2010Prop56
140
1.0
102
RTVSPost2010PropOp56
 70
     0
102
RTVSPost2010Prop57
140
1.0
102
RTVSPost2010PropOp57
 70
     0
102
RTVSPropertyOp0
 70
     0
102
RTVSPropertyOp1
 70
     0
102
RTVSPropertyOp2
 70
     0
102
RTVSPropertyOp3
 70
     0
102
RTVSPropertyOp4
 70
     0
102
RTVSPropertyOp5
 70
     0
102
RTVSPropertyOp6
 70
     0
102
RTVSPropertyOp7
 70
     0
102
RTVSPropertyOp8
 70
     0
102
RTVSPropertyOp9
 70
     0
102
RTVSPropertyOp10
 70
     0
102
RTVSPropertyOp11
 70
     0
102
RTVSPropertyOp12
 70
     0
102
RTVSPropertyOp13
 70
     0
102
RTVSPropertyOp14
 70
     2
102
RTVSPropertyOp15
 70
     0
102
RTVSPropertyOp16
 70
     0
102
RTVSPropertyOp17
 70
     0
102
RTVSPropertyOp18
 70
     0
102
RTVSPropertyOp19
 70
     0
102
RTVSPropertyOp20
 70
     0
102
RTVSPropertyOp21
 70
     0
102
RTVSPropertyOp22
 70
     0
102
RTVSPropertyOp23
 70
     0
102
RTVSPropertyOp24
 70
     0
102
RTVSPropertyOp25
 70
     0
102
RTVSPropertyOp26
 70
     0
102
RTVSPropertyOp27
 70
     0
102
RTVSPropertyOp28
 70
     1
102
RTVSPropertyOp29
 70
     1
102
RTVSPropertyOp30
 70
     1
102
RTVSPropertyOp31
 70
     1
102
RTVSPropertyOp32
 70
     1
102
RTVSPropertyOp33
 70
     1
102
RTVSPropertyOp34
 70
     1
102
RTVSPropertyOp35
 70
     1
102
RTVSPropertyOp36
 70
     1
102
RTVSPropertyOp37
 70
     0
102
RTVSPropertyOp38
 70
     0
102
RTVSPropertyOp39
 70
     0
102
RTVSPropertyOp40
 70
     0
102
RTVSPropertyOp41
 70
     0
102
RTVSPropertyOp42
 70
     0
102
RTVSPropertyOp43
 70
     0
102
RTVSPropertyOp44
 70
     0
102
RTVSPropertyOp45
 70
     1
102
RTVSPropertyOp46
 70
     0
102
RTVSPropertyOp47
 70
     0
102
RTVSPropertyOp48
 70
     0
102
RTVSPropertyOp49
 70
     1
102
RTVSPropertyOp50
 70
     0
102
RTVSPropertyOp51
 70
     0
102
RTVSPropertyOp52
 70
     0
102
RTVSPropertyOp53
 70
     0
102
RTVSPropertyOp54
 70
     0
102
RTVSPropertyOp55
 70
     1
102
RTVSPropertyOp56
 70
     0
102
RTVSPropertyOp57
 70
     0
102
RTVSPropertyOp58
 70
     0
102
RTVSPropertyOp59
 70
     0
102
RTVSPropertyOp60
 70
     0
102
RTVSPropertyOp61
 70
     0
102
RTVSPropertyOp62
 70
     0
  0
XRECORD
  5
161D
102
{ACAD_REACTORS
330
161C
102
}
330
161C
100
AcDbXrecord
280
     1
102
RTVSPost2010Prop28
280
     0
102
RTVSPost2010PropOp28
 70
     1
102
RTVSPost2010Prop29
280
     1
102
RTVSPost2010PropOp29
 70
     1
102
RTVSPost2010Prop30
280
     1
102
RTVSPost2010PropOp30
 70
     1
102
RTVSPost2010Prop31
280
     0
102
RTVSPost2010PropOp31
 70
     1
102
RTVSPost2010Prop32
280
     0
102
RTVSPost2010PropOp32
 70
     1
102
RTVSPost2010Prop33
280
     0
102
RTVSPost2010PropOp33
 70
     1
102
RTVSPost2010Prop34
280
     0
102
RTVSPost2010PropOp34
 70
     1
102
RTVSPost2010Prop35
280
     0
102
RTVSPost2010PropOp35
 70
     1
102
RTVSPost2010Prop36
280
     0
102
RTVSPost2010PropOp36
 70
     1
102
RTVSPost2010Prop37
 90
       50
102
RTVSPost2010PropOp37
 70
     1
102
RTVSPost2010Prop38
140
0.0
102
RTVSPost2010PropOp38
 70
     1
102
RTVSPost2010Prop39
140
1.0
102
RTVSPost2010PropOp39
 70
     1
102
RTVSPost2010Prop40
 90
        0
102
RTVSPost2010PropOp40
 70
     1
102
RTVSPost2010Prop41ColorIndex
 90
       18
102
RTVSPost2010Prop41ColorRGB
 90
        0
102
RTVSPost2010PropOp41
 70
     1
102
RTVSPost2010Prop42
 90
       50
102
RTVSPost2010PropOp42
 70
     1
102
RTVSPost2010Prop43
 90
        3
102
RTVSPost2010PropOp43
 70
     1
102
RTVSPost2010Prop44ColorIndex
 90
        5
102
RTVSPost2010Prop44ColorRGB
 90
      255
102
RTVSPost2010PropOp44
 70
     1
102
RTVSPost2010Prop45
280
     0
102
RTVSPost2010PropOp45
 70
     1
102
RTVSPost2010Prop46
 90
       50
102
RTVSPost2010PropOp46
 70
     1
102
RTVSPost2010Prop47
 90
       50
102
RTVSPost2010PropOp47
 70
     1
102
RTVSPost2010Prop48
 90
       50
102
RTVSPost2010PropOp48
 70
     1
102
RTVSPost2010Prop49
280
     0
102
RTVSPost2010PropOp49
 70
     1
102
RTVSPost2010Prop50
 90
       50
102
RTVSPost2010PropOp50
 70
     1
102
RTVSPost2010Prop51ColorIndex
 90
      256
102
RTVSPost2010Prop51ColorRGB
 90
-16777216
102
RTVSPost2010PropOp51
 70
     0
102
RTVSPost2010Prop52
140
1.0
102
RTVSPost2010PropOp52
 70
     0
102
RTVSPost2010Prop53
 90
        2
102
RTVSPost2010PropOp53
 70
     1
102
RTVSPost2010Prop54
  1
strokes_ogs.tif
102
RTVSPost2010PropOp54
 70
     1
102
RTVSPost2010Prop55
280
     0
102
RTVSPost2010PropOp55
 70
     1
102
RTVSPost2010Prop56
140
1.0
102
RTVSPost2010PropOp56
 70
     1
102
RTVSPost2010Prop57
140
1.0
102
RTVSPost2010PropOp57
 70
     1
102
RTVSPropertyOp0
 70
     1
102
RTVSPropertyOp1
 70
     1
102
RTVSPropertyOp2
 70
     1
102
RTVSPropertyOp3
 70
     1
102
RTVSPropertyOp4
 70
     1
102
RTVSPropertyOp5
 70
     1
102
RTVSPropertyOp6
 70
     1
102
RTVSPropertyOp7
 70
     1
102
RTVSPropertyOp8
 70
     1
102
RTVSPropertyOp9
 70
     1
102
RTVSPropertyOp10
 70
     1
102
RTVSPropertyOp11
 70
     1
102
RTVSPropertyOp12
 70
     1
102
RTVSPropertyOp13
 70
     1
102
RTVSPropertyOp14
 70
     1
102
RTVSPropertyOp15
 70
     1
102
RTVSPropertyOp16
 70
     1
102
RTVSPropertyOp17
 70
     1
102
RTVSPropertyOp18
 70
     1
102
RTVSPropertyOp19
 70
     1
102
RTVSPropertyOp20
 70
     1
102
RTVSPropertyOp21
 70
     1
102
RTVSPropertyOp22
 70
     1
102
RTVSPropertyOp23
 70
     1
102
RTVSPropertyOp24
 70
     1
102
RTVSPropertyOp25
 70
     1
102
RTVSPropertyOp26
 70
     1
102
RTVSPropertyOp27
 70
     1
102
RTVSPropertyOp28
 70
     1
102
RTVSPropertyOp29
 70
     1
102
RTVSPropertyOp30
 70
     1
102
RTVSPropertyOp31
 70
     1
102
RTVSPropertyOp32
 70
     1
102
RTVSPropertyOp33
 70
     1
102
RTVSPropertyOp34
 70
     1
102
RTVSPropertyOp35
 70
     1
102
RTVSPropertyOp36
 70
     1
102
RTVSPropertyOp37
 70
     1
102
RTVSPropertyOp38
 70
     1
102
RTVSPropertyOp39
 70
     1
102
RTVSPropertyOp40
 70
     1
102
RTVSPropertyOp41
 70
     1
102
RTVSPropertyOp42
 70
     1
102
RTVSPropertyOp43
 70
     1
102
RTVSPropertyOp44
 70
     1
102
RTVSPropertyOp45
 70
     1
102
RTVSPropertyOp46
 70
     1
102
RTVSPropertyOp47
 70
     1
102
RTVSPropertyOp48
 70
     1
102
RTVSPropertyOp49
 70
     1
102
RTVSPropertyOp50
 70
     1
102
RTVSPropertyOp51
 70
     0
102
RTVSPropertyOp52
 70
     0
102
RTVSPropertyOp53
 70
     1
102
RTVSPropertyOp54
 70
     1
102
RTVSPropertyOp55
 70
     1
102
RTVSPropertyOp56
 70
     1
102
RTVSPropertyOp57
 70
     1
102
RTVSPropertyOp58
 70
     1
102
RTVSPropertyOp59
 70
     1
102
RTVSPropertyOp60
 70
     1
102
RTVSPropertyOp61
 70
     1
102
RTVSPropertyOp62
 70
     1
  0
XRECORD
  5
1601
102
{ACAD_REACTORS
330
1600
102
}
330
1600
100
AcDbXrecord
280
     1
102
RTVSPost2010Prop28
280
     0
102
RTVSPost2010PropOp28
 70
     1
102
RTVSPost2010Prop29
280
     1
102
RTVSPost2010PropOp29
 70
     1
102
RTVSPost2010Prop30
280
     1
102
RTVSPost2010PropOp30
 70
     1
102
RTVSPost2010Prop31
280
     0
102
RTVSPost2010PropOp31
 70
     1
102
RTVSPost2010Prop32
280
     0
102
RTVSPost2010PropOp32
 70
     1
102
RTVSPost2010Prop33
280
     0
102
RTVSPost2010PropOp33
 70
     1
102
RTVSPost2010Prop34
280
     0
102
RTVSPost2010PropOp34
 70
     1
102
RTVSPost2010Prop35
280
     0
102
RTVSPost2010PropOp35
 70
     1
102
RTVSPost2010Prop36
280
     0
102
RTVSPost2010PropOp36
 70
     1
102
RTVSPost2010Prop37
 90
       50
102
RTVSPost2010PropOp37
 70
     1
102
RTVSPost2010Prop38
140
0.0
102
RTVSPost2010PropOp38
 70
     1
102
RTVSPost2010Prop39
140
1.0
102
RTVSPost2010PropOp39
 70
     1
102
RTVSPost2010Prop40
 90
        0
102
RTVSPost2010PropOp40
 70
     1
102
RTVSPost2010Prop41ColorIndex
 90
       18
102
RTVSPost2010Prop41ColorRGB
 90
        0
102
RTVSPost2010PropOp41
 70
     1
102
RTVSPost2010Prop42
 90
       50
102
RTVSPost2010PropOp42
 70
     1
102
RTVSPost2010Prop43
 90
        3
102
RTVSPost2010PropOp43
 70
     1
102
RTVSPost2010Prop44ColorIndex
 90
        5
102
RTVSPost2010Prop44ColorRGB
 90
      255
102
RTVSPost2010PropOp44
 70
     1
102
RTVSPost2010Prop45
280
     0
102
RTVSPost2010PropOp45
 70
     1
102
RTVSPost2010Prop46
 90
       50
102
RTVSPost2010PropOp46
 70
     1
102
RTVSPost2010Prop47
 90
       50
102
RTVSPost2010PropOp47
 70
     1
102
RTVSPost2010Prop48
 90
       50
102
RTVSPost2010PropOp48
 70
     1
102
RTVSPost2010Prop49
280
     0
102
RTVSPost2010PropOp49
 70
     1
102
RTVSPost2010Prop50
 90
       50
102
RTVSPost2010PropOp50
 70
     1
102
RTVSPost2010Prop51ColorIndex
 90
      256
102
RTVSPost2010Prop51ColorRGB
 90
-16777216
102
RTVSPost2010PropOp51
 70
     0
102
RTVSPost2010Prop52
140
1.0
102
RTVSPost2010PropOp52
 70
     0
102
RTVSPost2010Prop53
 90
        2
102
RTVSPost2010PropOp53
 70
     1
102
RTVSPost2010Prop54
  1
strokes_ogs.tif
102
RTVSPost2010PropOp54
 70
     1
102
RTVSPost2010Prop55
280
     0
102
RTVSPost2010PropOp55
 70
     1
102
RTVSPost2010Prop56
140
1.0
102
RTVSPost2010PropOp56
 70
     1
102
RTVSPost2010Prop57
140
1.0
102
RTVSPost2010PropOp57
 70
     1
102
RTVSPropertyOp0
 70
     1
102
RTVSPropertyOp1
 70
     1
102
RTVSPropertyOp2
 70
     1
102
RTVSPropertyOp3
 70
     1
102
RTVSPropertyOp4
 70
     1
102
RTVSPropertyOp5
 70
     1
102
RTVSPropertyOp6
 70
     1
102
RTVSPropertyOp7
 70
     1
102
RTVSPropertyOp8
 70
     1
102
RTVSPropertyOp9
 70
     1
102
RTVSPropertyOp10
 70
     1
102
RTVSPropertyOp11
 70
     1
102
RTVSPropertyOp12
 70
     1
102
RTVSPropertyOp13
 70
     1
102
RTVSPropertyOp14
 70
     1
102
RTVSPropertyOp15
 70
     1
102
RTVSPropertyOp16
 70
     1
102
RTVSPropertyOp17
 70
     1
102
RTVSPropertyOp18
 70
     1
102
RTVSPropertyOp19
 70
     1
102
RTVSPropertyOp20
 70
     1
102
RTVSPropertyOp21
 70
     1
102
RTVSPropertyOp22
 70
     1
102
RTVSPropertyOp23
 70
     1
102
RTVSPropertyOp24
 70
     1
102
RTVSPropertyOp25
 70
     1
102
RTVSPropertyOp26
 70
     1
102
RTVSPropertyOp27
 70
     1
102
RTVSPropertyOp28
 70
     1
102
RTVSPropertyOp29
 70
     1
102
RTVSPropertyOp30
 70
     1
102
RTVSPropertyOp31
 70
     1
102
RTVSPropertyOp32
 70
     1
102
RTVSPropertyOp33
 70
     1
102
RTVSPropertyOp34
 70
     1
102
RTVSPropertyOp35
 70
     1
102
RTVSPropertyOp36
 70
     1
102
RTVSPropertyOp37
 70
     1
102
RTVSPropertyOp38
 70
     1
102
RTVSPropertyOp39
 70
     1
102
RTVSPropertyOp40
 70
     1
102
RTVSPropertyOp41
 70
     1
102
RTVSPropertyOp42
 70
     1
102
RTVSPropertyOp43
 70
     1
102
RTVSPropertyOp44
 70
     1
102
RTVSPropertyOp45
 70
     1
102
RTVSPropertyOp46
 70
     1
102
RTVSPropertyOp47
 70
     1
102
RTVSPropertyOp48
 70
     1
102
RTVSPropertyOp49
 70
     1
102
RTVSPropertyOp50
 70
     1
102
RTVSPropertyOp51
 70
     0
102
RTVSPropertyOp52
 70
     0
102
RTVSPropertyOp53
 70
     1
102
RTVSPropertyOp54
 70
     1
102
RTVSPropertyOp55
 70
     1
102
RTVSPropertyOp56
 70
     1
102
RTVSPropertyOp57
 70
     1
102
RTVSPropertyOp58
 70
     1
102
RTVSPropertyOp59
 70
     1
102
RTVSPropertyOp60
 70
     1
102
RTVSPropertyOp61
 70
     1
102
RTVSPropertyOp62
 70
     1
  0
XRECORD
  5
1603
102
{ACAD_REACTORS
330
1602
102
}
330
1602
100
AcDbXrecord
280
     1
102
RTVSPost2010Prop28
280
     0
102
RTVSPost2010PropOp28
 70
     1
102
RTVSPost2010Prop29
280
     1
102
RTVSPost2010PropOp29
 70
     1
102
RTVSPost2010Prop30
280
     1
102
RTVSPost2010PropOp30
 70
     1
102
RTVSPost2010Prop31
280
     0
102
RTVSPost2010PropOp31
 70
     1
102
RTVSPost2010Prop32
280
     0
102
RTVSPost2010PropOp32
 70
     1
102
RTVSPost2010Prop33
280
     0
102
RTVSPost2010PropOp33
 70
     1
102
RTVSPost2010Prop34
280
     0
102
RTVSPost2010PropOp34
 70
     1
102
RTVSPost2010Prop35
280
     0
102
RTVSPost2010PropOp35
 70
     1
102
RTVSPost2010Prop36
280
     0
102
RTVSPost2010PropOp36
 70
     1
102
RTVSPost2010Prop37
 90
       50
102
RTVSPost2010PropOp37
 70
     1
102
RTVSPost2010Prop38
140
0.0
102
RTVSPost2010PropOp38
 70
     1
102
RTVSPost2010Prop39
140
1.0
102
RTVSPost2010PropOp39
 70
     1
102
RTVSPost2010Prop40
 90
        0
102
RTVSPost2010PropOp40
 70
     1
102
RTVSPost2010Prop41ColorIndex
 90
       18
102
RTVSPost2010Prop41ColorRGB
 90
        0
102
RTVSPost2010PropOp41
 70
     1
102
RTVSPost2010Prop42
 90
       50
102
RTVSPost2010PropOp42
 70
     1
102
RTVSPost2010Prop43
 90
        3
102
RTVSPost2010PropOp43
 70
     1
102
RTVSPost2010Prop44ColorIndex
 90
        5
102
RTVSPost2010Prop44ColorRGB
 90
      255
102
RTVSPost2010PropOp44
 70
     1
102
RTVSPost2010Prop45
280
     0
102
RTVSPost2010PropOp45
 70
     1
102
RTVSPost2010Prop46
 90
       50
102
RTVSPost2010PropOp46
 70
     1
102
RTVSPost2010Prop47
 90
       50
102
RTVSPost2010PropOp47
 70
     1
102
RTVSPost2010Prop48
 90
       50
102
RTVSPost2010PropOp48
 70
     1
102
RTVSPost2010Prop49
280
     0
102
RTVSPost2010PropOp49
 70
     1
102
RTVSPost2010Prop50
 90
       50
102
RTVSPost2010PropOp50
 70
     1
102
RTVSPost2010Prop51ColorIndex
 90
      256
102
RTVSPost2010Prop51ColorRGB
 90
-16777216
102
RTVSPost2010PropOp51
 70
     0
102
RTVSPost2010Prop52
140
1.0
102
RTVSPost2010PropOp52
 70
     0
102
RTVSPost2010Prop53
 90
        2
102
RTVSPost2010PropOp53
 70
     1
102
RTVSPost2010Prop54
  1
strokes_ogs.tif
102
RTVSPost2010PropOp54
 70
     1
102
RTVSPost2010Prop55
280
     0
102
RTVSPost2010PropOp55
 70
     1
102
RTVSPost2010Prop56
140
1.0
102
RTVSPost2010PropOp56
 70
     1
102
RTVSPost2010Prop57
140
1.0
102
RTVSPost2010PropOp57
 70
     1
102
RTVSPropertyOp0
 70
     1
102
RTVSPropertyOp1
 70
     1
102
RTVSPropertyOp2
 70
     1
102
RTVSPropertyOp3
 70
     1
102
RTVSPropertyOp4
 70
     1
102
RTVSPropertyOp5
 70
     1
102
RTVSPropertyOp6
 70
     1
102
RTVSPropertyOp7
 70
     1
102
RTVSPropertyOp8
 70
     1
102
RTVSPropertyOp9
 70
     1
102
RTVSPropertyOp10
 70
     1
102
RTVSPropertyOp11
 70
     1
102
RTVSPropertyOp12
 70
     1
102
RTVSPropertyOp13
 70
     1
102
RTVSPropertyOp14
 70
     1
102
RTVSPropertyOp15
 70
     1
102
RTVSPropertyOp16
 70
     1
102
RTVSPropertyOp17
 70
     1
102
RTVSPropertyOp18
 70
     1
102
RTVSPropertyOp19
 70
     1
102
RTVSPropertyOp20
 70
     1
102
RTVSPropertyOp21
 70
     1
102
RTVSPropertyOp22
 70
     1
102
RTVSPropertyOp23
 70
     1
102
RTVSPropertyOp24
 70
     1
102
RTVSPropertyOp25
 70
     1
102
RTVSPropertyOp26
 70
     1
102
RTVSPropertyOp27
 70
     1
102
RTVSPropertyOp28
 70
     1
102
RTVSPropertyOp29
 70
     1
102
RTVSPropertyOp30
 70
     1
102
RTVSPropertyOp31
 70
     1
102
RTVSPropertyOp32
 70
     1
102
RTVSPropertyOp33
 70
     1
102
RTVSPropertyOp34
 70
     1
102
RTVSPropertyOp35
 70
     1
102
RTVSPropertyOp36
 70
     1
102
RTVSPropertyOp37
 70
     1
102
RTVSPropertyOp38
 70
     1
102
RTVSPropertyOp39
 70
     1
102
RTVSPropertyOp40
 70
     1
102
RTVSPropertyOp41
 70
     1
102
RTVSPropertyOp42
 70
     1
102
RTVSPropertyOp43
 70
     1
102
RTVSPropertyOp44
 70
     1
102
RTVSPropertyOp45
 70
     1
102
RTVSPropertyOp46
 70
     1
102
RTVSPropertyOp47
 70
     1
102
RTVSPropertyOp48
 70
     1
102
RTVSPropertyOp49
 70
     1
102
RTVSPropertyOp50
 70
     1
102
RTVSPropertyOp51
 70
     0
102
RTVSPropertyOp52
 70
     0
102
RTVSPropertyOp53
 70
     1
102
RTVSPropertyOp54
 70
     1
102
RTVSPropertyOp55
 70
     1
102
RTVSPropertyOp56
 70
     1
102
RTVSPropertyOp57
 70
     1
102
RTVSPropertyOp58
 70
     1
102
RTVSPropertyOp59
 70
     1
102
RTVSPropertyOp60
 70
     1
102
RTVSPropertyOp61
 70
     1
102
RTVSPropertyOp62
 70
     1
  0
XRECORD
  5
1605
102
{ACAD_REACTORS
330
1604
102
}
330
1604
100
AcDbXrecord
280
     1
102
RTVSPost2010Prop28
280
     0
102
RTVSPost2010PropOp28
 70
     1
102
RTVSPost2010Prop29
280
     1
102
RTVSPost2010PropOp29
 70
     1
102
RTVSPost2010Prop30
280
     1
102
RTVSPost2010PropOp30
 70
     1
102
RTVSPost2010Prop31
280
     0
102
RTVSPost2010PropOp31
 70
     1
102
RTVSPost2010Prop32
280
     0
102
RTVSPost2010PropOp32
 70
     1
102
RTVSPost2010Prop33
280
     0
102
RTVSPost2010PropOp33
 70
     1
102
RTVSPost2010Prop34
280
     0
102
RTVSPost2010PropOp34
 70
     1
102
RTVSPost2010Prop35
280
     0
102
RTVSPost2010PropOp35
 70
     1
102
RTVSPost2010Prop36
280
     0
102
RTVSPost2010PropOp36
 70
     1
102
RTVSPost2010Prop37
 90
       50
102
RTVSPost2010PropOp37
 70
     1
102
RTVSPost2010Prop38
140
0.0
102
RTVSPost2010PropOp38
 70
     1
102
RTVSPost2010Prop39
140
1.0
102
RTVSPost2010PropOp39
 70
     1
102
RTVSPost2010Prop40
 90
        0
102
RTVSPost2010PropOp40
 70
     1
102
RTVSPost2010Prop41ColorIndex
 90
       18
102
RTVSPost2010Prop41ColorRGB
 90
        0
102
RTVSPost2010PropOp41
 70
     1
102
RTVSPost2010Prop42
 90
       50
102
RTVSPost2010PropOp42
 70
     1
102
RTVSPost2010Prop43
 90
        3
102
RTVSPost2010PropOp43
 70
     1
102
RTVSPost2010Prop44ColorIndex
 90
        5
102
RTVSPost2010Prop44ColorRGB
 90
      255
102
RTVSPost2010PropOp44
 70
     1
102
RTVSPost2010Prop45
280
     0
102
RTVSPost2010PropOp45
 70
     1
102
RTVSPost2010Prop46
 90
       50
102
RTVSPost2010PropOp46
 70
     1
102
RTVSPost2010Prop47
 90
       50
102
RTVSPost2010PropOp47
 70
     1
102
RTVSPost2010Prop48
 90
       50
102
RTVSPost2010PropOp48
 70
     1
102
RTVSPost2010Prop49
280
     0
102
RTVSPost2010PropOp49
 70
     1
102
RTVSPost2010Prop50
 90
       50
102
RTVSPost2010PropOp50
 70
     1
102
RTVSPost2010Prop51ColorIndex
 90
      256
102
RTVSPost2010Prop51ColorRGB
 90
-16777216
102
RTVSPost2010PropOp51
 70
     0
102
RTVSPost2010Prop52
140
1.0
102
RTVSPost2010PropOp52
 70
     0
102
RTVSPost2010Prop53
 90
        2
102
RTVSPost2010PropOp53
 70
     1
102
RTVSPost2010Prop54
  1
strokes_ogs.tif
102
RTVSPost2010PropOp54
 70
     1
102
RTVSPost2010Prop55
280
     0
102
RTVSPost2010PropOp55
 70
     1
102
RTVSPost2010Prop56
140
1.0
102
RTVSPost2010PropOp56
 70
     1
102
RTVSPost2010Prop57
140
1.0
102
RTVSPost2010PropOp57
 70
     1
102
RTVSPropertyOp0
 70
     1
102
RTVSPropertyOp1
 70
     1
102
RTVSPropertyOp2
 70
     1
102
RTVSPropertyOp3
 70
     1
102
RTVSPropertyOp4
 70
     1
102
RTVSPropertyOp5
 70
     1
102
RTVSPropertyOp6
 70
     1
102
RTVSPropertyOp7
 70
     1
102
RTVSPropertyOp8
 70
     1
102
RTVSPropertyOp9
 70
     1
102
RTVSPropertyOp10
 70
     1
102
RTVSPropertyOp11
 70
     1
102
RTVSPropertyOp12
 70
     1
102
RTVSPropertyOp13
 70
     1
102
RTVSPropertyOp14
 70
     1
102
RTVSPropertyOp15
 70
     1
102
RTVSPropertyOp16
 70
     1
102
RTVSPropertyOp17
 70
     1
102
RTVSPropertyOp18
 70
     1
102
RTVSPropertyOp19
 70
     1
102
RTVSPropertyOp20
 70
     1
102
RTVSPropertyOp21
 70
     1
102
RTVSPropertyOp22
 70
     1
102
RTVSPropertyOp23
 70
     1
102
RTVSPropertyOp24
 70
     1
102
RTVSPropertyOp25
 70
     1
102
RTVSPropertyOp26
 70
     1
102
RTVSPropertyOp27
 70
     1
102
RTVSPropertyOp28
 70
     1
102
RTVSPropertyOp29
 70
     1
102
RTVSPropertyOp30
 70
     1
102
RTVSPropertyOp31
 70
     1
102
RTVSPropertyOp32
 70
     1
102
RTVSPropertyOp33
 70
     1
102
RTVSPropertyOp34
 70
     1
102
RTVSPropertyOp35
 70
     1
102
RTVSPropertyOp36
 70
     1
102
RTVSPropertyOp37
 70
     1
102
RTVSPropertyOp38
 70
     1
102
RTVSPropertyOp39
 70
     1
102
RTVSPropertyOp40
 70
     1
102
RTVSPropertyOp41
 70
     1
102
RTVSPropertyOp42
 70
     1
102
RTVSPropertyOp43
 70
     1
102
RTVSPropertyOp44
 70
     1
102
RTVSPropertyOp45
 70
     1
102
RTVSPropertyOp46
 70
     1
102
RTVSPropertyOp47
 70
     1
102
RTVSPropertyOp48
 70
     1
102
RTVSPropertyOp49
 70
     1
102
RTVSPropertyOp50
 70
     1
102
RTVSPropertyOp51
 70
     0
102
RTVSPropertyOp52
 70
     0
102
RTVSPropertyOp53
 70
     1
102
RTVSPropertyOp54
 70
     1
102
RTVSPropertyOp55
 70
     1
102
RTVSPropertyOp56
 70
     1
102
RTVSPropertyOp57
 70
     1
102
RTVSPropertyOp58
 70
     1
102
RTVSPropertyOp59
 70
     1
102
RTVSPropertyOp60
 70
     1
102
RTVSPropertyOp61
 70
     1
102
RTVSPropertyOp62
 70
     1
  0
XRECORD
  5
1607
102
{ACAD_REACTORS
330
1606
102
}
330
1606
100
AcDbXrecord
280
     1
102
RTVSPost2010Prop28
280
     0
102
RTVSPost2010PropOp28
 70
     1
102
RTVSPost2010Prop29
280
     1
102
RTVSPost2010PropOp29
 70
     1
102
RTVSPost2010Prop30
280
     1
102
RTVSPost2010PropOp30
 70
     1
102
RTVSPost2010Prop31
280
     0
102
RTVSPost2010PropOp31
 70
     1
102
RTVSPost2010Prop32
280
     0
102
RTVSPost2010PropOp32
 70
     1
102
RTVSPost2010Prop33
280
     0
102
RTVSPost2010PropOp33
 70
     1
102
RTVSPost2010Prop34
280
     0
102
RTVSPost2010PropOp34
 70
     1
102
RTVSPost2010Prop35
280
     0
102
RTVSPost2010PropOp35
 70
     1
102
RTVSPost2010Prop36
280
     0
102
RTVSPost2010PropOp36
 70
     1
102
RTVSPost2010Prop37
 90
       50
102
RTVSPost2010PropOp37
 70
     1
102
RTVSPost2010Prop38
140
0.0
102
RTVSPost2010PropOp38
 70
     1
102
RTVSPost2010Prop39
140
1.0
102
RTVSPost2010PropOp39
 70
     1
102
RTVSPost2010Prop40
 90
        0
102
RTVSPost2010PropOp40
 70
     1
102
RTVSPost2010Prop41ColorIndex
 90
       18
102
RTVSPost2010Prop41ColorRGB
 90
        0
102
RTVSPost2010PropOp41
 70
     1
102
RTVSPost2010Prop42
 90
       50
102
RTVSPost2010PropOp42
 70
     1
102
RTVSPost2010Prop43
 90
        3
102
RTVSPost2010PropOp43
 70
     1
102
RTVSPost2010Prop44ColorIndex
 90
        5
102
RTVSPost2010Prop44ColorRGB
 90
      255
102
RTVSPost2010PropOp44
 70
     1
102
RTVSPost2010Prop45
280
     0
102
RTVSPost2010PropOp45
 70
     1
102
RTVSPost2010Prop46
 90
       50
102
RTVSPost2010PropOp46
 70
     1
102
RTVSPost2010Prop47
 90
       50
102
RTVSPost2010PropOp47
 70
     1
102
RTVSPost2010Prop48
 90
       50
102
RTVSPost2010PropOp48
 70
     1
102
RTVSPost2010Prop49
280
     0
102
RTVSPost2010PropOp49
 70
     1
102
RTVSPost2010Prop50
 90
       50
102
RTVSPost2010PropOp50
 70
     1
102
RTVSPost2010Prop51ColorIndex
 90
      256
102
RTVSPost2010Prop51ColorRGB
 90
-16777216
102
RTVSPost2010PropOp51
 70
     0
102
RTVSPost2010Prop52
140
1.0
102
RTVSPost2010PropOp52
 70
     0
102
RTVSPost2010Prop53
 90
        2
102
RTVSPost2010PropOp53
 70
     1
102
RTVSPost2010Prop54
  1
strokes_ogs.tif
102
RTVSPost2010PropOp54
 70
     1
102
RTVSPost2010Prop55
280
     0
102
RTVSPost2010PropOp55
 70
     1
102
RTVSPost2010Prop56
140
1.0
102
RTVSPost2010PropOp56
 70
     1
102
RTVSPost2010Prop57
140
1.0
102
RTVSPost2010PropOp57
 70
     1
102
RTVSPropertyOp0
 70
     1
102
RTVSPropertyOp1
 70
     1
102
RTVSPropertyOp2
 70
     1
102
RTVSPropertyOp3
 70
     1
102
RTVSPropertyOp4
 70
     1
102
RTVSPropertyOp5
 70
     1
102
RTVSPropertyOp6
 70
     1
102
RTVSPropertyOp7
 70
     1
102
RTVSPropertyOp8
 70
     1
102
RTVSPropertyOp9
 70
     1
102
RTVSPropertyOp10
 70
     1
102
RTVSPropertyOp11
 70
     1
102
RTVSPropertyOp12
 70
     1
102
RTVSPropertyOp13
 70
     1
102
RTVSPropertyOp14
 70
     1
102
RTVSPropertyOp15
 70
     1
102
RTVSPropertyOp16
 70
     1
102
RTVSPropertyOp17
 70
     1
102
RTVSPropertyOp18
 70
     1
102
RTVSPropertyOp19
 70
     1
102
RTVSPropertyOp20
 70
     1
102
RTVSPropertyOp21
 70
     1
102
RTVSPropertyOp22
 70
     1
102
RTVSPropertyOp23
 70
     1
102
RTVSPropertyOp24
 70
     1
102
RTVSPropertyOp25
 70
     1
102
RTVSPropertyOp26
 70
     1
102
RTVSPropertyOp27
 70
     1
102
RTVSPropertyOp28
 70
     1
102
RTVSPropertyOp29
 70
     1
102
RTVSPropertyOp30
 70
     1
102
RTVSPropertyOp31
 70
     1
102
RTVSPropertyOp32
 70
     1
102
RTVSPropertyOp33
 70
     1
102
RTVSPropertyOp34
 70
     1
102
RTVSPropertyOp35
 70
     1
102
RTVSPropertyOp36
 70
     1
102
RTVSPropertyOp37
 70
     1
102
RTVSPropertyOp38
 70
     1
102
RTVSPropertyOp39
 70
     1
102
RTVSPropertyOp40
 70
     1
102
RTVSPropertyOp41
 70
     1
102
RTVSPropertyOp42
 70
     1
102
RTVSPropertyOp43
 70
     1
102
RTVSPropertyOp44
 70
     1
102
RTVSPropertyOp45
 70
     1
102
RTVSPropertyOp46
 70
     1
102
RTVSPropertyOp47
 70
     1
102
RTVSPropertyOp48
 70
     1
102
RTVSPropertyOp49
 70
     1
102
RTVSPropertyOp50
 70
     1
102
RTVSPropertyOp51
 70
     0
102
RTVSPropertyOp52
 70
     0
102
RTVSPropertyOp53
 70
     1
102
RTVSPropertyOp54
 70
     1
102
RTVSPropertyOp55
 70
     1
102
RTVSPropertyOp56
 70
     1
102
RTVSPropertyOp57
 70
     1
102
RTVSPropertyOp58
 70
     1
102
RTVSPropertyOp59
 70
     1
102
RTVSPropertyOp60
 70
     1
102
RTVSPropertyOp61
 70
     1
102
RTVSPropertyOp62
 70
     1
  0
XRECORD
  5
160F
102
{ACAD_REACTORS
330
160E
102
}
330
160E
100
AcDbXrecord
280
     1
102
RTVSPost2010Prop28
280
     0
102
RTVSPost2010PropOp28
 70
     1
102
RTVSPost2010Prop29
280
     1
102
RTVSPost2010PropOp29
 70
     1
102
RTVSPost2010Prop30
280
     1
102
RTVSPost2010PropOp30
 70
     1
102
RTVSPost2010Prop31
280
     0
102
RTVSPost2010PropOp31
 70
     1
102
RTVSPost2010Prop32
280
     0
102
RTVSPost2010PropOp32
 70
     1
102
RTVSPost2010Prop33
280
     0
102
RTVSPost2010PropOp33
 70
     1
102
RTVSPost2010Prop34
280
     0
102
RTVSPost2010PropOp34
 70
     1
102
RTVSPost2010Prop35
280
     0
102
RTVSPost2010PropOp35
 70
     1
102
RTVSPost2010Prop36
280
     0
102
RTVSPost2010PropOp36
 70
     1
102
RTVSPost2010Prop37
 90
       50
102
RTVSPost2010PropOp37
 70
     1
102
RTVSPost2010Prop38
140
0.0
102
RTVSPost2010PropOp38
 70
     1
102
RTVSPost2010Prop39
140
1.0
102
RTVSPost2010PropOp39
 70
     1
102
RTVSPost2010Prop40
 90
        0
102
RTVSPost2010PropOp40
 70
     1
102
RTVSPost2010Prop41ColorIndex
 90
       18
102
RTVSPost2010Prop41ColorRGB
 90
        0
102
RTVSPost2010PropOp41
 70
     1
102
RTVSPost2010Prop42
 90
       50
102
RTVSPost2010PropOp42
 70
     1
102
RTVSPost2010Prop43
 90
        3
102
RTVSPost2010PropOp43
 70
     1
102
RTVSPost2010Prop44ColorIndex
 90
        5
102
RTVSPost2010Prop44ColorRGB
 90
      255
102
RTVSPost2010PropOp44
 70
     1
102
RTVSPost2010Prop45
280
     0
102
RTVSPost2010PropOp45
 70
     1
102
RTVSPost2010Prop46
 90
       50
102
RTVSPost2010PropOp46
 70
     1
102
RTVSPost2010Prop47
 90
       50
102
RTVSPost2010PropOp47
 70
     1
102
RTVSPost2010Prop48
 90
       50
102
RTVSPost2010PropOp48
 70
     1
102
RTVSPost2010Prop49
280
     0
102
RTVSPost2010PropOp49
 70
     1
102
RTVSPost2010Prop50
 90
       50
102
RTVSPost2010PropOp50
 70
     1
102
RTVSPost2010Prop51ColorIndex
 90
      256
102
RTVSPost2010Prop51ColorRGB
 90
-16777216
102
RTVSPost2010PropOp51
 70
     0
102
RTVSPost2010Prop52
140
1.0
102
RTVSPost2010PropOp52
 70
     0
102
RTVSPost2010Prop53
 90
        2
102
RTVSPost2010PropOp53
 70
     1
102
RTVSPost2010Prop54
  1
strokes_ogs.tif
102
RTVSPost2010PropOp54
 70
     1
102
RTVSPost2010Prop55
280
     0
102
RTVSPost2010PropOp55
 70
     1
102
RTVSPost2010Prop56
140
1.0
102
RTVSPost2010PropOp56
 70
     1
102
RTVSPost2010Prop57
140
1.0
102
RTVSPost2010PropOp57
 70
     1
102
RTVSPropertyOp0
 70
     1
102
RTVSPropertyOp1
 70
     1
102
RTVSPropertyOp2
 70
     1
102
RTVSPropertyOp3
 70
     1
102
RTVSPropertyOp4
 70
     1
102
RTVSPropertyOp5
 70
     1
102
RTVSPropertyOp6
 70
     1
102
RTVSPropertyOp7
 70
     1
102
RTVSPropertyOp8
 70
     1
102
RTVSPropertyOp9
 70
     1
102
RTVSPropertyOp10
 70
     1
102
RTVSPropertyOp11
 70
     1
102
RTVSPropertyOp12
 70
     1
102
RTVSPropertyOp13
 70
     1
102
RTVSPropertyOp14
 70
     1
102
RTVSPropertyOp15
 70
     1
102
RTVSPropertyOp16
 70
     1
102
RTVSPropertyOp17
 70
     1
102
RTVSPropertyOp18
 70
     1
102
RTVSPropertyOp19
 70
     1
102
RTVSPropertyOp20
 70
     1
102
RTVSPropertyOp21
 70
     1
102
RTVSPropertyOp22
 70
     1
102
RTVSPropertyOp23
 70
     1
102
RTVSPropertyOp24
 70
     1
102
RTVSPropertyOp25
 70
     1
102
RTVSPropertyOp26
 70
     1
102
RTVSPropertyOp27
 70
     1
102
RTVSPropertyOp28
 70
     1
102
RTVSPropertyOp29
 70
     1
102
RTVSPropertyOp30
 70
     1
102
RTVSPropertyOp31
 70
     1
102
RTVSPropertyOp32
 70
     1
102
RTVSPropertyOp33
 70
     1
102
RTVSPropertyOp34
 70
     1
102
RTVSPropertyOp35
 70
     1
102
RTVSPropertyOp36
 70
     1
102
RTVSPropertyOp37
 70
     1
102
RTVSPropertyOp38
 70
     1
102
RTVSPropertyOp39
 70
     1
102
RTVSPropertyOp40
 70
     1
102
RTVSPropertyOp41
 70
     1
102
RTVSPropertyOp42
 70
     1
102
RTVSPropertyOp43
 70
     1
102
RTVSPropertyOp44
 70
     1
102
RTVSPropertyOp45
 70
     1
102
RTVSPropertyOp46
 70
     1
102
RTVSPropertyOp47
 70
     1
102
RTVSPropertyOp48
 70
     1
102
RTVSPropertyOp49
 70
     1
102
RTVSPropertyOp50
 70
     1
102
RTVSPropertyOp51
 70
     0
102
RTVSPropertyOp52
 70
     0
102
RTVSPropertyOp53
 70
     1
102
RTVSPropertyOp54
 70
     1
102
RTVSPropertyOp55
 70
     1
102
RTVSPropertyOp56
 70
     1
102
RTVSPropertyOp57
 70
     1
102
RTVSPropertyOp58
 70
     1
102
RTVSPropertyOp59
 70
     1
102
RTVSPropertyOp60
 70
     1
102
RTVSPropertyOp61
 70
     1
102
RTVSPropertyOp62
 70
     1
  0
XRECORD
  5
162B
102
{ACAD_REACTORS
330
162A
102
}
330
162A
100
AcDbXrecord
280
     1
102
RTVSPost2010Prop28
280
     0
102
RTVSPost2010PropOp28
 70
     1
102
RTVSPost2010Prop29
280
     1
102
RTVSPost2010PropOp29
 70
     1
102
RTVSPost2010Prop30
280
     1
102
RTVSPost2010PropOp30
 70
     1
102
RTVSPost2010Prop31
280
     0
102
RTVSPost2010PropOp31
 70
     1
102
RTVSPost2010Prop32
280
     0
102
RTVSPost2010PropOp32
 70
     1
102
RTVSPost2010Prop33
280
     0
102
RTVSPost2010PropOp33
 70
     1
102
RTVSPost2010Prop34
280
     0
102
RTVSPost2010PropOp34
 70
     1
102
RTVSPost2010Prop35
280
     0
102
RTVSPost2010PropOp35
 70
     1
102
RTVSPost2010Prop36
280
     0
102
RTVSPost2010PropOp36
 70
     1
102
RTVSPost2010Prop37
 90
       50
102
RTVSPost2010PropOp37
 70
     0
102
RTVSPost2010Prop38
140
0.0
102
RTVSPost2010PropOp38
 70
     0
102
RTVSPost2010Prop39
140
1.0
102
RTVSPost2010PropOp39
 70
     0
102
RTVSPost2010Prop40
 90
        0
102
RTVSPost2010PropOp40
 70
     0
102
RTVSPost2010Prop41ColorIndex
 90
       18
102
RTVSPost2010Prop41ColorRGB
 90
        0
102
RTVSPost2010PropOp41
 70
     0
102
RTVSPost2010Prop42
 90
       50
102
RTVSPost2010PropOp42
 70
     0
102
RTVSPost2010Prop43
 90
        3
102
RTVSPost2010PropOp43
 70
     0
102
RTVSPost2010Prop44ColorIndex
 90
        5
102
RTVSPost2010Prop44ColorRGB
 90
      255
102
RTVSPost2010PropOp44
 70
     0
102
RTVSPost2010Prop45
280
     0
102
RTVSPost2010PropOp45
 70
     1
102
RTVSPost2010Prop46
 90
       50
102
RTVSPost2010PropOp46
 70
     0
102
RTVSPost2010Prop47
 90
       50
102
RTVSPost2010PropOp47
 70
     0
102
RTVSPost2010Prop48
 90
       50
102
RTVSPost2010PropOp48
 70
     0
102
RTVSPost2010Prop49
280
     0
102
RTVSPost2010PropOp49
 70
     1
102
RTVSPost2010Prop50
 90
       50
102
RTVSPost2010PropOp50
 70
     0
102
RTVSPost2010Prop51ColorIndex
 90
      256
102
RTVSPost2010Prop51ColorRGB
 90
-16777216
102
RTVSPost2010PropOp51
 70
     0
102
RTVSPost2010Prop52
140
1.0
102
RTVSPost2010PropOp52
 70
     0
102
RTVSPost2010Prop53
 90
        2
102
RTVSPost2010PropOp53
 70
     0
102
RTVSPost2010Prop54
  1
strokes_ogs.tif
102
RTVSPost2010PropOp54
 70
     0
102
RTVSPost2010Prop55
280
     0
102
RTVSPost2010PropOp55
 70
     1
102
RTVSPost2010Prop56
140
1.0
102
RTVSPost2010PropOp56
 70
     0
102
RTVSPost2010Prop57
140
1.0
102
RTVSPost2010PropOp57
 70
     0
102
RTVSPropertyOp0
 70
     0
102
RTVSPropertyOp1
 70
     0
102
RTVSPropertyOp2
 70
     0
102
RTVSPropertyOp3
 70
     0
102
RTVSPropertyOp4
 70
     0
102
RTVSPropertyOp5
 70
     0
102
RTVSPropertyOp6
 70
     0
102
RTVSPropertyOp7
 70
     0
102
RTVSPropertyOp8
 70
     0
102
RTVSPropertyOp9
 70
     0
102
RTVSPropertyOp10
 70
     0
102
RTVSPropertyOp11
 70
     0
102
RTVSPropertyOp12
 70
     0
102
RTVSPropertyOp13
 70
     0
102
RTVSPropertyOp14
 70
     2
102
RTVSPropertyOp15
 70
     0
102
RTVSPropertyOp16
 70
     0
102
RTVSPropertyOp17
 70
     0
102
RTVSPropertyOp18
 70
     0
102
RTVSPropertyOp19
 70
     0
102
RTVSPropertyOp20
 70
     0
102
RTVSPropertyOp21
 70
     0
102
RTVSPropertyOp22
 70
     0
102
RTVSPropertyOp23
 70
     0
102
RTVSPropertyOp24
 70
     0
102
RTVSPropertyOp25
 70
     0
102
RTVSPropertyOp26
 70
     0
102
RTVSPropertyOp27
 70
     0
102
RTVSPropertyOp28
 70
     1
102
RTVSPropertyOp29
 70
     1
102
RTVSPropertyOp30
 70
     1
102
RTVSPropertyOp31
 70
     1
102
RTVSPropertyOp32
 70
     1
102
RTVSPropertyOp33
 70
     1
102
RTVSPropertyOp34
 70
     1
102
RTVSPropertyOp35
 70
     1
102
RTVSPropertyOp36
 70
     1
102
RTVSPropertyOp37
 70
     0
102
RTVSPropertyOp38
 70
     0
102
RTVSPropertyOp39
 70
     0
102
RTVSPropertyOp40
 70
     0
102
RTVSPropertyOp41
 70
     0
102
RTVSPropertyOp42
 70
     0
102
RTVSPropertyOp43
 70
     0
102
RTVSPropertyOp44
 70
     0
102
RTVSPropertyOp45
 70
     1
102
RTVSPropertyOp46
 70
     0
102
RTVSPropertyOp47
 70
     0
102
RTVSPropertyOp48
 70
     0
102
RTVSPropertyOp49
 70
     1
102
RTVSPropertyOp50
 70
     0
102
RTVSPropertyOp51
 70
     0
102
RTVSPropertyOp52
 70
     0
102
RTVSPropertyOp53
 70
     0
102
RTVSPropertyOp54
 70
     0
102
RTVSPropertyOp55
 70
     1
102
RTVSPropertyOp56
 70
     0
102
RTVSPropertyOp57
 70
     0
102
RTVSPropertyOp58
 70
     0
102
RTVSPropertyOp59
 70
     0
102
RTVSPropertyOp60
 70
     0
102
RTVSPropertyOp61
 70
     0
102
RTVSPropertyOp62
 70
     0
  0
XRECORD
  5
161B
102
{ACAD_REACTORS
330
161A
102
}
330
161A
100
AcDbXrecord
280
     1
102
RTVSPost2010Prop28
280
     0
102
RTVSPost2010PropOp28
 70
     1
102
RTVSPost2010Prop29
280
     1
102
RTVSPost2010PropOp29
 70
     1
102
RTVSPost2010Prop30
280
     1
102
RTVSPost2010PropOp30
 70
     1
102
RTVSPost2010Prop31
280
     0
102
RTVSPost2010PropOp31
 70
     1
102
RTVSPost2010Prop32
280
     0
102
RTVSPost2010PropOp32
 70
     1
102
RTVSPost2010Prop33
280
     0
102
RTVSPost2010PropOp33
 70
     1
102
RTVSPost2010Prop34
280
     0
102
RTVSPost2010PropOp34
 70
     1
102
RTVSPost2010Prop35
280
     0
102
RTVSPost2010PropOp35
 70
     1
102
RTVSPost2010Prop36
280
     0
102
RTVSPost2010PropOp36
 70
     1
102
RTVSPost2010Prop37
 90
       50
102
RTVSPost2010PropOp37
 70
     1
102
RTVSPost2010Prop38
140
0.0
102
RTVSPost2010PropOp38
 70
     1
102
RTVSPost2010Prop39
140
1.0
102
RTVSPost2010PropOp39
 70
     1
102
RTVSPost2010Prop40
 90
        0
102
RTVSPost2010PropOp40
 70
     1
102
RTVSPost2010Prop41ColorIndex
 90
       18
102
RTVSPost2010Prop41ColorRGB
 90
        0
102
RTVSPost2010PropOp41
 70
     1
102
RTVSPost2010Prop42
 90
       50
102
RTVSPost2010PropOp42
 70
     1
102
RTVSPost2010Prop43
 90
        3
102
RTVSPost2010PropOp43
 70
     1
102
RTVSPost2010Prop44ColorIndex
 90
        5
102
RTVSPost2010Prop44ColorRGB
 90
      255
102
RTVSPost2010PropOp44
 70
     1
102
RTVSPost2010Prop45
280
     0
102
RTVSPost2010PropOp45
 70
     1
102
RTVSPost2010Prop46
 90
       50
102
RTVSPost2010PropOp46
 70
     1
102
RTVSPost2010Prop47
 90
       50
102
RTVSPost2010PropOp47
 70
     1
102
RTVSPost2010Prop48
 90
       50
102
RTVSPost2010PropOp48
 70
     1
102
RTVSPost2010Prop49
280
     0
102
RTVSPost2010PropOp49
 70
     1
102
RTVSPost2010Prop50
 90
       50
102
RTVSPost2010PropOp50
 70
     1
102
RTVSPost2010Prop51ColorIndex
 90
      256
102
RTVSPost2010Prop51ColorRGB
 90
-16777216
102
RTVSPost2010PropOp51
 70
     0
102
RTVSPost2010Prop52
140
1.0
102
RTVSPost2010PropOp52
 70
     0
102
RTVSPost2010Prop53
 90
        2
102
RTVSPost2010PropOp53
 70
     1
102
RTVSPost2010Prop54
  1
strokes_ogs.tif
102
RTVSPost2010PropOp54
 70
     1
102
RTVSPost2010Prop55
280
     0
102
RTVSPost2010PropOp55
 70
     1
102
RTVSPost2010Prop56
140
1.0
102
RTVSPost2010PropOp56
 70
     1
102
RTVSPost2010Prop57
140
1.0
102
RTVSPost2010PropOp57
 70
     1
102
RTVSPropertyOp0
 70
     1
102
RTVSPropertyOp1
 70
     1
102
RTVSPropertyOp2
 70
     1
102
RTVSPropertyOp3
 70
     1
102
RTVSPropertyOp4
 70
     1
102
RTVSPropertyOp5
 70
     1
102
RTVSPropertyOp6
 70
     1
102
RTVSPropertyOp7
 70
     1
102
RTVSPropertyOp8
 70
     1
102
RTVSPropertyOp9
 70
     1
102
RTVSPropertyOp10
 70
     1
102
RTVSPropertyOp11
 70
     1
102
RTVSPropertyOp12
 70
     1
102
RTVSPropertyOp13
 70
     1
102
RTVSPropertyOp14
 70
     1
102
RTVSPropertyOp15
 70
     1
102
RTVSPropertyOp16
 70
     1
102
RTVSPropertyOp17
 70
     1
102
RTVSPropertyOp18
 70
     1
102
RTVSPropertyOp19
 70
     1
102
RTVSPropertyOp20
 70
     1
102
RTVSPropertyOp21
 70
     1
102
RTVSPropertyOp22
 70
     1
102
RTVSPropertyOp23
 70
     1
102
RTVSPropertyOp24
 70
     1
102
RTVSPropertyOp25
 70
     1
102
RTVSPropertyOp26
 70
     1
102
RTVSPropertyOp27
 70
     1
102
RTVSPropertyOp28
 70
     1
102
RTVSPropertyOp29
 70
     1
102
RTVSPropertyOp30
 70
     1
102
RTVSPropertyOp31
 70
     1
102
RTVSPropertyOp32
 70
     1
102
RTVSPropertyOp33
 70
     1
102
RTVSPropertyOp34
 70
     1
102
RTVSPropertyOp35
 70
     1
102
RTVSPropertyOp36
 70
     1
102
RTVSPropertyOp37
 70
     1
102
RTVSPropertyOp38
 70
     1
102
RTVSPropertyOp39
 70
     1
102
RTVSPropertyOp40
 70
     1
102
RTVSPropertyOp41
 70
     1
102
RTVSPropertyOp42
 70
     1
102
RTVSPropertyOp43
 70
     1
102
RTVSPropertyOp44
 70
     1
102
RTVSPropertyOp45
 70
     1
102
RTVSPropertyOp46
 70
     1
102
RTVSPropertyOp47
 70
     1
102
RTVSPropertyOp48
 70
     1
102
RTVSPropertyOp49
 70
     1
102
RTVSPropertyOp50
 70
     1
102
RTVSPropertyOp51
 70
     0
102
RTVSPropertyOp52
 70
     0
102
RTVSPropertyOp53
 70
     1
102
RTVSPropertyOp54
 70
     1
102
RTVSPropertyOp55
 70
     1
102
RTVSPropertyOp56
 70
     1
102
RTVSPropertyOp57
 70
     1
102
RTVSPropertyOp58
 70
     1
102
RTVSPropertyOp59
 70
     1
102
RTVSPropertyOp60
 70
     1
102
RTVSPropertyOp61
 70
     1
102
RTVSPropertyOp62
 70
     1
  0
XRECORD
  5
162D
102
{ACAD_REACTORS
330
162C
102
}
330
162C
100
AcDbXrecord
280
     1
102
RTVSPost2010Prop28
280
     0
102
RTVSPost2010PropOp28
 70
     1
102
RTVSPost2010Prop29
280
     1
102
RTVSPost2010PropOp29
 70
     1
102
RTVSPost2010Prop30
280
     1
102
RTVSPost2010PropOp30
 70
     1
102
RTVSPost2010Prop31
280
     0
102
RTVSPost2010PropOp31
 70
     1
102
RTVSPost2010Prop32
280
     0
102
RTVSPost2010PropOp32
 70
     1
102
RTVSPost2010Prop33
280
     0
102
RTVSPost2010PropOp33
 70
     1
102
RTVSPost2010Prop34
280
     0
102
RTVSPost2010PropOp34
 70
     1
102
RTVSPost2010Prop35
280
     0
102
RTVSPost2010PropOp35
 70
     1
102
RTVSPost2010Prop36
280
     0
102
RTVSPost2010PropOp36
 70
     1
102
RTVSPost2010Prop37
 90
       50
102
RTVSPost2010PropOp37
 70
     0
102
RTVSPost2010Prop38
140
0.0
102
RTVSPost2010PropOp38
 70
     0
102
RTVSPost2010Prop39
140
1.0
102
RTVSPost2010PropOp39
 70
     0
102
RTVSPost2010Prop40
 90
        0
102
RTVSPost2010PropOp40
 70
     0
102
RTVSPost2010Prop41ColorIndex
 90
       18
102
RTVSPost2010Prop41ColorRGB
 90
        0
102
RTVSPost2010PropOp41
 70
     0
102
RTVSPost2010Prop42
 90
       50
102
RTVSPost2010PropOp42
 70
     0
102
RTVSPost2010Prop43
 90
        3
102
RTVSPost2010PropOp43
 70
     0
102
RTVSPost2010Prop44ColorIndex
 90
        5
102
RTVSPost2010Prop44ColorRGB
 90
      255
102
RTVSPost2010PropOp44
 70
     0
102
RTVSPost2010Prop45
280
     0
102
RTVSPost2010PropOp45
 70
     1
102
RTVSPost2010Prop46
 90
       50
102
RTVSPost2010PropOp46
 70
     0
102
RTVSPost2010Prop47
 90
       50
102
RTVSPost2010PropOp47
 70
     0
102
RTVSPost2010Prop48
 90
       50
102
RTVSPost2010PropOp48
 70
     0
102
RTVSPost2010Prop49
280
     0
102
RTVSPost2010PropOp49
 70
     1
102
RTVSPost2010Prop50
 90
       50
102
RTVSPost2010PropOp50
 70
     0
102
RTVSPost2010Prop51ColorIndex
 90
      256
102
RTVSPost2010Prop51ColorRGB
 90
-16777216
102
RTVSPost2010PropOp51
 70
     0
102
RTVSPost2010Prop52
140
1.0
102
RTVSPost2010PropOp52
 70
     0
102
RTVSPost2010Prop53
 90
        2
102
RTVSPost2010PropOp53
 70
     0
102
RTVSPost2010Prop54
  1
strokes_ogs.tif
102
RTVSPost2010PropOp54
 70
     0
102
RTVSPost2010Prop55
280
     0
102
RTVSPost2010PropOp55
 70
     1
102
RTVSPost2010Prop56
140
1.0
102
RTVSPost2010PropOp56
 70
     0
102
RTVSPost2010Prop57
140
1.0
102
RTVSPost2010PropOp57
 70
     0
102
RTVSPropertyOp0
 70
     0
102
RTVSPropertyOp1
 70
     0
102
RTVSPropertyOp2
 70
     0
102
RTVSPropertyOp3
 70
     0
102
RTVSPropertyOp4
 70
     0
102
RTVSPropertyOp5
 70
     0
102
RTVSPropertyOp6
 70
     0
102
RTVSPropertyOp7
 70
     0
102
RTVSPropertyOp8
 70
     0
102
RTVSPropertyOp9
 70
     0
102
RTVSPropertyOp10
 70
     0
102
RTVSPropertyOp11
 70
     0
102
RTVSPropertyOp12
 70
     0
102
RTVSPropertyOp13
 70
     0
102
RTVSPropertyOp14
 70
     2
102
RTVSPropertyOp15
 70
     0
102
RTVSPropertyOp16
 70
     0
102
RTVSPropertyOp17
 70
     0
102
RTVSPropertyOp18
 70
     0
102
RTVSPropertyOp19
 70
     0
102
RTVSPropertyOp20
 70
     0
102
RTVSPropertyOp21
 70
     0
102
RTVSPropertyOp22
 70
     0
102
RTVSPropertyOp23
 70
     0
102
RTVSPropertyOp24
 70
     0
102
RTVSPropertyOp25
 70
     0
102
RTVSPropertyOp26
 70
     0
102
RTVSPropertyOp27
 70
     0
102
RTVSPropertyOp28
 70
     1
102
RTVSPropertyOp29
 70
     1
102
RTVSPropertyOp30
 70
     1
102
RTVSPropertyOp31
 70
     1
102
RTVSPropertyOp32
 70
     1
102
RTVSPropertyOp33
 70
     1
102
RTVSPropertyOp34
 70
     1
102
RTVSPropertyOp35
 70
     1
102
RTVSPropertyOp36
 70
     1
102
RTVSPropertyOp37
 70
     0
102
RTVSPropertyOp38
 70
     0
102
RTVSPropertyOp39
 70
     0
102
RTVSPropertyOp40
 70
     0
102
RTVSPropertyOp41
 70
     0
102
RTVSPropertyOp42
 70
     0
102
RTVSPropertyOp43
 70
     0
102
RTVSPropertyOp44
 70
     0
102
RTVSPropertyOp45
 70
     1
102
RTVSPropertyOp46
 70
     0
102
RTVSPropertyOp47
 70
     0
102
RTVSPropertyOp48
 70
     0
102
RTVSPropertyOp49
 70
     1
102
RTVSPropertyOp50
 70
     0
102
RTVSPropertyOp51
 70
     0
102
RTVSPropertyOp52
 70
     0
102
RTVSPropertyOp53
 70
     0
102
RTVSPropertyOp54
 70
     0
102
RTVSPropertyOp55
 70
     1
102
RTVSPropertyOp56
 70
     0
102
RTVSPropertyOp57
 70
     0
102
RTVSPropertyOp58
 70
     0
102
RTVSPropertyOp59
 70
     0
102
RTVSPropertyOp60
 70
     0
102
RTVSPropertyOp61
 70
     0
102
RTVSPropertyOp62
 70
     0
  0
XRECORD
  5
1613
102
{ACAD_REACTORS
330
1612
102
}
330
1612
100
AcDbXrecord
280
     1
102
RTVSPost2010Prop28
280
     0
102
RTVSPost2010PropOp28
 70
     1
102
RTVSPost2010Prop29
280
     1
102
RTVSPost2010PropOp29
 70
     1
102
RTVSPost2010Prop30
280
     1
102
RTVSPost2010PropOp30
 70
     1
102
RTVSPost2010Prop31
280
     0
102
RTVSPost2010PropOp31
 70
     1
102
RTVSPost2010Prop32
280
     0
102
RTVSPost2010PropOp32
 70
     1
102
RTVSPost2010Prop33
280
     0
102
RTVSPost2010PropOp33
 70
     1
102
RTVSPost2010Prop34
280
     0
102
RTVSPost2010PropOp34
 70
     1
102
RTVSPost2010Prop35
280
     0
102
RTVSPost2010PropOp35
 70
     1
102
RTVSPost2010Prop36
280
     0
102
RTVSPost2010PropOp36
 70
     1
102
RTVSPost2010Prop37
 90
       50
102
RTVSPost2010PropOp37
 70
     1
102
RTVSPost2010Prop38
140
0.0
102
RTVSPost2010PropOp38
 70
     1
102
RTVSPost2010Prop39
140
1.0
102
RTVSPost2010PropOp39
 70
     1
102
RTVSPost2010Prop40
 90
        0
102
RTVSPost2010PropOp40
 70
     1
102
RTVSPost2010Prop41ColorIndex
 90
       18
102
RTVSPost2010Prop41ColorRGB
 90
        0
102
RTVSPost2010PropOp41
 70
     1
102
RTVSPost2010Prop42
 90
       50
102
RTVSPost2010PropOp42
 70
     1
102
RTVSPost2010Prop43
 90
        3
102
RTVSPost2010PropOp43
 70
     1
102
RTVSPost2010Prop44ColorIndex
 90
        5
102
RTVSPost2010Prop44ColorRGB
 90
      255
102
RTVSPost2010PropOp44
 70
     1
102
RTVSPost2010Prop45
280
     0
102
RTVSPost2010PropOp45
 70
     1
102
RTVSPost2010Prop46
 90
       50
102
RTVSPost2010PropOp46
 70
     1
102
RTVSPost2010Prop47
 90
       50
102
RTVSPost2010PropOp47
 70
     1
102
RTVSPost2010Prop48
 90
       50
102
RTVSPost2010PropOp48
 70
     1
102
RTVSPost2010Prop49
280
     0
102
RTVSPost2010PropOp49
 70
     1
102
RTVSPost2010Prop50
 90
       50
102
RTVSPost2010PropOp50
 70
     1
102
RTVSPost2010Prop51ColorIndex
 90
      256
102
RTVSPost2010Prop51ColorRGB
 90
-16777216
102
RTVSPost2010PropOp51
 70
     0
102
RTVSPost2010Prop52
140
1.0
102
RTVSPost2010PropOp52
 70
     0
102
RTVSPost2010Prop53
 90
        2
102
RTVSPost2010PropOp53
 70
     1
102
RTVSPost2010Prop54
  1
strokes_ogs.tif
102
RTVSPost2010PropOp54
 70
     1
102
RTVSPost2010Prop55
280
     0
102
RTVSPost2010PropOp55
 70
     1
102
RTVSPost2010Prop56
140
1.0
102
RTVSPost2010PropOp56
 70
     1
102
RTVSPost2010Prop57
140
1.0
102
RTVSPost2010PropOp57
 70
     1
102
RTVSPropertyOp0
 70
     1
102
RTVSPropertyOp1
 70
     1
102
RTVSPropertyOp2
 70
     1
102
RTVSPropertyOp3
 70
     1
102
RTVSPropertyOp4
 70
     1
102
RTVSPropertyOp5
 70
     1
102
RTVSPropertyOp6
 70
     1
102
RTVSPropertyOp7
 70
     1
102
RTVSPropertyOp8
 70
     1
102
RTVSPropertyOp9
 70
     1
102
RTVSPropertyOp10
 70
     1
102
RTVSPropertyOp11
 70
     1
102
RTVSPropertyOp12
 70
     1
102
RTVSPropertyOp13
 70
     1
102
RTVSPropertyOp14
 70
     1
102
RTVSPropertyOp15
 70
     1
102
RTVSPropertyOp16
 70
     1
102
RTVSPropertyOp17
 70
     1
102
RTVSPropertyOp18
 70
     1
102
RTVSPropertyOp19
 70
     1
102
RTVSPropertyOp20
 70
     1
102
RTVSPropertyOp21
 70
     1
102
RTVSPropertyOp22
 70
     1
102
RTVSPropertyOp23
 70
     1
102
RTVSPropertyOp24
 70
     1
102
RTVSPropertyOp25
 70
     1
102
RTVSPropertyOp26
 70
     1
102
RTVSPropertyOp27
 70
     1
102
RTVSPropertyOp28
 70
     1
102
RTVSPropertyOp29
 70
     1
102
RTVSPropertyOp30
 70
     1
102
RTVSPropertyOp31
 70
     1
102
RTVSPropertyOp32
 70
     1
102
RTVSPropertyOp33
 70
     1
102
RTVSPropertyOp34
 70
     1
102
RTVSPropertyOp35
 70
     1
102
RTVSPropertyOp36
 70
     1
102
RTVSPropertyOp37
 70
     1
102
RTVSPropertyOp38
 70
     1
102
RTVSPropertyOp39
 70
     1
102
RTVSPropertyOp40
 70
     1
102
RTVSPropertyOp41
 70
     1
102
RTVSPropertyOp42
 70
     1
102
RTVSPropertyOp43
 70
     1
102
RTVSPropertyOp44
 70
     1
102
RTVSPropertyOp45
 70
     1
102
RTVSPropertyOp46
 70
     1
102
RTVSPropertyOp47
 70
     1
102
RTVSPropertyOp48
 70
     1
102
RTVSPropertyOp49
 70
     1
102
RTVSPropertyOp50
 70
     1
102
RTVSPropertyOp51
 70
     0
102
RTVSPropertyOp52
 70
     0
102
RTVSPropertyOp53
 70
     1
102
RTVSPropertyOp54
 70
     1
102
RTVSPropertyOp55
 70
     1
102
RTVSPropertyOp56
 70
     1
102
RTVSPropertyOp57
 70
     1
102
RTVSPropertyOp58
 70
     1
102
RTVSPropertyOp59
 70
     1
102
RTVSPropertyOp60
 70
     1
102
RTVSPropertyOp61
 70
     1
102
RTVSPropertyOp62
 70
     1
  0
XRECORD
  5
1629
102
{ACAD_REACTORS
330
1628
102
}
330
1628
100
AcDbXrecord
280
     1
102
RTVSPost2010Prop28
280
     0
102
RTVSPost2010PropOp28
 70
     1
102
RTVSPost2010Prop29
280
     1
102
RTVSPost2010PropOp29
 70
     1
102
RTVSPost2010Prop30
280
     1
102
RTVSPost2010PropOp30
 70
     1
102
RTVSPost2010Prop31
280
     0
102
RTVSPost2010PropOp31
 70
     1
102
RTVSPost2010Prop32
280
     0
102
RTVSPost2010PropOp32
 70
     1
102
RTVSPost2010Prop33
280
     0
102
RTVSPost2010PropOp33
 70
     1
102
RTVSPost2010Prop34
280
     0
102
RTVSPost2010PropOp34
 70
     1
102
RTVSPost2010Prop35
280
     0
102
RTVSPost2010PropOp35
 70
     1
102
RTVSPost2010Prop36
280
     0
102
RTVSPost2010PropOp36
 70
     1
102
RTVSPost2010Prop37
 90
       50
102
RTVSPost2010PropOp37
 70
     1
102
RTVSPost2010Prop38
140
0.0
102
RTVSPost2010PropOp38
 70
     1
102
RTVSPost2010Prop39
140
1.0
102
RTVSPost2010PropOp39
 70
     1
102
RTVSPost2010Prop40
 90
        0
102
RTVSPost2010PropOp40
 70
     1
102
RTVSPost2010Prop41ColorIndex
 90
       18
102
RTVSPost2010Prop41ColorRGB
 90
        0
102
RTVSPost2010PropOp41
 70
     1
102
RTVSPost2010Prop42
 90
       50
102
RTVSPost2010PropOp42
 70
     1
102
RTVSPost2010Prop43
 90
        3
102
RTVSPost2010PropOp43
 70
     1
102
RTVSPost2010Prop44ColorIndex
 90
        5
102
RTVSPost2010Prop44ColorRGB
 90
      255
102
RTVSPost2010PropOp44
 70
     1
102
RTVSPost2010Prop45
280
     0
102
RTVSPost2010PropOp45
 70
     1
102
RTVSPost2010Prop46
 90
       50
102
RTVSPost2010PropOp46
 70
     1
102
RTVSPost2010Prop47
 90
       50
102
RTVSPost2010PropOp47
 70
     1
102
RTVSPost2010Prop48
 90
       50
102
RTVSPost2010PropOp48
 70
     1
102
RTVSPost2010Prop49
280
     0
102
RTVSPost2010PropOp49
 70
     1
102
RTVSPost2010Prop50
 90
       50
102
RTVSPost2010PropOp50
 70
     1
102
RTVSPost2010Prop51ColorIndex
 90
      256
102
RTVSPost2010Prop51ColorRGB
 90
-16777216
102
RTVSPost2010PropOp51
 70
     0
102
RTVSPost2010Prop52
140
1.0
102
RTVSPost2010PropOp52
 70
     0
102
RTVSPost2010Prop53
 90
        2
102
RTVSPost2010PropOp53
 70
     1
102
RTVSPost2010Prop54
  1
strokes_ogs.tif
102
RTVSPost2010PropOp54
 70
     1
102
RTVSPost2010Prop55
280
     0
102
RTVSPost2010PropOp55
 70
     1
102
RTVSPost2010Prop56
140
1.0
102
RTVSPost2010PropOp56
 70
     1
102
RTVSPost2010Prop57
140
1.0
102
RTVSPost2010PropOp57
 70
     1
102
RTVSPropertyOp0
 70
     1
102
RTVSPropertyOp1
 70
     1
102
RTVSPropertyOp2
 70
     1
102
RTVSPropertyOp3
 70
     1
102
RTVSPropertyOp4
 70
     1
102
RTVSPropertyOp5
 70
     1
102
RTVSPropertyOp6
 70
     1
102
RTVSPropertyOp7
 70
     1
102
RTVSPropertyOp8
 70
     1
102
RTVSPropertyOp9
 70
     1
102
RTVSPropertyOp10
 70
     1
102
RTVSPropertyOp11
 70
     1
102
RTVSPropertyOp12
 70
     1
102
RTVSPropertyOp13
 70
     1
102
RTVSPropertyOp14
 70
     1
102
RTVSPropertyOp15
 70
     1
102
RTVSPropertyOp16
 70
     1
102
RTVSPropertyOp17
 70
     1
102
RTVSPropertyOp18
 70
     1
102
RTVSPropertyOp19
 70
     1
102
RTVSPropertyOp20
 70
     1
102
RTVSPropertyOp21
 70
     1
102
RTVSPropertyOp22
 70
     1
102
RTVSPropertyOp23
 70
     1
102
RTVSPropertyOp24
 70
     1
102
RTVSPropertyOp25
 70
     1
102
RTVSPropertyOp26
 70
     1
102
RTVSPropertyOp27
 70
     1
102
RTVSPropertyOp28
 70
     1
102
RTVSPropertyOp29
 70
     1
102
RTVSPropertyOp30
 70
     1
102
RTVSPropertyOp31
 70
     1
102
RTVSPropertyOp32
 70
     1
102
RTVSPropertyOp33
 70
     1
102
RTVSPropertyOp34
 70
     1
102
RTVSPropertyOp35
 70
     1
102
RTVSPropertyOp36
 70
     1
102
RTVSPropertyOp37
 70
     1
102
RTVSPropertyOp38
 70
     1
102
RTVSPropertyOp39
 70
     1
102
RTVSPropertyOp40
 70
     1
102
RTVSPropertyOp41
 70
     1
102
RTVSPropertyOp42
 70
     1
102
RTVSPropertyOp43
 70
     1
102
RTVSPropertyOp44
 70
     1
102
RTVSPropertyOp45
 70
     1
102
RTVSPropertyOp46
 70
     1
102
RTVSPropertyOp47
 70
     1
102
RTVSPropertyOp48
 70
     1
102
RTVSPropertyOp49
 70
     1
102
RTVSPropertyOp50
 70
     1
102
RTVSPropertyOp51
 70
     0
102
RTVSPropertyOp52
 70
     0
102
RTVSPropertyOp53
 70
     1
102
RTVSPropertyOp54
 70
     1
102
RTVSPropertyOp55
 70
     1
102
RTVSPropertyOp56
 70
     1
102
RTVSPropertyOp57
 70
     1
102
RTVSPropertyOp58
 70
     1
102
RTVSPropertyOp59
 70
     1
102
RTVSPropertyOp60
 70
     1
102
RTVSPropertyOp61
 70
     1
102
RTVSPropertyOp62
 70
     1
  0
XRECORD
  5
1627
102
{ACAD_REACTORS
330
1626
102
}
330
1626
100
AcDbXrecord
280
     1
102
RTVSPost2010Prop28
280
     0
102
RTVSPost2010PropOp28
 70
     1
102
RTVSPost2010Prop29
280
     1
102
RTVSPost2010PropOp29
 70
     1
102
RTVSPost2010Prop30
280
     1
102
RTVSPost2010PropOp30
 70
     1
102
RTVSPost2010Prop31
280
     0
102
RTVSPost2010PropOp31
 70
     1
102
RTVSPost2010Prop32
280
     0
102
RTVSPost2010PropOp32
 70
     1
102
RTVSPost2010Prop33
280
     0
102
RTVSPost2010PropOp33
 70
     1
102
RTVSPost2010Prop34
280
     0
102
RTVSPost2010PropOp34
 70
     1
102
RTVSPost2010Prop35
280
     0
102
RTVSPost2010PropOp35
 70
     1
102
RTVSPost2010Prop36
280
     0
102
RTVSPost2010PropOp36
 70
     1
102
RTVSPost2010Prop37
 90
       50
102
RTVSPost2010PropOp37
 70
     1
102
RTVSPost2010Prop38
140
0.0
102
RTVSPost2010PropOp38
 70
     1
102
RTVSPost2010Prop39
140
1.0
102
RTVSPost2010PropOp39
 70
     1
102
RTVSPost2010Prop40
 90
        0
102
RTVSPost2010PropOp40
 70
     1
102
RTVSPost2010Prop41ColorIndex
 90
       18
102
RTVSPost2010Prop41ColorRGB
 90
        0
102
RTVSPost2010PropOp41
 70
     1
102
RTVSPost2010Prop42
 90
       50
102
RTVSPost2010PropOp42
 70
     1
102
RTVSPost2010Prop43
 90
        3
102
RTVSPost2010PropOp43
 70
     1
102
RTVSPost2010Prop44ColorIndex
 90
        5
102
RTVSPost2010Prop44ColorRGB
 90
      255
102
RTVSPost2010PropOp44
 70
     1
102
RTVSPost2010Prop45
280
     0
102
RTVSPost2010PropOp45
 70
     1
102
RTVSPost2010Prop46
 90
       50
102
RTVSPost2010PropOp46
 70
     1
102
RTVSPost2010Prop47
 90
       50
102
RTVSPost2010PropOp47
 70
     1
102
RTVSPost2010Prop48
 90
       50
102
RTVSPost2010PropOp48
 70
     1
102
RTVSPost2010Prop49
280
     0
102
RTVSPost2010PropOp49
 70
     1
102
RTVSPost2010Prop50
 90
       50
102
RTVSPost2010PropOp50
 70
     1
102
RTVSPost2010Prop51ColorIndex
 90
      256
102
RTVSPost2010Prop51ColorRGB
 90
-16777216
102
RTVSPost2010PropOp51
 70
     0
102
RTVSPost2010Prop52
140
1.0
102
RTVSPost2010PropOp52
 70
     0
102
RTVSPost2010Prop53
 90
        2
102
RTVSPost2010PropOp53
 70
     1
102
RTVSPost2010Prop54
  1
strokes_ogs.tif
102
RTVSPost2010PropOp54
 70
     1
102
RTVSPost2010Prop55
280
     0
102
RTVSPost2010PropOp55
 70
     1
102
RTVSPost2010Prop56
140
1.0
102
RTVSPost2010PropOp56
 70
     1
102
RTVSPost2010Prop57
140
1.0
102
RTVSPost2010PropOp57
 70
     1
102
RTVSPropertyOp0
 70
     1
102
RTVSPropertyOp1
 70
     1
102
RTVSPropertyOp2
 70
     1
102
RTVSPropertyOp3
 70
     1
102
RTVSPropertyOp4
 70
     1
102
RTVSPropertyOp5
 70
     1
102
RTVSPropertyOp6
 70
     1
102
RTVSPropertyOp7
 70
     1
102
RTVSPropertyOp8
 70
     1
102
RTVSPropertyOp9
 70
     1
102
RTVSPropertyOp10
 70
     1
102
RTVSPropertyOp11
 70
     1
102
RTVSPropertyOp12
 70
     1
102
RTVSPropertyOp13
 70
     1
102
RTVSPropertyOp14
 70
     1
102
RTVSPropertyOp15
 70
     1
102
RTVSPropertyOp16
 70
     1
102
RTVSPropertyOp17
 70
     1
102
RTVSPropertyOp18
 70
     1
102
RTVSPropertyOp19
 70
     1
102
RTVSPropertyOp20
 70
     1
102
RTVSPropertyOp21
 70
     1
102
RTVSPropertyOp22
 70
     1
102
RTVSPropertyOp23
 70
     1
102
RTVSPropertyOp24
 70
     1
102
RTVSPropertyOp25
 70
     1
102
RTVSPropertyOp26
 70
     1
102
RTVSPropertyOp27
 70
     1
102
RTVSPropertyOp28
 70
     1
102
RTVSPropertyOp29
 70
     1
102
RTVSPropertyOp30
 70
     1
102
RTVSPropertyOp31
 70
     1
102
RTVSPropertyOp32
 70
     1
102
RTVSPropertyOp33
 70
     1
102
RTVSPropertyOp34
 70
     1
102
RTVSPropertyOp35
 70
     1
102
RTVSPropertyOp36
 70
     1
102
RTVSPropertyOp37
 70
     1
102
RTVSPropertyOp38
 70
     1
102
RTVSPropertyOp39
 70
     1
102
RTVSPropertyOp40
 70
     1
102
RTVSPropertyOp41
 70
     1
102
RTVSPropertyOp42
 70
     1
102
RTVSPropertyOp43
 70
     1
102
RTVSPropertyOp44
 70
     1
102
RTVSPropertyOp45
 70
     1
102
RTVSPropertyOp46
 70
     1
102
RTVSPropertyOp47
 70
     1
102
RTVSPropertyOp48
 70
     1
102
RTVSPropertyOp49
 70
     1
102
RTVSPropertyOp50
 70
     1
102
RTVSPropertyOp51
 70
     0
102
RTVSPropertyOp52
 70
     0
102
RTVSPropertyOp53
 70
     1
102
RTVSPropertyOp54
 70
     1
102
RTVSPropertyOp55
 70
     1
102
RTVSPropertyOp56
 70
     1
102
RTVSPropertyOp57
 70
     1
102
RTVSPropertyOp58
 70
     1
102
RTVSPropertyOp59
 70
     1
102
RTVSPropertyOp60
 70
     1
102
RTVSPropertyOp61
 70
     1
102
RTVSPropertyOp62
 70
     1
  0
XRECORD
  5
1621
102
{ACAD_REACTORS
330
1620
102
}
330
1620
100
AcDbXrecord
280
     1
102
RTVSPost2010Prop28
280
     0
102
RTVSPost2010PropOp28
 70
     1
102
RTVSPost2010Prop29
280
     1
102
RTVSPost2010PropOp29
 70
     1
102
RTVSPost2010Prop30
280
     1
102
RTVSPost2010PropOp30
 70
     1
102
RTVSPost2010Prop31
280
     0
102
RTVSPost2010PropOp31
 70
     1
102
RTVSPost2010Prop32
280
     0
102
RTVSPost2010PropOp32
 70
     1
102
RTVSPost2010Prop33
280
     0
102
RTVSPost2010PropOp33
 70
     1
102
RTVSPost2010Prop34
280
     0
102
RTVSPost2010PropOp34
 70
     1
102
RTVSPost2010Prop35
280
     0
102
RTVSPost2010PropOp35
 70
     1
102
RTVSPost2010Prop36
280
     0
102
RTVSPost2010PropOp36
 70
     1
102
RTVSPost2010Prop37
 90
       50
102
RTVSPost2010PropOp37
 70
     1
102
RTVSPost2010Prop38
140
0.0
102
RTVSPost2010PropOp38
 70
     1
102
RTVSPost2010Prop39
140
1.0
102
RTVSPost2010PropOp39
 70
     1
102
RTVSPost2010Prop40
 90
        0
102
RTVSPost2010PropOp40
 70
     1
102
RTVSPost2010Prop41ColorIndex
 90
       18
102
RTVSPost2010Prop41ColorRGB
 90
        0
102
RTVSPost2010PropOp41
 70
     1
102
RTVSPost2010Prop42
 90
       50
102
RTVSPost2010PropOp42
 70
     1
102
RTVSPost2010Prop43
 90
        3
102
RTVSPost2010PropOp43
 70
     1
102
RTVSPost2010Prop44ColorIndex
 90
        5
102
RTVSPost2010Prop44ColorRGB
 90
      255
102
RTVSPost2010PropOp44
 70
     1
102
RTVSPost2010Prop45
280
     0
102
RTVSPost2010PropOp45
 70
     1
102
RTVSPost2010Prop46
 90
       50
102
RTVSPost2010PropOp46
 70
     1
102
RTVSPost2010Prop47
 90
       50
102
RTVSPost2010PropOp47
 70
     1
102
RTVSPost2010Prop48
 90
       50
102
RTVSPost2010PropOp48
 70
     1
102
RTVSPost2010Prop49
280
     0
102
RTVSPost2010PropOp49
 70
     1
102
RTVSPost2010Prop50
 90
       50
102
RTVSPost2010PropOp50
 70
     1
102
RTVSPost2010Prop51ColorIndex
 90
      256
102
RTVSPost2010Prop51ColorRGB
 90
-16777216
102
RTVSPost2010PropOp51
 70
     0
102
RTVSPost2010Prop52
140
1.0
102
RTVSPost2010PropOp52
 70
     0
102
RTVSPost2010Prop53
 90
        2
102
RTVSPost2010PropOp53
 70
     1
102
RTVSPost2010Prop54
  1
strokes_ogs.tif
102
RTVSPost2010PropOp54
 70
     1
102
RTVSPost2010Prop55
280
     0
102
RTVSPost2010PropOp55
 70
     1
102
RTVSPost2010Prop56
140
1.0
102
RTVSPost2010PropOp56
 70
     1
102
RTVSPost2010Prop57
140
1.0
102
RTVSPost2010PropOp57
 70
     1
102
RTVSPropertyOp0
 70
     1
102
RTVSPropertyOp1
 70
     1
102
RTVSPropertyOp2
 70
     1
102
RTVSPropertyOp3
 70
     1
102
RTVSPropertyOp4
 70
     1
102
RTVSPropertyOp5
 70
     1
102
RTVSPropertyOp6
 70
     1
102
RTVSPropertyOp7
 70
     1
102
RTVSPropertyOp8
 70
     1
102
RTVSPropertyOp9
 70
     1
102
RTVSPropertyOp10
 70
     1
102
RTVSPropertyOp11
 70
     1
102
RTVSPropertyOp12
 70
     1
102
RTVSPropertyOp13
 70
     1
102
RTVSPropertyOp14
 70
     1
102
RTVSPropertyOp15
 70
     1
102
RTVSPropertyOp16
 70
     1
102
RTVSPropertyOp17
 70
     1
102
RTVSPropertyOp18
 70
     1
102
RTVSPropertyOp19
 70
     1
102
RTVSPropertyOp20
 70
     1
102
RTVSPropertyOp21
 70
     1
102
RTVSPropertyOp22
 70
     1
102
RTVSPropertyOp23
 70
     1
102
RTVSPropertyOp24
 70
     1
102
RTVSPropertyOp25
 70
     1
102
RTVSPropertyOp26
 70
     1
102
RTVSPropertyOp27
 70
     1
102
RTVSPropertyOp28
 70
     1
102
RTVSPropertyOp29
 70
     1
102
RTVSPropertyOp30
 70
     1
102
RTVSPropertyOp31
 70
     1
102
RTVSPropertyOp32
 70
     1
102
RTVSPropertyOp33
 70
     1
102
RTVSPropertyOp34
 70
     1
102
RTVSPropertyOp35
 70
     1
102
RTVSPropertyOp36
 70
     1
102
RTVSPropertyOp37
 70
     1
102
RTVSPropertyOp38
 70
     1
102
RTVSPropertyOp39
 70
     1
102
RTVSPropertyOp40
 70
     1
102
RTVSPropertyOp41
 70
     1
102
RTVSPropertyOp42
 70
     1
102
RTVSPropertyOp43
 70
     1
102
RTVSPropertyOp44
 70
     1
102
RTVSPropertyOp45
 70
     1
102
RTVSPropertyOp46
 70
     1
102
RTVSPropertyOp47
 70
     1
102
RTVSPropertyOp48
 70
     1
102
RTVSPropertyOp49
 70
     1
102
RTVSPropertyOp50
 70
     1
102
RTVSPropertyOp51
 70
     0
102
RTVSPropertyOp52
 70
     0
102
RTVSPropertyOp53
 70
     1
102
RTVSPropertyOp54
 70
     1
102
RTVSPropertyOp55
 70
     1
102
RTVSPropertyOp56
 70
     1
102
RTVSPropertyOp57
 70
     1
102
RTVSPropertyOp58
 70
     1
102
RTVSPropertyOp59
 70
     1
102
RTVSPropertyOp60
 70
     1
102
RTVSPropertyOp61
 70
     1
102
RTVSPropertyOp62
 70
     1
  0
XRECORD
  5
1623
102
{ACAD_REACTORS
330
1622
102
}
330
1622
100
AcDbXrecord
280
     1
102
RTVSPost2010Prop28
280
     0
102
RTVSPost2010PropOp28
 70
     1
102
RTVSPost2010Prop29
280
     1
102
RTVSPost2010PropOp29
 70
     1
102
RTVSPost2010Prop30
280
     1
102
RTVSPost2010PropOp30
 70
     1
102
RTVSPost2010Prop31
280
     0
102
RTVSPost2010PropOp31
 70
     1
102
RTVSPost2010Prop32
280
     0
102
RTVSPost2010PropOp32
 70
     1
102
RTVSPost2010Prop33
280
     0
102
RTVSPost2010PropOp33
 70
     1
102
RTVSPost2010Prop34
280
     0
102
RTVSPost2010PropOp34
 70
     1
102
RTVSPost2010Prop35
280
     0
102
RTVSPost2010PropOp35
 70
     1
102
RTVSPost2010Prop36
280
     0
102
RTVSPost2010PropOp36
 70
     1
102
RTVSPost2010Prop37
 90
       50
102
RTVSPost2010PropOp37
 70
     1
102
RTVSPost2010Prop38
140
0.0
102
RTVSPost2010PropOp38
 70
     1
102
RTVSPost2010Prop39
140
1.0
102
RTVSPost2010PropOp39
 70
     1
102
RTVSPost2010Prop40
 90
        0
102
RTVSPost2010PropOp40
 70
     1
102
RTVSPost2010Prop41ColorIndex
 90
       18
102
RTVSPost2010Prop41ColorRGB
 90
        0
102
RTVSPost2010PropOp41
 70
     1
102
RTVSPost2010Prop42
 90
       50
102
RTVSPost2010PropOp42
 70
     1
102
RTVSPost2010Prop43
 90
        3
102
RTVSPost2010PropOp43
 70
     1
102
RTVSPost2010Prop44ColorIndex
 90
        5
102
RTVSPost2010Prop44ColorRGB
 90
      255
102
RTVSPost2010PropOp44
 70
     1
102
RTVSPost2010Prop45
280
     0
102
RTVSPost2010PropOp45
 70
     1
102
RTVSPost2010Prop46
 90
       50
102
RTVSPost2010PropOp46
 70
     1
102
RTVSPost2010Prop47
 90
       50
102
RTVSPost2010PropOp47
 70
     1
102
RTVSPost2010Prop48
 90
       50
102
RTVSPost2010PropOp48
 70
     1
102
RTVSPost2010Prop49
280
     0
102
RTVSPost2010PropOp49
 70
     1
102
RTVSPost2010Prop50
 90
       50
102
RTVSPost2010PropOp50
 70
     1
102
RTVSPost2010Prop51ColorIndex
 90
      256
102
RTVSPost2010Prop51ColorRGB
 90
-16777216
102
RTVSPost2010PropOp51
 70
     0
102
RTVSPost2010Prop52
140
1.0
102
RTVSPost2010PropOp52
 70
     0
102
RTVSPost2010Prop53
 90
        2
102
RTVSPost2010PropOp53
 70
     1
102
RTVSPost2010Prop54
  1
strokes_ogs.tif
102
RTVSPost2010PropOp54
 70
     1
102
RTVSPost2010Prop55
280
     0
102
RTVSPost2010PropOp55
 70
     1
102
RTVSPost2010Prop56
140
1.0
102
RTVSPost2010PropOp56
 70
     1
102
RTVSPost2010Prop57
140
1.0
102
RTVSPost2010PropOp57
 70
     1
102
RTVSPropertyOp0
 70
     1
102
RTVSPropertyOp1
 70
     1
102
RTVSPropertyOp2
 70
     1
102
RTVSPropertyOp3
 70
     1
102
RTVSPropertyOp4
 70
     1
102
RTVSPropertyOp5
 70
     1
102
RTVSPropertyOp6
 70
     1
102
RTVSPropertyOp7
 70
     1
102
RTVSPropertyOp8
 70
     1
102
RTVSPropertyOp9
 70
     1
102
RTVSPropertyOp10
 70
     1
102
RTVSPropertyOp11
 70
     1
102
RTVSPropertyOp12
 70
     1
102
RTVSPropertyOp13
 70
     1
102
RTVSPropertyOp14
 70
     1
102
RTVSPropertyOp15
 70
     1
102
RTVSPropertyOp16
 70
     1
102
RTVSPropertyOp17
 70
     1
102
RTVSPropertyOp18
 70
     1
102
RTVSPropertyOp19
 70
     1
102
RTVSPropertyOp20
 70
     1
102
RTVSPropertyOp21
 70
     1
102
RTVSPropertyOp22
 70
     1
102
RTVSPropertyOp23
 70
     1
102
RTVSPropertyOp24
 70
     1
102
RTVSPropertyOp25
 70
     1
102
RTVSPropertyOp26
 70
     1
102
RTVSPropertyOp27
 70
     1
102
RTVSPropertyOp28
 70
     1
102
RTVSPropertyOp29
 70
     1
102
RTVSPropertyOp30
 70
     1
102
RTVSPropertyOp31
 70
     1
102
RTVSPropertyOp32
 70
     1
102
RTVSPropertyOp33
 70
     1
102
RTVSPropertyOp34
 70
     1
102
RTVSPropertyOp35
 70
     1
102
RTVSPropertyOp36
 70
     1
102
RTVSPropertyOp37
 70
     1
102
RTVSPropertyOp38
 70
     1
102
RTVSPropertyOp39
 70
     1
102
RTVSPropertyOp40
 70
     1
102
RTVSPropertyOp41
 70
     1
102
RTVSPropertyOp42
 70
     1
102
RTVSPropertyOp43
 70
     1
102
RTVSPropertyOp44
 70
     1
102
RTVSPropertyOp45
 70
     1
102
RTVSPropertyOp46
 70
     1
102
RTVSPropertyOp47
 70
     1
102
RTVSPropertyOp48
 70
     1
102
RTVSPropertyOp49
 70
     1
102
RTVSPropertyOp50
 70
     1
102
RTVSPropertyOp51
 70
     0
102
RTVSPropertyOp52
 70
     0
102
RTVSPropertyOp53
 70
     1
102
RTVSPropertyOp54
 70
     1
102
RTVSPropertyOp55
 70
     1
102
RTVSPropertyOp56
 70
     1
102
RTVSPropertyOp57
 70
     1
102
RTVSPropertyOp58
 70
     1
102
RTVSPropertyOp59
 70
     1
102
RTVSPropertyOp60
 70
     1
102
RTVSPropertyOp61
 70
     1
102
RTVSPropertyOp62
 70
     1
  0
XRECORD
  5
1619
102
{ACAD_REACTORS
330
1618
102
}
330
1618
100
AcDbXrecord
280
     1
102
RTVSPost2010Prop28
280
     0
102
RTVSPost2010PropOp28
 70
     1
102
RTVSPost2010Prop29
280
     1
102
RTVSPost2010PropOp29
 70
     1
102
RTVSPost2010Prop30
280
     1
102
RTVSPost2010PropOp30
 70
     1
102
RTVSPost2010Prop31
280
     0
102
RTVSPost2010PropOp31
 70
     1
102
RTVSPost2010Prop32
280
     0
102
RTVSPost2010PropOp32
 70
     1
102
RTVSPost2010Prop33
280
     0
102
RTVSPost2010PropOp33
 70
     1
102
RTVSPost2010Prop34
280
     0
102
RTVSPost2010PropOp34
 70
     1
102
RTVSPost2010Prop35
280
     0
102
RTVSPost2010PropOp35
 70
     1
102
RTVSPost2010Prop36
280
     0
102
RTVSPost2010PropOp36
 70
     1
102
RTVSPost2010Prop37
 90
       50
102
RTVSPost2010PropOp37
 70
     1
102
RTVSPost2010Prop38
140
0.0
102
RTVSPost2010PropOp38
 70
     1
102
RTVSPost2010Prop39
140
1.0
102
RTVSPost2010PropOp39
 70
     1
102
RTVSPost2010Prop40
 90
        0
102
RTVSPost2010PropOp40
 70
     1
102
RTVSPost2010Prop41ColorIndex
 90
       18
102
RTVSPost2010Prop41ColorRGB
 90
        0
102
RTVSPost2010PropOp41
 70
     1
102
RTVSPost2010Prop42
 90
       50
102
RTVSPost2010PropOp42
 70
     1
102
RTVSPost2010Prop43
 90
        3
102
RTVSPost2010PropOp43
 70
     1
102
RTVSPost2010Prop44ColorIndex
 90
        5
102
RTVSPost2010Prop44ColorRGB
 90
      255
102
RTVSPost2010PropOp44
 70
     1
102
RTVSPost2010Prop45
280
     0
102
RTVSPost2010PropOp45
 70
     1
102
RTVSPost2010Prop46
 90
       50
102
RTVSPost2010PropOp46
 70
     1
102
RTVSPost2010Prop47
 90
       50
102
RTVSPost2010PropOp47
 70
     1
102
RTVSPost2010Prop48
 90
       50
102
RTVSPost2010PropOp48
 70
     1
102
RTVSPost2010Prop49
280
     0
102
RTVSPost2010PropOp49
 70
     1
102
RTVSPost2010Prop50
 90
       50
102
RTVSPost2010PropOp50
 70
     1
102
RTVSPost2010Prop51ColorIndex
 90
      256
102
RTVSPost2010Prop51ColorRGB
 90
-16777216
102
RTVSPost2010PropOp51
 70
     0
102
RTVSPost2010Prop52
140
1.0
102
RTVSPost2010PropOp52
 70
     0
102
RTVSPost2010Prop53
 90
        2
102
RTVSPost2010PropOp53
 70
     1
102
RTVSPost2010Prop54
  1
strokes_ogs.tif
102
RTVSPost2010PropOp54
 70
     1
102
RTVSPost2010Prop55
280
     0
102
RTVSPost2010PropOp55
 70
     1
102
RTVSPost2010Prop56
140
1.0
102
RTVSPost2010PropOp56
 70
     1
102
RTVSPost2010Prop57
140
1.0
102
RTVSPost2010PropOp57
 70
     1
102
RTVSPropertyOp0
 70
     1
102
RTVSPropertyOp1
 70
     1
102
RTVSPropertyOp2
 70
     1
102
RTVSPropertyOp3
 70
     1
102
RTVSPropertyOp4
 70
     1
102
RTVSPropertyOp5
 70
     1
102
RTVSPropertyOp6
 70
     1
102
RTVSPropertyOp7
 70
     1
102
RTVSPropertyOp8
 70
     1
102
RTVSPropertyOp9
 70
     1
102
RTVSPropertyOp10
 70
     1
102
RTVSPropertyOp11
 70
     1
102
RTVSPropertyOp12
 70
     1
102
RTVSPropertyOp13
 70
     1
102
RTVSPropertyOp14
 70
     1
102
RTVSPropertyOp15
 70
     1
102
RTVSPropertyOp16
 70
     1
102
RTVSPropertyOp17
 70
     1
102
RTVSPropertyOp18
 70
     1
102
RTVSPropertyOp19
 70
     1
102
RTVSPropertyOp20
 70
     1
102
RTVSPropertyOp21
 70
     1
102
RTVSPropertyOp22
 70
     1
102
RTVSPropertyOp23
 70
     1
102
RTVSPropertyOp24
 70
     1
102
RTVSPropertyOp25
 70
     1
102
RTVSPropertyOp26
 70
     1
102
RTVSPropertyOp27
 70
     1
102
RTVSPropertyOp28
 70
     1
102
RTVSPropertyOp29
 70
     1
102
RTVSPropertyOp30
 70
     1
102
RTVSPropertyOp31
 70
     1
102
RTVSPropertyOp32
 70
     1
102
RTVSPropertyOp33
 70
     1
102
RTVSPropertyOp34
 70
     1
102
RTVSPropertyOp35
 70
     1
102
RTVSPropertyOp36
 70
     1
102
RTVSPropertyOp37
 70
     1
102
RTVSPropertyOp38
 70
     1
102
RTVSPropertyOp39
 70
     1
102
RTVSPropertyOp40
 70
     1
102
RTVSPropertyOp41
 70
     1
102
RTVSPropertyOp42
 70
     1
102
RTVSPropertyOp43
 70
     1
102
RTVSPropertyOp44
 70
     1
102
RTVSPropertyOp45
 70
     1
102
RTVSPropertyOp46
 70
     1
102
RTVSPropertyOp47
 70
     1
102
RTVSPropertyOp48
 70
     1
102
RTVSPropertyOp49
 70
     1
102
RTVSPropertyOp50
 70
     1
102
RTVSPropertyOp51
 70
     0
102
RTVSPropertyOp52
 70
     0
102
RTVSPropertyOp53
 70
     1
102
RTVSPropertyOp54
 70
     1
102
RTVSPropertyOp55
 70
     1
102
RTVSPropertyOp56
 70
     1
102
RTVSPropertyOp57
 70
     1
102
RTVSPropertyOp58
 70
     1
102
RTVSPropertyOp59
 70
     1
102
RTVSPropertyOp60
 70
     1
102
RTVSPropertyOp61
 70
     1
102
RTVSPropertyOp62
 70
     1
  0
XRECORD
  5
160D
102
{ACAD_REACTORS
330
160C
102
}
330
160C
100
AcDbXrecord
280
     1
102
RTVSPost2010Prop28
280
     0
102
RTVSPost2010PropOp28
 70
     1
102
RTVSPost2010Prop29
280
     1
102
RTVSPost2010PropOp29
 70
     1
102
RTVSPost2010Prop30
280
     1
102
RTVSPost2010PropOp30
 70
     1
102
RTVSPost2010Prop31
280
     0
102
RTVSPost2010PropOp31
 70
     1
102
RTVSPost2010Prop32
280
     0
102
RTVSPost2010PropOp32
 70
     1
102
RTVSPost2010Prop33
280
     0
102
RTVSPost2010PropOp33
 70
     1
102
RTVSPost2010Prop34
280
     0
102
RTVSPost2010PropOp34
 70
     1
102
RTVSPost2010Prop35
280
     0
102
RTVSPost2010PropOp35
 70
     1
102
RTVSPost2010Prop36
280
     0
102
RTVSPost2010PropOp36
 70
     1
102
RTVSPost2010Prop37
 90
       50
102
RTVSPost2010PropOp37
 70
     1
102
RTVSPost2010Prop38
140
0.0
102
RTVSPost2010PropOp38
 70
     1
102
RTVSPost2010Prop39
140
1.0
102
RTVSPost2010PropOp39
 70
     1
102
RTVSPost2010Prop40
 90
        0
102
RTVSPost2010PropOp40
 70
     1
102
RTVSPost2010Prop41ColorIndex
 90
       18
102
RTVSPost2010Prop41ColorRGB
 90
        0
102
RTVSPost2010PropOp41
 70
     1
102
RTVSPost2010Prop42
 90
       50
102
RTVSPost2010PropOp42
 70
     1
102
RTVSPost2010Prop43
 90
        3
102
RTVSPost2010PropOp43
 70
     1
102
RTVSPost2010Prop44ColorIndex
 90
        5
102
RTVSPost2010Prop44ColorRGB
 90
      255
102
RTVSPost2010PropOp44
 70
     1
102
RTVSPost2010Prop45
280
     0
102
RTVSPost2010PropOp45
 70
     1
102
RTVSPost2010Prop46
 90
       50
102
RTVSPost2010PropOp46
 70
     1
102
RTVSPost2010Prop47
 90
       50
102
RTVSPost2010PropOp47
 70
     1
102
RTVSPost2010Prop48
 90
       50
102
RTVSPost2010PropOp48
 70
     1
102
RTVSPost2010Prop49
280
     0
102
RTVSPost2010PropOp49
 70
     1
102
RTVSPost2010Prop50
 90
       50
102
RTVSPost2010PropOp50
 70
     1
102
RTVSPost2010Prop51ColorIndex
 90
      256
102
RTVSPost2010Prop51ColorRGB
 90
-16777216
102
RTVSPost2010PropOp51
 70
     0
102
RTVSPost2010Prop52
140
1.0
102
RTVSPost2010PropOp52
 70
     0
102
RTVSPost2010Prop53
 90
        2
102
RTVSPost2010PropOp53
 70
     1
102
RTVSPost2010Prop54
  1
strokes_ogs.tif
102
RTVSPost2010PropOp54
 70
     1
102
RTVSPost2010Prop55
280
     0
102
RTVSPost2010PropOp55
 70
     1
102
RTVSPost2010Prop56
140
1.0
102
RTVSPost2010PropOp56
 70
     1
102
RTVSPost2010Prop57
140
1.0
102
RTVSPost2010PropOp57
 70
     1
102
RTVSPropertyOp0
 70
     1
102
RTVSPropertyOp1
 70
     1
102
RTVSPropertyOp2
 70
     1
102
RTVSPropertyOp3
 70
     1
102
RTVSPropertyOp4
 70
     1
102
RTVSPropertyOp5
 70
     1
102
RTVSPropertyOp6
 70
     1
102
RTVSPropertyOp7
 70
     1
102
RTVSPropertyOp8
 70
     1
102
RTVSPropertyOp9
 70
     1
102
RTVSPropertyOp10
 70
     1
102
RTVSPropertyOp11
 70
     1
102
RTVSPropertyOp12
 70
     1
102
RTVSPropertyOp13
 70
     1
102
RTVSPropertyOp14
 70
     1
102
RTVSPropertyOp15
 70
     1
102
RTVSPropertyOp16
 70
     1
102
RTVSPropertyOp17
 70
     1
102
RTVSPropertyOp18
 70
     1
102
RTVSPropertyOp19
 70
     1
102
RTVSPropertyOp20
 70
     1
102
RTVSPropertyOp21
 70
     1
102
RTVSPropertyOp22
 70
     1
102
RTVSPropertyOp23
 70
     1
102
RTVSPropertyOp24
 70
     1
102
RTVSPropertyOp25
 70
     1
102
RTVSPropertyOp26
 70
     1
102
RTVSPropertyOp27
 70
     1
102
RTVSPropertyOp28
 70
     1
102
RTVSPropertyOp29
 70
     1
102
RTVSPropertyOp30
 70
     1
102
RTVSPropertyOp31
 70
     1
102
RTVSPropertyOp32
 70
     1
102
RTVSPropertyOp33
 70
     1
102
RTVSPropertyOp34
 70
     1
102
RTVSPropertyOp35
 70
     1
102
RTVSPropertyOp36
 70
     1
102
RTVSPropertyOp37
 70
     1
102
RTVSPropertyOp38
 70
     1
102
RTVSPropertyOp39
 70
     1
102
RTVSPropertyOp40
 70
     1
102
RTVSPropertyOp41
 70
     1
102
RTVSPropertyOp42
 70
     1
102
RTVSPropertyOp43
 70
     1
102
RTVSPropertyOp44
 70
     1
102
RTVSPropertyOp45
 70
     1
102
RTVSPropertyOp46
 70
     1
102
RTVSPropertyOp47
 70
     1
102
RTVSPropertyOp48
 70
     1
102
RTVSPropertyOp49
 70
     1
102
RTVSPropertyOp50
 70
     1
102
RTVSPropertyOp51
 70
     0
102
RTVSPropertyOp52
 70
     0
102
RTVSPropertyOp53
 70
     1
102
RTVSPropertyOp54
 70
     1
102
RTVSPropertyOp55
 70
     1
102
RTVSPropertyOp56
 70
     1
102
RTVSPropertyOp57
 70
     1
102
RTVSPropertyOp58
 70
     1
102
RTVSPropertyOp59
 70
     1
102
RTVSPropertyOp60
 70
     1
102
RTVSPropertyOp61
 70
     1
102
RTVSPropertyOp62
 70
     1
  0
XRECORD
  5
1625
102
{ACAD_REACTORS
330
1624
102
}
330
1624
100
AcDbXrecord
280
     1
102
RTVSPost2010Prop28
280
     0
102
RTVSPost2010PropOp28
 70
     1
102
RTVSPost2010Prop29
280
     1
102
RTVSPost2010PropOp29
 70
     1
102
RTVSPost2010Prop30
280
     1
102
RTVSPost2010PropOp30
 70
     1
102
RTVSPost2010Prop31
280
     0
102
RTVSPost2010PropOp31
 70
     1
102
RTVSPost2010Prop32
280
     0
102
RTVSPost2010PropOp32
 70
     1
102
RTVSPost2010Prop33
280
     0
102
RTVSPost2010PropOp33
 70
     1
102
RTVSPost2010Prop34
280
     0
102
RTVSPost2010PropOp34
 70
     1
102
RTVSPost2010Prop35
280
     0
102
RTVSPost2010PropOp35
 70
     1
102
RTVSPost2010Prop36
280
     0
102
RTVSPost2010PropOp36
 70
     1
102
RTVSPost2010Prop37
 90
       50
102
RTVSPost2010PropOp37
 70
     1
102
RTVSPost2010Prop38
140
0.0
102
RTVSPost2010PropOp38
 70
     1
102
RTVSPost2010Prop39
140
1.0
102
RTVSPost2010PropOp39
 70
     1
102
RTVSPost2010Prop40
 90
        0
102
RTVSPost2010PropOp40
 70
     1
102
RTVSPost2010Prop41ColorIndex
 90
       18
102
RTVSPost2010Prop41ColorRGB
 90
        0
102
RTVSPost2010PropOp41
 70
     1
102
RTVSPost2010Prop42
 90
       50
102
RTVSPost2010PropOp42
 70
     1
102
RTVSPost2010Prop43
 90
        3
102
RTVSPost2010PropOp43
 70
     1
102
RTVSPost2010Prop44ColorIndex
 90
        5
102
RTVSPost2010Prop44ColorRGB
 90
      255
102
RTVSPost2010PropOp44
 70
     1
102
RTVSPost2010Prop45
280
     0
102
RTVSPost2010PropOp45
 70
     1
102
RTVSPost2010Prop46
 90
       50
102
RTVSPost2010PropOp46
 70
     1
102
RTVSPost2010Prop47
 90
       50
102
RTVSPost2010PropOp47
 70
     1
102
RTVSPost2010Prop48
 90
       50
102
RTVSPost2010PropOp48
 70
     1
102
RTVSPost2010Prop49
280
     0
102
RTVSPost2010PropOp49
 70
     1
102
RTVSPost2010Prop50
 90
       50
102
RTVSPost2010PropOp50
 70
     1
102
RTVSPost2010Prop51ColorIndex
 90
      256
102
RTVSPost2010Prop51ColorRGB
 90
-16777216
102
RTVSPost2010PropOp51
 70
     0
102
RTVSPost2010Prop52
140
1.0
102
RTVSPost2010PropOp52
 70
     0
102
RTVSPost2010Prop53
 90
        2
102
RTVSPost2010PropOp53
 70
     1
102
RTVSPost2010Prop54
  1
strokes_ogs.tif
102
RTVSPost2010PropOp54
 70
     1
102
RTVSPost2010Prop55
280
     0
102
RTVSPost2010PropOp55
 70
     1
102
RTVSPost2010Prop56
140
1.0
102
RTVSPost2010PropOp56
 70
     1
102
RTVSPost2010Prop57
140
1.0
102
RTVSPost2010PropOp57
 70
     1
102
RTVSPropertyOp0
 70
     1
102
RTVSPropertyOp1
 70
     1
102
RTVSPropertyOp2
 70
     1
102
RTVSPropertyOp3
 70
     1
102
RTVSPropertyOp4
 70
     1
102
RTVSPropertyOp5
 70
     1
102
RTVSPropertyOp6
 70
     1
102
RTVSPropertyOp7
 70
     1
102
RTVSPropertyOp8
 70
     1
102
RTVSPropertyOp9
 70
     1
102
RTVSPropertyOp10
 70
     1
102
RTVSPropertyOp11
 70
     1
102
RTVSPropertyOp12
 70
     1
102
RTVSPropertyOp13
 70
     1
102
RTVSPropertyOp14
 70
     1
102
RTVSPropertyOp15
 70
     1
102
RTVSPropertyOp16
 70
     1
102
RTVSPropertyOp17
 70
     1
102
RTVSPropertyOp18
 70
     1
102
RTVSPropertyOp19
 70
     1
102
RTVSPropertyOp20
 70
     1
102
RTVSPropertyOp21
 70
     1
102
RTVSPropertyOp22
 70
     1
102
RTVSPropertyOp23
 70
     1
102
RTVSPropertyOp24
 70
     1
102
RTVSPropertyOp25
 70
     1
102
RTVSPropertyOp26
 70
     1
102
RTVSPropertyOp27
 70
     1
102
RTVSPropertyOp28
 70
     1
102
RTVSPropertyOp29
 70
     1
102
RTVSPropertyOp30
 70
     1
102
RTVSPropertyOp31
 70
     1
102
RTVSPropertyOp32
 70
     1
102
RTVSPropertyOp33
 70
     1
102
RTVSPropertyOp34
 70
     1
102
RTVSPropertyOp35
 70
     1
102
RTVSPropertyOp36
 70
     1
102
RTVSPropertyOp37
 70
     1
102
RTVSPropertyOp38
 70
     1
102
RTVSPropertyOp39
 70
     1
102
RTVSPropertyOp40
 70
     1
102
RTVSPropertyOp41
 70
     1
102
RTVSPropertyOp42
 70
     1
102
RTVSPropertyOp43
 70
     1
102
RTVSPropertyOp44
 70
     1
102
RTVSPropertyOp45
 70
     1
102
RTVSPropertyOp46
 70
     1
102
RTVSPropertyOp47
 70
     1
102
RTVSPropertyOp48
 70
     1
102
RTVSPropertyOp49
 70
     1
102
RTVSPropertyOp50
 70
     1
102
RTVSPropertyOp51
 70
     0
102
RTVSPropertyOp52
 70
     0
102
RTVSPropertyOp53
 70
     1
102
RTVSPropertyOp54
 70
     1
102
RTVSPropertyOp55
 70
     1
102
RTVSPropertyOp56
 70
     1
102
RTVSPropertyOp57
 70
     1
102
RTVSPropertyOp58
 70
     1
102
RTVSPropertyOp59
 70
     1
102
RTVSPropertyOp60
 70
     1
102
RTVSPropertyOp61
 70
     1
102
RTVSPropertyOp62
 70
     1
  0
ENDSEC
  0
EOF
