  0
SECTION
  2
HEADER
  9
$ACADVER
  1
AC1014
  9
$DWGCODEPAGE
  3
ANSI_1252
  9
$EXTMAX
 10
22.0
 20
17.0
 30
0.0
  9
$EXTMIN
 10
0.0
 20
0.0
 30
0.0
  9
$LIMMIN
 10
0.0
 20
0.0
  9
$LIMMAX
 10
22.0
 20
17.0
  9
$VIEWCTR
 10
11.0
 20
8.5
  9
$VIEWSIZE
 40
17.0
  9
$CLAYER
  8
0
  9
$LTSCALE
 40
1.21
  9
$CELTYPE
  6
BYLAYER
  9
$DIMSCALE
 40
1.0
  9
$DIMASZ
 40
0.1875
  9
$DIMEXO
 40
0.1375
  9
$DIMDLI
 40
0.836
  9
$DIMEXE
 40
0.396
  9
$DIMCEN
 40
0.198
  9
$DIMLFAC
 40
1.0
  9
$DIMBLK
  1
_ARROW_FILLED
  9
$DIMTXT
 40
0.125
  9
$DIMTOL
 70
1
  9
$DIMLIM
 70
0
  9
$DIMTFAC
 40
1.0
  9
$DIMTP
 40
0.00001
  9
$DIMTM
 40
0.00001
  9
$PDMODE
 70
3
  9
$PDSIZE
 40
0.03125
  9
$HANDSEED
  5
3E9
  9
$TILEMODE
 70
1
  9
$MEASUREMENT
 70
0
  0
ENDSEC
  0
SECTION
  2
CLASSES
  0
ENDSEC
  0
SECTION
  2
TABLES
  0
TABLE
  2
VPORT
  5
8
100
AcDbSymbolTable
 70
2
  0
VPORT
  5
1F4
100
AcDbSymbolTableRecord
100
AcDbViewportTableRecord
  2
*ACTIVE
 70
0
 10
0.0
 20
0.0
 11
1.0
 21
1.0
 12
11.0
 22
8.5
 13
0.0
 23
0.0
 14
1.0
 24
1.0
 15
0.0
 25
0.0
 16
0.0
 26
0.0
 36
1.0
 17
0.0
 27
0.0
 37
0.0
 40
17.0
 41
1.2941176471
 42
50.0
 43
0.0
 44
0.0
 50
0.0
 51
0.0
 71
0
 72
100
 73
1
 74
1
 75
0
 76
0
 77
0
 78
0
  0
ENDTAB
  0
TABLE
  2
LTYPE
  5
5
100
AcDbSymbolTable
 70
6
  0
LTYPE
  5
14
100
AcDbSymbolTableRecord
100
AcDbLinetypeTableRecord
  2
BYBLOCK
 70
0
  3

 72
65
 73
0
 40
0.0
  0
LTYPE
  5
15
100
AcDbSymbolTableRecord
100
AcDbLinetypeTableRecord
  2
BYLAYER
 70
0
  3

 72
65
 73
0
 40
0.0
  0
LTYPE
  5
16
100
AcDbSymbolTableRecord
100
AcDbLinetypeTableRecord
  2
CONTINUOUS
 70
64
  3
Solid line
 72
65
 73
0
 40
0.0
  0
LTYPE
  5
1F5
100
AcDbSymbolTableRecord
100
AcDbLinetypeTableRecord
  2
CENTER
 70
64
  3
____ _ ____ _ ____ _ ____ _ ____ _ ____ _ ____
 72
65
 73
4
 40
0.6
 49
0.375
 74
0
 49
-0.075
 74
0
 49
0.075
 74
0
 49
-0.075
 74
0
  0
LTYPE
  5
1F6
100
AcDbSymbolTableRecord
100
AcDbLinetypeTableRecord
  2
HIDDEN
 70
64
  3
- - - - - - - - - - - - - - - - - - - -
 72
65
 73
2
 40
0.2
 49
0.1
 74
0
 49
-0.1
 74
0
  0
LTYPE
  5
1F7
100
AcDbSymbolTableRecord
100
AcDbLinetypeTableRecord
  2
PHANTOM
 70
64
  3
_____ _ _ _____ _ _ _____ _ _ _____
 72
65
 73
6
 40
0.8
 49
0.45
 74
0
 49
-0.05
 74
0
 49
0.1
 74
0
 49
-0.05
 74
0
 49
0.1
 74
0
 49
-0.05
 74
0
  0
LTYPE
  5
1F8
100
AcDbSymbolTableRecord
100
AcDbLinetypeTableRecord
  2
DOT
 70
64
  3
. . . . . . . . . . . . . . . . . . . .
 72
65
 73
2
 40
0.2
 49
0.1
 74
0
 49
-0.1
 74
0
  0
LTYPE
  5
1F9
100
AcDbSymbolTableRecord
100
AcDbLinetypeTableRecord
  2
DASHED
 70
64
  3
- - - - - - - - - - - - - - - - - - - -
 72
65
 73
2
 40
0.2
 49
0.1
 74
0
 49
-0.1
 74
0
  0
ENDTAB
  0
TABLE
  2
LAYER
  5
2
100
AcDbSymbolTable
 70
36
  0
LAYER
  5
10
100
AcDbSymbolTableRecord
100
AcDbLayerTableRecord
  2
0
 70
0
 62
7
  6
CONTINUOUS
  0
LAYER
  5
1FA
100
AcDbSymbolTableRecord
100
AcDbLayerTableRecord
  2
DEFAULT_1
 70
0
 62
7
  6
CENTER
  0
LAYER
  5
1FB
100
AcDbSymbolTableRecord
100
AcDbLayerTableRecord
  2
DEFAULT_2
 70
0
 62
8
  6
HIDDEN
  0
LAYER
  5
1FC
100
AcDbSymbolTableRecord
100
AcDbLayerTableRecord
  2
DEFAULT_3
 70
0
 62
7
  6
PHANTOM
  0
LAYER
  5
1FD
100
AcDbSymbolTableRecord
100
AcDbLayerTableRecord
  2
1_CURVES
 70
0
 62
7
  6
CONTINUOUS
  0
LAYER
  5
1FE
100
AcDbSymbolTableRecord
100
AcDbLayerTableRecord
  2
1_CURVES_CONDUIT
 70
0
 62
7
  6
CONTINUOUS
  0
LAYER
  5
1FF
100
AcDbSymbolTableRecord
100
AcDbLayerTableRecord
  2
1_CURVES_DRW
 70
0
 62
7
  6
CONTINUOUS
  0
LAYER
  5
200
100
AcDbSymbolTableRecord
100
AcDbLayerTableRecord
  2
1_CURVES_JETS
 70
0
 62
7
  6
CONTINUOUS
  0
LAYER
  5
201
100
AcDbSymbolTableRecord
100
AcDbLayerTableRecord
  2
1_CURVES_PATINS
 70
0
 62
7
  6
CONTINUOUS
  0
LAYER
  5
202
100
AcDbSymbolTableRecord
100
AcDbLayerTableRecord
  2
1_CURVES_RESURFACAGE
 70
0
 62
7
  6
CONTINUOUS
  0
LAYER
  5
203
100
AcDbSymbolTableRecord
100
AcDbLayerTableRecord
  2
1_CURVES_SPEC
 70
0
 62
7
  6
CONTINUOUS
  0
LAYER
  5
204
100
AcDbSymbolTableRecord
100
AcDbLayerTableRecord
  2
2_PLANES
 70
0
 62
7
  6
CONTINUOUS
  0
LAYER
  5
205
100
AcDbSymbolTableRecord
100
AcDbLayerTableRecord
  2
2_PLANES_JETS
 70
0
 62
7
  6
CONTINUOUS
  0
LAYER
  5
206
100
AcDbSymbolTableRecord
100
AcDbLayerTableRecord
  2
3_POINTS
 70
0
 62
7
  6
CONTINUOUS
  0
LAYER
  5
207
100
AcDbSymbolTableRecord
100
AcDbLayerTableRecord
  2
3_POINTS_JETS
 70
0
 62
7
  6
CONTINUOUS
  0
LAYER
  5
208
100
AcDbSymbolTableRecord
100
AcDbLayerTableRecord
  2
4_CSYS
 70
0
 62
7
  6
CONTINUOUS
  0
LAYER
  5
209
100
AcDbSymbolTableRecord
100
AcDbLayerTableRecord
  2
5_AXIS
 70
0
 62
7
  6
CONTINUOUS
  0
LAYER
  5
20A
100
AcDbSymbolTableRecord
100
AcDbLayerTableRecord
  2
5_AXIS_JETS
 70
0
 62
7
  6
CONTINUOUS
  0
LAYER
  5
20B
100
AcDbSymbolTableRecord
100
AcDbLayerTableRecord
  2
6_AIRE_CONDUIT
 70
0
 62
7
  6
CONTINUOUS
  0
LAYER
  5
20C
100
AcDbSymbolTableRecord
100
AcDbLayerTableRecord
  2
6_SURFACE-OFFSET-FIBRE-ACRYLIQU
 70
0
 62
7
  6
CONTINUOUS
  0
LAYER
  5
20D
100
AcDbSymbolTableRecord
100
AcDbLayerTableRecord
  2
6_SURFACES
 70
0
 62
7
  6
CONTINUOUS
  0
LAYER
  5
20E
100
AcDbSymbolTableRecord
100
AcDbLayerTableRecord
  2
6_SURFACES-PATINS-SPEC
 70
0
 62
7
  6
CONTINUOUS
  0
LAYER
  5
20F
100
AcDbSymbolTableRecord
100
AcDbLayerTableRecord
  2
6_SURFACES_AIRE
 70
0
 62
7
  6
CONTINUOUS
  0
LAYER
  5
210
100
AcDbSymbolTableRecord
100
AcDbLayerTableRecord
  2
6_SURFACES_OFFSET_FIBRE
 70
0
 62
7
  6
CONTINUOUS
  0
LAYER
  5
211
100
AcDbSymbolTableRecord
100
AcDbLayerTableRecord
  2
6_SURFACES_OFFSET_FIBRE_ACRYLIQ
 70
0
 62
7
  6
CONTINUOUS
  0
LAYER
  5
212
100
AcDbSymbolTableRecord
100
AcDbLayerTableRecord
  2
6_SURFACES_POUR_CONDUIT
 70
0
 62
7
  6
CONTINUOUS
  0
LAYER
  5
213
100
AcDbSymbolTableRecord
100
AcDbLayerTableRecord
  2
6_SURFACES_POUR_HFL
 70
0
 62
7
  6
CONTINUOUS
  0
LAYER
  5
214
100
AcDbSymbolTableRecord
100
AcDbLayerTableRecord
  2
6_SURFACES_TOOLING
 70
0
 62
7
  6
CONTINUOUS
  0
LAYER
  5
215
100
AcDbSymbolTableRecord
100
AcDbLayerTableRecord
  2
7_NOTES
 70
0
 62
7
  6
CONTINUOUS
  0
LAYER
  5
216
100
AcDbSymbolTableRecord
100
AcDbLayerTableRecord
  2
8_COSMETIC
 70
0
 62
7
  6
CONTINUOUS
  0
LAYER
  5
217
100
AcDbSymbolTableRecord
100
AcDbLayerTableRecord
  2
8_TOL_GEOM
 70
0
 62
7
  6
CONTINUOUS
  0
LAYER
  5
218
100
AcDbSymbolTableRecord
100
AcDbLayerTableRecord
  2
9_IMPORT
 70
0
 62
7
  6
CONTINUOUS
  0
LAYER
  5
219
100
AcDbSymbolTableRecord
100
AcDbLayerTableRecord
  2
DEGAGEMENT_SERIGRAPHIE
 70
0
 62
7
  6
CONTINUOUS
  0
LAYER
  5
21A
100
AcDbSymbolTableRecord
100
AcDbLayerTableRecord
  2
NONE
 70
0
 62
7
  6
CONTINUOUS
  0
LAYER
  5
21B
100
AcDbSymbolTableRecord
100
AcDbLayerTableRecord
  2
XSEC_DATUMS
 70
0
 62
7
  6
CONTINUOUS
  0
ENDTAB
  0
TABLE
  2
STYLE
  5
3
100
AcDbSymbolTable
 70
1
  0
STYLE
  5
11
100
AcDbSymbolTableRecord
100
AcDbTextStyleTableRecord
  2
STANDARD
 70
0
 40
0.0
 41
0.8
 50
0.0
 71
0
 42
0.2
  3
txt
  4

  0
STYLE
  5
21C
100
AcDbSymbolTableRecord
100
AcDbTextStyleTableRecord
  2
TEXTSTYLE_1
 70
0
 40
0.0
 41
0.8
 50
0.0
 71
0
 42
0.2
  3
gdt
  4

  0
ENDTAB
  0
TABLE
  2
VIEW
  5
6
100
AcDbSymbolTable
 70
0
  0
ENDTAB
  0
TABLE
  2
UCS
  5
7
100
AcDbSymbolTable
 70
0
  0
ENDTAB
  0
TABLE
  2
APPID
  5
9
100
AcDbSymbolTable
 70
1
  0
APPID
  5
21D
100
AcDbSymbolTableRecord
100
AcDbRegAppTableRecord
  2
ACAD
 70
0
  0
ENDTAB
  0
TABLE
  2
BLOCK_RECORD
  5
1
100
AcDbSymbolTable
 70
0
  0
BLOCK_RECORD
  5
1F
100
AcDbSymbolTableRecord
100
AcDbBlockTableRecord
  2
*MODEL_SPACE
  0
BLOCK_RECORD
  5
1B
100
AcDbSymbolTableRecord
100
AcDbBlockTableRecord
  2
*PAPER_SPACE
  0
ENDTAB
  0
TABLE
  2
DIMSTYLE
  5
A
100
AcDbSymbolTable
 70
1
  0
DIMSTYLE
105
21E
100
AcDbSymbolTableRecord
100
AcDbDimStyleTableRecord
  2
STANDARD
 70
0
  3

  4

  5
_ARROW_FILLED
  6
_ARROW_FILLED
  7
_ARROW_FILLED
 40
1.0
 41
0.1875
 42
0.0625
 43
0.38
 44
0.18
 45
0.0
 46
0.0
 47
0.00001
 48
0.00001
140
0.125
141
0.09
142
0.0
143
25.4
144
1.0
145
0.0
146
1.0
147
0.09
 71
1.0
 72
0.0
 73
1
 74
1
 75
0
 76
0
 77
0
 78
4
170
0
171
2
172
0
173
0
174
0
175
0
176
0
177
0
178
0
270
2
271
5
272
5
273
2
274
2
275
0
280
0
281
0
282
0
283
1
284
4
285
0
286
0
287
3
288
0
340
11
  0
ENDTAB
  0
ENDSEC
  0
SECTION
  2
BLOCKS
  0
BLOCK
  5
20
100
AcDbEntity
  8
0
100
AcDbBlockBegin
  2
*MODEL_SPACE
 70
0
 10
0.0
 20
0.0
 30
0.0
  3
*MODEL_SPACE
  1

  0
ENDBLK
  5
21
100
AcDbEntity
  8
0
100
AcDbBlockEnd
  0
BLOCK
  5
1C
100
AcDbEntity
  8
0
100
AcDbBlockBegin
  2
*PAPER_SPACE
 70
0
 10
0.0
 20
0.0
 30
0.0
  3
*PAPER_SPACE
  1

  0
ENDBLK
  5
1D
100
AcDbEntity
  8
0
100
AcDbBlockEnd
  0
ENDSEC
  0
SECTION
  2
ENTITIES
  0
LINE
  5
21F
100
AcDbEntity
  8
6_SURFACES-PATINS-SPEC
100
AcDbLine
 62
7
  6
CONTINUOUS
 10
66.4895554499
 20
12.1044984133
 11
66.5698152516
 21
12.1223164503
  0
LINE
  5
220
100
AcDbEntity
  8
6_SURFACES-PATINS-SPEC
100
AcDbLine
 62
7
  6
CONTINUOUS
 10
45.7182671929
 20
14.9838576576
 11
45.7600643677
 21
14.9954552291
  0
LINE
  5
221
100
AcDbEntity
  8
6_SURFACES-PATINS-SPEC
100
AcDbLine
 62
7
  6
CONTINUOUS
 10
44.0244519902
 20
12.1047687394
 11
44.1050535837
 21
12.1228275409
  0
LINE
  5
222
100
AcDbEntity
  8
6_SURFACES-PATINS-SPEC
100
AcDbLine
 62
7
  6
CONTINUOUS
 10
66.408341358
 20
12.0937849711
 11
66.4895554499
 21
12.1044984133
  0
LINE
  5
223
100
AcDbEntity
  8
1_CURVES_JETS
100
AcDbLine
 62
7
  6
CONTINUOUS
 10
69.0524747896
 20
13.3257072932
 11
69.4489435929
 21
13.3700592489
  0
LINE
  5
224
100
AcDbEntity
  8
DEFAULT_2
100
AcDbLine
 62
8
  6
CONTINUOUS
 10
69.0385780417
 20
13.449932413
 11
69.435046845
 21
13.4942843687
  0
LINE
  5
225
100
AcDbEntity
  8
6_SURFACES-PATINS-SPEC
100
AcDbLine
 62
7
  6
CONTINUOUS
 10
43.9425868301
 20
12.0938630796
 11
44.0244519902
 21
12.1047687394
  0
LINE
  5
226
100
AcDbEntity
  8
6_SURFACES-PATINS-SPEC
100
AcDbLine
 62
7
  6
CONTINUOUS
 10
45.75989079
 20
14.9954176816
 11
45.8025665734
 21
15.0021139219
  0
LINE
  5
227
100
AcDbEntity
  8
6_SURFACES-PATINS-SPEC
100
AcDbLine
 62
7
  6
CONTINUOUS
 10
66.3268646775
 20
12.0901946987
 11
66.408341358
 21
12.0937849711
  0
LWPOLYLINE
  5
228
100
AcDbEntity
  8
6_SURFACES-PATINS-SPEC
100
AcDbPolyline
 62
7
  6
CONTINUOUS
 90
41
 70
0
 10
67.7226006389
 20
13.4340738708
 10
67.711474303
 20
13.4335546195
 10
67.7003629989
 20
13.4327048626
 10
67.6892783105
 20
13.4315256402
 10
67.6782318217
 20
13.4300179927
 10
67.6672351166
 20
13.4281829603
 10
67.656302514
 20
13.4260224875
 10
67.6454403007
 20
13.4235382882
 10
67.6346575341
 20
13.4207327917
 10
67.6239632714
 20
13.4176084274
 10
67.6133665697
 20
13.4141676245
 10
67.6028790802
 20
13.4104140033
 10
67.592507375
 20
13.406350331
 10
67.5822606724
 20
13.4019804109
 10
67.5721481907
 20
13.3973080467
 10
67.5621791484
 20
13.392337042
 10
67.5523654292
 20
13.3870729794
 10
67.5427126762
 20
13.3815193831
 10
67.5332292859
 20
13.3756813866
 10
67.5239236547
 20
13.3695641236
 10
67.5148041792
 20
13.3631727277
 10
67.5058814336
 20
13.3565143068
 10
67.4971607156
 20
13.3495933198
 10
67.4886496028
 20
13.3424160589
 10
67.4803556726
 20
13.3349888163
 10
67.4722865027
 20
13.3273178844
 10
67.4644511538
 20
13.319411474
 10
67.4568546275
 20
13.3112752882
 10
67.4495035081
 20
13.3029168473
 10
67.4424043796
 20
13.2943436717
 10
67.4355638261
 20
13.2855632819
 10
67.4289894176
 20
13.2765849583
 10
67.4226852922
 20
13.2674148457
 10
67.4166566736
 20
13.2580607737
 10
67.4109087852
 20
13.248530572
 10
67.4054468509
 20
13.2388320704
 10
67.4002762014
 20
13.2289739707
 10
67.3954013816
 20
13.2189661219
 10
67.3908270669
 20
13.2088192325
 10
67.3865579324
 20
13.1985440109
 10
67.3825986532
 20
13.1881511657
  0
LINE
  5
229
100
AcDbEntity
  8
6_SURFACES-PATINS-SPEC
100
AcDbLine
 62
7
  6
CONTINUOUS
 10
43.8601032115
 20
12.0901946963
 11
43.9425868301
 21
12.0938630796
  0
LINE
  5
22A
100
AcDbEntity
  8
6_SURFACES-PATINS-SPEC
100
AcDbLine
 62
7
  6
CONTINUOUS
 10
52.3265306122
 20
12.0901946387
 11
66.3265306122
 21
12.0901946387
  0
LINE
  5
22B
100
AcDbEntity
  8
6_SURFACES-PATINS-SPEC
100
AcDbLine
 62
7
  6
CONTINUOUS
 10
34.4287465719
 20
12.0901946955
 11
43.8600977457
 21
12.0901946955
  0
LINE
  5
22C
100
AcDbEntity
  8
6_SURFACES-PATINS-SPEC
100
AcDbLine
 62
7
  6
CONTINUOUS
 10
52.3242562891
 20
12.0901974186
 11
52.3265306122
 21
12.0901946387
  0
LWPOLYLINE
  5
22D
100
AcDbEntity
  8
6_SURFACES-PATINS-SPEC
100
AcDbPolyline
 62
7
  6
CONTINUOUS
 90
30
 70
0
 10
66.3186659879
 20
13.4774407068
 10
66.493006085
 20
13.4807000671
 10
66.6673624475
 20
13.4829691578
 10
66.7737536036
 20
13.4838308286
 10
66.8801472838
 20
13.4842423899
 10
66.986541911
 20
13.4841483469
 10
67.1039868173
 20
13.4833687461
 10
67.2214213781
 20
13.4816987716
 10
67.3120635395
 20
13.4796474708
 10
67.3904210957
 20
13.4771594591
 10
67.4590807108
 20
13.4742535823
 10
67.5197914619
 20
13.4709072508
 10
67.5466758634
 20
13.4691110347
 10
67.5735423644
 20
13.4670613406
 10
67.597112277
 20
13.4650025872
 10
67.6206510684
 20
13.4626207948
 10
67.6415922005
 20
13.4601419484
 10
67.6606883298
 20
13.457462095
 10
67.6778827545
 20
13.4545420172
 10
67.6928655724
 20
13.4513646196
 10
67.6990979198
 20
13.4497663696
 10
67.705259336
 20
13.4479201548
 10
67.7103631506
 20
13.4460952245
 10
67.7146715423
 20
13.4442005549
 10
67.7181330672
 20
13.4422351525
 10
67.7206944458
 20
13.4401979643
 10
67.7215828161
 20
13.4392068964
 10
67.7223019623
 20
13.4380880133
 10
67.7227212125
 20
13.4370251882
 10
67.7228995273
 20
13.4359049622
  0
LWPOLYLINE
  5
22E
100
AcDbEntity
  8
6_SURFACES-PATINS-SPEC
100
AcDbPolyline
 62
7
  6
CONTINUOUS
 90
30
 70
0
 10
66.3180106026
 20
13.5086358846
 10
66.4923112276
 20
13.5118938668
 10
66.6666281184
 20
13.5141613158
 10
66.7729936825
 20
13.5150219496
 10
66.8793617666
 20
13.5154324592
 10
66.9857307928
 20
13.5153373181
 10
67.1031440434
 20
13.5145564479
 10
67.220546935
 20
13.512885124
 10
67.3111638904
 20
13.5108327262
 10
67.3894992579
 20
13.5083437065
 10
67.4581391806
 20
13.5054368785
 10
67.5188322254
 20
13.5020896265
 10
67.5457086208
 20
13.5002929649
 10
67.5725671038
 20
13.4982427915
 10
67.5961297455
 20
13.4961836008
 10
67.6196612434
 20
13.4938013081
 10
67.6405955904
 20
13.4913219758
 10
67.6596854124
 20
13.4886416343
 10
67.6768738588
 20
13.4857210241
 10
67.6918509657
 20
13.4825430971
 10
67.6980806691
 20
13.4809446165
 10
67.7042393825
 20
13.4790981125
 10
67.7093406947
 20
13.4772729243
 10
67.7136467198
 20
13.4753780001
 10
67.717106027
 20
13.4734123487
 10
67.719665355
 20
13.4713749185
 10
67.7205528465
 20
13.4703836876
 10
67.7212710049
 20
13.4692647345
 10
67.7216894325
 20
13.4682017114
 10
67.7218669036
 20
13.4670814567
  0
LINE
  5
22F
100
AcDbEntity
  8
1_CURVES_JETS
100
AcDbLine
 62
7
  6
CONTINUOUS
 10
68.3479772216
 20
12.8151946387
 11
67.2468535991
 21
12.8151946387
  0
LINE
  5
230
100
AcDbEntity
  8
DEFAULT_2
100
AcDbLine
 62
8
  6
CONTINUOUS
 10
65.8050840028
 20
12.9401946387
 11
68.3479772216
 21
12.9401946387
  0
LWPOLYLINE
  5
231
100
AcDbEntity
  8
6_SURFACES-PATINS-SPEC
100
AcDbPolyline
 62
7
  6
CONTINUOUS
 90
63
 70
0
 10
44.5568284163
 20
12.4065377298
 10
44.5569138375
 20
12.4065370078
 10
44.5570009078
 20
12.4065348529
 10
44.5570892862
 20
12.4065310888
 10
44.5571786317
 20
12.4065255392
 10
44.5572686032
 20
12.406518028
 10
44.5573588597
 20
12.4065083789
 10
44.5574490602
 20
12.4064964157
 10
44.5575388635
 20
12.4064819621
 10
44.5576279288
 20
12.406464842
 10
44.5577159148
 20
12.406444879
 10
44.5578024807
 20
12.4064218971
 10
44.5578872853
 20
12.4063957199
 10
44.5579699877
 20
12.4063661712
 10
44.5580502467
 20
12.4063330748
 10
44.5581277214
 20
12.4062962545
 10
44.5582020707
 20
12.406255534
 10
44.5582729535
 20
12.4062107371
 10
44.5583400289
 20
12.4061616876
 10
44.5584029557
 20
12.4061082093
 10
44.5584613931
 20
12.4060501259
 10
44.5585149998
 20
12.4059872611
 10
44.5585617602
 20
12.4059222105
 10
44.5586037766
 20
12.4058531077
 10
44.5586410933
 20
12.40578049
 10
44.5586737543
 20
12.4057048952
 10
44.5587018038
 20
12.4056268607
 10
44.5587252858
 20
12.4055469242
 10
44.5587442446
 20
12.405465623
 10
44.5587587242
 20
12.4053834948
 10
44.5587687687
 20
12.4053010772
 10
44.5587754113
 20
12.405192156
 10
44.558774988
 20
12.405083717
 10
44.5587681402
 20
12.4049758068
 10
44.5587555094
 20
12.4048684721
 10
44.5587377369
 20
12.4047617596
 10
44.5587154641
 20
12.4046557161
 10
44.5586893323
 20
12.4045503882
 10
44.558659983
 20
12.4044458226
 10
44.5586280575
 20
12.4043420661
 10
44.5585663916
 20
12.4041596262
 10
44.5584990721
 20
12.4039797245
 10
44.5584265638
 20
12.4038021932
 10
44.5583493316
 20
12.4036268643
 10
44.5582678405
 20
12.4034535698
 10
44.5581825552
 20
12.4032821419
 10
44.5580939409
 20
12.4031124125
 10
44.5579525612
 20
12.402855254
 10
44.5578051107
 20
12.4026014358
 10
44.5576522463
 20
12.4023507028
 10
44.557494625
 20
12.4021028
 10
44.5573329039
 20
12.4018574721
 10
44.5571677399
 20
12.4016144643
 10
44.5569148674
 20
12.4012540624
 10
44.5566562873
 20
12.4008979281
 10
44.5563925518
 20
12.400545689
 10
44.5561242132
 20
12.4001969729
 10
44.5558518238
 20
12.3998514074
 10
44.5555196663
 20
12.3994396449
 10
44.5551828976
 20
12.399031615
 10
44.5548419639
 20
12.3986270342
 10
44.5544973112
 20
12.398225619
 10
44.5541493854
 20
12.397827086
  0
LWPOLYLINE
  5
232
100
AcDbEntity
  8
6_SURFACES-PATINS-SPEC
100
AcDbPolyline
 62
7
  6
CONTINUOUS
 90
48
 70
0
 10
44.200807814
 20
12.1554177173
 10
44.2005688303
 20
12.1554226158
 10
44.2003303503
 20
12.1554398426
 10
44.2000931642
 20
12.1554730428
 10
44.199858062
 20
12.1555258616
 10
44.1997193631
 20
12.1555683743
 10
44.1995840794
 20
12.1556206317
 10
44.1994546014
 20
12.1556840833
 10
44.1993333197
 20
12.1557601785
 10
44.1992226246
 20
12.1558503666
 10
44.199115689
 20
12.155966582
 10
44.1990258577
 20
12.1560978497
 10
44.198954546
 20
12.1562404322
 10
44.1989031693
 20
12.1563905918
 10
44.1988732359
 20
12.1565391156
 10
44.1988605178
 20
12.1566900312
 10
44.1988624606
 20
12.1568421752
 10
44.19887651
 20
12.1569943844
 10
44.1989001118
 20
12.1571454953
 10
44.1989559408
 20
12.1573954585
 10
44.1990286947
 20
12.1576396996
 10
44.1991154273
 20
12.1578789184
 10
44.1992131922
 20
12.1581138148
 10
44.199404035
 20
12.1585165892
 10
44.1996150548
 20
12.1589095523
 10
44.1998416131
 20
12.1592940105
 10
44.2001421632
 20
12.159766722
 10
44.2004571976
 20
12.1602296188
 10
44.2007840013
 20
12.1606842447
 10
44.2011916645
 20
12.1612251393
 10
44.2016105431
 20
12.1617574572
 10
44.2020386011
 20
12.1622824668
 10
44.2027008919
 20
12.1630662714
 10
44.2033775779
 20
12.1638377076
 10
44.204066659
 20
12.1645982691
 10
44.2047661352
 20
12.1653494494
 10
44.2054740065
 20
12.1660927422
 10
44.2066164642
 20
12.1672649112
 10
44.2077733016
 20
12.1684225888
 10
44.2089426304
 20
12.1695675484
 10
44.2101225624
 20
12.1707015634
 10
44.2115640133
 20
12.1720631255
 10
44.2130168834
 20
12.1734125388
 10
44.214479798
 20
12.1747511178
 10
44.2159513827
 20
12.1760801769
 10
44.2182593709
 20
12.1781351577
 10
44.2205829661
 20
12.1801724055
 10
44.2229200552
 20
12.1821941169
  0
LINE
  5
233
100
AcDbEntity
  8
6_SURFACES-PATINS-SPEC
100
AcDbLine
 62
7
  6
CONTINUOUS
 10
34.3462574873
 20
12.0938630796
 11
34.4287411061
 21
12.0901946963
  0
LINE
  5
234
100
AcDbEntity
  8
0
100
AcDbLine
 62
7
  6
CONTINUOUS
 10
18.4407891778
 20
32.7461760198
 11
18.3265306122
 21
31.4401946387
  0
LINE
  5
235
100
AcDbEntity
  8
6_SURFACES-PATINS-SPEC
100
AcDbLine
 62
7
  6
CONTINUOUS
 10
45.8026086832
 20
15.0021156234
 11
45.8315333474
 21
15.0032867453
  0
LWPOLYLINE
  5
236
100
AcDbEntity
  8
DEFAULT_2
100
AcDbPolyline
 62
8
  6
CONTINUOUS
 90
36
 70
0
 10
65.3655401525
 20
13.4427391949
 10
65.4439378216
 20
13.4427961822
 10
65.5314079797
 20
13.4428638531
 10
65.6274777984
 20
13.4429423238
 10
65.7316454404
 20
13.443033014
 10
65.8432291003
 20
13.4431362549
 10
65.9617235067
 20
13.4432529764
 10
66.0863927572
 20
13.4433846029
 10
66.2165060699
 20
13.4435313274
 10
66.3514265493
 20
13.443694922
 10
66.4902680422
 20
13.4438759443
 10
66.6324005976
 20
13.4440751686
 10
66.7769906254
 20
13.4442940658
 10
66.9231339814
 20
13.4445318908
 10
67.0702636537
 20
13.4447897403
 10
67.2172137376
 20
13.4450663221
 10
67.3633999539
 20
13.445360023
 10
67.5079954011
 20
13.4456698714
 10
67.6500746352
 20
13.4459912136
 10
67.7890861098
 20
13.4463210177
 10
67.9240788531
 20
13.4466543519
 10
68.0543107572
 20
13.4469846436
 10
68.1791613394
 20
13.4473084252
 10
68.2976371516
 20
13.4476186801
 10
68.4092917849
 20
13.4479117282
 10
68.5133815799
 20
13.4481867052
 10
68.6092582223
 20
13.4484409247
 10
68.6965563923
 20
13.448677377
 10
68.7747610498
 20
13.4488992111
 10
68.8434495974
 20
13.4491073938
 10
68.9023533872
 20
13.4493058747
 10
68.9509671125
 20
13.4494920002
 10
68.9891187366
 20
13.4496594077
 10
69.0165528018
 20
13.4498000264
 10
69.0330657238
 20
13.4498969584
 10
69.0385780417
 20
13.449932413
  0
LWPOLYLINE
  5
237
100
AcDbEntity
  8
DEFAULT_2
100
AcDbPolyline
 62
8
  6
CONTINUOUS
 90
7
 70
0
 10
65.1014738138
 20
13.4425762712
 10
65.106970408
 20
13.442579072
 10
65.1234561502
 20
13.4425873636
 10
65.1508717414
 20
13.4426021235
 10
65.1890210865
 20
13.4426241213
 10
65.2377209228
 20
13.4426536358
 10
65.3655401525
 20
13.4427391949
  0
LINE
  5
238
100
AcDbEntity
  8
6_SURFACES-PATINS-SPEC
100
AcDbLine
 62
7
  6
CONTINUOUS
 10
52.2447198604
 20
12.0937849717
 11
52.3261965469
 21
12.0901946987
  0
LWPOLYLINE
  5
239
100
AcDbEntity
  8
6_SURFACES-PATINS-SPEC
100
AcDbPolyline
 62
7
  6
CONTINUOUS
 90
12
 70
0
 10
52.3335003413
 20
13.5777242373
 10
54.6510369975
 20
13.5359796792
 10
56.6703960395
 20
13.5032177295
 10
58.5128811766
 20
13.4775548978
 10
60.2632432584
 20
13.458557251
 10
61.9530883683
 20
13.4474032644
 10
62.7533409247
 20
13.4454487695
 10
63.5535952065
 20
13.4462103932
 10
64.282994221
 20
13.4496873011
 10
65.0123720539
 20
13.4562816179
 10
65.6655466333
 20
13.4652273067
 10
66.3186659883
 20
13.4774406878
  0
LWPOLYLINE
  5
23A
100
AcDbEntity
  8
6_SURFACES-PATINS-SPEC
100
AcDbPolyline
 62
7
  6
CONTINUOUS
 90
12
 70
0
 10
52.3340811521
 20
13.6089608689
 10
54.6515676454
 20
13.567214657
 10
56.670863753
 20
13.5344505788
 10
58.5132670444
 20
13.5087849417
 10
60.2635177359
 20
13.4897834732
 10
61.9532080804
 20
13.4786242381
 10
62.7533563513
 20
13.4766665554
 10
63.5535063592
 20
13.477424424
 10
64.2827747131
 20
13.4808972743
 10
65.0120219035
 20
13.4874870345
 10
65.665043856
 20
13.4964277994
 10
66.318010603
 20
13.508635865
  0
LINE
  5
23B
100
AcDbEntity
  8
1_CURVES_JETS
100
AcDbLine
 62
7
  6
CONTINUOUS
 10
49.8913217991
 20
13.6795851521
 11
54.5036268444
 21
13.5697993532
  0
LINE
  5
23C
100
AcDbEntity
  8
DEFAULT_2
100
AcDbLine
 62
8
  6
CONTINUOUS
 10
49.8942965194
 20
13.8045497512
 11
65.1014738138
 21
13.4425762712
  0
LINE
  5
23D
100
AcDbEntity
  8
6_SURFACES-PATINS-SPEC
100
AcDbLine
 62
7
  6
CONTINUOUS
 10
44.1050535837
 20
12.1228275409
 11
44.1837511481
 21
12.1479212263
  0
LWPOLYLINE
  5
23E
100
AcDbEntity
  8
6_SURFACES-PATINS-SPEC
100
AcDbPolyline
 62
7
  6
CONTINUOUS
 90
49
 70
0
 10
45.8315003451
 20
15.0041060696
 10
45.8218967267
 20
15.0041485508
 10
45.8122908091
 20
15.0039411203
 10
45.8026902689
 20
15.0034841694
 10
45.7931027827
 20
15.0027780896
 10
45.7835360271
 20
15.0018232721
 10
45.7739976787
 20
15.0006201084
 10
45.7644922365
 20
14.9991686878
 10
45.7550289135
 20
14.9974706296
 10
45.7456137229
 20
14.9955274031
 10
45.7362526778
 20
14.9933404773
 10
45.7269517916
 20
14.9909113212
 10
45.7177170775
 20
14.9882414039
 10
45.708548421
 20
14.9853303189
 10
45.6994581381
 20
14.982182063
 10
45.6904523201
 20
14.9787990793
 10
45.681537058
 20
14.975183811
 10
45.6727184431
 20
14.9713387013
 10
45.6640025666
 20
14.9672661934
 10
45.6553877545
 20
14.9629649331
 10
45.6468874666
 20
14.9584416912
 10
45.6385072026
 20
14.9536998443
 10
45.630252462
 20
14.9487427692
 10
45.6221287444
 20
14.9435738428
 10
45.6141415494
 20
14.9381964418
 10
45.6062880559
 20
14.9326080586
 10
45.5985817989
 20
14.9268182943
 10
45.5910276925
 20
14.9208312999
 10
45.5836306504
 20
14.9146512262
 10
45.5763955867
 20
14.9082822241
 10
45.569327415
 20
14.9017284446
 10
45.5624233204
 20
14.8949865432
 10
45.5556956318
 20
14.8880685617
 10
45.5491485649
 20
14.8809794509
 10
45.5427863354
 20
14.8737241613
 10
45.5366131589
 20
14.8663076435
 10
45.5306332512
 20
14.858734848
 10
45.5248447234
 20
14.8510025905
 10
45.5192573853
 20
14.843123824
 10
45.5138745281
 20
14.835103684
 10
45.5086994435
 20
14.8269473055
 10
45.5037354228
 20
14.8186598237
 10
45.4989857575
 20
14.8102463739
 10
45.4944494511
 20
14.8017041809
 10
45.4901341339
 20
14.7930478806
 10
45.486042732
 20
14.7842844298
 10
45.4821781715
 20
14.7754207852
 10
45.4785433786
 20
14.7664639034
 10
45.4751412795
 20
14.7574207412
  0
LINE
  5
23F
100
AcDbEntity
  8
6_SURFACES-PATINS-SPEC
100
AcDbLine
 62
7
  6
CONTINUOUS
 10
34.2643923271
 20
12.1047687394
 11
34.3462574873
 21
12.0938630796
  0
LINE
  5
240
100
AcDbEntity
  8
6_SURFACES-PATINS-SPEC
100
AcDbLine
 62
7
  6
CONTINUOUS
 10
45.6782485873
 20
14.9675870498
 11
45.7185160087
 21
14.9839423777
  0
LINE
  5
241
100
AcDbEntity
  8
6_SURFACES-PATINS-SPEC
100
AcDbLine
 62
7
  6
CONTINUOUS
 10
32.3708028528
 20
15.2390634116
 11
32.3705413301
 21
15.2390679508
  0
LINE
  5
242
100
AcDbEntity
  8
6_SURFACES-PATINS-SPEC
100
AcDbLine
 62
7
  6
CONTINUOUS
 10
32.3856331022
 20
15.2388045496
 11
32.3986225001
 21
15.2385778265
  0
LINE
  5
243
100
AcDbEntity
  8
6_SURFACES-PATINS-SPEC
100
AcDbLine
 62
7
  6
CONTINUOUS
 10
45.8315003113
 20
15.0041060727
 11
32.3708028528
 21
15.2390634116
  0
LINE
  5
244
100
AcDbEntity
  8
6_SURFACES-PATINS-SPEC
100
AcDbLine
 62
7
  6
CONTINUOUS
 10
45.8458058185
 20
15.0038563622
 11
45.8315003451
 21
15.0041060696
  0
LINE
  5
245
100
AcDbEntity
  8
6_SURFACES-PATINS-SPEC
100
AcDbLine
 62
7
  6
CONTINUOUS
 10
45.8453031081
 20
15.0038651577
 11
45.8458058185
 21
15.0038563622
  0
LINE
  5
246
100
AcDbEntity
  8
6_SURFACES-PATINS-SPEC
100
AcDbLine
 62
7
  6
CONTINUOUS
 10
32.3710867295
 20
15.2703131886
 11
45.8320457169
 21
15.0353513135
  0
LINE
  5
247
100
AcDbEntity
  8
6_SURFACES-PATINS-SPEC
100
AcDbLine
 62
7
  6
CONTINUOUS
 10
45.8463511608
 20
15.0351016035
 11
45.8320457168
 21
15.0353513106
  0
LINE
  5
248
100
AcDbEntity
  8
1_CURVES_JETS
100
AcDbLine
 62
7
  6
CONTINUOUS
 10
30.6775505768
 20
15.3936382848
 11
48.9867363165
 21
15.0740502589
  0
LINE
  5
249
100
AcDbEntity
  8
DEFAULT_2
100
AcDbLine
 62
8
  6
CONTINUOUS
 10
30.6797321276
 20
15.5186192467
 11
48.9889305216
 21
15.199031
  0
LINE
  5
24A
100
AcDbEntity
  8
6_SURFACES-PATINS-SPEC
100
AcDbLine
 62
7
  6
CONTINUOUS
 10
45.4751412972
 20
14.7574207347
 11
45.4868649685
 21
14.7571372869
  0
LINE
  5
24B
100
AcDbEntity
  8
6_SURFACES-PATINS-SPEC
100
AcDbLine
 62
7
  6
CONTINUOUS
 10
44.1837511481
 20
12.1479212263
 11
44.2097756009
 21
12.1579456214
  0
LINE
  5
24C
100
AcDbEntity
  8
1_CURVES_JETS
100
AcDbLine
 62
7
  6
CONTINUOUS
 10
48.9943310561
 20
15.0737966286
 11
48.9867363167
 21
15.0740502609
  0
LINE
  5
24D
100
AcDbEntity
  8
6_SURFACES-PATINS-SPEC
100
AcDbLine
 62
7
  6
CONTINUOUS
 10
32.3705413354
 20
15.2390680226
 11
32.4123712375
 21
15.2359918418
  0
LWPOLYLINE
  5
24E
100
AcDbEntity
  8
6_SURFACES-PATINS-SPEC
100
AcDbPolyline
 62
7
  6
CONTINUOUS
 90
30
 70
0
 10
50.9285725462
 20
13.5708547751
 10
50.92233596
 20
13.5713406863
 10
50.9161014872
 20
13.5718527535
 10
50.9106475448
 20
13.5723267011
 10
50.905196182
 20
13.572830706
 10
50.9020880089
 20
13.5731343281
 10
50.898981362
 20
13.5734524528
 10
50.8958767645
 20
13.573787759
 10
50.8933040863
 20
13.5740811039
 10
50.8907332297
 20
13.5743916474
 10
50.8881642468
 20
13.5747229303
 10
50.8861310381
 20
13.5750031611
 10
50.8841014835
 20
13.5753048903
 10
50.8820780281
 20
13.5756343812
 10
50.8809645117
 20
13.5758308678
 10
50.8798532595
 20
13.5760414327
 10
50.8787439323
 20
13.5762697878
 10
50.8776361907
 20
13.5765196447
 10
50.8770665054
 20
13.5766586806
 10
50.8765000183
 20
13.5768091746
 10
50.8759395966
 20
13.576975893
 10
50.8753881076
 20
13.5771636021
 10
50.8748484186
 20
13.5773770682
 10
50.8745826514
 20
13.5774970738
 10
50.8743234214
 20
13.5776335519
 10
50.874073553
 20
13.5777952476
 10
50.8739618901
 20
13.5778820792
 10
50.8738596445
 20
13.5779782573
 10
50.8737735734
 20
13.5780857143
 10
50.873710434
 20
13.5782063826
  0
LINE
  5
24F
100
AcDbEntity
  8
6_SURFACES-PATINS-SPEC
100
AcDbLine
 62
7
  6
CONTINUOUS
 10
44.5256155619
 20
12.3876916139
 11
44.5256940885
 21
12.3877240328
  0
LWPOLYLINE
  5
250
100
AcDbEntity
  8
6_SURFACES-PATINS-SPEC
100
AcDbPolyline
 62
7
  6
CONTINUOUS
 90
28
 70
0
 10
44.2097756489
 20
12.1579456459
 10
44.2093340533
 20
12.1577690873
 10
44.2088914566
 20
12.1575945832
 10
44.2084477822
 20
12.1574225371
 10
44.2080029537
 20
12.1572533524
 10
44.2075568947
 20
12.1570874325
 10
44.2071095286
 20
12.1569251808
 10
44.2066607791
 20
12.1567670008
 10
44.2062105696
 20
12.1566132959
 10
44.2057588237
 20
12.1564644694
 10
44.205305465
 20
12.1563209248
 10
44.2048504169
 20
12.1561830655
 10
44.204393603
 20
12.1560512949
 10
44.2041078175
 20
12.1559724443
 10
44.2038212314
 20
12.1558965428
 10
44.2035337607
 20
12.1558240154
 10
44.203245321
 20
12.155755287
 10
44.2029558282
 20
12.1556907825
 10
44.202665198
 20
12.1556309268
 10
44.2023733462
 20
12.1555761448
 10
44.2021790266
 20
12.155542868
 10
44.2019841932
 20
12.1555124878
 10
44.201788907
 20
12.1554854806
 10
44.2015932287
 20
12.155462323
 10
44.2013972194
 20
12.1554434913
 10
44.2012009399
 20
12.1554294621
 10
44.2010044511
 20
12.155420712
 10
44.200807814
 20
12.1554177173
  0
LINE
  5
251
100
AcDbEntity
  8
1_CURVES_JETS
100
AcDbLine
 62
7
  6
CONTINUOUS
 10
49.0019233675
 20
15.0733018287
 11
48.9943264607
 21
15.0737969974
  0
LINE
  5
252
100
AcDbEntity
  8
6_SURFACES-PATINS-SPEC
100
AcDbLine
 62
7
  6
CONTINUOUS
 10
52.1635057651
 20
12.104498415
 11
52.2447198604
 21
12.0937849717
  0
LINE
  5
253
100
AcDbEntity
  8
6_SURFACES-PATINS-SPEC
100
AcDbLine
 62
7
  6
CONTINUOUS
 10
34.1837907336
 20
12.122827541
 11
34.2643923271
 21
12.1047687394
  0
LINE
  5
254
100
AcDbEntity
  8
6_SURFACES-PATINS-SPEC
100
AcDbLine
 62
7
  6
CONTINUOUS
 10
44.5243293233
 20
12.3871304629
 11
44.5256155619
 21
12.3876916139
  0
LINE
  5
255
100
AcDbEntity
  8
6_SURFACES-PATINS-SPEC
100
AcDbLine
 62
7
  6
CONTINUOUS
 10
44.2097755053
 20
12.1579456006
 11
44.2130496584
 21
12.1593063801
  0
LINE
  5
256
100
AcDbEntity
  8
6_SURFACES-PATINS-SPEC
100
AcDbLine
 62
7
  6
CONTINUOUS
 10
50.9296700338
 20
13.5715907432
 11
50.9291511367
 21
13.5716488432
  0
LINE
  5
257
100
AcDbEntity
  8
6_SURFACES-PATINS-SPEC
100
AcDbLine
 62
7
  6
CONTINUOUS
 10
50.9291511367
 20
13.5716488432
 11
50.9295459312
 21
13.5715991268
  0
LWPOLYLINE
  5
258
100
AcDbEntity
  8
1_CURVES_JETS
100
AcDbPolyline
 62
7
  6
CONTINUOUS
 90
47
 70
0
 10
49.2314350413
 20
14.8458724472
 10
49.2306519902
 20
14.8534309658
 10
49.229628532
 20
14.8609702317
 10
49.2283678765
 20
14.868482661
 10
49.2268732334
 20
14.8759606696
 10
49.2251478127
 20
14.8833966735
 10
49.2231948241
 20
14.8907830886
 10
49.2210174774
 20
14.8981123309
 10
49.2186189825
 20
14.9053768163
 10
49.216002549
 20
14.9125689608
 10
49.213171387
 20
14.9196811804
 10
49.2101287061
 20
14.926705891
 10
49.2068777162
 20
14.9336355087
 10
49.2034254925
 20
14.9404553371
 10
49.1997718955
 20
14.9471664788
 10
49.1959202073
 20
14.9537627019
 10
49.1918737098
 20
14.9602377745
 10
49.1876356851
 20
14.9665854647
 10
49.1832094152
 20
14.9727995407
 10
49.178598182
 20
14.9788737705
 10
49.1738052678
 20
14.9848019223
 10
49.1688339544
 20
14.9905777641
 10
49.1636875239
 20
14.9961950641
 10
49.1583692583
 20
15.0016475904
 10
49.1528824397
 20
15.0069291112
 10
49.1472308746
 20
15.0120339622
 10
49.1414204841
 20
15.0169587367
 10
49.1354577139
 20
15.0217005955
 10
49.1293490096
 20
15.0262566996
 10
49.1231008171
 20
15.03062421
 10
49.1167195821
 20
15.0348002878
 10
49.1102117502
 20
15.0387820939
 10
49.1035837673
 20
15.0425667893
 10
49.096842079
 20
15.0461515351
 10
49.0899931311
 20
15.0495334921
 10
49.0830433693
 20
15.0527098215
 10
49.0759992394
 20
15.0556776841
 10
49.0688596335
 20
15.0584371418
 10
49.061639704
 20
15.0609821624
 10
49.0543472406
 20
15.0633100731
 10
49.0469900327
 20
15.0654182006
 10
49.03957587
 20
15.0673038719
 10
49.0321125419
 20
15.068964414
 10
49.0246078381
 20
15.0703971538
 10
49.017069548
 20
15.0715994182
 10
49.0095054613
 20
15.0725685342
 10
49.0019016344
 20
15.0733041682
  0
LINE
  5
259
100
AcDbEntity
  8
1_CURVES_JETS
100
AcDbLine
 62
7
  6
CONTINUOUS
 10
49.2835726464
 20
14.2499358084
 11
49.231395815
 21
14.8463197203
  0
LINE
  5
25A
100
AcDbEntity
  8
DEFAULT_2
100
AcDbLine
 62
8
  6
CONTINUOUS
 10
49.3559588809
 20
14.8567715178
 11
49.4080969814
 21
14.260830303
  0
LINE
  5
25B
100
AcDbEntity
  8
0
100
AcDbLine
 62
7
  6
CONTINUOUS
 10
78.2122720466
 20
32.7461760198
 11
78.3265306122
 21
31.4401946387
  0
LWPOLYLINE
  5
25C
100
AcDbEntity
  8
1_CURVES_JETS
100
AcDbPolyline
 62
7
  6
CONTINUOUS
 90
20
 70
0
 10
29.1155034948
 20
17.8269894414
 10
29.1146700218
 20
17.8382748175
 10
29.1136687611
 20
17.849548571
 10
29.1125032685
 20
17.8608087134
 10
29.1111770998
 20
17.8720532557
 10
29.109693811
 20
17.8832802094
 10
29.1080569578
 20
17.8944875856
 10
29.1062700963
 20
17.9056733958
 10
29.1043367822
 20
17.916835651
 10
29.1022605714
 20
17.9279723627
 10
29.1000450198
 20
17.9390815421
 10
29.0974185143
 20
17.9514147522
 10
29.0946264324
 20
17.9637099021
 10
29.0916714934
 20
17.9759655205
 10
29.0885564167
 20
17.9881801363
 10
29.0852839217
 20
18.0003522786
 10
29.0818567279
 20
18.0124804761
 10
29.0782775547
 20
18.0245632578
 10
29.0745491213
 20
18.0365991525
 10
29.0706741474
 20
18.0485866893
  0
LINE
  5
25D
100
AcDbEntity
  8
6_SURFACES-PATINS-SPEC
100
AcDbLine
 62
7
  6
CONTINUOUS
 10
67.7225404352
 20
13.4358931004
 11
67.7215687437
 21
13.4652555594
  0
LINE
  5
25E
100
AcDbEntity
  8
6_SURFACES-PATINS-SPEC
100
AcDbLine
 62
7
  6
CONTINUOUS
 10
67.7228995266
 20
13.4359049838
 11
67.7218667965
 21
13.4670847243
  0
LINE
  5
25F
100
AcDbEntity
  8
6_SURFACES-PATINS-SPEC
100
AcDbLine
 62
7
  6
CONTINUOUS
 10
66.3186659883
 20
13.4774406878
 11
66.3180106026
 21
13.5086358846
  0
LWPOLYLINE
  5
260
100
AcDbEntity
  8
1_CURVES_JETS
100
AcDbPolyline
 62
7
  6
CONTINUOUS
 90
26
 70
0
 10
25.3172097282
 20
26.16198941
 10
25.3172095868
 20
26.1620372531
 10
25.3172326663
 20
26.1620841311
 10
25.3172678202
 20
26.1621278783
 10
25.3173875619
 20
26.1622346904
 10
25.3175137136
 20
26.1623152218
 10
25.3178471872
 20
26.1624982989
 10
25.318197225
 20
26.1626700846
 10
25.3185554034
 20
26.1628322102
 10
25.3194301253
 20
26.1631958677
 10
25.3203077951
 20
26.1635317272
 10
25.3215215662
 20
26.1639750094
 10
25.3227433939
 20
26.164405018
 10
25.3242824317
 20
26.1649295352
 10
25.3258246039
 20
26.165441139
 10
25.3295043618
 20
26.1666270946
 10
25.3337352395
 20
26.16794981
 10
25.3384696195
 20
26.1693960613
 10
25.3438547915
 20
26.1710095183
 10
25.349247475
 20
26.1725976276
 10
25.355333651
 20
26.1743623257
 10
25.3614269465
 20
26.176102302
 10
25.3679961236
 20
26.1779496826
 10
25.374573157
 20
26.1797689138
 10
25.38138428
 20
26.1816191719
 10
25.3882047343
 20
26.1834346393
  0
LINE
  5
261
100
AcDbEntity
  8
DEFAULT_1
100
AcDbLine
 62
7
  6
CENTER
 10
67.0765306122
 20
10.4493120861
 11
67.0765306122
 21
17.2792385996
  0
LINE
  5
262
100
AcDbEntity
  8
6_SURFACES-PATINS-SPEC
100
AcDbLine
 62
7
  6
CONTINUOUS
 10
32.3710865434
 20
15.2703132691
 11
32.3705411747
 21
15.239068025
  0
LINE
  5
263
100
AcDbEntity
  8
6_SURFACES-PATINS-SPEC
100
AcDbLine
 62
7
  6
CONTINUOUS
 10
32.3861785063
 20
15.27004979
 11
32.3856331022
 21
15.2388045496
  0
LINE
  5
264
100
AcDbEntity
  8
6_SURFACES-PATINS-SPEC
100
AcDbLine
 62
7
  6
CONTINUOUS
 10
34.1885753701
 20
15.2385888383
 11
34.1880299825
 21
15.2073435978
  0
LINE
  5
265
100
AcDbEntity
  8
6_SURFACES-PATINS-SPEC
100
AcDbLine
 62
7
  6
CONTINUOUS
 10
43.6259647238
 20
15.0426038342
 11
43.6265101114
 21
15.0738490746
  0
LINE
  5
266
100
AcDbEntity
  8
6_SURFACES-PATINS-SPEC
100
AcDbLine
 62
7
  6
CONTINUOUS
 10
45.8320457168
 20
15.0353513106
 11
45.8315003113
 21
15.0041060727
  0
LINE
  5
267
100
AcDbEntity
  8
6_SURFACES-PATINS-SPEC
100
AcDbLine
 62
7
  6
CONTINUOUS
 10
45.8458058218
 20
15.0038565515
 11
45.8463511644
 21
15.0351018084
  0
LINE
  5
268
100
AcDbEntity
  8
6_SURFACES-PATINS-SPEC
100
AcDbLine
 62
7
  6
CONTINUOUS
 10
52.3335003414
 20
13.5777242392
 11
52.3340811521
 21
13.6089608689
  0
LINE
  5
269
100
AcDbEntity
  8
6_SURFACES-PATINS-SPEC
100
AcDbLine
 62
7
  6
CONTINUOUS
 10
50.873710434
 20
13.5782063826
 11
50.8743639901
 21
13.6094453008
  0
LINE
  5
26A
100
AcDbEntity
  8
DEFAULT_2
100
AcDbLine
 62
8
  6
CONTINUOUS
 10
71.4619862627
 20
15.4306941713
 11
74.249873135
 21
33.0327191341
  0
LINE
  5
26B
100
AcDbEntity
  8
1_CURVES_JETS
100
AcDbLine
 62
7
  6
CONTINUOUS
 10
74.1242022721
 20
31.4402078799
 11
71.5854472711
 21
15.4111396474
  0
LINE
  5
26C
100
AcDbEntity
  8
0
100
AcDbLine
 62
7
  6
CONTINUOUS
 10
71.5854473053
 20
15.4111398631
 11
71.604502944
 21
15.5314524306
  0
LINE
  5
26D
100
AcDbEntity
  8
0
100
AcDbLine
 62
7
  6
CONTINUOUS
 10
71.6536975861
 20
15.8420551766
 11
74.1242001749
 21
31.4401946387
  0
LINE
  5
26E
100
AcDbEntity
  8
6_SURFACES-PATINS-SPEC
100
AcDbLine
 62
7
  6
CONTINUOUS
 10
67.7218669027
 20
13.4670814833
 11
67.7215687437
 21
13.4652555594
  0
LINE
  5
26F
100
AcDbEntity
  8
6_SURFACES-PATINS-SPEC
100
AcDbLine
 62
7
  6
CONTINUOUS
 10
67.7229002532
 20
13.4359050079
 11
67.7226006391
 21
13.4340738652
  0
LINE
  5
270
100
AcDbEntity
  8
0
100
AcDbLine
 62
7
  6
CONTINUOUS
 10
71.5983193022
 20
15.5069166022
 11
71.6033088673
 21
15.5316415538
  0
LINE
  5
271
100
AcDbEntity
  8
0
100
AcDbLine
 62
7
  6
CONTINUOUS
 10
72.8472595432
 20
33.7109667981
 11
72.8472321069
 21
33.7108522002
  0
LINE
  5
272
100
AcDbEntity
  8
0
100
AcDbLine
 62
7
  6
CONTINUOUS
 10
71.5691368988
 20
15.3791740521
 11
71.5800817942
 21
15.4246381417
  0
LWPOLYLINE
  5
273
100
AcDbEntity
  8
0
100
AcDbPolyline
 62
7
  6
CONTINUOUS
 90
9
 70
0
 10
71.5429751318
 20
15.3724957676
 10
71.5432161274
 20
15.3733618286
 10
71.5434520434
 20
15.3741684405
 10
71.5437469889
 20
15.3751477484
 10
71.5445105183
 20
15.3776154769
 10
71.545497417
 20
15.3807415479
 10
71.5466959694
 20
15.3844968865
 10
71.5480916791
 20
15.3888457656
 10
71.551406778
 20
15.3991559694
  0
LWPOLYLINE
  5
274
100
AcDbEntity
  8
0
100
AcDbPolyline
 62
7
  6
CONTINUOUS
 90
25
 70
0
 10
71.551406778
 20
15.3991559694
 10
71.5532875104
 20
15.4050199048
 10
71.5573887188
 20
15.4178894305
 10
71.5617905987
 20
15.43186908
 10
71.5663068447
 20
15.4464269665
 10
71.570755636
 20
15.4610056401
 10
71.5749680166
 20
15.4750436148
 10
71.5787941894
 20
15.4879975095
 10
71.5805218589
 20
15.4939082913
 10
71.5821074293
 20
15.4993634355
 10
71.5835389249
 20
15.5043094456
 10
71.5848059157
 20
15.508697517
 10
71.5858996147
 20
15.5124847451
 10
71.5868125339
 20
15.5156332693
 10
71.5875388019
 20
15.5181122625
 10
71.5878304223
 20
15.5190925458
 10
71.588073794
 20
15.5198968503
 10
71.5882685137
 20
15.5205229309
 10
71.5883378278
 20
15.5207568653
 10
71.5884142793
 20
15.5209691321
 10
71.5884483051
 20
15.5210438904
 10
71.5884816166
 20
15.5211267386
 10
71.5885109313
 20
15.5212346321
 10
71.5885264509
 20
15.5212963212
 10
71.5885583213
 20
15.521318672
  0
LWPOLYLINE
  5
275
100
AcDbEntity
  8
0
100
AcDbPolyline
 62
7
  6
CONTINUOUS
 90
12
 70
0
 10
71.368138181
 20
14.7485165669
 10
71.3682134562
 20
14.7487320693
 10
71.3683016958
 20
14.748957825
 10
71.3685481345
 20
14.7495660661
 10
71.36887676
 20
14.7503397943
 10
71.3692865097
 20
14.7512770069
 10
71.37034485
 20
14.7536334097
 10
71.371711013
 20
14.7566131623
 10
71.3733697444
 20
14.7601889002
 10
71.3753021765
 20
14.764327022
 10
71.3774869193
 20
14.7689893398
 10
71.3825141461
 20
14.7797076137
  0
LWPOLYLINE
  5
276
100
AcDbEntity
  8
0
100
AcDbPolyline
 62
7
  6
CONTINUOUS
 90
37
 70
0
 10
71.4327375829
 20
14.8897111191
 10
71.432439548
 20
14.8888597282
 10
71.4321498295
 20
14.8880682646
 10
71.4317889368
 20
14.8871087807
 10
71.4308563317
 20
14.8846950611
 10
71.4296490057
 20
14.8816429038
 10
71.4281761699
 20
14.8779824284
 10
71.4264494749
 20
14.8737505245
 10
71.4244824604
 20
14.8689889626
 10
71.4222909849
 20
14.8637452047
 10
71.4198929687
 20
14.8580711601
 10
71.4145588553
 20
14.8456593003
 10
71.408663098
 20
14.8322401538
 10
71.4055544875
 20
14.8252817434
 10
71.4024166788
 20
14.8183364494
 10
71.399249609
 20
14.8114044131
 10
71.3960529351
 20
14.8044859802
 10
71.3929506069
 20
14.7978464263
 10
71.3898195938
 20
14.7912203492
 10
71.3869074323
 20
14.7851257058
 10
71.3839684368
 20
14.7790439683
 10
71.3812631936
 20
14.7735099281
 10
71.3787438527
 20
14.7684156568
 10
71.3764377642
 20
14.7638087593
 10
71.3743703937
 20
14.759732277
 10
71.3725645813
 20
14.7562237168
 10
71.3710408436
 20
14.7533159285
 10
71.3698163085
 20
14.7510353924
 10
71.3693208415
 20
14.7501372894
 10
71.3689050938
 20
14.749403301
 10
71.3685703867
 20
14.7488353141
 10
71.368444381
 20
14.7486270106
 10
71.3683177422
 20
14.7484346986
 10
71.3682394158
 20
14.7483284896
 10
71.3681477603
 20
14.7482020957
 10
71.3681069978
 20
14.7481506629
 10
71.3680610093
 20
14.7481380916
  0
LINE
  5
277
100
AcDbEntity
  8
6_SURFACES-PATINS-SPEC
100
AcDbLine
 62
7
  6
CONTINUOUS
 10
44.7343110663
 20
12.7070507544
 11
45.4751412972
 21
14.7574207347
  0
LINE
  5
278
100
AcDbEntity
  8
6_SURFACES-PATINS-SPEC
100
AcDbLine
 62
7
  6
CONTINUOUS
 10
44.9677069391
 20
13.330451182
 11
45.2208062174
 21
14.0259156624
  0
LINE
  5
279
100
AcDbEntity
  8
6_SURFACES-PATINS-SPEC
100
AcDbLine
 62
7
  6
CONTINUOUS
 10
45.2208062174
 20
14.0259156624
 11
45.4868648401
 21
14.7571372581
  0
LINE
  5
27A
100
AcDbEntity
  8
6_SURFACES-PATINS-SPEC
100
AcDbLine
 62
7
  6
CONTINUOUS
 10
67.2074924442
 20
12.7070507544
 11
67.3825986712
 21
13.1881511592
  0
LINE
  5
27B
100
AcDbEntity
  8
6_SURFACES-PATINS-SPEC
100
AcDbLine
 62
7
  6
CONTINUOUS
 10
44.7406967701
 20
12.7070507544
 11
44.9677069391
 21
13.330451182
  0
LWPOLYLINE
  5
27C
100
AcDbEntity
  8
6_SURFACES-PATINS-SPEC
100
AcDbPolyline
 62
7
  6
CONTINUOUS
 90
24
 70
0
 10
44.7343110663
 20
12.7070507544
 10
44.7287635793
 20
12.6920988735
 10
44.722958636
 20
12.6772363317
 10
44.716899017
 20
12.6624685464
 10
44.7105875028
 20
12.647800935
 10
44.7040268739
 20
12.6332389148
 10
44.6972199109
 20
12.6187879032
 10
44.6901693944
 20
12.6044533177
 10
44.6828781048
 20
12.5902405755
 10
44.6753488227
 20
12.5761550941
 10
44.6675843287
 20
12.5622022908
 10
44.6595874033
 20
12.5483875831
 10
44.6520534446
 20
12.5358473198
 10
44.6443274251
 20
12.5234296776
 10
44.6364103273
 20
12.5111366415
 10
44.6283031337
 20
12.4989701962
 10
44.620006827
 20
12.4869323267
 10
44.6115223898
 20
12.4750250179
 10
44.6028570358
 20
12.4632584241
 10
44.5940076887
 20
12.4516278192
 10
44.5849772507
 20
12.4401368252
 10
44.5757686244
 20
12.4287890643
 10
44.5663847121
 20
12.4175881584
 10
44.5568284164
 20
12.4065377298
  0
LWPOLYLINE
  5
27D
100
AcDbEntity
  8
6_SURFACES-PATINS-SPEC
100
AcDbPolyline
 62
7
  6
CONTINUOUS
 90
24
 70
0
 10
67.2074924442
 20
12.7070507544
 10
67.201901626
 20
12.6920922203
 10
67.1960516907
 20
12.6772243112
 10
67.1899455335
 20
12.6624524594
 10
67.1835860499
 20
12.6477820972
 10
67.1769761352
 20
12.6332186568
 10
67.1701186846
 20
12.6187675706
 10
67.1630165937
 20
12.6044342709
 10
67.1556727577
 20
12.59022419
 10
67.148090072
 20
12.5761427602
 10
67.1402714319
 20
12.5621954138
 10
67.1322197328
 20
12.5483875831
 10
67.1246283911
 20
12.535843985
 10
67.1168442956
 20
12.5234243908
 10
67.1088685051
 20
12.5111307486
 10
67.1007020784
 20
12.4989650069
 10
67.0923460741
 20
12.4869291139
 10
67.0838015511
 20
12.4750250179
 10
67.0750700763
 20
12.4632551868
 10
67.0661541431
 20
12.4516226841
 10
67.0570567454
 20
12.4401310984
 10
67.0477808768
 20
12.4287840183
 10
67.038329531
 20
12.4175850326
 10
67.0287057019
 20
12.4065377298
  0
LWPOLYLINE
  5
27E
100
AcDbEntity
  8
6_SURFACES-PATINS-SPEC
100
AcDbPolyline
 62
7
  6
CONTINUOUS
 90
36
 70
0
 10
67.7226006389
 20
13.4340738708
 10
67.7225306096
 20
13.4338877952
 10
67.7224545557
 20
13.4337041894
 10
67.7223727283
 20
13.4335230368
 10
67.7222853785
 20
13.433344321
 10
67.7221927574
 20
13.4331680257
 10
67.722095116
 20
13.4329941344
 10
67.7219927053
 20
13.4328226306
 10
67.7218857765
 20
13.4326534979
 10
67.7217745806
 20
13.4324867199
 10
67.7216593688
 20
13.4323222801
 10
67.721540392
 20
13.4321601622
 10
67.7214179013
 20
13.4320003496
 10
67.7212921479
 20
13.431842826
 10
67.7211633827
 20
13.4316875749
 10
67.7210318569
 20
13.4315345799
 10
67.7208978215
 20
13.4313838245
 10
67.7207615277
 20
13.4312352924
 10
67.7206232263
 20
13.4310889671
 10
67.7204151153
 20
13.4308762325
 10
67.7202033148
 20
13.4306681265
 10
67.7199879884
 20
13.4304644721
 10
67.7197693
 20
13.4302650924
 10
67.7195474132
 20
13.4300698106
 10
67.7193224918
 20
13.4298784498
 10
67.7190946996
 20
13.429690833
 10
67.7188642001
 20
13.4295067833
 10
67.7186311573
 20
13.429326124
 10
67.7183957347
 20
13.4291486781
 10
67.7181580962
 20
13.4289742686
 10
67.7179184055
 20
13.4288027189
 10
67.7176768263
 20
13.4286338518
 10
67.7174335223
 20
13.4284674906
 10
67.7171886572
 20
13.4283034583
 10
67.7169423948
 20
13.4281415781
 10
67.7166948989
 20
13.4279816731
  0
LWPOLYLINE
  5
27F
100
AcDbEntity
  8
0
100
AcDbPolyline
 62
7
  6
CONTINUOUS
 90
4
 70
0
 10
71.5435022001
 20
15.3732743299
 10
71.5431639493
 20
15.3724382738
 10
71.5430684345
 20
15.372230567
 10
71.5430073523
 20
15.3721165519
  0
LINE
  5
280
100
AcDbEntity
  8
6_SURFACES-PATINS-SPEC
100
AcDbLine
 62
7
  6
CONTINUOUS
 10
67.38259923
 20
13.1881527504
 11
67.3927151727
 21
13.213079438
  0
LINE
  5
281
100
AcDbEntity
  8
6_SURFACES-PATINS-SPEC
100
AcDbLine
 62
7
  6
CONTINUOUS
 10
44.7136893299
 20
12.640919542
 11
44.74069677
 21
12.7070507544
  0
LINE
  5
282
100
AcDbEntity
  8
6_SURFACES-PATINS-SPEC
100
AcDbLine
 62
7
  6
CONTINUOUS
 10
45.486864856
 20
14.7571372529
 11
45.4995968701
 21
14.7878244034
  0
LWPOLYLINE
  5
283
100
AcDbEntity
  8
0
100
AcDbPolyline
 62
7
  6
CONTINUOUS
 90
7
 70
0
 10
71.4254982853
 20
14.8741847287
 10
71.4273492334
 20
14.8783598621
 10
71.4289517947
 20
14.8819610696
 10
71.4302933173
 20
14.8849519186
 10
71.4313636328
 20
14.8873027565
 10
71.4317944141
 20
14.8882303468
 10
71.4321545716
 20
14.8889896764
  0
LWPOLYLINE
  5
284
100
AcDbEntity
  8
0
100
AcDbPolyline
 62
7
  6
CONTINUOUS
 90
3
 70
0
 10
71.5430073523
 20
15.3721165519
 10
71.5429142077
 20
15.3719161423
 10
71.5428749004
 20
15.3718961585
  0
LWPOLYLINE
  5
285
100
AcDbEntity
  8
0
100
AcDbPolyline
 62
7
  6
CONTINUOUS
 90
9
 70
0
 10
71.3825141461
 20
14.7797076137
 10
71.388233637
 20
14.791943806
 10
71.394403771
 20
14.8052379333
 10
71.400771845
 20
14.8190863374
 10
71.4070858826
 20
14.8329593736
 10
71.4131058082
 20
14.8463221866
 10
71.418612341
 20
14.858655648
 10
71.4211118609
 20
14.8642834575
 10
71.4254982853
 20
14.8741847287
  0
LWPOLYLINE
  5
286
100
AcDbEntity
  8
6_SURFACES-PATINS-SPEC
100
AcDbPolyline
 62
7
  6
CONTINUOUS
 90
27
 70
0
 10
50.8743337169
 20
13.6096097655
 10
50.8745204282
 20
13.6099898758
 10
50.8749076915
 20
13.6102687796
 10
50.875614632
 20
13.6105913512
 10
50.8766015009
 20
13.6109092568
 10
50.8794148678
 20
13.6115309408
 10
50.8833452024
 20
13.6121334417
 10
50.8883862514
 20
13.6127161578
 10
50.8945313912
 20
13.6132784691
 10
50.9100983091
 20
13.6143394681
 10
50.9299581046
 20
13.6153118663
 10
50.9539771052
 20
13.6161924965
 10
50.9820704084
 20
13.6169799978
 10
51.0142655078
 20
13.617674646
 10
51.0504984539
 20
13.618274859
 10
51.0906488878
 20
13.6187785307
 10
51.1345665243
 20
13.6191838093
 10
51.1820357525
 20
13.6194876426
 10
51.2867335954
 20
13.619784431
 10
51.4037723397
 20
13.6196590145
 10
51.5288638533
 20
13.6191236411
 10
51.6541081366
 20
13.618251451
 10
51.7756192499
 20
13.6171267574
 10
51.8928679496
 20
13.61580496
 10
52.006212741
 20
13.6143220666
 10
52.1166273967
 20
13.6126925361
 10
52.3340811521
 20
13.608960871
  0
LWPOLYLINE
  5
287
100
AcDbEntity
  8
6_SURFACES-PATINS-SPEC
100
AcDbPolyline
 62
7
  6
CONTINUOUS
 90
27
 70
0
 10
50.8736804474
 20
13.5783701253
 10
50.8738671663
 20
13.5787502605
 10
50.8742544477
 20
13.5790291873
 10
50.8749614225
 20
13.5793517979
 10
50.8759483399
 20
13.5796697477
 10
50.8787618464
 20
13.5802915217
 10
50.8826923814
 20
13.5808941021
 10
50.8877336935
 20
13.581476888
 10
50.8938791597
 20
13.5820392615
 10
50.909446918
 20
13.5831003837
 10
50.9293077853
 20
13.5840729455
 10
50.9533281018
 20
13.584953738
 10
50.9814229022
 20
13.5857413581
 10
51.0136196695
 20
13.5864361251
 10
51.0498544846
 20
13.587036482
 10
51.0900069909
 20
13.5875403064
 10
51.1339269164
 20
13.5879457052
 10
51.1813986336
 20
13.5882496684
 10
51.2861019125
 20
13.5885467166
 10
51.4031465818
 20
13.5884215323
 10
51.5282450292
 20
13.587886367
 10
51.6534964815
 20
13.5870143445
 10
51.7750142168
 20
13.5858897822
 10
51.8922688456
 20
13.5845680941
 10
52.0056189235
 20
13.5830852838
 10
52.1160383153
 20
13.5814558168
 10
52.3335003414
 20
13.5777242392
  0
LWPOLYLINE
  5
288
100
AcDbEntity
  8
0
100
AcDbPolyline
 62
7
  6
CONTINUOUS
 90
7
 70
0
 10
71.4321545716
 20
14.8889896764
 10
71.4325509667
 20
14.8897964665
 10
71.4326602434
 20
14.8899955146
 10
71.4327280615
 20
14.8901034813
 10
71.4328048769
 20
14.8902396732
 10
71.4328369336
 20
14.8902949611
 10
71.4328769698
 20
14.8903103595
  0
LINE
  5
289
100
AcDbEntity
  8
6_SURFACES-PATINS-SPEC
100
AcDbLine
 62
7
  6
CONTINUOUS
 10
44.6764174495
 20
12.5674432367
 11
44.7136893299
 21
12.640919542
  0
LINE
  5
28A
100
AcDbEntity
  8
6_SURFACES-PATINS-SPEC
100
AcDbLine
 62
7
  6
CONTINUOUS
 10
67.3927151727
 20
13.213079438
 11
67.4092079322
 21
13.2454421193
  0
LINE
  5
28B
100
AcDbEntity
  8
6_SURFACES-PATINS-SPEC
100
AcDbLine
 62
7
  6
CONTINUOUS
 10
45.4992521187
 20
14.7870854204
 11
45.52008521
 21
14.8257668752
  0
LINE
  5
28C
100
AcDbEntity
  8
6_SURFACES-PATINS-SPEC
100
AcDbLine
 62
7
  6
CONTINUOUS
 10
44.6328534449
 20
12.4974404
 11
44.6764174495
 21
12.5674432367
  0
LINE
  5
28D
100
AcDbEntity
  8
6_SURFACES-PATINS-SPEC
100
AcDbLine
 62
7
  6
CONTINUOUS
 10
67.4092079322
 20
13.2454421193
 11
67.4279887037
 21
13.2748561241
  0
LINE
  5
28E
100
AcDbEntity
  8
6_SURFACES-PATINS-SPEC
100
AcDbLine
 62
7
  6
CONTINUOUS
 10
45.5196993578
 20
14.8251398803
 11
45.5447935276
 21
14.8611060799
  0
LINE
  5
28F
100
AcDbEntity
  8
6_SURFACES-PATINS-SPEC
100
AcDbLine
 62
7
  6
CONTINUOUS
 10
44.5832750066
 20
12.4314988497
 11
44.6328534449
 21
12.4974404
  0
LINE
  5
290
100
AcDbEntity
  8
6_SURFACES-PATINS-SPEC
100
AcDbLine
 62
7
  6
CONTINUOUS
 10
67.4279887037
 20
13.2748561241
 11
67.4484050375
 21
13.3010869347
  0
LINE
  5
291
100
AcDbEntity
  8
6_SURFACES-PATINS-SPEC
100
AcDbLine
 62
7
  6
CONTINUOUS
 10
44.553297907
 20
12.3968757256
 11
44.5832750066
 21
12.4314988497
  0
LINE
  5
292
100
AcDbEntity
  8
6_SURFACES-PATINS-SPEC
100
AcDbLine
 62
7
  6
CONTINUOUS
 10
45.5443874642
 20
14.8605901789
 11
45.5733954178
 21
14.89337529
  0
LINE
  5
293
100
AcDbEntity
  8
6_SURFACES-PATINS-SPEC
100
AcDbLine
 62
7
  6
CONTINUOUS
 10
44.2271044873
 20
12.1798611382
 11
44.2271209378
 21
12.1798793012
  0
LWPOLYLINE
  5
294
100
AcDbEntity
  8
6_SURFACES-PATINS-SPEC
100
AcDbPolyline
 62
7
  6
CONTINUOUS
 90
16
 70
0
 10
44.5532978538
 20
12.3968756686
 10
44.5523377533
 20
12.395834791
 10
44.5513640117
 20
12.3948066406
 10
44.5503779194
 20
12.3937901401
 10
44.5493807667
 20
12.3927842118
 10
44.5483738441
 20
12.3917877782
 10
44.5473584419
 20
12.3907997616
 10
44.5463358505
 20
12.3898190847
 10
44.5453073603
 20
12.3888446697
 10
44.5437143757
 20
12.3873544507
 10
44.5421112097
 20
12.3858756932
 10
44.5404986088
 20
12.3844075653
 10
44.5388773194
 20
12.3829492347
 10
44.537248088
 20
12.3814998692
 10
44.535611661
 20
12.3800586369
 10
44.5339687849
 20
12.3786247054
  0
LINE
  5
295
100
AcDbEntity
  8
6_SURFACES-PATINS-SPEC
100
AcDbLine
 62
7
  6
CONTINUOUS
 10
67.4484050375
 20
13.3010869347
 11
67.4697285835
 21
13.3239695141
  0
LINE
  5
296
100
AcDbEntity
  8
6_SURFACES-PATINS-SPEC
100
AcDbLine
 62
7
  6
CONTINUOUS
 10
44.5503071877
 20
12.3936812062
 11
44.5533086996
 21
12.3968876442
  0
LINE
  5
297
100
AcDbEntity
  8
6_SURFACES-PATINS-SPEC
100
AcDbLine
 62
7
  6
CONTINUOUS
 10
44.2271209378
 20
12.1798793012
 11
44.2276683527
 21
12.1804572156
  0
LINE
  5
298
100
AcDbEntity
  8
6_SURFACES-PATINS-SPEC
100
AcDbLine
 62
7
  6
CONTINUOUS
 10
44.5452040623
 20
12.3885650233
 11
44.5503071877
 21
12.3936812062
  0
LINE
  5
299
100
AcDbEntity
  8
6_SURFACES-PATINS-SPEC
100
AcDbLine
 62
7
  6
CONTINUOUS
 10
44.2276683527
 20
12.1804572156
 11
44.2288765967
 21
12.1816661251
  0
LINE
  5
29A
100
AcDbEntity
  8
DEFAULT_2
100
AcDbLine
 62
8
  6
CONTINUOUS
 10
68.5247539169
 20
13.0134179434
 11
68.8895948422
 21
13.3782588687
  0
LINE
  5
29B
100
AcDbEntity
  8
1_CURVES_JETS
100
AcDbLine
 62
7
  6
CONTINUOUS
 10
68.9779831898
 20
13.289870521
 11
68.6131422646
 21
12.9250295958
  0
LINE
  5
29C
100
AcDbEntity
  8
6_SURFACES-PATINS-SPEC
100
AcDbLine
 62
7
  6
CONTINUOUS
 10
44.2288765967
 20
12.1816661251
 11
44.2306932034
 21
12.1834032598
  0
LINE
  5
29D
100
AcDbEntity
  8
6_SURFACES-PATINS-SPEC
100
AcDbLine
 62
7
  6
CONTINUOUS
 10
44.5394863231
 20
12.383169218
 11
44.5452040623
 21
12.3885650233
  0
LWPOLYLINE
  5
29E
100
AcDbEntity
  8
6_SURFACES-PATINS-SPEC
100
AcDbPolyline
 62
7
  6
CONTINUOUS
 90
27
 70
0
 10
44.5002302247
 20
12.3734425056
 10
44.4960699301
 20
12.3695414336
 10
44.4918179884
 20
12.365739239
 10
44.4863663313
 20
12.3610317786
 10
44.4808482692
 20
12.3564029237
 10
44.4714028481
 20
12.3486992086
 10
44.4618493742
 20
12.3411286315
 10
44.4522126868
 20
12.3336634228
 10
44.4404632314
 20
12.3247326419
 10
44.4286364336
 20
12.3159055183
 10
44.416740524
 20
12.3071719545
 10
44.4037117404
 20
12.2977546995
 10
44.3906134964
 20
12.2884340485
 10
44.3774485744
 20
12.2792075672
 10
44.3642645073
 20
12.2701056813
 10
44.3510137173
 20
12.2611014578
 10
44.3376929371
 20
12.2522014554
 10
44.3254996233
 20
12.2441952649
 10
44.3132381927
 20
12.2362934925
 10
44.3009012626
 20
12.2285087141
 10
44.2907669447
 20
12.2222545737
 10
44.2805580318
 20
12.216124224
 10
44.270255157
 20
12.2101551173
 10
44.26419722
 20
12.2067688853
 10
44.2580857485
 20
12.203479244
 10
44.2532640869
 20
12.2010027573
 10
44.2483793334
 20
12.1986554627
  0
LINE
  5
29F
100
AcDbEntity
  8
6_SURFACES-PATINS-SPEC
100
AcDbLine
 62
7
  6
CONTINUOUS
 10
44.2306932034
 20
12.1834032598
 11
44.2330886922
 21
12.1856098073
  0
LINE
  5
2A0
100
AcDbEntity
  8
6_SURFACES-PATINS-SPEC
100
AcDbLine
 62
7
  6
CONTINUOUS
 10
67.4697285835
 20
13.3239695141
 11
67.4910553207
 21
13.3433346226
  0
LINE
  5
2A1
100
AcDbEntity
  8
6_SURFACES-PATINS-SPEC
100
AcDbLine
 62
7
  6
CONTINUOUS
 10
44.5329368896
 20
12.3772738256
 11
44.5394863231
 21
12.383169218
  0
LINE
  5
2A2
100
AcDbEntity
  8
6_SURFACES-PATINS-SPEC
100
AcDbLine
 62
7
  6
CONTINUOUS
 10
45.5729888386
 20
14.8929659216
 11
45.6055132078
 21
14.9221481909
  0
LINE
  5
2A3
100
AcDbEntity
  8
6_SURFACES-PATINS-SPEC
100
AcDbLine
 62
7
  6
CONTINUOUS
 10
44.2330886922
 20
12.1856098073
 11
44.2360499
 21
12.1882531462
  0
LINE
  5
2A4
100
AcDbEntity
  8
6_SURFACES-PATINS-SPEC
100
AcDbLine
 62
7
  6
CONTINUOUS
 10
44.2360499
 20
12.1882531462
 11
44.2395748636
 21
12.1913164613
  0
LINE
  5
2A5
100
AcDbEntity
  8
6_SURFACES-PATINS-SPEC
100
AcDbLine
 62
7
  6
CONTINUOUS
 10
44.5253891398
 20
12.3707359844
 11
44.5329368896
 21
12.3772738256
  0
LWPOLYLINE
  5
2A6
100
AcDbEntity
  8
6_SURFACES-PATINS-SPEC
100
AcDbPolyline
 62
7
  6
CONTINUOUS
 90
23
 70
0
 10
44.5339687849
 20
12.3786247054
 10
44.5250477143
 20
12.3710134222
 10
44.5160060134
 20
12.3635443129
 10
44.5068735539
 20
12.3561854055
 10
44.49531162
 20
12.3470569138
 10
44.4836655147
 20
12.338037307
 10
44.4719471351
 20
12.3291120381
 10
44.4584700151
 20
12.3190036683
 10
44.44492098
 20
12.308991582
 10
44.4313070879
 20
12.2990676972
 10
44.4094393405
 20
12.2833828817
 10
44.3874296209
 20
12.2678981308
 10
44.3652875256
 20
12.2526165304
 10
44.3430015896
 20
12.2375452809
 10
44.3289844812
 20
12.2282325007
 10
44.3149031941
 20
12.219017213
 10
44.3007527476
 20
12.2099088272
 10
44.288339396
 20
12.2020549315
 10
44.2758591101
 20
12.1943075712
 10
44.2633014451
 20
12.1866846605
 10
44.25326247
 20
12.1807357277
 10
44.2431480646
 20
12.1749174055
 10
44.2329382062
 20
12.1692704876
  0
LINE
  5
2A7
100
AcDbEntity
  8
6_SURFACES-PATINS-SPEC
100
AcDbLine
 62
7
  6
CONTINUOUS
 10
44.2395748636
 20
12.1913164613
 11
44.2436686013
 21
12.1947922701
  0
LINE
  5
2A8
100
AcDbEntity
  8
6_SURFACES-PATINS-SPEC
100
AcDbLine
 62
7
  6
CONTINUOUS
 10
44.5166964368
 20
12.3634453648
 11
44.5253891398
 21
12.3707359844
  0
LINE
  5
2A9
100
AcDbEntity
  8
6_SURFACES-PATINS-SPEC
100
AcDbLine
 62
7
  6
CONTINUOUS
 10
44.2436686013
 20
12.1947922701
 11
44.2483386374
 21
12.198677009
  0
LINE
  5
2AA
100
AcDbEntity
  8
6_SURFACES-PATINS-SPEC
100
AcDbLine
 62
7
  6
CONTINUOUS
 10
44.2483386374
 20
12.198677009
 11
44.2535830582
 21
12.2029607147
  0
LINE
  5
2AB
100
AcDbEntity
  8
6_SURFACES-PATINS-SPEC
100
AcDbLine
 62
7
  6
CONTINUOUS
 10
44.5067613654
 20
12.3553407243
 11
44.5166964368
 21
12.3634453648
  0
LINE
  5
2AC
100
AcDbEntity
  8
6_SURFACES-PATINS-SPEC
100
AcDbLine
 62
7
  6
CONTINUOUS
 10
44.2535830582
 20
12.2029607147
 11
44.2593947251
 21
12.2076304012
  0
LINE
  5
2AD
100
AcDbEntity
  8
6_SURFACES-PATINS-SPEC
100
AcDbLine
 62
7
  6
CONTINUOUS
 10
44.4955435764
 20
12.3464101955
 11
44.5067613654
 21
12.3553407243
  0
LINE
  5
2AE
100
AcDbEntity
  8
6_SURFACES-PATINS-SPEC
100
AcDbLine
 62
7
  6
CONTINUOUS
 10
44.2593947251
 20
12.2076304012
 11
44.2657626792
 21
12.2126713097
  0
LWPOLYLINE
  5
2AF
100
AcDbEntity
  8
6_SURFACES-PATINS-SPEC
100
AcDbPolyline
 62
7
  6
CONTINUOUS
 90
17
 70
0
 10
44.2449480776
 20
12.2003800465
 10
44.2572800978
 20
12.2101238013
 10
44.2697135191
 20
12.2197383399
 10
44.2839677274
 20
12.2305629966
 10
44.2983059008
 20
12.2412761381
 10
44.3143202947
 20
12.2530675773
 10
44.3304158141
 20
12.2647484109
 10
44.3465880428
 20
12.2763230584
 10
44.3628325648
 20
12.2877959393
 10
44.3794002214
 20
12.2993461742
 10
44.3960399604
 20
12.3107921054
 10
44.41275386
 20
12.3221298269
 10
44.4295439981
 20
12.3333554326
 10
44.4443342569
 20
12.3431012175
 10
44.4591966936
 20
12.3527361836
 10
44.4741432571
 20
12.3622387376
 10
44.4891858964
 20
12.3715872864
  0
LINE
  5
2B0
100
AcDbEntity
  8
6_SURFACES-PATINS-SPEC
100
AcDbLine
 62
7
  6
CONTINUOUS
 10
44.2657626792
 20
12.2126713097
 11
44.2726718433
 21
12.218066387
  0
LINE
  5
2B1
100
AcDbEntity
  8
6_SURFACES-PATINS-SPEC
100
AcDbLine
 62
7
  6
CONTINUOUS
 10
44.4830425133
 20
12.3366728991
 11
44.4955435764
 21
12.3464101955
  0
LINE
  5
2B2
100
AcDbEntity
  8
6_SURFACES-PATINS-SPEC
100
AcDbLine
 62
7
  6
CONTINUOUS
 10
67.4910553207
 20
13.3433346226
 11
67.5115036593
 21
13.3592133083
  0
LINE
  5
2B3
100
AcDbEntity
  8
6_SURFACES-PATINS-SPEC
100
AcDbLine
 62
7
  6
CONTINUOUS
 10
44.2726718433
 20
12.218066387
 11
44.2801051476
 21
12.2237979518
  0
LINE
  5
2B4
100
AcDbEntity
  8
6_SURFACES-PATINS-SPEC
100
AcDbLine
 62
7
  6
CONTINUOUS
 10
44.4692691395
 20
12.3261558128
 11
44.4830425133
 21
12.3366728991
  0
LINE
  5
2B5
100
AcDbEntity
  8
6_SURFACES-PATINS-SPEC
100
AcDbLine
 62
7
  6
CONTINUOUS
 10
44.2801051476
 20
12.2237979518
 11
44.2880586017
 21
12.2298588436
  0
LINE
  5
2B6
100
AcDbEntity
  8
6_SURFACES-PATINS-SPEC
100
AcDbLine
 62
7
  6
CONTINUOUS
 10
44.2880586017
 20
12.2298588436
 11
44.2965332395
 21
12.2362458516
  0
LINE
  5
2B7
100
AcDbEntity
  8
6_SURFACES-PATINS-SPEC
100
AcDbLine
 62
7
  6
CONTINUOUS
 10
44.4542389313
 20
12.3148893639
 11
44.4692691395
 21
12.3261558128
  0
LINE
  5
2B8
100
AcDbEntity
  8
6_SURFACES-PATINS-SPEC
100
AcDbLine
 62
7
  6
CONTINUOUS
 10
44.2965332395
 20
12.2362458516
 11
44.3055288773
 21
12.2429545844
  0
LINE
  5
2B9
100
AcDbEntity
  8
6_SURFACES-PATINS-SPEC
100
AcDbLine
 62
7
  6
CONTINUOUS
 10
44.3055288773
 20
12.2429545844
 11
44.3150427514
 21
12.2499784208
  0
LINE
  5
2BA
100
AcDbEntity
  8
6_SURFACES-PATINS-SPEC
100
AcDbLine
 62
7
  6
CONTINUOUS
 10
44.4379972847
 20
12.3029268373
 11
44.4542389313
 21
12.3148893639
  0
LINE
  5
2BB
100
AcDbEntity
  8
6_SURFACES-PATINS-SPEC
100
AcDbLine
 62
7
  6
CONTINUOUS
 10
44.3150427514
 20
12.2499784208
 11
44.325068559
 21
12.2573074037
  0
LINE
  5
2BC
100
AcDbEntity
  8
6_SURFACES-PATINS-SPEC
100
AcDbLine
 62
7
  6
CONTINUOUS
 10
44.420624457
 20
12.2903472933
 11
44.4379972847
 21
12.3029268373
  0
LINE
  5
2BD
100
AcDbEntity
  8
6_SURFACES-PATINS-SPEC
100
AcDbLine
 62
7
  6
CONTINUOUS
 10
44.325068559
 20
12.2573074037
 11
44.3355958992
 21
12.2649282651
  0
LINE
  5
2BE
100
AcDbEntity
  8
6_SURFACES-PATINS-SPEC
100
AcDbLine
 62
7
  6
CONTINUOUS
 10
44.3355958992
 20
12.2649282651
 11
44.3466100281
 21
12.2728233955
  0
LINE
  5
2BF
100
AcDbEntity
  8
6_SURFACES-PATINS-SPEC
100
AcDbLine
 62
7
  6
CONTINUOUS
 10
44.4022393872
 20
12.2772577438
 11
44.420624457
 21
12.2903472933
  0
LINE
  5
2C0
100
AcDbEntity
  8
6_SURFACES-PATINS-SPEC
100
AcDbLine
 62
7
  6
CONTINUOUS
 10
44.3466100281
 20
12.2728233955
 11
44.3580867553
 21
12.280968288
  0
LINE
  5
2C1
100
AcDbEntity
  8
6_SURFACES-PATINS-SPEC
100
AcDbLine
 62
7
  6
CONTINUOUS
 10
45.6051239746
 20
14.9218374949
 11
45.6407228716
 21
14.9470444499
  0
LINE
  5
2C2
100
AcDbEntity
  8
6_SURFACES-PATINS-SPEC
100
AcDbLine
 62
7
  6
CONTINUOUS
 10
66.9789690998
 20
12.3715872864
 11
66.9936718588
 21
12.3819358235
  0
LINE
  5
2C3
100
AcDbEntity
  8
6_SURFACES-PATINS-SPEC
100
AcDbLine
 62
7
  6
CONTINUOUS
 10
66.9936718588
 20
12.3819358235
 11
67.0060255093
 21
12.3906252337
  0
LINE
  5
2C4
100
AcDbEntity
  8
6_SURFACES-PATINS-SPEC
100
AcDbLine
 62
7
  6
CONTINUOUS
 10
66.8070593959
 20
12.2486432611
 11
66.9865706623
 21
12.3748663814
  0
LINE
  5
2C5
100
AcDbEntity
  8
6_SURFACES-PATINS-SPEC
100
AcDbLine
 62
7
  6
CONTINUOUS
 10
44.3580867553
 20
12.280968288
 11
44.369943361
 21
12.2892974592
  0
LINE
  5
2C6
100
AcDbEntity
  8
6_SURFACES-PATINS-SPEC
100
AcDbLine
 62
7
  6
CONTINUOUS
 10
66.9865706623
 20
12.3748663814
 11
67.0176878362
 21
12.3967179921
  0
LINE
  5
2C7
100
AcDbEntity
  8
6_SURFACES-PATINS-SPEC
100
AcDbLine
 62
7
  6
CONTINUOUS
 10
67.0060255093
 20
12.3906252337
 11
67.0229680761
 21
12.4025218664
  0
LINE
  5
2C8
100
AcDbEntity
  8
6_SURFACES-PATINS-SPEC
100
AcDbLine
 62
7
  6
CONTINUOUS
 10
67.0229680761
 20
12.4025218664
 11
67.0287057032
 21
12.4065377314
  0
LINE
  5
2C9
100
AcDbEntity
  8
6_SURFACES-PATINS-SPEC
100
AcDbLine
 62
7
  6
CONTINUOUS
 10
44.3830889903
 20
12.2638551413
 11
44.4022393872
 21
12.2772577438
  0
LINE
  5
2CA
100
AcDbEntity
  8
6_SURFACES-PATINS-SPEC
100
AcDbLine
 62
7
  6
CONTINUOUS
 10
66.7482229603
 20
12.2075308162
 11
66.8070593959
 21
12.2486432611
  0
LWPOLYLINE
  5
2CB
100
AcDbEntity
  8
6_SURFACES-PATINS-SPEC
100
AcDbPolyline
 62
7
  6
CONTINUOUS
 90
6
 70
0
 10
66.7209787793
 20
12.190597734
 10
66.7641476715
 20
12.2206796637
 10
66.8072546371
 20
12.2508504077
 10
66.850320809
 20
12.2810794429
 10
66.9146556289
 20
12.3263182441
 10
66.9789690998
 20
12.3715872864
  0
LINE
  5
2CC
100
AcDbEntity
  8
6_SURFACES-PATINS-SPEC
100
AcDbLine
 62
7
  6
CONTINUOUS
 10
44.369943361
 20
12.2892974592
 11
44.3820470221
 21
12.2977119932
  0
LINE
  5
2CD
100
AcDbEntity
  8
6_SURFACES-PATINS-SPEC
100
AcDbLine
 62
7
  6
CONTINUOUS
 10
66.7088737275
 20
12.1821941169
 11
66.7209787793
 21
12.190597734
  0
LINE
  5
2CE
100
AcDbEntity
  8
6_SURFACES-PATINS-SPEC
100
AcDbLine
 62
7
  6
CONTINUOUS
 10
66.6952199489
 20
12.1707764806
 11
66.7482229603
 21
12.2075308162
  0
LINE
  5
2CF
100
AcDbEntity
  8
6_SURFACES-PATINS-SPEC
100
AcDbLine
 62
7
  6
CONTINUOUS
 10
66.6828407727
 20
12.1641995425
 11
66.6899099318
 21
12.1690731739
  0
LINE
  5
2D0
100
AcDbEntity
  8
6_SURFACES-PATINS-SPEC
100
AcDbLine
 62
7
  6
CONTINUOUS
 10
66.6826080544
 20
12.1620947514
 11
66.6952199489
 21
12.1707764806
  0
LINE
  5
2D1
100
AcDbEntity
  8
6_SURFACES-PATINS-SPEC
100
AcDbLine
 62
7
  6
CONTINUOUS
 10
44.3820470221
 20
12.2977119932
 11
44.3942555396
 21
12.306109175
  0
LINE
  5
2D2
100
AcDbEntity
  8
6_SURFACES-PATINS-SPEC
100
AcDbLine
 62
7
  6
CONTINUOUS
 10
44.363671507
 20
12.2505056595
 11
44.3830889903
 21
12.2638551413
  0
LINE
  5
2D3
100
AcDbEntity
  8
6_SURFACES-PATINS-SPEC
100
AcDbLine
 62
7
  6
CONTINUOUS
 10
66.6700691607
 20
12.1554177173
 11
66.6828407727
 21
12.1641995425
  0
LINE
  5
2D4
100
AcDbEntity
  8
6_SURFACES-PATINS-SPEC
100
AcDbLine
 62
7
  6
CONTINUOUS
 10
44.3942555396
 20
12.306109175
 11
44.4064230209
 21
12.3143863427
  0
LINE
  5
2D5
100
AcDbEntity
  8
6_SURFACES-PATINS-SPEC
100
AcDbLine
 62
7
  6
CONTINUOUS
 10
44.3445377386
 20
12.2375948134
 11
44.363671507
 21
12.2505056595
  0
LINE
  5
2D6
100
AcDbEntity
  8
6_SURFACES-PATINS-SPEC
100
AcDbLine
 62
7
  6
CONTINUOUS
 10
44.4064230209
 20
12.3143863427
 11
44.4184038388
 21
12.3224439844
  0
LINE
  5
2D7
100
AcDbEntity
  8
6_SURFACES-PATINS-SPEC
100
AcDbLine
 62
7
  6
CONTINUOUS
 10
67.5115036593
 20
13.3592133083
 11
67.5302976644
 21
13.3718147429
  0
LINE
  5
2D8
100
AcDbEntity
  8
6_SURFACES-PATINS-SPEC
100
AcDbLine
 62
7
  6
CONTINUOUS
 10
44.4184038388
 20
12.3224439844
 11
44.4300576623
 21
12.3301888947
  0
LINE
  5
2D9
100
AcDbEntity
  8
6_SURFACES-PATINS-SPEC
100
AcDbLine
 62
7
  6
CONTINUOUS
 10
44.3262195858
 20
12.2254730254
 11
44.3445377386
 21
12.2375948134
  0
LINE
  5
2DA
100
AcDbEntity
  8
6_SURFACES-PATINS-SPEC
100
AcDbLine
 62
7
  6
CONTINUOUS
 10
44.4300576623
 20
12.3301888947
 11
44.441253077
 21
12.3375368872
  0
LINE
  5
2DB
100
AcDbEntity
  8
6_SURFACES-PATINS-SPEC
100
AcDbLine
 62
7
  6
CONTINUOUS
 10
44.3091802157
 20
12.2144240784
 11
44.3262195858
 21
12.2254730254
  0
LINE
  5
2DC
100
AcDbEntity
  8
6_SURFACES-PATINS-SPEC
100
AcDbLine
 62
7
  6
CONTINUOUS
 10
44.441253077
 20
12.3375368872
 11
44.4518804781
 21
12.3444208468
  0
LINE
  5
2DD
100
AcDbEntity
  8
6_SURFACES-PATINS-SPEC
100
AcDbLine
 62
7
  6
CONTINUOUS
 10
44.4518804781
 20
12.3444208468
 11
44.4618580875
 21
12.350794223
  0
LINE
  5
2DE
100
AcDbEntity
  8
6_SURFACES-PATINS-SPEC
100
AcDbLine
 62
7
  6
CONTINUOUS
 10
44.2936523331
 20
12.204567796
 11
44.3091802157
 21
12.2144240784
  0
LINE
  5
2DF
100
AcDbEntity
  8
6_SURFACES-PATINS-SPEC
100
AcDbLine
 62
7
  6
CONTINUOUS
 10
44.4618580875
 20
12.350794223
 11
44.4711202286
 21
12.35662295
  0
LINE
  5
2E0
100
AcDbEntity
  8
6_SURFACES-PATINS-SPEC
100
AcDbLine
 62
7
  6
CONTINUOUS
 10
44.2795643331
 20
12.1958277242
 11
44.2936523331
 21
12.204567796
  0
LINE
  5
2E1
100
AcDbEntity
  8
6_SURFACES-PATINS-SPEC
100
AcDbLine
 62
7
  6
CONTINUOUS
 10
44.4711202286
 20
12.35662295
 11
44.4796174775
 21
12.3618852606
  0
LINE
  5
2E2
100
AcDbEntity
  8
6_SURFACES-PATINS-SPEC
100
AcDbLine
 62
7
  6
CONTINUOUS
 10
44.4796174775
 20
12.3618852606
 11
44.4873473861
 21
12.3665900898
  0
LWPOLYLINE
  5
2E3
100
AcDbEntity
  8
6_SURFACES-PATINS-SPEC
100
AcDbPolyline
 62
7
  6
CONTINUOUS
 90
26
 70
0
 10
67.7166948989
 20
13.4279816731
 10
67.7151534719
 20
13.4270435437
 10
67.7135732918
 20
13.4261701609
 10
67.7119623965
 20
13.4253518134
 10
67.7103288242
 20
13.4245787898
 10
67.7081793031
 20
13.4236268619
 10
67.7060082616
 20
13.4227283695
 10
67.7038189832
 20
13.421876407
 10
67.7016147515
 20
13.4210640687
 10
67.6979404854
 20
13.4197911475
 10
67.6942399457
 20
13.4185954724
 10
67.6905188347
 20
13.41746464
 10
67.6860407245
 20
13.4161797601
 10
67.6815446174
 20
13.4149602794
 10
67.6770338578
 20
13.4137963338
 10
67.6713800962
 20
13.4124068521
 10
67.6657106205
 20
13.4110823498
 10
67.6600273797
 20
13.409816469
 10
67.6543323229
 20
13.4086028523
 10
67.6486273991
 20
13.407435142
 10
67.6429145574
 20
13.4063069804
 10
67.6342293887
 20
13.4046581517
 10
67.625531827
 20
13.4030794602
 10
67.6168232381
 20
13.4015645353
 10
67.6081049876
 20
13.4001070062
 10
67.5993784414
 20
13.3987005026
  0
LINE
  5
2E4
100
AcDbEntity
  8
6_SURFACES-PATINS-SPEC
100
AcDbLine
 62
7
  6
CONTINUOUS
 10
44.2667978666
 20
12.1881047015
 11
44.2795643331
 21
12.1958277242
  0
LINE
  5
2E5
100
AcDbEntity
  8
6_SURFACES-PATINS-SPEC
100
AcDbLine
 62
7
  6
CONTINUOUS
 10
44.4873473861
 20
12.3665900898
 11
44.4943474367
 21
12.3707706863
  0
LINE
  5
2E6
100
AcDbEntity
  8
6_SURFACES-PATINS-SPEC
100
AcDbLine
 62
7
  6
CONTINUOUS
 10
44.2552333933
 20
12.1813058546
 11
44.2667978666
 21
12.1881047015
  0
LINE
  5
2E7
100
AcDbEntity
  8
6_SURFACES-PATINS-SPEC
100
AcDbLine
 62
7
  6
CONTINUOUS
 10
44.4943474367
 20
12.3707706863
 11
44.5006533395
 21
12.374458422
  0
LINE
  5
2E8
100
AcDbEntity
  8
6_SURFACES-PATINS-SPEC
100
AcDbLine
 62
7
  6
CONTINUOUS
 10
67.5302976644
 20
13.3718147429
 11
67.5470162642
 21
13.3815810286
  0
LINE
  5
2E9
100
AcDbEntity
  8
6_SURFACES-PATINS-SPEC
100
AcDbLine
 62
7
  6
CONTINUOUS
 10
44.5063604828
 20
12.3819358235
 11
44.5214546557
 21
12.3906252337
  0
LINE
  5
2EA
100
AcDbEntity
  8
6_SURFACES-PATINS-SPEC
100
AcDbLine
 62
7
  6
CONTINUOUS
 10
44.5006533395
 20
12.374458422
 11
44.5062935863
 21
12.3776797465
  0
LINE
  5
2EB
100
AcDbEntity
  8
6_SURFACES-PATINS-SPEC
100
AcDbLine
 62
7
  6
CONTINUOUS
 10
44.2448235245
 20
12.1753858674
 11
44.2552333933
 21
12.1813058546
  0
LWPOLYLINE
  5
2EC
100
AcDbEntity
  8
6_SURFACES-PATINS-SPEC
100
AcDbPolyline
 62
7
  6
CONTINUOUS
 90
28
 70
0
 10
44.5214546557
 20
12.3906252337
 10
44.5239874815
 20
12.3920333954
 10
44.5265280302
 20
12.3934279433
 10
44.5290772394
 20
12.3948065039
 10
44.5316360467
 20
12.3961667037
 10
44.5342053896
 20
12.3975061691
 10
44.5358966354
 20
12.3983720476
 10
44.5375936662
 20
12.3992264445
 10
44.5392973329
 20
12.4000678165
 10
44.5410084862
 20
12.40089462
 10
44.5427279768
 20
12.4017053115
 10
44.5444566555
 20
12.4024983477
 10
44.5455226771
 20
12.4029752607
 10
44.5465932289
 20
12.4034420659
 10
44.5476690593
 20
12.4038958881
 10
44.5487509168
 20
12.4043338521
 10
44.5498395498
 20
12.4047530826
 10
44.5509357068
 20
12.4051507043
 10
44.5520401362
 20
12.4055238421
 10
44.552720007
 20
12.405738213
 10
44.5534042672
 20
12.4059387084
 10
44.5540939333
 20
12.4061216826
 10
44.5547900219
 20
12.4062834897
 10
44.55519421
 20
12.4063651835
 10
44.5556005049
 20
12.4064350493
 10
44.5560085453
 20
12.4064894922
 10
44.5564179696
 20
12.4065249173
 10
44.5568284164
 20
12.4065377298
  0
LINE
  5
2ED
100
AcDbEntity
  8
6_SURFACES-PATINS-SPEC
100
AcDbLine
 62
7
  6
CONTINUOUS
 10
44.5062935863
 20
12.3776797465
 11
44.5112831652
 21
12.3804532214
  0
LINE
  5
2EE
100
AcDbEntity
  8
6_SURFACES-PATINS-SPEC
100
AcDbLine
 62
7
  6
CONTINUOUS
 10
45.6403664854
 20
14.9468217588
 11
45.6785582062
 21
14.9677340766
  0
LINE
  5
2EF
100
AcDbEntity
  8
6_SURFACES-PATINS-SPEC
100
AcDbLine
 62
7
  6
CONTINUOUS
 10
44.2355274187
 20
12.1703047807
 11
44.2448235245
 21
12.1753858674
  0
LINE
  5
2F0
100
AcDbEntity
  8
6_SURFACES-PATINS-SPEC
100
AcDbLine
 62
7
  6
CONTINUOUS
 10
44.5112831652
 20
12.3804532214
 11
44.5156101481
 21
12.3827835273
  0
LWPOLYLINE
  5
2F1
100
AcDbEntity
  8
6_SURFACES-PATINS-SPEC
100
AcDbPolyline
 62
7
  6
CONTINUOUS
 90
16
 70
0
 10
44.2329382062
 20
12.1692704876
 10
44.2310847269
 20
12.1682737321
 10
44.2292267823
 20
12.1672853647
 10
44.2273639089
 20
12.1663063034
 10
44.2254956432
 20
12.1653374659
 10
44.2236215218
 20
12.1643797698
 10
44.2217410811
 20
12.1634341331
 10
44.2198538576
 20
12.1625014733
 10
44.2186102008
 20
12.1618965173
 10
44.2173629327
 20
12.1612989404
 10
44.216111569
 20
12.1607101266
 10
44.2148556252
 20
12.1601314594
 10
44.2135946168
 20
12.1595643226
 10
44.2123280594
 20
12.1590100999
 10
44.2110554685
 20
12.1584701751
 10
44.2097763596
 20
12.1579459318
  0
LINE
  5
2F2
100
AcDbEntity
  8
6_SURFACES-PATINS-SPEC
100
AcDbLine
 62
7
  6
CONTINUOUS
 10
44.2272497093
 20
12.1659951276
 11
44.2355274187
 21
12.1703047807
  0
LINE
  5
2F3
100
AcDbEntity
  8
6_SURFACES-PATINS-SPEC
100
AcDbLine
 62
7
  6
CONTINUOUS
 10
44.5156101481
 20
12.3827835273
 11
44.5192529486
 21
12.3846730573
  0
LINE
  5
2F4
100
AcDbEntity
  8
6_SURFACES-PATINS-SPEC
100
AcDbLine
 62
7
  6
CONTINUOUS
 10
67.5470162642
 20
13.3815810286
 11
67.5616717937
 21
13.389091919
  0
LINE
  5
2F5
100
AcDbEntity
  8
6_SURFACES-PATINS-SPEC
100
AcDbLine
 62
7
  6
CONTINUOUS
 10
44.5192529486
 20
12.3846730573
 11
44.5221773991
 21
12.3861224666
  0
LINE
  5
2F6
100
AcDbEntity
  8
6_SURFACES-PATINS-SPEC
100
AcDbLine
 62
7
  6
CONTINUOUS
 10
44.2198322619
 20
12.162364735
 11
44.2272497093
 21
12.1659951276
  0
LINE
  5
2F7
100
AcDbEntity
  8
6_SURFACES-PATINS-SPEC
100
AcDbLine
 62
7
  6
CONTINUOUS
 10
44.5221773991
 20
12.3861224666
 11
44.5243293233
 21
12.3871304629
  0
LINE
  5
2F8
100
AcDbEntity
  8
6_SURFACES-PATINS-SPEC
100
AcDbLine
 62
7
  6
CONTINUOUS
 10
67.5616717937
 20
13.389091919
 11
67.5741814958
 21
13.3947422302
  0
LINE
  5
2F9
100
AcDbEntity
  8
6_SURFACES-PATINS-SPEC
100
AcDbLine
 62
7
  6
CONTINUOUS
 10
44.2130496584
 20
12.1593063801
 11
44.2198322619
 21
12.162364735
  0
LINE
  5
2FA
100
AcDbEntity
  8
6_SURFACES-PATINS-SPEC
100
AcDbLine
 62
7
  6
CONTINUOUS
 10
67.5741814958
 20
13.3947422302
 11
67.584334773
 21
13.3987977799
  0
LINE
  5
2FB
100
AcDbEntity
  8
6_SURFACES-PATINS-SPEC
100
AcDbLine
 62
7
  6
CONTINUOUS
 10
66.6700691607
 20
12.1554177173
 11
66.6203477346
 21
12.137426957
  0
LINE
  5
2FC
100
AcDbEntity
  8
6_SURFACES-PATINS-SPEC
100
AcDbLine
 62
7
  6
CONTINUOUS
 10
67.584334773
 20
13.3987977799
 11
67.5918234733
 21
13.4014536447
  0
LINE
  5
2FD
100
AcDbEntity
  8
6_SURFACES-PATINS-SPEC
100
AcDbLine
 62
7
  6
CONTINUOUS
 10
67.5918234733
 20
13.4014536447
 11
67.5964515291
 21
13.4029200525
  0
LINE
  5
2FE
100
AcDbEntity
  8
6_SURFACES-PATINS-SPEC
100
AcDbLine
 62
7
  6
CONTINUOUS
 10
66.5698152516
 20
12.1223164503
 11
66.6203477346
 21
12.137426957
  0
LINE
  5
2FF
100
AcDbEntity
  8
6_SURFACES-PATINS-SPEC
100
AcDbLine
 62
7
  6
CONTINUOUS
 10
67.5964515291
 20
13.4029200525
 11
67.5979977616
 21
13.4033665944
  0
LWPOLYLINE
  5
300
100
AcDbEntity
  8
1_CURVES_JETS
100
AcDbPolyline
 62
7
  6
CONTINUOUS
 90
38
 70
0
 10
25.3882047343
 20
26.1834346393
 10
25.3934476306
 20
26.1847973511
 10
25.3986994978
 20
26.1861251692
 10
25.4039613525
 20
26.1874135745
 10
25.4092342113
 20
26.1886580481
 10
25.4119640206
 20
26.1892820069
 10
25.4146975907
 20
26.1898894084
 10
25.4174354719
 20
26.1904766361
 10
25.4201782144
 20
26.1910400738
 10
25.4229263684
 20
26.1915761053
 10
25.425680484
 20
26.1920811141
 10
25.4284411115
 20
26.1925514839
 10
25.4304852723
 20
26.1928740915
 10
25.4325331535
 20
26.1931710141
 10
25.4345846203
 20
26.1934374508
 10
25.4366395377
 20
26.1936686006
 10
25.4379947955
 20
26.1937984708
 10
25.4393520697
 20
26.1939049889
 10
25.4407119389
 20
26.1939821901
 10
25.4420749814
 20
26.1940241099
 10
25.4434417755
 20
26.1940247835
 10
25.4443639102
 20
26.1939986766
 10
25.4452821021
 20
26.1939474476
 10
25.4461904436
 20
26.1938673991
 10
25.4467470998
 20
26.193800689
 10
25.4473025367
 20
26.1937146732
 10
25.447861592
 20
26.1936025445
 10
25.4484291034
 20
26.193457496
 10
25.4487427965
 20
26.1933620855
 10
25.4490559214
 20
26.1932533551
 10
25.4493639614
 20
26.1931297843
 10
25.4496623998
 20
26.1929898526
 10
25.4499467199
 20
26.1928320395
 10
25.4502124051
 20
26.1926548247
 10
25.4504549387
 20
26.1924566877
 10
25.4506698039
 20
26.192236108
 10
25.4508524841
 20
26.1919915651
 10
25.4509984627
 20
26.1917215387
  0
LWPOLYLINE
  5
301
100
AcDbEntity
  8
1_CURVES_JETS
100
AcDbPolyline
 62
7
  6
CONTINUOUS
 90
17
 70
0
 10
27.008498273
 20
23.8324705788
 10
28.3887367841
 20
24.0575289457
 10
29.7712239171
 20
24.2687004112
 10
31.1557794607
 20
24.4660798202
 10
32.5422232038
 20
24.6497620175
 10
33.9373871289
 20
24.8206613516
 10
35.3341405987
 20
24.9778937871
 10
36.7323478995
 20
25.121532329
 10
38.1318733179
 20
25.2516499823
 10
39.5384991318
 20
25.3687792238
 10
40.9461894025
 20
25.472392354
 10
42.3548161769
 20
25.562534945
 10
43.7642515021
 20
25.6392525691
 10
45.1790702535
 20
25.7027755513
 10
46.5944236615
 20
25.7528502155
 10
48.0101612351
 20
25.7894970782
 10
49.4261324837
 20
25.8127366559
  0
LWPOLYLINE
  5
302
100
AcDbEntity
  8
1_CURVES_JETS
100
AcDbPolyline
 62
7
  6
CONTINUOUS
 90
49
 70
0
 10
27.0084982688
 20
23.8324705781
 10
26.9916462391
 20
23.8300307696
 10
26.9747253872
 20
23.8280500826
 10
26.9577506144
 20
23.8265298698
 10
26.9407368223
 20
23.8254714838
 10
26.9236989122
 20
23.8248762772
 10
26.9066517858
 20
23.8247456026
 10
26.8896128761
 20
23.8250802921
 10
26.8725916625
 20
23.8258795334
 10
26.8556001584
 20
23.8271421585
 10
26.8386503769
 20
23.8288669993
 10
26.8217543312
 20
23.8310528877
 10
26.8049240345
 20
23.8336986558
 10
26.7881747368
 20
23.836802187
 10
26.7715156257
 20
23.8403611837
 10
26.7549591547
 20
23.8443725733
 10
26.7385177777
 20
23.8488332833
 10
26.7222039484
 20
23.8537402413
 10
26.7060301206
 20
23.8590903747
 10
26.6900119819
 20
23.8648790014
 10
26.6741578212
 20
23.8711024543
 10
26.6584792257
 20
23.8777556429
 10
26.6429877828
 20
23.884833477
 10
26.62769508
 20
23.8923308662
 10
26.6126127044
 20
23.9002427201
 10
26.5977551218
 20
23.9085618999
 10
26.5831300107
 20
23.9172834299
 10
26.5687480191
 20
23.9264004543
 10
26.5546197952
 20
23.9359061173
 10
26.540755987
 20
23.945793563
 10
26.5271672428
 20
23.9560559358
 10
26.5138663499
 20
23.9666841474
 10
26.5008605126
 20
23.9776715856
 10
26.4881591759
 20
23.9890095369
 10
26.4757717848
 20
24.0006892876
 10
26.4637077845
 20
24.012702124
 10
26.45197662
 20
24.0250393325
 10
26.4405889682
 20
24.0376903253
 10
26.4295511083
 20
24.0506474726
 10
26.4188706454
 20
24.0639013572
 10
26.4085551843
 20
24.0774425617
 10
26.39861233
 20
24.0912616687
 10
26.3890496875
 20
24.105349261
 10
26.379875233
 20
24.1196945331
 10
26.3710956035
 20
24.1342855883
 10
26.3627178472
 20
24.1491091684
 10
26.3547490126
 20
24.1641520153
 10
26.3471961481
 20
24.179400871
 10
26.3400663019
 20
24.1948424773
  0
LINE
  5
303
100
AcDbEntity
  8
0
100
AcDbLine
 62
7
  6
CONTINUOUS
 10
18.3265306122
 20
31.4401946387
 11
78.3265306122
 21
31.4401946387
  0
LINE
  5
304
100
AcDbEntity
  8
0
100
AcDbLine
 62
7
  6
CONTINUOUS
 10
53.3265306122
 20
34.9401946387
 11
43.3265306122
 21
34.9401946387
  0
LINE
  5
305
100
AcDbEntity
  8
1_CURVES_JETS
100
AcDbLine
 62
7
  6
CONTINUOUS
 10
51.1756518849
 20
25.8189605081
 11
51.209069246
 21
25.8188265471
  0
LWPOLYLINE
  5
306
100
AcDbEntity
  8
1_CURVES_JETS
100
AcDbPolyline
 62
7
  6
CONTINUOUS
 90
20
 70
0
 10
51.2090692472
 20
25.8188265546
 10
52.0462531136
 20
25.8124675086
 10
52.8833774314
 20
25.8004431894
 10
53.7205511124
 20
25.7829196981
 10
54.5576806647
 20
25.7600888664
 10
55.3947296209
 20
25.7321313111
 10
56.231665388
 20
25.699219941
 10
57.0684584215
 20
25.6615220476
 10
57.9050793402
 20
25.6190847477
 10
58.7414586049
 20
25.5708533319
 10
59.5775044622
 20
25.5163521882
 10
60.4131136021
 20
25.4552191155
 10
61.2481600571
 20
25.3869411874
 10
62.082477328
 20
25.3107483773
 10
62.499279661
 20
25.2693292051
 10
62.915821601
 20
25.225381739
 10
63.3320093468
 20
25.1785973559
 10
63.747767914
 20
25.1284724639
 10
64.1629538142
 20
25.0741947884
 10
64.5772930663
 20
25.0142501507
  0
LWPOLYLINE
  5
307
100
AcDbEntity
  8
1_CURVES_JETS
100
AcDbPolyline
 62
7
  6
CONTINUOUS
 90
46
 70
0
 10
49.0094666389
 20
15.0725742448
 10
49.0170137767
 20
15.0716099169
 10
49.0245353504
 20
15.0704138741
 10
49.0320236625
 20
15.0689888062
 10
49.0394710156
 20
15.0673374026
 10
49.0468697122
 20
15.0654623531
 10
49.0542120548
 20
15.0633663472
 10
49.0614903461
 20
15.0610520745
 10
49.0686968886
 20
15.0585222248
 10
49.0758239847
 20
15.0557794876
 10
49.0828135115
 20
15.0528486776
 10
49.089710828
 20
15.0497133428
 10
49.0965096107
 20
15.0463761243
 10
49.1032035361
 20
15.042839663
 10
49.1097862807
 20
15.0391065999
 10
49.116251521
 20
15.0351795762
 10
49.1225929333
 20
15.0310612328
 10
49.1288041943
 20
15.0267542108
 10
49.1348789804
 20
15.0222611511
 10
49.1408109681
 20
15.017584695
 10
49.1465938338
 20
15.0127274832
 10
49.152221254
 20
15.007692157
 10
49.1577242396
 20
15.0024456879
 10
49.1630598407
 20
14.9970275203
 10
49.168224663
 20
14.9914438385
 10
49.1732153121
 20
14.985700827
 10
49.1780283937
 20
14.9798046699
 10
49.1826605135
 20
14.9737615518
 10
49.1871082772
 20
14.9675776569
 10
49.1913682905
 20
14.9612591696
 10
49.195437159
 20
14.9548122742
 10
49.1993114884
 20
14.9482431552
 10
49.2029878845
 20
14.9415579969
 10
49.2064629529
 20
14.9347629836
 10
49.2097682267
 20
14.9277879847
 10
49.2128610278
 20
14.9207148873
 10
49.2157381416
 20
14.9135515607
 10
49.2183963532
 20
14.906305874
 10
49.220832448
 20
14.8989856964
 10
49.2230432113
 20
14.8915988971
 10
49.2250254284
 20
14.8841533452
 10
49.2267758845
 20
14.8766569099
 10
49.2282913649
 20
14.8691174604
 10
49.229568655
 20
14.8615428659
 10
49.2306045399
 20
14.8539409955
 10
49.231395805
 20
14.8463197184
  0
LINE
  5
308
100
AcDbEntity
  8
6_SURFACES-PATINS-SPEC
100
AcDbLine
 62
7
  6
CONTINUOUS
 10
50.9295459312
 20
13.5715991268
 11
50.9314620227
 21
13.5713371992
  0
LINE
  5
309
100
AcDbEntity
  8
6_SURFACES-PATINS-SPEC
100
AcDbLine
 62
7
  6
CONTINUOUS
 10
50.9314620227
 20
13.5713371992
 11
50.9351068667
 21
13.5707802714
  0
LINE
  5
30A
100
AcDbEntity
  8
DEFAULT_1
100
AcDbLine
 62
7
  6
CENTER
 10
71.3680198855
 20
30.3974977541
 11
76.4381533672
 21
29.5944675002
  0
LINE
  5
30B
100
AcDbEntity
  8
6_SURFACES-PATINS-SPEC
100
AcDbLine
 62
7
  6
CONTINUOUS
 10
50.9351068667
 20
13.5707802714
 11
50.9406439309
 21
13.5698242683
  0
LINE
  5
30C
100
AcDbEntity
  8
6_SURFACES-PATINS-SPEC
100
AcDbLine
 62
7
  6
CONTINUOUS
 10
32.4122918893
 20
15.2360021554
 11
32.4536689471
 21
15.228245685
  0
LINE
  5
30D
100
AcDbEntity
  8
6_SURFACES-PATINS-SPEC
100
AcDbLine
 62
7
  6
CONTINUOUS
 10
50.9405489967
 20
13.569841656
 11
50.9480875584
 21
13.5683609915
  0
LINE
  5
30E
100
AcDbEntity
  8
6_SURFACES-PATINS-SPEC
100
AcDbLine
 62
7
  6
CONTINUOUS
 10
52.0832459619
 20
12.1223164533
 11
52.1635057651
 21
12.104498415
  0
LINE
  5
30F
100
AcDbEntity
  8
6_SURFACES-PATINS-SPEC
100
AcDbLine
 62
7
  6
CONTINUOUS
 10
50.9479634091
 20
13.5683869685
 11
50.9575169181
 21
13.5662385851
  0
LINE
  5
310
100
AcDbEntity
  8
6_SURFACES-PATINS-SPEC
100
AcDbLine
 62
7
  6
CONTINUOUS
 10
50.9573597689
 20
13.5662763396
 11
50.9692373058
 21
13.5631991003
  0
LINE
  5
311
100
AcDbEntity
  8
6_SURFACES-PATINS-SPEC
100
AcDbLine
 62
7
  6
CONTINUOUS
 10
52.0327134898
 20
12.137426957
 11
52.0832459619
 21
12.1223164533
  0
LINE
  5
312
100
AcDbEntity
  8
6_SURFACES-PATINS-SPEC
100
AcDbLine
 62
7
  6
CONTINUOUS
 10
50.969034726
 20
13.5632553702
 11
50.9835476526
 21
13.558891615
  0
LINE
  5
313
100
AcDbEntity
  8
6_SURFACES-PATINS-SPEC
100
AcDbLine
 62
7
  6
CONTINUOUS
 10
32.4535127822
 20
15.2282841087
 11
32.4938452138
 21
15.2159264927
  0
LINE
  5
314
100
AcDbEntity
  8
6_SURFACES-PATINS-SPEC
100
AcDbLine
 62
7
  6
CONTINUOUS
 10
34.1050931692
 20
12.1479212265
 11
34.1837907336
 21
12.122827541
  0
LINE
  5
315
100
AcDbEntity
  8
6_SURFACES-PATINS-SPEC
100
AcDbLine
 62
7
  6
CONTINUOUS
 10
50.9832879866
 20
13.5589756424
 11
51.0002317621
 21
13.5530306175
  0
LINE
  5
316
100
AcDbEntity
  8
6_SURFACES-PATINS-SPEC
100
AcDbLine
 62
7
  6
CONTINUOUS
 10
51.9829920637
 20
12.1554177173
 11
52.0327134898
 21
12.137426957
  0
LINE
  5
317
100
AcDbEntity
  8
6_SURFACES-PATINS-SPEC
100
AcDbLine
 62
7
  6
CONTINUOUS
 10
34.0790687165
 20
12.1579456215
 11
34.1050931692
 21
12.1479212265
  0
LINE
  5
318
100
AcDbEntity
  8
6_SURFACES-PATINS-SPEC
100
AcDbLine
 62
7
  6
CONTINUOUS
 10
50.999912423
 20
13.5531514422
 11
51.018775963
 21
13.5454173709
  0
LINE
  5
319
100
AcDbEntity
  8
6_SURFACES-PATINS-SPEC
100
AcDbLine
 62
7
  6
CONTINUOUS
 10
34.0742950311
 20
12.1599567592
 11
34.0790768054
 21
12.1579423854
  0
LWPOLYLINE
  5
31A
100
AcDbEntity
  8
6_SURFACES-PATINS-SPEC
100
AcDbPolyline
 62
7
  6
CONTINUOUS
 90
33
 70
0
 10
34.0790686687
 20
12.1579456459
 10
34.0750439099
 20
12.1596536589
 10
34.0710737557
 20
12.1614886327
 10
34.0671446385
 20
12.1634125478
 10
34.0591543829
 20
12.1675317713
 10
34.0512531276
 20
12.1718151178
 10
34.0414865368
 20
12.1773209063
 10
34.0317980738
 20
12.182964552
 10
34.0204973586
 20
12.1897239265
 10
34.0092667975
 20
12.1965987469
 10
33.9967113558
 20
12.2044403839
 10
33.9842206428
 20
12.2123848841
 10
33.9707275084
 20
12.2211086933
 10
33.9572959138
 20
12.2299269618
 10
33.9382887472
 20
12.242617194
 10
33.9193899726
 20
12.2554688382
 10
33.9005937558
 20
12.268470468
 10
33.8819165974
 20
12.2815990867
 10
33.8633418401
 20
12.2948717397
 10
33.8448753734
 20
12.3082942052
 10
33.8319813476
 20
12.3178099339
 10
33.8191506653
 20
12.3274108916
 10
33.8074021565
 20
12.336332809
 10
33.7957239609
 20
12.3453464121
 10
33.785412804
 20
12.3534465584
 10
33.7751809739
 20
12.3616471301
 10
33.7665586919
 20
12.3687154234
 10
33.7580340729
 20
12.3758999156
 10
33.7513127319
 20
12.381752418
 10
33.7447111144
 20
12.3877428669
 10
33.741575871
 20
12.3907079432
 10
33.738510167
 20
12.3937430801
 10
33.7355464628
 20
12.3968756696
  0
LINE
  5
31B
100
AcDbEntity
  8
6_SURFACES-PATINS-SPEC
100
AcDbLine
 62
7
  6
CONTINUOUS
 10
32.4936181673
 20
15.2160102119
 11
32.5323936111
 21
15.1991882029
  0
LINE
  5
31C
100
AcDbEntity
  8
6_SURFACES-PATINS-SPEC
100
AcDbLine
 62
7
  6
CONTINUOUS
 10
34.0671765052
 20
12.163238769
 11
34.0742950311
 21
12.1599567592
  0
LINE
  5
31D
100
AcDbEntity
  8
6_SURFACES-PATINS-SPEC
100
AcDbLine
 62
7
  6
CONTINUOUS
 10
51.0184052075
 20
13.5455813025
 11
51.038564081
 21
13.5359417169
  0
LINE
  5
31E
100
AcDbEntity
  8
6_SURFACES-PATINS-SPEC
100
AcDbLine
 62
7
  6
CONTINUOUS
 10
34.0593009834
 20
12.1671653399
 11
34.0671765052
 21
12.163238769
  0
LINE
  5
31F
100
AcDbEntity
  8
6_SURFACES-PATINS-SPEC
100
AcDbLine
 62
7
  6
CONTINUOUS
 10
34.0504432271
 20
12.1718514163
 11
34.0593009834
 21
12.1671653399
  0
LINE
  5
320
100
AcDbEntity
  8
6_SURFACES-PATINS-SPEC
100
AcDbLine
 62
7
  6
CONTINUOUS
 10
34.0404544689
 20
12.177389602
 11
34.0504432271
 21
12.1718514163
  0
LINE
  5
321
100
AcDbEntity
  8
6_SURFACES-PATINS-SPEC
100
AcDbLine
 62
7
  6
CONTINUOUS
 10
51.0381583702
 20
13.5361506927
 11
51.0591575562
 21
13.5244756248
  0
LINE
  5
322
100
AcDbEntity
  8
1_CURVES_JETS
100
AcDbLine
 62
7
  6
CONTINUOUS
 10
30.4280528346
 20
15.7239314001
 11
30.4789449107
 21
15.6954724323
  0
LINE
  5
323
100
AcDbEntity
  8
6_SURFACES-PATINS-SPEC
100
AcDbLine
 62
7
  6
CONTINUOUS
 10
32.532104591
 20
15.1993333039
 11
32.5688281755
 21
15.1782410311
  0
LINE
  5
324
100
AcDbEntity
  8
6_SURFACES-PATINS-SPEC
100
AcDbLine
 62
7
  6
CONTINUOUS
 10
34.0292547306
 20
12.1838421887
 11
34.0404544689
 21
12.177389602
  0
LINE
  5
325
100
AcDbEntity
  8
6_SURFACES-PATINS-SPEC
100
AcDbLine
 62
7
  6
CONTINUOUS
 10
34.0168160493
 20
12.1912437292
 11
34.0292547306
 21
12.1838421887
  0
LINE
  5
326
100
AcDbEntity
  8
6_SURFACES-PATINS-SPEC
100
AcDbLine
 62
7
  6
CONTINUOUS
 10
34.0030349512
 20
12.1996762608
 11
34.0168160493
 21
12.1912437292
  0
LINE
  5
327
100
AcDbEntity
  8
1_CURVES_JETS
100
AcDbLine
 62
7
  6
CONTINUOUS
 10
30.2870439318
 20
15.8109065729
 11
30.4280528346
 21
15.7239314001
  0
LINE
  5
328
100
AcDbEntity
  8
6_SURFACES-PATINS-SPEC
100
AcDbLine
 62
7
  6
CONTINUOUS
 10
33.9877414916
 20
12.2092699312
 11
34.0030349512
 21
12.1996762608
  0
LINE
  5
329
100
AcDbEntity
  8
6_SURFACES-PATINS-SPEC
100
AcDbLine
 62
7
  6
CONTINUOUS
 10
33.9707772221
 20
12.2201580763
 11
33.9877414916
 21
12.2092699312
  0
LINE
  5
32A
100
AcDbEntity
  8
6_SURFACES-PATINS-SPEC
100
AcDbLine
 62
7
  6
CONTINUOUS
 10
51.0587309142
 20
13.5247308477
 11
51.0801322898
 21
13.5109328505
  0
LINE
  5
32B
100
AcDbEntity
  8
6_SURFACES-PATINS-SPEC
100
AcDbLine
 62
7
  6
CONTINUOUS
 10
33.9522135064
 20
12.2323329899
 11
33.9707772221
 21
12.2201580763
  0
LINE
  5
32C
100
AcDbEntity
  8
6_SURFACES-PATINS-SPEC
100
AcDbLine
 62
7
  6
CONTINUOUS
 10
33.9325669986
 20
12.2454871198
 11
33.9522135064
 21
12.2323329899
  0
LINE
  5
32D
100
AcDbEntity
  8
6_SURFACES-PATINS-SPEC
100
AcDbLine
 62
7
  6
CONTINUOUS
 10
33.9124903873
 20
12.2591971381
 11
33.9325669986
 21
12.2454871198
  0
LINE
  5
32E
100
AcDbEntity
  8
6_SURFACES-PATINS-SPEC
100
AcDbLine
 62
7
  6
CONTINUOUS
 10
51.9829920637
 20
12.1554177173
 11
51.9702204518
 21
12.1641995425
  0
LINE
  5
32F
100
AcDbEntity
  8
6_SURFACES-PATINS-SPEC
100
AcDbLine
 62
7
  6
CONTINUOUS
 10
51.9702204518
 20
12.1641995425
 11
51.9631512926
 21
12.1690731739
  0
LINE
  5
330
100
AcDbEntity
  8
6_SURFACES-PATINS-SPEC
100
AcDbLine
 62
7
  6
CONTINUOUS
 10
51.9359083485
 20
12.1859385064
 11
51.9704525364
 21
12.1620951879
  0
LINE
  5
331
100
AcDbEntity
  8
6_SURFACES-PATINS-SPEC
100
AcDbLine
 62
7
  6
CONTINUOUS
 10
51.9441874969
 20
12.1821941169
 11
51.9320824451
 21
12.190597734
  0
LINE
  5
332
100
AcDbEntity
  8
6_SURFACES-PATINS-SPEC
100
AcDbLine
 62
7
  6
CONTINUOUS
 10
33.8926785772
 20
12.2729817025
 11
33.9124903873
 21
12.2591971381
  0
LINE
  5
333
100
AcDbEntity
  8
6_SURFACES-PATINS-SPEC
100
AcDbLine
 62
7
  6
CONTINUOUS
 10
51.8865190693
 20
12.2203048885
 11
51.9359083485
 21
12.1859385064
  0
LWPOLYLINE
  5
334
100
AcDbEntity
  8
6_SURFACES-PATINS-SPEC
100
AcDbPolyline
 62
7
  6
CONTINUOUS
 90
6
 70
0
 10
51.9320824451
 20
12.190597734
 10
51.888913553
 20
12.2206796637
 10
51.8458065873
 20
12.2508504077
 10
51.8027404154
 20
12.2810794429
 10
51.7384055955
 20
12.3263182441
 10
51.6740921246
 20
12.3715872864
  0
LINE
  5
335
100
AcDbEntity
  8
6_SURFACES-PATINS-SPEC
100
AcDbLine
 62
7
  6
CONTINUOUS
 10
51.6300931484
 20
12.4025218664
 11
51.6243555213
 21
12.4065377314
  0
LINE
  5
336
100
AcDbEntity
  8
6_SURFACES-PATINS-SPEC
100
AcDbLine
 62
7
  6
CONTINUOUS
 10
51.8244605739
 20
12.2637504619
 11
51.8865190693
 21
12.2203048885
  0
LINE
  5
337
100
AcDbEntity
  8
6_SURFACES-PATINS-SPEC
100
AcDbLine
 62
7
  6
CONTINUOUS
 10
51.6470357151
 20
12.3906252337
 11
51.6300931484
 21
12.4025218664
  0
LINE
  5
338
100
AcDbEntity
  8
6_SURFACES-PATINS-SPEC
100
AcDbLine
 62
7
  6
CONTINUOUS
 10
51.6353738228
 20
12.3967176886
 11
51.8244605739
 21
12.2637504619
  0
LINE
  5
339
100
AcDbEntity
  8
6_SURFACES-PATINS-SPEC
100
AcDbLine
 62
7
  6
CONTINUOUS
 10
51.6593893657
 20
12.3819358235
 11
51.6470357151
 21
12.3906252337
  0
LINE
  5
33A
100
AcDbEntity
  8
6_SURFACES-PATINS-SPEC
100
AcDbLine
 62
7
  6
CONTINUOUS
 10
51.6740921246
 20
12.3715872864
 11
51.6593893657
 21
12.3819358235
  0
LINE
  5
33B
100
AcDbEntity
  8
1_CURVES_JETS
100
AcDbLine
 62
7
  6
CONTINUOUS
 10
30.1549134529
 20
15.9042367695
 11
30.2870439318
 21
15.8109065729
  0
LINE
  5
33C
100
AcDbEntity
  8
6_SURFACES-PATINS-SPEC
100
AcDbLine
 62
7
  6
CONTINUOUS
 10
33.8737864887
 20
12.2863604862
 11
33.8926785772
 21
12.2729817025
  0
LINE
  5
33D
100
AcDbEntity
  8
6_SURFACES-PATINS-SPEC
100
AcDbLine
 62
7
  6
CONTINUOUS
 10
33.8561297459
 20
12.2990790224
 11
33.8737864887
 21
12.2863604862
  0
LINE
  5
33E
100
AcDbEntity
  8
6_SURFACES-PATINS-SPEC
100
AcDbLine
 62
7
  6
CONTINUOUS
 10
33.8397299789
 20
12.3110925347
 11
33.8561297459
 21
12.2990790224
  0
LINE
  5
33F
100
AcDbEntity
  8
6_SURFACES-PATINS-SPEC
100
AcDbLine
 62
7
  6
CONTINUOUS
 10
32.5684888758
 20
15.1784620244
 11
32.6026898546
 21
15.1533486847
  0
LINE
  5
340
100
AcDbEntity
  8
6_SURFACES-PATINS-SPEC
100
AcDbLine
 62
7
  6
CONTINUOUS
 10
33.824565543
 20
12.3223925012
 11
33.8397299789
 21
12.3110925347
  0
LINE
  5
341
100
AcDbEntity
  8
6_SURFACES-PATINS-SPEC
100
AcDbLine
 62
7
  6
CONTINUOUS
 10
51.0796935475
 20
13.5112369789
 11
51.1010927583
 21
13.4952632729
  0
LINE
  5
342
100
AcDbEntity
  8
6_SURFACES-PATINS-SPEC
100
AcDbLine
 62
7
  6
CONTINUOUS
 10
33.8105929419
 20
12.3329914325
 11
33.824565543
 21
12.3223925012
  0
LINE
  5
343
100
AcDbEntity
  8
6_SURFACES-PATINS-SPEC
100
AcDbLine
 62
7
  6
CONTINUOUS
 10
33.7977579821
 20
12.3429149187
 11
33.8105929419
 21
12.3329914325
  0
LINE
  5
344
100
AcDbEntity
  8
6_SURFACES-PATINS-SPEC
100
AcDbLine
 62
7
  6
CONTINUOUS
 10
33.7860354088
 20
12.3521704913
 11
33.7977579821
 21
12.3429149187
  0
LINE
  5
345
100
AcDbEntity
  8
1_CURVES_JETS
100
AcDbLine
 62
7
  6
CONTINUOUS
 10
30.0307469378
 20
16.0038202235
 11
30.1549134529
 21
15.9042367695
  0
LINE
  5
346
100
AcDbEntity
  8
6_SURFACES-PATINS-SPEC
100
AcDbLine
 62
7
  6
CONTINUOUS
 10
33.7754777974
 20
12.3607051838
 11
33.7860354088
 21
12.3521704913
  0
LINE
  5
347
100
AcDbEntity
  8
6_SURFACES-PATINS-SPEC
100
AcDbLine
 62
7
  6
CONTINUOUS
 10
33.7661108957
 20
12.368485098
 11
33.7754777974
 21
12.3607051838
  0
LINE
  5
348
100
AcDbEntity
  8
6_SURFACES-PATINS-SPEC
100
AcDbLine
 62
7
  6
CONTINUOUS
 10
33.757909723
 20
12.375516589
 11
33.7661108957
 21
12.368485098
  0
LINE
  5
349
100
AcDbEntity
  8
6_SURFACES-PATINS-SPEC
100
AcDbLine
 62
7
  6
CONTINUOUS
 10
51.1006479748
 20
13.495620212
 11
51.1217480838
 21
13.4773790222
  0
LINE
  5
34A
100
AcDbEntity
  8
6_SURFACES-PATINS-SPEC
100
AcDbLine
 62
7
  6
CONTINUOUS
 10
33.7507990661
 20
12.3818498787
 11
33.757909723
 21
12.375516589
  0
LINE
  5
34B
100
AcDbEntity
  8
1_CURVES_JETS
100
AcDbLine
 62
7
  6
CONTINUOUS
 10
29.9141702462
 20
16.1094993515
 11
30.0307469378
 21
16.0038202235
  0
LINE
  5
34C
100
AcDbEntity
  8
6_SURFACES-PATINS-SPEC
100
AcDbLine
 62
7
  6
CONTINUOUS
 10
32.6023144823
 20
15.1536580673
 11
32.6335531053
 21
15.1248241699
  0
LINE
  5
34D
100
AcDbEntity
  8
6_SURFACES-PATINS-SPEC
100
AcDbLine
 62
7
  6
CONTINUOUS
 10
33.744650424
 20
12.387590073
 11
33.7507990661
 21
12.3818498787
  0
LINE
  5
34E
100
AcDbEntity
  8
6_SURFACES-PATINS-SPEC
100
AcDbLine
 62
7
  6
CONTINUOUS
 10
33.7392737107
 20
12.3929197348
 11
33.744650424
 21
12.387590073
  0
LINE
  5
34F
100
AcDbEntity
  8
DEFAULT_2
100
AcDbLine
 62
8
  6
CONTINUOUS
 10
65.2723014928
 20
13.3694237581
 11
65.6283073075
 21
13.0134179434
  0
LINE
  5
350
100
AcDbEntity
  8
6_SURFACES-PATINS-SPEC
100
AcDbLine
 62
7
  6
CONTINUOUS
 10
51.1213032465
 20
13.4777929207
 11
51.1418074682
 21
13.4572042734
  0
LINE
  5
351
100
AcDbEntity
  8
1_CURVES_JETS
100
AcDbLine
 62
7
  6
CONTINUOUS
 10
29.8055321706
 20
16.2204472614
 11
29.9141702462
 21
16.1094993515
  0
LINE
  5
352
100
AcDbEntity
  8
6_SURFACES-PATINS-SPEC
100
AcDbLine
 62
7
  6
CONTINUOUS
 10
33.7355348901
 20
12.3968884434
 11
33.7392737107
 21
12.3929197348
  0
LINE
  5
353
100
AcDbEntity
  8
1_CURVES_JETS
100
AcDbLine
 62
7
  6
CONTINUOUS
 10
29.7049237839
 20
16.3360262763
 11
29.8055321706
 21
16.2204472614
  0
LINE
  5
354
100
AcDbEntity
  8
6_SURFACES-PATINS-SPEC
100
AcDbLine
 62
7
  6
CONTINUOUS
 10
33.7055693109
 20
12.4314988498
 11
33.735546409
 21
12.3968757273
  0
LINE
  5
355
100
AcDbEntity
  8
6_SURFACES-PATINS-SPEC
100
AcDbLine
 62
7
  6
CONTINUOUS
 10
32.6331579931
 20
15.1252320886
 11
32.6610306241
 21
15.0930256681
  0
LINE
  5
356
100
AcDbEntity
  8
6_SURFACES-PATINS-SPEC
100
AcDbLine
 62
7
  6
CONTINUOUS
 10
51.1413689146
 20
13.457679451
 11
51.1609604901
 21
13.4346921165
  0
LINE
  5
357
100
AcDbEntity
  8
1_CURVES_JETS
100
AcDbLine
 62
7
  6
CONTINUOUS
 10
29.6124220106
 20
16.4556733469
 11
29.7049237839
 21
16.3360262763
  0
LINE
  5
358
100
AcDbEntity
  8
6_SURFACES-PATINS-SPEC
100
AcDbLine
 62
7
  6
CONTINUOUS
 10
33.6559908726
 20
12.4974404001
 11
33.7055693109
 21
12.4314988498
  0
LINE
  5
359
100
AcDbEntity
  8
6_SURFACES-PATINS-SPEC
100
AcDbLine
 62
7
  6
CONTINUOUS
 10
51.1605350686
 20
13.4352331337
 11
51.1788790584
 21
13.409828751
  0
LINE
  5
35A
100
AcDbEntity
  8
6_SURFACES-PATINS-SPEC
100
AcDbLine
 62
7
  6
CONTINUOUS
 10
32.6606338247
 20
15.093539657
 11
32.6847775573
 21
15.0583523651
  0
LINE
  5
35B
100
AcDbEntity
  8
1_CURVES_JETS
100
AcDbLine
 62
7
  6
CONTINUOUS
 10
29.5280420328
 20
16.5788073016
 11
29.6124220106
 21
16.4556733469
  0
LINE
  5
35C
100
AcDbEntity
  8
6_SURFACES-PATINS-SPEC
100
AcDbLine
 62
7
  6
CONTINUOUS
 10
33.6124268681
 20
12.5674432367
 11
33.6559908726
 21
12.4974404001
  0
LINE
  5
35D
100
AcDbEntity
  8
1_CURVES_JETS
100
AcDbLine
 62
7
  6
CONTINUOUS
 10
29.4518638447
 20
16.7046278613
 11
29.5280420328
 21
16.5788073016
  0
LINE
  5
35E
100
AcDbEntity
  8
6_SURFACES-PATINS-SPEC
100
AcDbLine
 62
7
  6
CONTINUOUS
 10
51.1784744802
 20
13.4104402556
 11
51.1952294551
 21
13.3826201826
  0
LINE
  5
35F
100
AcDbEntity
  8
6_SURFACES-PATINS-SPEC
100
AcDbLine
 62
7
  6
CONTINUOUS
 10
32.6843984584
 20
15.058977102
 11
32.7044957998
 21
15.0212394675
  0
LINE
  5
360
100
AcDbEntity
  8
1_CURVES_JETS
100
AcDbLine
 62
7
  6
CONTINUOUS
 10
29.3841278906
 20
16.8319561378
 11
29.4518638447
 21
16.7046278613
  0
LINE
  5
361
100
AcDbEntity
  8
6_SURFACES-PATINS-SPEC
100
AcDbLine
 62
7
  6
CONTINUOUS
 10
33.5751549877
 20
12.640919542
 11
33.6124268681
 21
12.5674432367
  0
LWPOLYLINE
  5
362
100
AcDbEntity
  8
0
100
AcDbPolyline
 62
7
  6
CONTINUOUS
 90
6
 70
0
 10
71.5428749004
 20
15.3718961585
 10
71.5428557293
 20
15.371934048
 10
71.542869254
 20
15.3719964154
 10
71.5429034028
 20
15.3721491662
 10
71.5429243592
 20
15.3722746239
 10
71.5429751318
 20
15.3724957676
  0
LINE
  5
363
100
AcDbEntity
  8
6_SURFACES-PATINS-SPEC
100
AcDbLine
 62
7
  6
CONTINUOUS
 10
51.1948547643
 20
13.3833064788
 11
51.2096580866
 21
13.3531144534
  0
LINE
  5
364
100
AcDbEntity
  8
1_CURVES_JETS
100
AcDbLine
 62
7
  6
CONTINUOUS
 10
29.3249522533
 20
16.9595038718
 11
29.3841278906
 21
16.8319561378
  0
LINE
  5
365
100
AcDbEntity
  8
1_CURVES_JETS
100
AcDbLine
 62
7
  6
CONTINUOUS
 10
29.0317761111
 20
18.1491632612
 11
23.1142276845
 21
31.4401946387
  0
LINE
  5
366
100
AcDbEntity
  8
DEFAULT_2
100
AcDbLine
 62
8
  6
CONTINUOUS
 10
22.4792929582
 20
33.1736055499
 11
24.8500418908
 21
27.8488162656
  0
LINE
  5
367
100
AcDbEntity
  8
1_CURVES_JETS
100
AcDbLine
 62
7
  6
CONTINUOUS
 10
24.7653600837
 20
27.731624785
 11
24.7774826977
 21
27.7042744064
  0
LWPOLYLINE
  5
368
100
AcDbEntity
  8
DEFAULT_2
100
AcDbPolyline
 62
8
  6
CONTINUOUS
 90
19
 70
0
 10
24.9517260516
 20
27.6204299012
 10
24.9583988574
 20
27.605361132
 10
24.9650935259
 20
27.5900821838
 10
24.9718035087
 20
27.5746103571
 10
24.9785222578
 20
27.5589629528
 10
24.9852432249
 20
27.5431572713
 10
24.9919598619
 20
27.5272106135
 10
24.9986656207
 20
27.51114028
 10
25.0053539529
 20
27.4949635715
 10
25.0120183106
 20
27.4786977886
 10
25.0186521454
 20
27.4623602319
 10
25.0252489093
 20
27.4459682023
 10
25.031802054
 20
27.4295390002
 10
25.0383050314
 20
27.4130899265
 10
25.0447512933
 20
27.3966382817
 10
25.0511342915
 20
27.3802013666
 10
25.0574474779
 20
27.3637964819
 10
25.0636843042
 20
27.3474409281
 10
25.0698382224
 20
27.3311520059
  0
LINE
  5
369
100
AcDbEntity
  8
1_CURVES_JETS
100
AcDbLine
 62
7
  6
CONTINUOUS
 10
24.7774826977
 20
27.7042744064
 11
24.7921683609
 21
27.6710070104
  0
LWPOLYLINE
  5
36A
100
AcDbEntity
  8
0
100
AcDbPolyline
 62
7
  6
CONTINUOUS
 90
4
 70
0
 10
71.3680610093
 20
14.7481380916
 10
71.368042543
 20
14.7481800836
 10
71.3680578702
 20
14.748243078
 10
71.368138181
 20
14.7485165669
  0
LWPOLYLINE
  5
36B
100
AcDbEntity
  8
1_CURVES_JETS
100
AcDbPolyline
 62
7
  6
CONTINUOUS
 90
13
 70
0
 10
29.0317761111
 20
18.1491632612
 10
29.0353867939
 20
18.1409483565
 10
29.0389200165
 20
18.132699618
 10
29.0423770181
 20
18.1244180793
 10
29.0457641215
 20
18.1160919267
 10
29.0490767265
 20
18.1077351333
 10
29.0523155487
 20
18.0993489232
 10
29.0554813039
 20
18.0909345205
 10
29.0585747075
 20
18.0824931493
 10
29.0615964753
 20
18.0740260337
 10
29.0645473228
 20
18.0655343979
 10
29.0674279658
 20
18.057019466
 10
29.0702391197
 20
18.048482462
  0
LINE
  5
36C
100
AcDbEntity
  8
1_CURVES_JETS
100
AcDbLine
 62
7
  6
CONTINUOUS
 10
24.7921683609
 20
27.6710070104
 11
24.8094523529
 21
27.6316034132
  0
LINE
  5
36D
100
AcDbEntity
  8
1_CURVES_JETS
100
AcDbLine
 62
7
  6
CONTINUOUS
 10
24.8094523529
 20
27.6316034132
 11
24.829180174
 21
27.5862109215
  0
LWPOLYLINE
  5
36E
100
AcDbEntity
  8
0
100
AcDbPolyline
 62
7
  6
CONTINUOUS
 90
32
 70
0
 10
71.5885583213
 20
15.521318672
 10
71.5885743622
 20
15.521281689
 10
71.588556371
 20
15.5212207376
 10
71.5885191656
 20
15.5210673739
 10
71.5885051776
 20
15.5209413331
 10
71.588463518
 20
15.5207182128
 10
71.5884048554
 20
15.5204812272
 10
71.5882555299
 20
15.5198412508
 10
71.5880574778
 20
15.5190230627
 10
71.5878110834
 20
15.5180289112
 10
71.587174904
 20
15.5155222476
 10
71.5863513528
 20
15.512346236
 10
71.5853459358
 20
15.5085318495
 10
71.5841656471
 20
15.5041171091
 10
71.5828186776
 20
15.4991451293
 10
71.5813147279
 20
15.4936649902
 10
71.5796649121
 20
15.4877304559
 10
71.5759791479
 20
15.4747339152
 10
71.5718793081
 20
15.4606619221
 10
71.5675057437
 20
15.4460604129
 10
71.5630185551
 20
15.4314934787
 10
71.5585925423
 20
15.4175208185
 10
71.5544100025
 20
15.4046758769
 10
71.5524669247
 20
15.3988309527
 10
71.5506519123
 20
15.3934459564
 10
71.5489857101
 20
15.3885717039
 10
71.5474878014
 20
15.3842542317
 10
71.5461758028
 20
15.380533745
 10
71.5450656439
 20
15.3774455234
 10
71.5441707342
 20
15.3750180895
 10
71.5438076182
 20
15.3740596648
 10
71.5435022001
 20
15.3732743299
  0
LINE
  5
36F
100
AcDbEntity
  8
1_CURVES_JETS
100
AcDbLine
 62
7
  6
CONTINUOUS
 10
24.829180174
 20
27.5862109215
 11
24.8509851673
 21
27.5354102953
  0
LINE
  5
370
100
AcDbEntity
  8
1_CURVES_JETS
100
AcDbLine
 62
7
  6
CONTINUOUS
 10
24.8509851673
 20
27.5354102953
 11
24.8747443644
 21
27.479170711
  0
LINE
  5
371
100
AcDbEntity
  8
1_CURVES_JETS
100
AcDbLine
 62
7
  6
CONTINUOUS
 10
24.8747443644
 20
27.479170711
 11
24.9003668099
 21
27.4173308894
  0
LINE
  5
372
100
AcDbEntity
  8
6_SURFACES-PATINS-SPEC
100
AcDbLine
 62
7
  6
CONTINUOUS
 10
32.7041547093
 20
15.0219765829
 11
32.7163897157
 21
14.9923581204
  0
LINE
  5
373
100
AcDbEntity
  8
6_SURFACES-PATINS-SPEC
100
AcDbLine
 62
7
  6
CONTINUOUS
 10
33.5481475476
 20
12.7070507544
 11
33.5751549877
 21
12.640919542
  0
LINE
  5
374
100
AcDbEntity
  8
1_CURVES_JETS
100
AcDbLine
 62
7
  6
CONTINUOUS
 10
24.9003668099
 20
27.4173308894
 11
24.9165956316
 21
27.377454513
  0
LWPOLYLINE
  5
375
100
AcDbEntity
  8
0
100
AcDbPolyline
 62
7
  6
CONTINUOUS
 90
6
 70
0
 10
71.4328769698
 20
14.8903103595
 10
71.4328937407
 20
14.8902690909
 10
71.4328763412
 20
14.8902070911
 10
71.4328327964
 20
14.8900566078
 10
71.4328031171
 20
14.8899303721
 10
71.4327375829
 20
14.8897111191
  0
LINE
  5
376
100
AcDbEntity
  8
1_CURVES_JETS
100
AcDbLine
 62
7
  6
CONTINUOUS
 10
24.9182761898
 20
27.373267684
 11
24.9165866836
 21
27.3774508848
  0
LWPOLYLINE
  5
377
100
AcDbEntity
  8
1_CURVES_JETS
100
AcDbPolyline
 62
7
  6
CONTINUOUS
 90
8
 70
0
 10
25.3882047343
 20
26.1834346393
 10
25.3443829955
 20
26.2926449964
 10
25.3007719211
 20
26.4019396915
 10
25.2580171375
 20
26.5097271693
 10
25.2154817812
 20
26.6176013786
 10
25.1742248533
 20
26.7228001195
 10
25.1330787764
 20
26.8280423222
 10
25.0544238115
 20
27.029262182
  0
LINE
  5
378
100
AcDbEntity
  8
1_CURVES_JETS
100
AcDbLine
 62
7
  6
CONTINUOUS
 10
29.2742262334
 20
17.0858985407
 11
29.3249522533
 21
16.9595038718
  0
LINE
  5
379
100
AcDbEntity
  8
1_CURVES_JETS
100
AcDbLine
 62
7
  6
CONTINUOUS
 10
24.9164336126
 20
27.3778297681
 11
24.9257254023
 21
27.3546614413
  0
LINE
  5
37A
100
AcDbEntity
  8
6_SURFACES-PATINS-SPEC
100
AcDbLine
 62
7
  6
CONTINUOUS
 10
51.2093237406
 20
13.3538794004
 11
51.2095040036
 21
13.3534295443
  0
LINE
  5
37B
100
AcDbEntity
  8
6_SURFACES-PATINS-SPEC
100
AcDbLine
 62
7
  6
CONTINUOUS
 10
51.2096580866
 20
13.3531144534
 11
51.218252382
 21
13.3315974886
  0
LWPOLYLINE
  5
37C
100
AcDbEntity
  8
1_CURVES_JETS
100
AcDbPolyline
 62
7
  6
CONTINUOUS
 90
5
 70
0
 10
25.0164140527
 20
27.126223333
 10
24.9920784872
 20
27.1880634692
 10
24.9676370182
 20
27.249861869
 10
24.9430496006
 20
27.3116020886
 10
24.9182761898
 20
27.373267684
  0
LINE
  5
37D
100
AcDbEntity
  8
1_CURVES_JETS
100
AcDbLine
 62
7
  6
CONTINUOUS
 10
24.9257254023
 20
27.3546614413
 11
24.9403668497
 21
27.3174660538
  0
LINE
  5
37E
100
AcDbEntity
  8
1_CURVES_JETS
100
AcDbLine
 62
7
  6
CONTINUOUS
 10
25.0544238115
 20
27.029262182
 11
25.0164140527
 21
27.126223333
  0
LINE
  5
37F
100
AcDbEntity
  8
1_CURVES_JETS
100
AcDbLine
 62
7
  6
CONTINUOUS
 10
24.9403668497
 20
27.3174660538
 11
24.9561648425
 21
27.2763919224
  0
LINE
  5
380
100
AcDbEntity
  8
1_CURVES_JETS
100
AcDbLine
 62
7
  6
CONTINUOUS
 10
24.9561648425
 20
27.2763919224
 11
24.972850648
 21
27.2319372482
  0
LWPOLYLINE
  5
381
100
AcDbEntity
  8
6_SURFACES-PATINS-SPEC
100
AcDbPolyline
 62
7
  6
CONTINUOUS
 90
24
 70
0
 10
51.4455687802
 20
12.7070507544
 10
51.4511595984
 20
12.6920922203
 10
51.4570095337
 20
12.6772243112
 10
51.4631156909
 20
12.6624524594
 10
51.4694751745
 20
12.6477820972
 10
51.4760850892
 20
12.6332186568
 10
51.4829425398
 20
12.6187675706
 10
51.4900446307
 20
12.6044342709
 10
51.4973884667
 20
12.59022419
 10
51.5049711524
 20
12.5761427602
 10
51.5127897925
 20
12.5621954138
 10
51.5208414916
 20
12.5483875831
 10
51.5284328333
 20
12.535843985
 10
51.5362169288
 20
12.5234243908
 10
51.5441927193
 20
12.5111307486
 10
51.552359146
 20
12.4989650069
 10
51.5607151503
 20
12.4869291139
 10
51.5692596733
 20
12.4750250179
 10
51.5779911481
 20
12.4632551868
 10
51.5869070813
 20
12.4516226841
 10
51.596004479
 20
12.4401310984
 10
51.6052803477
 20
12.4287840183
 10
51.6147316934
 20
12.4175850326
 10
51.6243555226
 20
12.4065377298
  0
LWPOLYLINE
  5
382
100
AcDbEntity
  8
DEFAULT_2
100
AcDbPolyline
 62
8
  6
CONTINUOUS
 90
17
 70
0
 10
25.0698382224
 20
27.3311520059
 10
25.0955496034
 20
27.2615788503
 10
25.1205288912
 20
27.191717154
 10
25.1448523762
 20
27.1215977381
 10
25.1685963489
 20
27.0512514241
 10
25.1918370998
 20
26.9807090331
 10
25.2146509193
 20
26.9100013864
 10
25.2371140979
 20
26.8391593052
 10
25.2593029261
 20
26.7682136109
 10
25.2812936943
 20
26.6971951248
 10
25.3031626931
 20
26.6261346679
 10
25.3249862128
 20
26.5550630617
 10
25.346840544
 20
26.4840111274
 10
25.3688019771
 20
26.4130096862
 10
25.3909468026
 20
26.3420895595
 10
25.413351311
 20
26.2712815684
 10
25.4360917927
 20
26.2006165343
  0
LINE
  5
383
100
AcDbEntity
  8
1_CURVES_JETS
100
AcDbLine
 62
7
  6
CONTINUOUS
 10
24.972850648
 20
27.2319372482
 11
24.990208767
 21
27.1844985432
  0
LINE
  5
384
100
AcDbEntity
  8
6_SURFACES-PATINS-SPEC
100
AcDbLine
 62
7
  6
CONTINUOUS
 10
33.2973518173
 20
13.3958187689
 11
33.5481475475
 21
12.7070507544
  0
LINE
  5
385
100
AcDbEntity
  8
6_SURFACES-PATINS-SPEC
100
AcDbLine
 62
7
  6
CONTINUOUS
 10
51.2182524701
 20
13.3315971836
 11
51.4455687802
 21
12.7070507544
  0
LINE
  5
386
100
AcDbEntity
  8
6_SURFACES-PATINS-SPEC
100
AcDbLine
 62
7
  6
CONTINUOUS
 10
32.7163897435
 20
14.9923581301
 11
33.2973518173
 21
13.3958187689
  0
LINE
  5
387
100
AcDbEntity
  8
6_SURFACES-PATINS-SPEC
100
AcDbLine
 62
7
  6
CONTINUOUS
 10
33.5545332513
 20
12.7070507544
 11
32.7289028453
 21
14.9921192205
  0
LINE
  5
388
100
AcDbEntity
  8
1_CURVES_JETS
100
AcDbLine
 62
7
  6
CONTINUOUS
 10
24.990208767
 20
27.1844985432
 11
25.0080839375
 21
27.1343549621
  0
LINE
  5
389
100
AcDbEntity
  8
1_CURVES_JETS
100
AcDbLine
 62
7
  6
CONTINUOUS
 10
25.0080839375
 20
27.1343549621
 11
25.026350837
 21
27.0817635084
  0
LINE
  5
38A
100
AcDbEntity
  8
1_CURVES_JETS
100
AcDbLine
 62
7
  6
CONTINUOUS
 10
29.2316132565
 20
17.209974255
 11
29.2742262334
 21
17.0858985407
  0
LINE
  5
38B
100
AcDbEntity
  8
1_CURVES_JETS
100
AcDbLine
 62
7
  6
CONTINUOUS
 10
25.026350837
 20
27.0817635084
 11
25.0447959174
 21
27.0273425642
  0
LINE
  5
38C
100
AcDbEntity
  8
1_CURVES_JETS
100
AcDbLine
 62
7
  6
CONTINUOUS
 10
25.0446187475
 20
27.0272832063
 11
25.0452490065
 21
27.0254005829
  0
LINE
  5
38D
100
AcDbEntity
  8
1_CURVES_JETS
100
AcDbLine
 62
7
  6
CONTINUOUS
 10
25.0447959174
 20
27.0273425642
 11
25.0560098425
 21
26.9936621144
  0
LINE
  5
38E
100
AcDbEntity
  8
1_CURVES_JETS
100
AcDbLine
 62
7
  6
CONTINUOUS
 10
25.0560098425
 20
26.9936621144
 11
25.0702765699
 21
26.9502228347
  0
LINE
  5
38F
100
AcDbEntity
  8
1_CURVES_JETS
100
AcDbLine
 62
7
  6
CONTINUOUS
 10
25.3172097282
 20
26.16198941
 11
28.2268397884
 21
17.2070688744
  0
LINE
  5
390
100
AcDbEntity
  8
DEFAULT_2
100
AcDbLine
 62
8
  6
CONTINUOUS
 10
25.4360917927
 20
26.2006165343
 11
28.3457218529
 21
17.2456959987
  0
LINE
  5
391
100
AcDbEntity
  8
1_CURVES_JETS
100
AcDbLine
 62
7
  6
CONTINUOUS
 10
25.0702765699
 20
26.9502228347
 11
25.0849972536
 21
26.9047904048
  0
LINE
  5
392
100
AcDbEntity
  8
1_CURVES_JETS
100
AcDbLine
 62
7
  6
CONTINUOUS
 10
25.2976847085
 20
26.2225252585
 11
25.3172096935
 21
26.1619895167
  0
LINE
  5
393
100
AcDbEntity
  8
1_CURVES_JETS
100
AcDbLine
 62
7
  6
CONTINUOUS
 10
25.0849972536
 20
26.9047904048
 11
25.1005926275
 21
26.8560767989
  0
LWPOLYLINE
  5
394
100
AcDbEntity
  8
1_CURVES_JETS
100
AcDbPolyline
 62
7
  6
CONTINUOUS
 90
21
 70
0
 10
29.0702391197
 20
18.048482462
 10
29.0740609284
 20
18.0364878394
 10
29.0777469587
 20
18.0244479286
 10
29.0812946196
 20
18.0123645097
 10
29.0847013199
 20
18.0002393623
 10
29.0879644685
 20
17.9880742662
 10
29.0910814743
 20
17.9758710014
 10
29.0940497461
 20
17.9636313475
 10
29.0968666929
 20
17.9513570845
 10
29.0995297235
 20
17.9390499921
 10
29.1017928249
 20
17.9279434328
 10
29.1039238403
 20
17.9168119063
 10
29.1059175319
 20
17.9056556109
 10
29.1077686621
 20
17.8944747449
 10
29.1094719931
 20
17.8832695067
 10
29.1107731186
 20
17.8739230188
 10
29.1119629164
 20
17.8645612106
 10
29.1130361198
 20
17.8551855155
 10
29.1139874618
 20
17.8457973667
 10
29.1148116758
 20
17.8363981976
 10
29.1155034948
 20
17.8269894414
  0
LINE
  5
395
100
AcDbEntity
  8
1_CURVES_JETS
100
AcDbLine
 62
7
  6
CONTINUOUS
 10
25.2737555095
 20
26.2978654285
 11
25.2976847085
 21
26.2225252585
  0
LINE
  5
396
100
AcDbEntity
  8
1_CURVES_JETS
100
AcDbLine
 62
7
  6
CONTINUOUS
 10
25.2508707582
 20
26.3709694041
 11
25.2737555095
 21
26.2978654285
  0
LINE
  5
397
100
AcDbEntity
  8
1_CURVES_JETS
100
AcDbLine
 62
7
  6
CONTINUOUS
 10
25.2289828789
 20
26.4416714393
 11
25.2508707582
 21
26.3709694041
  0
LWPOLYLINE
  5
398
100
AcDbEntity
  8
1_CURVES_JETS
100
AcDbPolyline
 62
7
  6
CONTINUOUS
 90
9
 70
0
 10
25.1635381214
 20
26.6543204665
 10
25.1824238308
 20
26.5930191472
 10
25.201305909
 20
26.5316104285
 10
25.2202323489
 20
26.4701137154
 10
25.2392511436
 20
26.4085484129
 10
25.2584102858
 20
26.3469339261
 10
25.2777577687
 20
26.28528966
 10
25.2973415852
 20
26.2236350196
 10
25.3172097282
 20
26.16198941
  0
LINE
  5
399
100
AcDbEntity
  8
1_CURVES_JETS
100
AcDbLine
 62
7
  6
CONTINUOUS
 10
25.2080362918
 20
26.5098309882
 11
25.2289828789
 21
26.4416714393
  0
LINE
  5
39A
100
AcDbEntity
  8
1_CURVES_JETS
100
AcDbLine
 62
7
  6
CONTINUOUS
 10
25.1636942948
 20
26.6543686731
 11
25.1879707379
 21
26.5753250271
  0
LINE
  5
39B
100
AcDbEntity
  8
1_CURVES_JETS
100
AcDbLine
 62
7
  6
CONTINUOUS
 10
25.1879707379
 20
26.5753250271
 11
25.2080362918
 21
26.5098309882
  0
LINE
  5
39C
100
AcDbEntity
  8
1_CURVES_JETS
100
AcDbLine
 62
7
  6
CONTINUOUS
 10
29.1966321472
 20
17.330779754
 11
29.2316132565
 21
17.209974255
  0
LINE
  5
39D
100
AcDbEntity
  8
1_CURVES_JETS
100
AcDbLine
 62
7
  6
CONTINUOUS
 10
29.1687451705
 20
17.4472655741
 11
29.1966321472
 21
17.330779754
  0
LINE
  5
39E
100
AcDbEntity
  8
1_CURVES_JETS
100
AcDbLine
 62
7
  6
CONTINUOUS
 10
29.149061737
 20
17.5481500466
 11
29.1687451705
 21
17.4472655741
  0
LINE
  5
39F
100
AcDbEntity
  8
6_SURFACES-PATINS-SPEC
100
AcDbLine
 62
7
  6
CONTINUOUS
 10
50.8743334879
 20
13.6096102909
 11
50.8743639901
 21
13.6094453008
  0
LINE
  5
3A0
100
AcDbEntity
  8
6_SURFACES-PATINS-SPEC
100
AcDbLine
 62
7
  6
CONTINUOUS
 10
50.8737104344
 20
13.5782064041
 11
50.8736803262
 21
13.5783701422
  0
LINE
  5
3A1
100
AcDbEntity
  8
1_CURVES_JETS
100
AcDbLine
 62
7
  6
CONTINUOUS
 10
49.2306548989
 20
14.8510827903
 11
49.2314311894
 21
14.8459147251
  0
ARC
  5
3A2
100
AcDbEntity
  8
1_CURVES_JETS
100
AcDbCircle
 62
7
  6
CONTINUOUS
 10
2.525282258
 20
19.6849923517
 40
23.6867507883
100
AcDbArc
 50
17.1113083692
 51
17.6225355832
  0
ARC
  5
3A3
100
AcDbEntity
  8
1_CURVES_JETS
100
AcDbCircle
 62
7
  6
CONTINUOUS
 10
13.4910408702
 20
23.165712047
 40
12.1818275005
100
AcDbArc
 50
17.6340627284
 51
18.4719203311
  0
ARC
  5
3A4
100
AcDbEntity
  8
1_CURVES_JETS
100
AcDbCircle
 62
7
  6
CONTINUOUS
 10
30.7233631437
 20
18.0182384846
 40
2.625
100
AcDbArc
 50
198.0
 51
269.0
  0
ARC
  5
3A5
100
AcDbEntity
  8
1_CURVES_JETS
100
AcDbCircle
 62
7
  6
CONTINUOUS
 10
31.7347571562
 20
18.0005845364
 40
2.625
100
AcDbArc
 50
183.7918210966
 51
269.0000023502
  0
ARC
  5
3A6
100
AcDbEntity
  8
DEFAULT_2
100
AcDbCircle
 62
8
  6
CONTINUOUS
 10
30.7233631437
 20
18.0182384846
 40
2.5
100
AcDbArc
 50
198.0
 51
269.0
  0
ARC
  5
3A7
100
AcDbEntity
  8
1_CURVES_JETS
100
AcDbCircle
 62
7
  6
CONTINUOUS
 10
28.0522347744
 20
17.7125149871
 40
1.0724565005
100
AcDbArc
 50
18.2622156445
 51
24.0257877429
  0
ARC
  5
3A8
100
AcDbEntity
  8
DEFAULT_2
100
AcDbCircle
 62
8
  6
CONTINUOUS
 10
22.0225202294
 20
32.9702372284
 40
0.5
100
AcDbArc
 50
24.0
 51
97.8942018241
  0
ARC
  5
3A9
100
AcDbEntity
  8
0
100
AcDbCircle
 62
7
  6
CONTINUOUS
 10
18.6898378524
 20
32.7243870841
 40
0.25
100
AcDbArc
 50
99.1241427869
 51
175.0
  0
ARC
  5
3AA
100
AcDbEntity
  8
6_SURFACES-PATINS-SPEC
100
AcDbCircle
 62
7
  6
CONTINUOUS
 10
34.110286251
 20
12.2355084238
 40
0.08360934
100
AcDbArc
 50
248.0815133771
 51
248.8307677835
  0
ARC
  5
3AB
100
AcDbEntity
  8
6_SURFACES-PATINS-SPEC
100
AcDbCircle
 62
7
  6
CONTINUOUS
 10
33.7925887016
 20
12.4487868823
 40
0.0771271054
100
AcDbArc
 50
221.3740321026
 51
222.2923057441
  0
ARC
  5
3AC
100
AcDbEntity
  8
0
100
AcDbCircle
 62
7
  6
CONTINUOUS
 10
53.3265306122
 20
-120.6736984449
 40
155.6138930837
100
AcDbArc
 50
80.8758572131
 51
90.0
  0
ARC
  5
3AD
100
AcDbEntity
  8
0
100
AcDbCircle
 62
7
  6
CONTINUOUS
 10
43.3265306122
 20
-120.6736984449
 40
155.6138930837
100
AcDbArc
 50
90.0
 51
99.1241427869
  0
ARC
  5
3AE
100
AcDbEntity
  8
1_CURVES_JETS
100
AcDbCircle
 62
7
  6
CONTINUOUS
 10
50.7132034587
 20
-90.0821377764
 40
115.9020208608
100
AcDbArc
 50
89.7713895524
 51
90.6362723692
  0
ARC
  5
3AF
100
AcDbEntity
  8
1_CURVES_JETS
100
AcDbCircle
 62
7
  6
CONTINUOUS
 10
49.8054703396
 20
-71.7221999494
 40
97.8577923562
100
AcDbArc
 50
80.2084527704
 51
81.3179036243
  0
ARC
  5
3B0
100
AcDbEntity
  8
6_SURFACES-PATINS-SPEC
100
AcDbCircle
 62
7
  6
CONTINUOUS
 10
57.7138133861
 20
20.5008122523
 40
10.1236352455
100
AcDbArc
 50
235.2556027916
 51
235.386115906
  0
ARC
  5
3B1
100
AcDbEntity
  8
6_SURFACES-PATINS-SPEC
100
AcDbCircle
 62
7
  6
CONTINUOUS
 10
51.0847650679
 20
15.6279785635
 40
2.0630449304
100
AcDbArc
 50
265.6579986905
 51
265.9209561854
  0
ARC
  5
3B2
100
AcDbEntity
  8
6_SURFACES-PATINS-SPEC
100
AcDbCircle
 62
7
  6
CONTINUOUS
 10
45.1120834686
 20
11.3572430623
 40
1.1903342348
100
AcDbArc
 50
120.5884563011
 51
121.553625691
  0
ARC
  5
3B3
100
AcDbEntity
  8
6_SURFACES-PATINS-SPEC
100
AcDbCircle
 62
7
  6
CONTINUOUS
 10
44.8928551887
 20
11.3900956153
 40
1.0374702329
100
AcDbArc
 50
128.6459896703
 51
129.1804193933
  0
ARC
  5
3B4
100
AcDbEntity
  8
6_SURFACES-PATINS-SPEC
100
AcDbCircle
 62
7
  6
CONTINUOUS
 10
52.3270821508
 20
13.031292698
 40
0.9411186363
100
AcDbArc
 50
260.619722338
 51
263.7748527398
  0
ARC
  5
3B5
100
AcDbEntity
  8
6_SURFACES-PATINS-SPEC
100
AcDbCircle
 62
7
  6
CONTINUOUS
 10
52.3270402985
 20
13.0310413237
 40
0.9408638019
100
AcDbArc
 50
258.8442325377
 51
260.6197419501
  0
ARC
  5
3B6
100
AcDbEntity
  8
6_SURFACES-PATINS-SPEC
100
AcDbCircle
 62
7
  6
CONTINUOUS
 10
52.3269128844
 20
13.0297979843
 40
0.9396143818
100
AcDbArc
 50
263.7752300722
 51
265.3080883081
  0
ARC
  5
3B7
100
AcDbEntity
  8
6_SURFACES-PATINS-SPEC
100
AcDbCircle
 62
7
  6
CONTINUOUS
 10
52.3266732637
 20
13.0292190185
 40
0.9390049168
100
AcDbArc
 50
255.8892934084
 51
258.8446917215
  0
ARC
  5
3B8
100
AcDbEntity
  8
6_SURFACES-PATINS-SPEC
100
AcDbCircle
 62
7
  6
CONTINUOUS
 10
52.3266121161
 20
13.0256942879
 40
0.9354998356
100
AcDbArc
 50
265.3058887736
 51
269.8557144735
  0
ARC
  5
3B9
100
AcDbEntity
  8
6_SURFACES-PATINS-SPEC
100
AcDbCircle
 62
7
  6
CONTINUOUS
 10
52.3256949002
 20
13.0253051883
 40
0.9349706593
100
AcDbArc
 50
253.5285049927
 51
255.888966523
  0
ARC
  5
3BA
100
AcDbEntity
  8
6_SURFACES-PATINS-SPEC
100
AcDbCircle
 62
7
  6
CONTINUOUS
 10
52.3246742934
 20
13.0217976982
 40
0.9313177324
100
AcDbArc
 50
251.7301894151
 51
253.5275338373
  0
ARC
  5
3BB
100
AcDbEntity
  8
6_SURFACES-PATINS-SPEC
100
AcDbCircle
 62
7
  6
CONTINUOUS
 10
43.8595465365
 20
13.0156457637
 40
0.9254519835
100
AcDbArc
 50
270.0341260198
 51
291.6387347148
  0
ARC
  5
3BC
100
AcDbEntity
  8
6_SURFACES-PATINS-SPEC
100
AcDbCircle
 62
7
  6
CONTINUOUS
 10
44.7889212974
 20
11.5175669727
 40
0.8729977446
100
AcDbArc
 50
129.1782160936
 51
129.5614310368
  0
ARC
  5
3BD
100
AcDbEntity
  8
6_SURFACES-PATINS-SPEC
100
AcDbCircle
 62
7
  6
CONTINUOUS
 10
44.64218594
 20
11.6941911142
 40
0.6433745509
100
AcDbArc
 50
129.5051799584
 51
130.6673955143
  0
ARC
  5
3BE
100
AcDbEntity
  8
1_CURVES_JETS
100
AcDbCircle
 62
7
  6
CONTINUOUS
 10
49.9061943307
 20
14.3044081709
 40
0.625
100
AcDbArc
 50
184.9999957915
 51
268.6364582054
  0
ARC
  5
3BF
100
AcDbEntity
  8
DEFAULT_2
100
AcDbCircle
 62
8
  6
CONTINUOUS
 10
49.9061943307
 20
14.3044081709
 40
0.5
100
AcDbArc
 50
184.9999996016
 51
268.6364582797
  0
ARC
  5
3C0
100
AcDbEntity
  8
6_SURFACES-PATINS-SPEC
100
AcDbCircle
 62
7
  6
CONTINUOUS
 10
50.8658563681
 20
13.2027421421
 40
0.3755463998
100
AcDbArc
 50
80.1813377157
 51
88.8016456445
  0
ARC
  5
3C1
100
AcDbEntity
  8
6_SURFACES-PATINS-SPEC
100
AcDbCircle
 62
7
  6
CONTINUOUS
 10
50.8656900393
 20
13.2031638524
 40
0.3752422672
100
AcDbArc
 50
34.3699655736
 51
39.7680356541
  0
ARC
  5
3C2
100
AcDbEntity
  8
6_SURFACES-PATINS-SPEC
100
AcDbCircle
 62
7
  6
CONTINUOUS
 10
50.865650708
 20
13.203239384
 40
0.3752382787
100
AcDbArc
 50
20.0030495453
 51
25.796269328
  0
ARC
  5
3C3
100
AcDbEntity
  8
6_SURFACES-PATINS-SPEC
100
AcDbCircle
 62
7
  6
CONTINUOUS
 10
50.8657593783
 20
13.2031238994
 40
0.3752199279
100
AcDbArc
 50
48.3602583782
 51
53.4390701565
  0
ARC
  5
3C4
100
AcDbEntity
  8
6_SURFACES-PATINS-SPEC
100
AcDbCircle
 62
7
  6
CONTINUOUS
 10
50.8657483644
 20
13.203161533
 40
0.3751995072
100
AcDbArc
 50
41.4004382103
 51
47.2160817819
  0
ARC
  5
3C5
100
AcDbEntity
  8
6_SURFACES-PATINS-SPEC
100
AcDbCircle
 62
7
  6
CONTINUOUS
 10
50.8657887336
 20
13.2032678015
 40
0.3751023514
100
AcDbArc
 50
27.5485121246
 51
33.6034350225
  0
ARC
  5
3C6
100
AcDbEntity
  8
DEFAULT_2
100
AcDbCircle
 62
8
  6
CONTINUOUS
 10
48.9823858691
 20
14.8240881143
 40
0.375
100
AcDbArc
 50
4.9999999787
 51
89.0000000391
  0
ARC
  5
3C7
100
AcDbEntity
  8
6_SURFACES-PATINS-SPEC
100
AcDbCircle
 62
7
  6
CONTINUOUS
 10
50.8659162121
 20
13.2033073052
 40
0.3749793115
100
AcDbArc
 50
54.8770924526
 51
80.1756215663
  0
ARC
  5
3C8
100
AcDbEntity
  8
6_SURFACES-PATINS-SPEC
100
AcDbCircle
 62
7
  6
CONTINUOUS
 10
50.8661118292
 20
13.2035864077
 40
0.3746384833
100
AcDbArc
 50
53.440231144
 51
54.87700412
  0
ARC
  5
3C9
100
AcDbEntity
  8
6_SURFACES-PATINS-SPEC
100
AcDbCircle
 62
7
  6
CONTINUOUS
 10
50.866199326
 20
13.2035238348
 40
0.3746186747
100
AcDbArc
 50
33.6055749859
 51
34.368493785
  0
ARC
  5
3CA
100
AcDbEntity
  8
6_SURFACES-PATINS-SPEC
100
AcDbCircle
 62
7
  6
CONTINUOUS
 10
50.8661534151
 20
13.2035792631
 40
0.374617802
100
AcDbArc
 50
47.2181523449
 51
48.3590217328
  0
ARC
  5
3CB
100
AcDbEntity
  8
6_SURFACES-PATINS-SPEC
100
AcDbCircle
 62
7
  6
CONTINUOUS
 10
50.8662326839
 20
13.2035168183
 40
0.3745935666
100
AcDbArc
 50
25.7968004936
 51
27.5461479919
  0
ARC
  5
3CC
100
AcDbEntity
  8
6_SURFACES-PATINS-SPEC
100
AcDbCircle
 62
7
  6
CONTINUOUS
 10
50.8661961521
 20
13.2035722706
 40
0.3745919911
100
AcDbArc
 50
39.7695382803
 51
41.3986078297
  0
ARC
  5
3CD
100
AcDbEntity
  8
1_CURVES_JETS
100
AcDbCircle
 62
7
  6
CONTINUOUS
 10
48.9782471717
 20
14.8222740235
 40
0.2544331568
100
AcDbArc
 50
15.0581783085
 51
29.7226928613
  0
ARC
  5
3CE
100
AcDbEntity
  8
6_SURFACES-PATINS-SPEC
100
AcDbCircle
 62
7
  6
CONTINUOUS
 10
44.4075409254
 20
12.4695374072
 40
0.1335123077
100
AcDbArc
 50
313.9665158485
 51
315.1257313471
  0
ARC
  5
3CF
100
AcDbEntity
  8
6_SURFACES-PATINS-SPEC
100
AcDbCircle
 62
7
  6
CONTINUOUS
 10
44.496367708
 20
12.448686024
 40
0.0769763199
100
AcDbArc
 50
317.7062649206
 51
318.6460416526
  0
ARC
  5
3D0
100
AcDbEntity
  8
6_SURFACES-PATINS-SPEC
100
AcDbCircle
 62
7
  6
CONTINUOUS
 10
44.1774833068
 20
12.2134372088
 40
0.0625929038
100
AcDbArc
 50
332.5536366686
 51
334.0696892266
  0
ARC
  5
3D1
100
AcDbEntity
  8
6_SURFACES-PATINS-SPEC
100
AcDbCircle
 62
7
  6
CONTINUOUS
 10
52.0059084831
 20
12.2135648429
 40
0.0624999968
100
AcDbArc
 50
235.4389230176
 51
248.4900567979
  0
ARC
  5
3D2
100
AcDbEntity
  8
6_SURFACES-PATINS-SPEC
100
AcDbCircle
 62
7
  6
CONTINUOUS
 10
51.6711581852
 20
12.4479595262
 40
0.062499982
100
AcDbArc
 50
221.5098265214
 51
235.0712123932
  0
ARC
  5
3D3
100
AcDbEntity
  8
6_SURFACES-PATINS-SPEC
100
AcDbCircle
 62
7
  6
CONTINUOUS
 10
44.1778044678
 20
12.2132123307
 40
0.0622042628
100
AcDbArc
 50
291.7034885409
 51
332.6011074785
  0
ARC
  5
3D4
100
AcDbEntity
  8
6_SURFACES-PATINS-SPEC
100
AcDbCircle
 62
7
  6
CONTINUOUS
 10
44.5102508367
 20
12.4474081697
 40
0.0619665842
100
AcDbArc
 50
284.0330170618
 51
318.7340184047
  0
ARC
  5
3D5
100
AcDbEntity
  8
6_SURFACES-PATINS-SPEC
100
AcDbCircle
 62
7
  6
CONTINUOUS
 10
60.9392478441
 20
20.5008122439
 40
10.1236352353
100
AcDbArc
 50
304.613884094
 51
304.7443972084
  0
ARC
  5
3D6
100
AcDbEntity
  8
0
100
AcDbCircle
 62
7
  6
CONTINUOUS
 10
68.8905819112
 20
16.0639421725
 40
2.7644383271
100
AcDbArc
 50
346.6287349423
 51
348.375496537
  0
ARC
  5
3D7
100
AcDbEntity
  8
1_CURVES_JETS
100
AcDbCircle
 62
7
  6
CONTINUOUS
 10
69.1779570325
 20
15.7924492341
 40
2.4375
100
AcDbArc
 50
276.3829939801
 51
350.9999909073
  0
ARC
  5
3D8
100
AcDbEntity
  8
DEFAULT_2
100
AcDbCircle
 62
8
  6
CONTINUOUS
 10
69.1779570325
 20
15.7924492341
 40
2.3125
100
AcDbArc
 50
276.3829939813
 51
350.9999909089
  0
ARC
  5
3D9
100
AcDbEntity
  8
6_SURFACES-PATINS-SPEC
100
AcDbCircle
 62
7
  6
CONTINUOUS
 10
67.3084155335
 20
15.2368004226
 40
1.8609864937
100
AcDbArc
 50
278.2701275626
 51
278.9950275776
  0
ARC
  5
3DA
100
AcDbEntity
  8
6_SURFACES-PATINS-SPEC
100
AcDbCircle
 62
7
  6
CONTINUOUS
 10
66.3262648457
 20
13.0293351477
 40
0.9391405466
100
AcDbArc
 50
270.0162140787
 51
288.2485906122
  0
ARC
  5
3DB
100
AcDbEntity
  8
1_CURVES_JETS
100
AcDbCircle
 62
7
  6
CONTINUOUS
 10
68.3479772216
 20
13.1901946387
 40
0.375
100
AcDbArc
 50
270.0
 51
315.0
  0
ARC
  5
3DC
100
AcDbEntity
  8
DEFAULT_2
100
AcDbCircle
 62
8
  6
CONTINUOUS
 10
68.3479772216
 20
13.1901946387
 40
0.25
100
AcDbArc
 50
270.0
 51
315.0
  0
ARC
  5
3DD
100
AcDbEntity
  8
DEFAULT_2
100
AcDbCircle
 62
8
  6
CONTINUOUS
 10
65.8050840028
 20
13.1901946387
 40
0.25
100
AcDbArc
 50
225.0
 51
270.0
  0
ARC
  5
3DE
100
AcDbEntity
  8
DEFAULT_2
100
AcDbCircle
 62
8
  6
CONTINUOUS
 10
69.0663715325
 20
13.2014821736
 40
0.2499999997
100
AcDbArc
 50
96.3829938379
 51
134.9999992134
  0
ARC
  5
3DF
100
AcDbEntity
  8
DEFAULT_2
100
AcDbCircle
 62
8
  6
CONTINUOUS
 10
65.0955248025
 20
13.1926470627
 40
0.2499999997
100
AcDbArc
 50
45.0000008486
 51
88.6364583309
  0
ARC
  5
3E0
100
AcDbEntity
  8
1_CURVES_JETS
100
AcDbCircle
 62
7
  6
CONTINUOUS
 10
69.0663715325
 20
13.2014821736
 40
0.1249999997
100
AcDbArc
 50
96.3829938423
 51
134.9999992299
  0
ARC
  5
3E1
100
AcDbEntity
  8
6_SURFACES-PATINS-SPEC
100
AcDbCircle
 62
7
  6
CONTINUOUS
 10
66.6471527413
 20
12.2135648429
 40
0.0624999968
100
AcDbArc
 50
291.5099432021
 51
304.561700753
  0
ARC
  5
3E2
100
AcDbEntity
  8
6_SURFACES-PATINS-SPEC
100
AcDbCircle
 62
7
  6
CONTINUOUS
 10
66.9819030392
 20
12.4479595262
 40
0.062499982
100
AcDbArc
 50
304.9282409101
 51
318.4901734786
  0
ARC
  5
3E3
100
AcDbEntity
  8
DEFAULT_2
100
AcDbCircle
 62
8
  6
CONTINUOUS
 10
74.7437173053
 20
32.9545019016
 40
0.5
100
AcDbArc
 50
82.0635908924
 51
171.0000000511
  0
ARC
  5
3E4
100
AcDbEntity
  8
0
100
AcDbCircle
 62
7
  6
CONTINUOUS
 10
77.9632233722
 20
32.7243870841
 40
0.25
100
AcDbArc
 50
5.0000000064
 51
80.8758572403
  0
ENDSEC
  0
SECTION
  2
OBJECTS
  0
DICTIONARY
  5
3E5
100
AcDbDictionary
  3
ACAD_GROUP
350
3E6
  3
ACAD_MLINESTYLE
350
3E7
  0
DICTIONARY
  5
3E6
102
{ACAD_REACTORS
330
3E5
102
}
100
AcDbDictionary
  0
DICTIONARY
  5
3E7
102
{ACAD_REACTORS
330
3E5
102
}
100
AcDbDictionary
  3
STANDARD
350
3E8
  0
MLINESTYLE
  5
3E8
102
{ACAD_REACTORS
330
3E7
102
}
100
AcDbMlineStyle
  2
STANDARD
 70
0
  3

 62
256
 51
90.0
 52
90.0
 71
2
 49
0.5
 62
256
  6
BYLAYER
 49
-0.5
 62
256
  6
BYLAYER
  0
ENDSEC
  0
EOF
