  0
SECTION
  2
HEADER
  9
$ACADVER
  1
AC1014
  9
$DWGCODEPAGE
  3
ANSI_1252
  9
$EXTMAX
 10
22.0
 20
17.0
 30
0.0
  9
$EXTMIN
 10
0.0
 20
0.0
 30
0.0
  9
$LIMMIN
 10
0.0
 20
0.0
  9
$LIMMAX
 10
22.0
 20
17.0
  9
$VIEWCTR
 10
11.0
 20
8.5
  9
$VIEWSIZE
 40
17.0
  9
$CLAYER
  8
0
  9
$LTSCALE
 40
1.21
  9
$CELTYPE
  6
BYLAYER
  9
$DIMSCALE
 40
1.0
  9
$DIMASZ
 40
0.1875
  9
$DIMEXO
 40
0.1375
  9
$DIMDLI
 40
0.836
  9
$DIMEXE
 40
0.396
  9
$DIMCEN
 40
0.198
  9
$DIMLFAC
 40
1.0
  9
$DIMBLK
  1
_ARROW_FILLED
  9
$DIMTXT
 40
0.125
  9
$DIMTOL
 70
1
  9
$DIMLIM
 70
0
  9
$DIMTFAC
 40
1.0
  9
$DIMTP
 40
0.00001
  9
$DIMTM
 40
0.00001
  9
$PDMODE
 70
3
  9
$PDSIZE
 40
0.03125
  9
$HANDSEED
  5
38A
  9
$TILEMODE
 70
1
  9
$MEASUREMENT
 70
0
  0
ENDSEC
  0
SECTION
  2
CLASSES
  0
ENDSEC
  0
SECTION
  2
TABLES
  0
TABLE
  2
VPORT
  5
8
100
AcDbSymbolTable
 70
2
  0
VPORT
  5
1F4
100
AcDbSymbolTableRecord
100
AcDbViewportTableRecord
  2
*ACTIVE
 70
0
 10
0.0
 20
0.0
 11
1.0
 21
1.0
 12
11.0
 22
8.5
 13
0.0
 23
0.0
 14
1.0
 24
1.0
 15
0.0
 25
0.0
 16
0.0
 26
0.0
 36
1.0
 17
0.0
 27
0.0
 37
0.0
 40
17.0
 41
1.2941176471
 42
50.0
 43
0.0
 44
0.0
 50
0.0
 51
0.0
 71
0
 72
100
 73
1
 74
1
 75
0
 76
0
 77
0
 78
0
  0
ENDTAB
  0
TABLE
  2
LTYPE
  5
5
100
AcDbSymbolTable
 70
6
  0
LTYPE
  5
14
100
AcDbSymbolTableRecord
100
AcDbLinetypeTableRecord
  2
BYBLOCK
 70
0
  3

 72
65
 73
0
 40
0.0
  0
LTYPE
  5
15
100
AcDbSymbolTableRecord
100
AcDbLinetypeTableRecord
  2
BYLAYER
 70
0
  3

 72
65
 73
0
 40
0.0
  0
LTYPE
  5
16
100
AcDbSymbolTableRecord
100
AcDbLinetypeTableRecord
  2
CONTINUOUS
 70
64
  3
Solid line
 72
65
 73
0
 40
0.0
  0
LTYPE
  5
1F5
100
AcDbSymbolTableRecord
100
AcDbLinetypeTableRecord
  2
CENTER
 70
64
  3
____ _ ____ _ ____ _ ____ _ ____ _ ____ _ ____
 72
65
 73
4
 40
0.6
 49
0.375
 74
0
 49
-0.075
 74
0
 49
0.075
 74
0
 49
-0.075
 74
0
  0
LTYPE
  5
1F6
100
AcDbSymbolTableRecord
100
AcDbLinetypeTableRecord
  2
HIDDEN
 70
64
  3
- - - - - - - - - - - - - - - - - - - -
 72
65
 73
2
 40
0.2
 49
0.1
 74
0
 49
-0.1
 74
0
  0
LTYPE
  5
1F7
100
AcDbSymbolTableRecord
100
AcDbLinetypeTableRecord
  2
PHANTOM
 70
64
  3
_____ _ _ _____ _ _ _____ _ _ _____
 72
65
 73
6
 40
0.8
 49
0.45
 74
0
 49
-0.05
 74
0
 49
0.1
 74
0
 49
-0.05
 74
0
 49
0.1
 74
0
 49
-0.05
 74
0
  0
LTYPE
  5
1F8
100
AcDbSymbolTableRecord
100
AcDbLinetypeTableRecord
  2
DOT
 70
64
  3
. . . . . . . . . . . . . . . . . . . .
 72
65
 73
2
 40
0.2
 49
0.1
 74
0
 49
-0.1
 74
0
  0
LTYPE
  5
1F9
100
AcDbSymbolTableRecord
100
AcDbLinetypeTableRecord
  2
DASHED
 70
64
  3
- - - - - - - - - - - - - - - - - - - -
 72
65
 73
2
 40
0.2
 49
0.1
 74
0
 49
-0.1
 74
0
  0
ENDTAB
  0
TABLE
  2
LAYER
  5
2
100
AcDbSymbolTable
 70
36
  0
LAYER
  5
10
100
AcDbSymbolTableRecord
100
AcDbLayerTableRecord
  2
0
 70
0
 62
7
  6
CONTINUOUS
  0
LAYER
  5
1FA
100
AcDbSymbolTableRecord
100
AcDbLayerTableRecord
  2
DEFAULT_1
 70
0
 62
7
  6
CENTER
  0
LAYER
  5
1FB
100
AcDbSymbolTableRecord
100
AcDbLayerTableRecord
  2
DEFAULT_2
 70
0
 62
8
  6
HIDDEN
  0
LAYER
  5
1FC
100
AcDbSymbolTableRecord
100
AcDbLayerTableRecord
  2
DEFAULT_3
 70
0
 62
7
  6
PHANTOM
  0
LAYER
  5
1FD
100
AcDbSymbolTableRecord
100
AcDbLayerTableRecord
  2
1_CURVES
 70
0
 62
7
  6
CONTINUOUS
  0
LAYER
  5
1FE
100
AcDbSymbolTableRecord
100
AcDbLayerTableRecord
  2
1_CURVES_CONDUIT
 70
0
 62
7
  6
CONTINUOUS
  0
LAYER
  5
1FF
100
AcDbSymbolTableRecord
100
AcDbLayerTableRecord
  2
1_CURVES_JETS
 70
0
 62
7
  6
CONTINUOUS
  0
LAYER
  5
200
100
AcDbSymbolTableRecord
100
AcDbLayerTableRecord
  2
1_CURVES_PATINS
 70
0
 62
7
  6
CONTINUOUS
  0
LAYER
  5
201
100
AcDbSymbolTableRecord
100
AcDbLayerTableRecord
  2
1_CURVES_RESURFACAGE
 70
0
 62
7
  6
CONTINUOUS
  0
LAYER
  5
202
100
AcDbSymbolTableRecord
100
AcDbLayerTableRecord
  2
1_CURVES_SPEC
 70
0
 62
7
  6
CONTINUOUS
  0
LAYER
  5
203
100
AcDbSymbolTableRecord
100
AcDbLayerTableRecord
  2
2_PLANES
 70
0
 62
7
  6
CONTINUOUS
  0
LAYER
  5
204
100
AcDbSymbolTableRecord
100
AcDbLayerTableRecord
  2
2_PLANES_JETS
 70
0
 62
7
  6
CONTINUOUS
  0
LAYER
  5
205
100
AcDbSymbolTableRecord
100
AcDbLayerTableRecord
  2
3_POINTS
 70
0
 62
7
  6
CONTINUOUS
  0
LAYER
  5
206
100
AcDbSymbolTableRecord
100
AcDbLayerTableRecord
  2
3_POINTS_JETS
 70
0
 62
7
  6
CONTINUOUS
  0
LAYER
  5
207
100
AcDbSymbolTableRecord
100
AcDbLayerTableRecord
  2
4_CSYS
 70
0
 62
7
  6
CONTINUOUS
  0
LAYER
  5
208
100
AcDbSymbolTableRecord
100
AcDbLayerTableRecord
  2
5_AXIS
 70
0
 62
7
  6
CONTINUOUS
  0
LAYER
  5
209
100
AcDbSymbolTableRecord
100
AcDbLayerTableRecord
  2
5_AXIS_JETS
 70
0
 62
7
  6
CONTINUOUS
  0
LAYER
  5
20A
100
AcDbSymbolTableRecord
100
AcDbLayerTableRecord
  2
6_AIRE_CONDUIT
 70
0
 62
7
  6
CONTINUOUS
  0
LAYER
  5
20B
100
AcDbSymbolTableRecord
100
AcDbLayerTableRecord
  2
6_SURFACE-OFFSET-FIBRE-ACRYLIQU
 70
0
 62
7
  6
CONTINUOUS
  0
LAYER
  5
20C
100
AcDbSymbolTableRecord
100
AcDbLayerTableRecord
  2
6_SURFACES
 70
0
 62
7
  6
CONTINUOUS
  0
LAYER
  5
20D
100
AcDbSymbolTableRecord
100
AcDbLayerTableRecord
  2
6_SURFACES-PATINS-SPEC
 70
0
 62
7
  6
CONTINUOUS
  0
LAYER
  5
20E
100
AcDbSymbolTableRecord
100
AcDbLayerTableRecord
  2
6_SURFACES_AIRE
 70
0
 62
7
  6
CONTINUOUS
  0
LAYER
  5
20F
100
AcDbSymbolTableRecord
100
AcDbLayerTableRecord
  2
6_SURFACES_OFFSET_FIBRE
 70
0
 62
7
  6
CONTINUOUS
  0
LAYER
  5
210
100
AcDbSymbolTableRecord
100
AcDbLayerTableRecord
  2
6_SURFACES_OFFSET_FIBRE_ACRYLIQ
 70
0
 62
7
  6
CONTINUOUS
  0
LAYER
  5
211
100
AcDbSymbolTableRecord
100
AcDbLayerTableRecord
  2
6_SURFACES_POUR_CONDUIT
 70
0
 62
7
  6
CONTINUOUS
  0
LAYER
  5
212
100
AcDbSymbolTableRecord
100
AcDbLayerTableRecord
  2
6_SURFACES_POUR_HFL
 70
0
 62
7
  6
CONTINUOUS
  0
LAYER
  5
213
100
AcDbSymbolTableRecord
100
AcDbLayerTableRecord
  2
6_SURFACES_TOOLING
 70
0
 62
7
  6
CONTINUOUS
  0
LAYER
  5
214
100
AcDbSymbolTableRecord
100
AcDbLayerTableRecord
  2
7_NOTES
 70
0
 62
7
  6
CONTINUOUS
  0
LAYER
  5
215
100
AcDbSymbolTableRecord
100
AcDbLayerTableRecord
  2
8_COSMETIC
 70
0
 62
7
  6
CONTINUOUS
  0
LAYER
  5
216
100
AcDbSymbolTableRecord
100
AcDbLayerTableRecord
  2
9_IMPORT
 70
0
 62
7
  6
CONTINUOUS
  0
LAYER
  5
217
100
AcDbSymbolTableRecord
100
AcDbLayerTableRecord
  2
DEGAGEMENT_SERIGRAPHIE
 70
0
 62
7
  6
CONTINUOUS
  0
LAYER
  5
218
100
AcDbSymbolTableRecord
100
AcDbLayerTableRecord
  2
NONE
 70
0
 62
7
  6
CONTINUOUS
  0
LAYER
  5
219
100
AcDbSymbolTableRecord
100
AcDbLayerTableRecord
  2
XSEC_DATUMS
 70
0
 62
7
  6
CONTINUOUS
  0
ENDTAB
  0
TABLE
  2
STYLE
  5
3
100
AcDbSymbolTable
 70
1
  0
STYLE
  5
11
100
AcDbSymbolTableRecord
100
AcDbTextStyleTableRecord
  2
STANDARD
 70
0
 40
0.0
 41
0.8
 50
0.0
 71
0
 42
0.2
  3
txt
  4

  0
STYLE
  5
21A
100
AcDbSymbolTableRecord
100
AcDbTextStyleTableRecord
  2
TEXTSTYLE_1
 70
0
 40
0.0
 41
0.8
 50
0.0
 71
0
 42
0.2
  3
gdt
  4

  0
ENDTAB
  0
TABLE
  2
VIEW
  5
6
100
AcDbSymbolTable
 70
0
  0
ENDTAB
  0
TABLE
  2
UCS
  5
7
100
AcDbSymbolTable
 70
0
  0
ENDTAB
  0
TABLE
  2
APPID
  5
9
100
AcDbSymbolTable
 70
1
  0
APPID
  5
21B
100
AcDbSymbolTableRecord
100
AcDbRegAppTableRecord
  2
ACAD
 70
0
  0
ENDTAB
  0
TABLE
  2
BLOCK_RECORD
  5
1
100
AcDbSymbolTable
 70
0
  0
BLOCK_RECORD
  5
1F
100
AcDbSymbolTableRecord
100
AcDbBlockTableRecord
  2
*MODEL_SPACE
  0
BLOCK_RECORD
  5
1B
100
AcDbSymbolTableRecord
100
AcDbBlockTableRecord
  2
*PAPER_SPACE
  0
ENDTAB
  0
TABLE
  2
DIMSTYLE
  5
A
100
AcDbSymbolTable
 70
1
  0
DIMSTYLE
105
21C
100
AcDbSymbolTableRecord
100
AcDbDimStyleTableRecord
  2
STANDARD
 70
0
  3

  4

  5
_ARROW_FILLED
  6
_ARROW_FILLED
  7
_ARROW_FILLED
 40
1.0
 41
0.1875
 42
0.0625
 43
0.38
 44
0.18
 45
0.0
 46
0.0
 47
0.00001
 48
0.00001
140
0.125
141
0.09
142
0.0
143
25.4
144
1.0
145
0.0
146
1.0
147
0.09
 71
1.0
 72
0.0
 73
1
 74
1
 75
0
 76
0
 77
0
 78
4
170
0
171
2
172
0
173
0
174
0
175
0
176
0
177
0
178
0
270
2
271
5
272
5
273
2
274
2
275
0
280
0
281
0
282
0
283
1
284
4
285
0
286
0
287
3
288
0
340
11
  0
ENDTAB
  0
ENDSEC
  0
SECTION
  2
BLOCKS
  0
BLOCK
  5
20
100
AcDbEntity
  8
0
100
AcDbBlockBegin
  2
*MODEL_SPACE
 70
0
 10
0.0
 20
0.0
 30
0.0
  3
*MODEL_SPACE
  1

  0
ENDBLK
  5
21
100
AcDbEntity
  8
0
100
AcDbBlockEnd
  0
BLOCK
  5
1C
100
AcDbEntity
  8
0
100
AcDbBlockBegin
  2
*PAPER_SPACE
 70
0
 10
0.0
 20
0.0
 30
0.0
  3
*PAPER_SPACE
  1

  0
ENDBLK
  5
1D
100
AcDbEntity
  8
0
100
AcDbBlockEnd
  0
ENDSEC
  0
SECTION
  2
ENTITIES
  0
LWPOLYLINE
  5
21D
100
AcDbEntity
  8
0
100
AcDbPolyline
 62
7
  6
CONTINUOUS
 90
46
 70
0
 10
27.6822963353
 20
68.2635227453
 10
27.682066069
 20
68.2631359435
 10
27.6818046521
 20
68.2627732752
 10
27.6815142814
 20
68.2624338968
 10
27.6811971534
 20
68.2621169647
 10
27.6808554651
 20
68.2618216352
 10
27.6804914129
 20
68.2615470649
 10
27.6801071937
 20
68.26129241
 10
27.6797050042
 20
68.261056827
 10
27.679287041
 20
68.2608394723
 10
27.678855501
 20
68.2606395022
 10
27.6784125806
 20
68.2604560732
 10
27.6779604768
 20
68.2602883417
 10
27.6775013862
 20
68.260135464
 10
27.6770375055
 20
68.2599965966
 10
27.6765710314
 20
68.2598708958
 10
27.6761041607
 20
68.259757518
 10
27.6756390899
 20
68.2596556197
 10
27.6748720845
 20
68.2595092593
 10
27.674114076
 20
68.2593898344
 10
27.6733629652
 20
68.2592947511
 10
27.6726166526
 20
68.2592214158
 10
27.6718730386
 20
68.2591672347
 10
27.671130024
 20
68.2591296141
 10
27.6703855092
 20
68.2591059602
 10
27.6691404317
 20
68.2590921396
 10
27.6678880742
 20
68.2591074559
 10
27.6666311114
 20
68.2591495928
 10
27.6653722183
 20
68.2592162341
 10
27.6641140699
 20
68.2593050636
 10
27.662398029
 20
68.2594588712
 10
27.660688039
 20
68.2596474434
 10
27.6589837531
 20
68.2598683658
 10
27.6572848248
 20
68.2601192244
 10
27.6555909072
 20
68.260397605
 10
27.6539016536
 20
68.2607010935
 10
27.6522167173
 20
68.2610272756
 10
27.6505357515
 20
68.2613737372
 10
27.6488584097
 20
68.2617380642
 10
27.6461620002
 20
68.2623580928
 10
27.6434742102
 20
68.2630162439
 10
27.6407951464
 20
68.263710503
 10
27.6381249152
 20
68.2644388555
 10
27.6354636235
 20
68.2651992868
 10
27.6328113776
 20
68.2659897826
 10
27.6301682844
 20
68.2668083281
  0
LINE
  5
21E
100
AcDbEntity
  8
0
100
AcDbLine
 62
7
  6
CONTINUOUS
 10
60.5157633855
 20
83.5117100398
 11
60.7340631989
 21
83.758634283
  0
LINE
  5
21F
100
AcDbEntity
  8
0
100
AcDbLine
 62
7
  6
CONTINUOUS
 10
60.2819654342
 20
83.2641579991
 11
60.5157633855
 21
83.5117100398
  0
LINE
  5
220
100
AcDbEntity
  8
0
100
AcDbLine
 62
7
  6
CONTINUOUS
 10
60.0400764925
 20
83.0246095921
 11
60.2819654342
 21
83.2641579991
  0
LINE
  5
221
100
AcDbEntity
  8
0
100
AcDbLine
 62
7
  6
CONTINUOUS
 10
59.7903800649
 20
82.7933385648
 11
60.0400764925
 21
83.0246095921
  0
LINE
  5
222
100
AcDbEntity
  8
0
100
AcDbLine
 62
7
  6
CONTINUOUS
 10
45.9722713497
 20
58.119693779
 11
45.7224552674
 21
57.8885520065
  0
LINE
  5
223
100
AcDbEntity
  8
0
100
AcDbLine
 62
7
  6
CONTINUOUS
 10
59.5331706795
 20
82.5706080584
 11
59.7903800649
 21
82.7933385648
  0
LINE
  5
224
100
AcDbEntity
  8
0
100
AcDbLine
 62
7
  6
CONTINUOUS
 10
46.229595969
 20
58.3422911436
 11
45.9722713497
 21
58.119693779
  0
LINE
  5
225
100
AcDbEntity
  8
0
100
AcDbLine
 62
7
  6
CONTINUOUS
 10
58.6321495439
 20
83.7591060791
 11
58.4267557412
 21
83.5884153135
  0
LINE
  5
226
100
AcDbEntity
  8
0
100
AcDbLine
 62
7
  6
CONTINUOUS
 10
47.1300019081
 20
57.1533269823
 11
47.3354840198
 21
57.3239114288
  0
LINE
  5
227
100
AcDbEntity
  8
0
100
AcDbLine
 62
7
  6
CONTINUOUS
 10
59.2687528364
 20
82.3566694967
 11
59.5331706795
 21
82.5706080584
  0
LINE
  5
228
100
AcDbEntity
  8
0
100
AcDbLine
 62
7
  6
CONTINUOUS
 10
46.494124495
 20
58.5560928342
 11
46.229595969
 21
58.3422911436
  0
LWPOLYLINE
  5
229
100
AcDbEntity
  8
0
100
AcDbPolyline
 62
7
  6
CONTINUOUS
 90
37
 70
0
 10
27.195852883
 20
72.215045571
 10
27.1858370416
 20
72.2072179768
 10
27.1760313717
 20
72.1991128743
 10
27.1664429424
 20
72.1907386779
 10
27.1570788227
 20
72.1821038024
 10
27.1479460819
 20
72.1732166622
 10
27.139051789
 20
72.164085672
 10
27.1304030132
 20
72.1547192464
 10
27.1220068234
 20
72.1451258
 10
27.1138702889
 20
72.1353137472
 10
27.1059060151
 20
72.1251686149
 10
27.0982181327
 20
72.1148163084
 10
27.0908098003
 20
72.1042649741
 10
27.0836841768
 20
72.0935227583
 10
27.0768444209
 20
72.0825978073
 10
27.0702936915
 20
72.0714982674
 10
27.0640351472
 20
72.0602322849
 10
27.058071947
 20
72.048808006
 10
27.0524072496
 20
72.0372335772
 10
27.0469839268
 20
72.025381292
 10
27.0418710009
 20
72.0133919145
 10
27.0370702147
 20
72.0012736477
 10
27.0325833108
 20
71.989034695
 10
27.028412032
 20
71.9766832592
 10
27.0245581209
 20
71.9642275436
 10
27.0210233203
 20
71.9516757513
 10
27.0178093729
 20
71.9390360854
 10
27.0149180213
 20
71.926316749
 10
27.0123303675
 20
71.9134175867
 10
27.0100726128
 20
71.9004556487
 10
27.0081448008
 20
71.8874408421
 10
27.0065469749
 20
71.8743830742
 10
27.0052791788
 20
71.8612922522
 10
27.004341456
 20
71.8481782834
 10
27.0037338502
 20
71.835051075
 10
27.0034564048
 20
71.8219205342
 10
27.0035091635
 20
71.8087965683
  0
LINE
  5
22A
100
AcDbEntity
  8
0
100
AcDbLine
 62
7
  6
CONTINUOUS
 10
58.4267557412
 20
83.5884153135
 11
58.1790593426
 21
83.3961818978
  0
LINE
  5
22B
100
AcDbEntity
  8
0
100
AcDbLine
 62
7
  6
CONTINUOUS
 10
47.3354840198
 20
57.3239114288
 11
47.5832798705
 21
57.51601663
  0
LINE
  5
22C
100
AcDbEntity
  8
0
100
AcDbLine
 62
7
  6
CONTINUOUS
 10
58.9974415395
 20
82.1517635309
 11
59.2687528364
 21
82.3566694967
  0
LINE
  5
22D
100
AcDbEntity
  8
0
100
AcDbLine
 62
7
  6
CONTINUOUS
 10
46.7655417993
 20
58.7608583625
 11
46.494124495
 21
58.5560928342
  0
LINE
  5
22E
100
AcDbEntity
  8
0
100
AcDbLine
 62
7
  6
CONTINUOUS
 10
58.1790593426
 20
83.3961818978
 11
57.9249087932
 21
83.2132342873
  0
LINE
  5
22F
100
AcDbEntity
  8
0
100
AcDbLine
 62
7
  6
CONTINUOUS
 10
47.5832798705
 20
57.51601663
 11
47.8375250656
 21
57.6988326871
  0
LINE
  5
230
100
AcDbEntity
  8
0
100
AcDbLine
 62
7
  6
CONTINUOUS
 10
58.7195625607
 20
81.9561183165
 11
58.9974415395
 21
82.1517635309
  0
LINE
  5
231
100
AcDbEntity
  8
0
100
AcDbLine
 62
7
  6
CONTINUOUS
 10
47.0435219919
 20
58.9563597417
 11
46.7655417993
 21
58.7608583625
  0
LINE
  5
232
100
AcDbEntity
  8
0
100
AcDbLine
 62
7
  6
CONTINUOUS
 10
57.9249087932
 20
83.2132342873
 11
57.6647247561
 21
83.0398250439
  0
LINE
  5
233
100
AcDbEntity
  8
0
100
AcDbLine
 62
7
  6
CONTINUOUS
 10
47.8375250656
 20
57.6988326871
 11
48.0977988113
 21
57.8721072559
  0
LINE
  5
234
100
AcDbEntity
  8
0
100
AcDbLine
 62
7
  6
CONTINUOUS
 10
58.4354499929
 20
81.7699505817
 11
58.7195625607
 21
81.9561183165
  0
LINE
  5
235
100
AcDbEntity
  8
0
100
AcDbLine
 62
7
  6
CONTINUOUS
 10
47.3277308679
 20
59.1423804166
 11
47.0435219919
 21
58.9563597417
  0
LINE
  5
236
100
AcDbEntity
  8
0
100
AcDbLine
 62
7
  6
CONTINUOUS
 10
57.6647247561
 20
83.0398250439
 11
57.398917691
 21
82.8761680075
  0
LINE
  5
237
100
AcDbEntity
  8
0
100
AcDbLine
 62
7
  6
CONTINUOUS
 10
48.0977988113
 20
57.8721072559
 11
48.3636905372
 21
58.0356267089
  0
LINE
  5
238
100
AcDbEntity
  8
0
100
AcDbLine
 62
7
  6
CONTINUOUS
 10
58.1454412769
 20
81.5934583802
 11
58.4354499929
 21
81.7699505817
  0
LINE
  5
239
100
AcDbEntity
  8
0
100
AcDbLine
 62
7
  6
CONTINUOUS
 10
47.6178308839
 20
59.3187225081
 11
47.3277308679
 21
59.1423804166
  0
LINE
  5
23A
100
AcDbEntity
  8
0
100
AcDbLine
 62
7
  6
CONTINUOUS
 10
57.398917691
 20
82.8761680075
 11
57.1277634861
 21
82.7223801608
  0
LINE
  5
23B
100
AcDbEntity
  8
0
100
AcDbLine
 62
7
  6
CONTINUOUS
 10
48.3636905372
 20
58.0356267089
 11
48.6349242946
 21
58.1892742062
  0
LINE
  5
23C
100
AcDbEntity
  8
0
100
AcDbLine
 62
7
  6
CONTINUOUS
 10
57.849871098
 20
81.4268240752
 11
58.1454412769
 21
81.5934583802
  0
LINE
  5
23D
100
AcDbEntity
  8
0
100
AcDbLine
 62
7
  6
CONTINUOUS
 10
47.9134872604
 20
59.4852038261
 11
47.6178308839
 21
59.3187225081
  0
LINE
  5
23E
100
AcDbEntity
  8
0
100
AcDbLine
 62
7
  6
CONTINUOUS
 10
57.1277634861
 20
82.7223801608
 11
56.8516592252
 21
82.5786376461
  0
LINE
  5
23F
100
AcDbEntity
  8
0
100
AcDbLine
 62
7
  6
CONTINUOUS
 10
57.5490812674
 20
81.2702164623
 11
57.849871098
 21
81.4268240752
  0
LINE
  5
240
100
AcDbEntity
  8
0
100
AcDbLine
 62
7
  6
CONTINUOUS
 10
48.2143580989
 20
59.6416557523
 11
47.9134872604
 21
59.4852038261
  0
LINE
  5
241
100
AcDbEntity
  8
0
100
AcDbLine
 62
7
  6
CONTINUOUS
 10
48.6349242946
 20
58.1892742062
 11
48.9111029087
 21
58.3328738112
  0
LINE
  5
242
100
AcDbEntity
  8
0
100
AcDbLine
 62
7
  6
CONTINUOUS
 10
57.2434148785
 20
81.1237911725
 11
57.5490812674
 21
81.2702164623
  0
LINE
  5
243
100
AcDbEntity
  8
0
100
AcDbLine
 62
7
  6
CONTINUOUS
 10
48.5201002255
 20
59.7879228328
 11
48.2143580989
 21
59.6416557523
  0
LINE
  5
244
100
AcDbEntity
  8
0
100
AcDbLine
 62
7
  6
CONTINUOUS
 10
56.8516592252
 20
82.5786376461
 11
56.57111067
 21
82.4451443326
  0
LINE
  5
245
100
AcDbEntity
  8
0
100
AcDbLine
 62
7
  6
CONTINUOUS
 10
48.9111029087
 20
58.3328738112
 11
49.1917205123
 21
58.4662219163
  0
LINE
  5
246
100
AcDbEntity
  8
0
100
AcDbLine
 62
7
  6
CONTINUOUS
 10
56.9332174586
 20
80.9876910833
 11
57.2434148785
 21
81.1237911725
  0
LINE
  5
247
100
AcDbEntity
  8
0
100
AcDbLine
 62
7
  6
CONTINUOUS
 10
48.8303680388
 20
59.9238623693
 11
48.5201002255
 21
59.7879228328
  0
LINE
  5
248
100
AcDbEntity
  8
0
100
AcDbLine
 62
7
  6
CONTINUOUS
 10
56.57111067
 20
82.4451443326
 11
56.2864175782
 21
82.3219827023
  0
LINE
  5
249
100
AcDbEntity
  8
0
100
AcDbLine
 62
7
  6
CONTINUOUS
 10
49.1917205123
 20
58.4662219163
 11
49.476477305
 21
58.5892361947
  0
LINE
  5
24A
100
AcDbEntity
  8
0
100
AcDbLine
 62
7
  6
CONTINUOUS
 10
56.6188379826
 20
80.8620464787
 11
56.9332174586
 21
80.9876910833
  0
LINE
  5
24B
100
AcDbEntity
  8
0
100
AcDbLine
 62
7
  6
CONTINUOUS
 10
49.1448124968
 20
60.0493442582
 11
48.8303680388
 21
59.9238623693
  0
LINE
  5
24C
100
AcDbEntity
  8
0
100
AcDbLine
 62
7
  6
CONTINUOUS
 10
56.2864175782
 20
82.3219827023
 11
55.9979947115
 21
82.2092758211
  0
LINE
  5
24D
100
AcDbEntity
  8
0
100
AcDbLine
 62
7
  6
CONTINUOUS
 10
49.476477305
 20
58.5892361947
 11
49.7649584617
 21
58.7017937951
  0
LINE
  5
24E
100
AcDbEntity
  8
0
100
AcDbLine
 62
7
  6
CONTINUOUS
 10
56.3006269376
 20
80.7469756454
 11
56.6188379826
 21
80.8620464787
  0
LINE
  5
24F
100
AcDbEntity
  8
0
100
AcDbLine
 62
7
  6
CONTINUOUS
 10
49.4630830511
 20
60.1642503944
 11
49.1448124968
 21
60.0493442582
  0
LINE
  5
250
100
AcDbEntity
  8
0
100
AcDbLine
 62
7
  6
CONTINUOUS
 10
55.9979947115
 20
82.2092758211
 11
55.7061883232
 21
82.1071022581
  0
LINE
  5
251
100
AcDbEntity
  8
0
100
AcDbLine
 62
7
  6
CONTINUOUS
 10
49.7649584617
 20
58.7017937951
 11
50.0568176881
 21
58.8038163277
  0
LINE
  5
252
100
AcDbEntity
  8
0
100
AcDbLine
 62
7
  6
CONTINUOUS
 10
55.9789348413
 20
80.6425842539
 11
56.3006269376
 21
80.7469756454
  0
LINE
  5
253
100
AcDbEntity
  8
0
100
AcDbLine
 62
7
  6
CONTINUOUS
 10
49.7848291293
 20
60.2684752886
 11
49.4630830511
 21
60.1642503944
  0
LINE
  5
254
100
AcDbEntity
  8
0
100
AcDbLine
 62
7
  6
CONTINUOUS
 10
27.6301682844
 20
72.642648416
 11
25.1396594241
 21
71.8573939886
  0
LINE
  5
255
100
AcDbEntity
  8
0
100
AcDbLine
 62
7
  6
CONTINUOUS
 10
55.7061883232
 20
82.1071022581
 11
55.4112985269
 21
82.0155207365
  0
LINE
  5
256
100
AcDbEntity
  8
0
100
AcDbLine
 62
7
  6
CONTINUOUS
 10
50.0568176881
 20
58.8038163277
 11
50.3517548405
 21
58.8952452246
  0
LWPOLYLINE
  5
257
100
AcDbEntity
  8
0
100
AcDbPolyline
 62
7
  6
CONTINUOUS
 90
50
 70
0
 10
45.0327797766
 20
57.1382517933
 10
45.0309709037
 20
57.1377077385
 10
45.030509962
 20
57.1375591406
 10
45.0300577535
 20
57.1373910308
 10
45.0296194925
 20
57.1371930325
 10
45.0292003935
 20
57.136954769
 10
45.0288056707
 20
57.1366658636
 10
45.0284405385
 20
57.1363159398
 10
45.0282432183
 20
57.1360791565
 10
45.0280670833
 20
57.1358245733
 10
45.027921299
 20
57.1355590463
 10
45.027815031
 20
57.1352894315
 10
45.0277574447
 20
57.1350225849
 10
45.0277577057
 20
57.1347653626
 10
45.0278219058
 20
57.134523451
 10
45.0279441044
 20
57.134297043
 10
45.0281153636
 20
57.1340851805
 10
45.0283267451
 20
57.1338869054
 10
45.0286555511
 20
57.1336420188
 10
45.0290186095
 20
57.1334173135
 10
45.0293947335
 20
57.1332105186
 10
45.030097071
 20
57.1328589549
 10
45.0307767966
 20
57.1325556939
 10
45.0314408051
 20
57.1322922131
 10
45.0320959913
 20
57.1320599902
 10
45.0327492496
 20
57.1318505029
 10
45.033407475
 20
57.1316552288
 10
45.0349886911
 20
57.1312235646
 10
45.0366167374
 20
57.1308218709
 10
45.038273468
 20
57.1304489447
 10
45.0399407372
 20
57.1301035831
 10
45.0422537095
 20
57.1296656691
 10
45.0445575861
 20
57.1292704194
 10
45.0468580074
 20
57.1289094334
 10
45.0491606135
 20
57.1285743109
 10
45.0531720007
 20
57.128035687
 10
45.0571990049
 20
57.1275439327
 10
45.0612336795
 20
57.1270933295
 10
45.0662167593
 20
57.1265858117
 10
45.0712008775
 20
57.1261249865
 10
45.076187494
 20
57.1257035304
 10
45.0821424535
 20
57.1252432986
 10
45.0881016489
 20
57.1248243919
 10
45.0940636798
 20
57.1244425068
 10
45.100988683
 20
57.1240403475
 10
45.1079155221
 20
57.1236786374
 10
45.1148440978
 20
57.1233537106
 10
45.1226258364
 20
57.1230286035
 10
45.1304092191
 20
57.1227427567
 10
45.1381938256
 20
57.1224936751
  0
LWPOLYLINE
  5
258
100
AcDbEntity
  8
0
100
AcDbPolyline
 62
7
  6
CONTINUOUS
 90
48
 70
0
 10
24.1576951405
 20
71.611326321
 10
24.1409211418
 20
71.6064471938
 10
24.1243318526
 20
71.6009416445
 10
24.1079554648
 20
71.594818163
 10
24.0918201699
 20
71.5880852391
 10
24.0761088391
 20
71.5808292799
 10
24.060675935
 20
71.5730035201
 10
24.0455359444
 20
71.5646271836
 10
24.0307033543
 20
71.5557194947
 10
24.0160430361
 20
71.5462008604
 10
24.0017169371
 20
71.5361854676
 10
23.9877307092
 20
71.5256993143
 10
23.9740900042
 20
71.5147683986
 10
23.9559894299
 20
71.4991357478
 10
23.9385375549
 20
71.4827822444
 10
23.9217254295
 20
71.465771261
 10
23.9049594588
 20
71.4475050649
 10
23.8888545281
 20
71.4286539312
 10
23.873393604
 20
71.4092715538
 10
23.8579610714
 20
71.3885819085
 10
23.8431827411
 20
71.3674195369
 10
23.8290331534
 20
71.3458293944
 10
23.8146582217
 20
71.3224642481
 10
23.800939793
 20
71.2987016765
 10
23.7878530885
 20
71.2745765645
 10
23.7753733296
 20
71.2501237968
 10
23.7634757374
 20
71.2253782581
 10
23.7521355332
 20
71.2003748332
 10
23.7382608557
 20
71.1677092944
 10
23.7252445252
 20
71.1347020131
 10
23.7130542728
 20
71.1013841442
 10
23.7016578293
 20
71.0677868428
 10
23.691022926
 20
71.0339412636
 10
23.6805355454
 20
70.9977802353
 10
23.6708482999
 20
70.9613971221
 10
23.6619398388
 20
70.9248144163
 10
23.653788811
 20
70.8880546106
 10
23.6463738657
 20
70.8511401974
 10
23.6393956647
 20
70.81245353
 10
23.6331826669
 20
70.773638186
 10
23.6277208344
 20
70.7347095277
 10
23.6229961294
 20
70.6956829177
 10
23.6189945139
 20
70.6565737186
 10
23.615620229
 20
70.6162828698
 10
23.6129904228
 20
70.5759369147
 10
23.6110996437
 20
70.5355518493
 10
23.6099424406
 20
70.4951436697
 10
23.6095133622
 20
70.454728372
  0
LINE
  5
259
100
AcDbEntity
  8
0
100
AcDbLine
 62
7
  6
CONTINUOUS
 10
55.6541168574
 20
80.5489673097
 11
55.9789348413
 21
80.6425842539
  0
LINE
  5
25A
100
AcDbEntity
  8
0
100
AcDbLine
 62
7
  6
CONTINUOUS
 10
50.1096955187
 20
60.3619241193
 11
49.7848291293
 21
60.2684752886
  0
LINE
  5
25B
100
AcDbEntity
  8
0
100
AcDbLine
 62
7
  6
CONTINUOUS
 10
45.7224552674
 20
57.8885520065
 11
45.480442386
 21
57.6491288149
  0
LINE
  5
25C
100
AcDbEntity
  8
0
100
AcDbLine
 62
7
  6
CONTINUOUS
 10
45.480442386
 20
57.6491288149
 11
45.246516352
 21
57.4016978033
  0
LWPOLYLINE
  5
25D
100
AcDbEntity
  8
0
100
AcDbPolyline
 62
7
  6
CONTINUOUS
 90
39
 70
0
 10
60.73406298
 20
83.758634285
 10
60.7342039313
 20
83.758817385
 10
60.7343208375
 20
83.7590173328
 10
60.7344019191
 20
83.7592331378
 10
60.7344389498
 20
83.7595335571
 10
60.7343961585
 20
83.7598329535
 10
60.7343113665
 20
83.7600484502
 10
60.7341909356
 20
83.7602478914
 10
60.7340457306
 20
83.7604315421
 10
60.7337183208
 20
83.7607508278
 10
60.7333554959
 20
83.761026816
 10
60.7327955982
 20
83.7613783054
 10
60.7322081993
 20
83.7616842927
 10
60.7316011916
 20
83.7619546723
 10
60.7309824678
 20
83.7621993386
 10
60.7297845717
 20
83.7626223536
 10
60.7285745293
 20
83.7629977586
 10
60.7273542202
 20
83.7633359708
 10
60.7262298822
 20
83.763621041
 10
60.7251004057
 20
83.7638869635
 10
60.7225725382
 20
83.7644247769
 10
60.7197852468
 20
83.7649482902
 10
60.7167534259
 20
83.7654567082
 10
60.7133881371
 20
83.7659645229
 10
60.7100160277
 20
83.7664256039
 10
60.7062480136
 20
83.7668960162
 10
60.7024753687
 20
83.7673274662
 10
60.6983589212
 20
83.7677605707
 10
60.6942390709
 20
83.7681601128
 10
60.6898221896
 20
83.7685560397
 10
60.685402782
 20
83.7689227392
 10
60.679027064
 20
83.7694066933
 10
60.6726478657
 20
83.7698433748
 10
60.6662659208
 20
83.7702384261
 10
60.6593905808
 20
83.7706231426
 10
60.6525132265
 20
83.7709692875
 10
60.6456341776
 20
83.7712800277
 10
60.6347939352
 20
83.7717044764
 10
60.6239511098
 20
83.7720556894
  0
LINE
  5
25E
100
AcDbEntity
  8
0
100
AcDbLine
 62
7
  6
CONTINUOUS
 10
45.246516352
 20
57.4016978033
 11
45.0280887787
 21
57.1548865685
  0
LINE
  5
25F
100
AcDbEntity
  8
0
100
AcDbLine
 62
7
  6
CONTINUOUS
 10
17.0102541725
 20
87.956631023
 11
17.0102541725
 21
52.9528257211
  0
LINE
  5
260
100
AcDbEntity
  8
0
100
AcDbLine
 62
7
  6
CONTINUOUS
 10
17.3378129757
 20
87.8426737708
 11
17.3378129757
 21
53.0667829733
  0
LWPOLYLINE
  5
261
100
AcDbEntity
  8
0
100
AcDbPolyline
 62
7
  6
CONTINUOUS
 90
49
 70
0
 10
20.6418610848
 20
82.9417577293
 10
20.6428819392
 20
83.00541137
 10
20.6459472642
 20
83.0690455204
 10
20.6510612
 20
83.132580515
 10
20.658227887
 20
83.1959366885
 10
20.6674514655
 20
83.2590343756
 10
20.6787360759
 20
83.3217939107
 10
20.6920734824
 20
83.3840963338
 10
20.7074606813
 20
83.4459144913
 10
20.7248850438
 20
83.5071813779
 10
20.7443339411
 20
83.5678299887
 10
20.7657947442
 20
83.6277933186
 10
20.7892548243
 20
83.6870043626
 10
20.8146684195
 20
83.7453302749
 10
20.8420328426
 20
83.8027717585
 10
20.8713167822
 20
83.8592618164
 10
20.9024889264
 20
83.9147334515
 10
20.9355179635
 20
83.9691196669
 10
20.970372582
 20
84.0223534654
 10
21.0069665502
 20
84.0742985281
 10
21.0453015178
 20
84.124972579
 10
21.0853291892
 20
84.1743206394
 10
21.1270012686
 20
84.2222877306
 10
21.1702694605
 20
84.2688188739
 10
21.2150854691
 20
84.3138590905
 10
21.2613351566
 20
84.3572979978
 10
21.3090205003
 20
84.399155978
 10
21.3580817051
 20
84.4393938136
 10
21.4084589761
 20
84.4779722869
 10
21.4600925184
 20
84.5148521803
 10
21.5129225371
 20
84.5499942762
 10
21.566829721
 20
84.5833274494
 10
21.6218054215
 20
84.6148658927
 10
21.6777839119
 20
84.6445880801
 10
21.7346994656
 20
84.6724724853
 10
21.7924863558
 20
84.698497582
 10
21.8510788558
 20
84.722641844
 10
21.9103744876
 20
84.7448730184
 10
21.9703478034
 20
84.7651985596
 10
22.030937533
 20
84.7836128074
 10
22.0920824062
 20
84.8001101012
 10
22.1537211527
 20
84.8146847805
 10
22.2157925021
 20
84.827331185
 10
22.2782251164
 20
84.8380443213
 10
22.3409592508
 20
84.846830486
 10
22.4039251953
 20
84.8536961079
 10
22.46705324
 20
84.8586476158
 10
22.5302736748
 20
84.8616914388
 10
22.5935167899
 20
84.8628340056
  0
LWPOLYLINE
  5
262
100
AcDbEntity
  8
0
100
AcDbPolyline
 62
7
  6
CONTINUOUS
 90
32
 70
0
 10
68.3928140367
 20
83.1369937179
 10
68.3942102049
 20
83.1391603327
 10
68.3956311595
 20
83.1413119206
 10
68.3970777953
 20
83.1434467555
 10
68.3985510073
 20
83.1455631112
 10
68.4000516904
 20
83.1476592615
 10
68.4015807393
 20
83.1497334801
 10
68.4031390491
 20
83.1517840408
 10
68.4045329388
 20
83.1535644031
 10
68.4059520017
 20
83.1553241676
 10
68.4073981428
 20
83.1570623228
 10
68.4088732674
 20
83.1587778572
 10
68.4103792806
 20
83.1604697592
 10
68.4119180877
 20
83.1621370172
 10
68.4134915938
 20
83.1637786196
 10
68.4145595234
 20
83.1648568032
 10
68.4156438975
 20
83.1659214501
 10
68.4167449293
 20
83.1669708483
 10
68.4178628317
 20
83.168003286
 10
68.4189978181
 20
83.1690170512
 10
68.4201501016
 20
83.1700104322
 10
68.4213198953
 20
83.1709817169
 10
68.4225074124
 20
83.1719291937
 10
68.4237128661
 20
83.1728511504
 10
68.4249364694
 20
83.1737458754
 10
68.4261784357
 20
83.1746116567
 10
68.4274389779
 20
83.1754467825
 10
68.4287183093
 20
83.1762495408
 10
68.4300166431
 20
83.1770182198
 10
68.4313341923
 20
83.1777511076
 10
68.4326711702
 20
83.1784464924
 10
68.4340277899
 20
83.1791026622
  0
LINE
  5
263
100
AcDbEntity
  8
0
100
AcDbLine
 62
7
  6
CONTINUOUS
 10
20.6418610848
 20
57.9676990147
 11
20.6418610848
 21
82.9417577293
  0
LWPOLYLINE
  5
264
100
AcDbEntity
  8
1_CURVES
100
AcDbPolyline
 62
7
  6
CONTINUOUS
 90
32
 70
0
 10
48.0075478905
 20
81.0363465514
 10
48.0058374144
 20
81.0730171471
 10
48.0043256282
 20
81.1096967911
 10
48.0029958313
 20
81.1438667027
 10
48.0016180927
 20
81.178034604
 10
48.0007047735
 20
81.1986948147
 10
47.9996819193
 20
81.2193499028
 10
47.9985044686
 20
81.2399972013
 10
47.997611283
 20
81.2537233614
 10
47.996602652
 20
81.2674414529
 10
47.9954514468
 20
81.2811480325
 10
47.9941305389
 20
81.2948396571
 10
47.9928254408
 20
81.3066868924
 10
47.9913402459
 20
81.3185129448
 10
47.9896426192
 20
81.330310443
 10
47.9877002259
 20
81.3420720158
 10
47.9862191723
 20
81.3500551088
 10
47.9845883044
 20
81.3580091079
 10
47.9827862817
 20
81.3659249929
 10
47.9807917638
 20
81.3737937438
 10
47.9785834101
 20
81.3816063403
 10
47.9765391344
 20
81.3881383165
 10
47.9743060207
 20
81.3946087094
 10
47.9718622497
 20
81.4010022217
 10
47.9691860017
 20
81.407303556
 10
47.9662554572
 20
81.4134974149
 10
47.9640084123
 20
81.4178201417
 10
47.9616153747
 20
81.4220656431
 10
47.9590695652
 20
81.4262185941
 10
47.9563642047
 20
81.4302636695
 10
47.9534925138
 20
81.434185544
 10
47.9504477134
 20
81.4379688927
  0
LWPOLYLINE
  5
265
100
AcDbEntity
  8
0
100
AcDbPolyline
 62
7
  6
CONTINUOUS
 90
29
 70
0
 10
48.156880127
 20
81.1808950962
 10
48.1565244388
 20
81.1919464181
 10
48.1560591673
 20
81.202994581
 10
48.1554765924
 20
81.214037652
 10
48.154768994
 20
81.2250736982
 10
48.153928652
 20
81.2361007868
 10
48.1529478462
 20
81.2471169848
 10
48.1520884578
 20
81.2556203289
 10
48.1511344647
 20
81.2641137583
 10
48.1500797384
 20
81.2725950149
 10
48.1489181505
 20
81.2810618404
 10
48.1476435723
 20
81.2895119766
 10
48.1462498756
 20
81.2979431653
 10
48.1447309317
 20
81.3063531484
 10
48.1432810203
 20
81.3137549336
 10
48.1417212045
 20
81.3211346842
 10
48.1400438891
 20
81.3284886383
 10
48.1382414792
 20
81.3358130339
 10
48.1363063798
 20
81.3431041092
 10
48.1342309959
 20
81.350358102
 10
48.1320077324
 20
81.3575712506
 10
48.130180974
 20
81.3631214209
 10
48.128256339
 20
81.3686396343
 10
48.1262290317
 20
81.3741206393
 10
48.1240942561
 20
81.3795591843
 10
48.1218472166
 20
81.3849500179
 10
48.1194831172
 20
81.3902878882
 10
48.1169971622
 20
81.3955675439
 10
48.1143845558
 20
81.4007837333
  0
LWPOLYLINE
  5
266
100
AcDbEntity
  8
0
100
AcDbPolyline
 62
7
  6
CONTINUOUS
 90
37
 70
0
 10
27.8980172061
 20
67.8572738045
 10
27.897731314
 20
67.870478977
 10
27.8970902794
 20
67.8836821584
 10
27.8960955637
 20
67.896872285
 10
27.8947486286
 20
67.9100382933
 10
27.8930509357
 20
67.9231691197
 10
27.8910039466
 20
67.9362537007
 10
27.888609123
 20
67.9492809727
 10
27.8858679264
 20
67.9622398721
 10
27.8827818185
 20
67.9751193355
 10
27.8793443016
 20
67.9879382756
 10
27.8755654922
 20
68.000658013
 10
27.87144914
 20
68.0132702639
 10
27.8669989945
 20
68.0257667449
 10
27.8622188054
 20
68.0381391723
 10
27.8571123224
 20
68.0503792626
 10
27.851683295
 20
68.0624787322
 10
27.8459354729
 20
68.0744292975
 10
27.8398726058
 20
68.0862226751
 10
27.8334846514
 20
68.0978755241
 10
27.8267892164
 20
68.1093547788
 10
27.8197914543
 20
68.1206530278
 10
27.8124965183
 20
68.1317628595
 10
27.8049095619
 20
68.1426768626
 10
27.7970357386
 20
68.1533876256
 10
27.7888802015
 20
68.163887737
 10
27.7804481043
 20
68.1741697855
 10
27.7717446001
 20
68.1842263597
 10
27.7627617355
 20
68.1940646766
 10
27.7535202465
 20
68.2036624134
 10
27.7440285616
 20
68.213012575
 10
27.7342951093
 20
68.2221081662
 10
27.7243283177
 20
68.2309421918
 10
27.7141366154
 20
68.2395076566
 10
27.7037284307
 20
68.2477975654
 10
27.6931121919
 20
68.255804923
 10
27.6822963275
 20
68.2635227342
  0
LINE
  5
267
100
AcDbEntity
  8
0
100
AcDbLine
 62
7
  6
CONTINUOUS
 10
25.6389268294
 20
79.7229822468
 11
25.6124192925
 21
81.1006326167
  0
LWPOLYLINE
  5
268
100
AcDbEntity
  8
0
100
AcDbPolyline
 62
7
  6
CONTINUOUS
 90
49
 70
0
 10
82.6826953693
 20
87.8426737708
 10
82.6825584856
 20
87.8508806435
 10
82.6821481359
 20
87.8590846929
 10
82.681464769
 20
87.8672750808
 10
82.6805088336
 20
87.8754409691
 10
82.6792807787
 20
87.8835715196
 10
82.6777810528
 20
87.8916558941
 10
82.676012007
 20
87.8996771087
 10
82.6739747059
 20
87.907632873
 10
82.6716716736
 20
87.9155146577
 10
82.6691054345
 20
87.9233139335
 10
82.6662785127
 20
87.9310221713
 10
82.6631934324
 20
87.9386308418
 10
82.6598581282
 20
87.9461205529
 10
82.6562724504
 20
87.9534942114
 10
82.6524409114
 20
87.9607435449
 10
82.6483680238
 20
87.9678602809
 10
82.6440583003
 20
87.9748361469
 10
82.6395162532
 20
87.9816628706
 10
82.6347557649
 20
87.988320157
 10
82.6297745014
 20
87.9948138191
 10
82.6245786513
 20
88.0011370621
 10
82.6191744031
 20
88.0072830912
 10
82.6135679454
 20
88.0132451116
 10
82.6077654667
 20
88.0190163283
 10
82.6017851599
 20
88.024579592
 10
82.5956231023
 20
88.0299408456
 10
82.5892866394
 20
88.0350949119
 10
82.5827831169
 20
88.0400366133
 10
82.5761198804
 20
88.0447607723
 10
82.5693042757
 20
88.0492622116
 10
82.5623557804
 20
88.0535289559
 10
82.5552709222
 20
88.0575651876
 10
82.5480578666
 20
88.0613675147
 10
82.540724779
 20
88.0649325451
 10
82.5332798249
 20
88.0682568869
 10
82.5257311698
 20
88.0713371481
 10
82.5180963229
 20
88.0741669152
 10
82.5103740797
 20
88.0767481299
 10
82.5025723467
 20
88.0790791088
 10
82.4946990302
 20
88.0811581686
 10
82.4867620364
 20
88.082983626
 10
82.4787692718
 20
88.0845537975
 10
82.4707336221
 20
88.0858665753
 10
82.4626598586
 20
88.0869225789
 10
82.4545576767
 20
88.0877217051
 10
82.4464367715
 20
88.0882638506
 10
82.4383068383
 20
88.0885489123
 10
82.4301775725
 20
88.0885767868
  0
LWPOLYLINE
  5
269
100
AcDbEntity
  8
0
100
AcDbPolyline
 62
7
  6
CONTINUOUS
 90
85
 70
0
 10
69.9566989205
 20
70.454728372
 10
69.9576692462
 20
70.3955798341
 10
69.9605777529
 20
70.336478965
 10
69.9654213006
 20
70.2775011633
 10
69.9721956167
 20
70.2187201547
 10
69.9808926516
 20
70.1601967207
 10
69.991503291
 20
70.1019899771
 10
70.0040172582
 20
70.0441593277
 10
70.0184187146
 20
69.9867694304
 10
70.0346906137
 20
69.9298852219
 10
70.0528161194
 20
69.8735693684
 10
70.0727794666
 20
69.8178747494
 10
70.0945651079
 20
69.7628519759
 10
70.1230511093
 20
69.6978636054
 10
70.1540799851
 20
69.6340178712
 10
70.1875991739
 20
69.5714195831
 10
70.2235561146
 20
69.5101735512
 10
70.2618982459
 20
69.4503845855
 10
70.3025689546
 20
69.392154659
 10
70.3454951983
 20
69.3355747097
 10
70.3905998784
 20
69.280732836
 10
70.4378058963
 20
69.227717136
 10
70.4870361535
 20
69.1766157081
 10
70.529604759
 20
69.135505339
 10
70.5734874151
 20
69.0958222744
 10
70.6186427224
 20
69.0575999223
 10
70.6650275332
 20
69.0208727377
 10
70.712591664
 20
68.9856793966
 10
70.7612831821
 20
68.9520596213
 10
70.8110492426
 20
68.9200518739
 10
70.861833535
 20
68.8896894573
 10
70.9135788376
 20
68.8610044163
 10
70.966229814
 20
68.8340275781
 10
71.0197386625
 20
68.8087849044
 10
71.0740594666
 20
68.7853011393
 10
71.140165786
 20
68.7595054441
 10
71.2072590636
 20
68.7363074512
 10
71.2752258062
 20
68.7157425617
 10
71.3439525208
 20
68.6978461764
 10
71.4133257143
 20
68.6826536966
 10
71.4832333755
 20
68.6701959352
 10
71.553568106
 20
68.6604855781
 10
71.6242239862
 20
68.6535307063
 10
71.6950950963
 20
68.6493394006
 10
71.7660755163
 20
68.6479197419
 10
71.8370589995
 20
68.6492767033
 10
71.9079375936
 20
68.6534028165
 10
71.9786030192
 20
68.6602875006
 10
72.048946997
 20
68.6699201745
 10
72.1188612477
 20
68.682290257
 10
72.1882377035
 20
68.6973840156
 10
72.256971689
 20
68.7151756833
 10
72.3249587339
 20
68.7356363749
 10
72.3920943679
 20
68.7587372053
 10
72.4582741206
 20
68.7844492894
 10
72.5233932612
 20
68.8127402842
 10
72.5873520948
 20
68.8435667033
 10
72.6500506327
 20
68.8768816829
 10
72.7113888865
 20
68.9126383594
 10
72.7712668677
 20
68.9507898689
 10
72.8295857251
 20
68.9912850758
 10
72.8862558408
 20
69.0340590538
 10
72.9411886923
 20
69.0790426679
 10
72.9942957572
 20
69.1261667829
 10
73.0454885128
 20
69.1753622637
 10
73.0946819579
 20
69.2265570103
 10
73.1418038659
 20
69.2796656827
 10
73.1867855493
 20
69.3345999581
 10
73.2295583206
 20
69.3912715135
 10
73.2700534923
 20
69.4495920263
 10
73.3082068616
 20
69.509472301
 10
73.3439673016
 20
69.5708119069
 10
73.377288271
 20
69.6335094737
 10
73.4081232285
 20
69.6974636311
 10
73.4364256326
 20
69.7625730087
 10
73.4621525498
 20
69.8287381637
 10
73.4852719892
 20
69.8958582117
 10
73.5057556862
 20
69.9638341474
 10
73.5235753763
 20
70.0325669653
 10
73.5387027949
 20
70.1019576601
 10
73.5511121237
 20
70.1719024765
 10
73.5607873984
 20
70.2422790595
 10
73.5677150957
 20
70.3129603056
 10
73.5718816922
 20
70.383819111
 10
73.5732736646
 20
70.454728372
  0
LWPOLYLINE
  5
26A
100
AcDbEntity
  8
0
100
AcDbPolyline
 62
7
  6
CONTINUOUS
 90
49
 70
0
 10
20.6418610848
 20
57.9676990147
 10
20.6428819392
 20
57.904045374
 10
20.6459472642
 20
57.8404112236
 10
20.6510612
 20
57.776876229
 10
20.658227887
 20
57.7135200555
 10
20.6674514655
 20
57.6504223684
 10
20.6787360759
 20
57.5876628333
 10
20.6920734824
 20
57.5253604102
 10
20.7074606813
 20
57.4635422527
 10
20.7248850438
 20
57.4022753661
 10
20.7443339411
 20
57.3416267554
 10
20.7657947442
 20
57.2816634254
 10
20.7892548243
 20
57.2224523814
 10
20.8146684195
 20
57.1641264691
 10
20.8420328426
 20
57.1066849855
 10
20.8713167822
 20
57.0501949277
 10
20.9024889264
 20
56.9947232925
 10
20.9355179635
 20
56.9403370772
 10
20.970372582
 20
56.8871032787
 10
21.0069665502
 20
56.835158216
 10
21.0453015178
 20
56.7844841651
 10
21.0853291892
 20
56.7351361046
 10
21.1270012686
 20
56.6871690134
 10
21.1702694605
 20
56.6406378701
 10
21.2150854691
 20
56.5955976535
 10
21.2613351566
 20
56.5521587462
 10
21.3090205003
 20
56.510300766
 10
21.3580817051
 20
56.4700629304
 10
21.4084589761
 20
56.4314844571
 10
21.4600925184
 20
56.3946045637
 10
21.5129225371
 20
56.3594624678
 10
21.566829721
 20
56.3261292946
 10
21.6218054215
 20
56.2945908513
 10
21.6777839119
 20
56.2648686639
 10
21.7346994656
 20
56.2369842587
 10
21.7924863558
 20
56.210959162
 10
21.8510788558
 20
56.1868149
 10
21.9103744876
 20
56.1645837256
 10
21.9703478034
 20
56.1442581844
 10
22.030937533
 20
56.1258439366
 10
22.0920824062
 20
56.1093466428
 10
22.1537211527
 20
56.0947719635
 10
22.2157925021
 20
56.082125559
 10
22.2782251164
 20
56.0714124227
 10
22.3409592508
 20
56.0626262581
 10
22.4039251953
 20
56.0557606362
 10
22.46705324
 20
56.0508091282
 10
22.5302736748
 20
56.0477653052
 10
22.5935167899
 20
56.0466227384
  0
LWPOLYLINE
  5
26B
100
AcDbEntity
  8
0
100
AcDbPolyline
 62
7
  6
CONTINUOUS
 90
48
 70
0
 10
23.7276254225
 20
70.454728372
 10
23.7279791882
 20
70.4218591435
 10
23.7290395328
 20
70.3889969398
 10
23.7308050276
 20
70.3561596492
 10
23.7332742442
 20
70.3233651599
 10
23.7364457539
 20
70.2906313603
 10
23.7400849992
 20
70.2597894483
 10
23.7443517355
 20
70.229030574
 10
23.7492483746
 20
70.1983676939
 10
23.7547773286
 20
70.1678137646
 10
23.7609410095
 20
70.1373817424
 10
23.7672492577
 20
70.1091872446
 10
23.7741169646
 20
70.0811234595
 10
23.7815519757
 20
70.0532043397
 10
23.789562137
 20
70.0254438378
 10
23.7981552942
 20
69.9978559062
 10
23.8065016058
 20
69.9728803966
 10
23.8153540568
 20
69.9480799211
 10
23.8247281781
 20
69.9234746339
 10
23.834639501
 20
69.899084689
 10
23.8451035564
 20
69.8749302405
 10
23.8534855165
 20
69.8566431269
 10
23.8622215747
 20
69.8385239539
 10
23.8713339203
 20
69.8205913432
 10
23.8802165889
 20
69.8040082295
 10
23.8894714569
 20
69.7876297595
 10
23.8991222374
 20
69.7714811341
 10
23.9084644923
 20
69.7567092994
 10
23.9181952974
 20
69.7421908758
 10
23.9283410518
 20
69.727959162
 10
23.9381027524
 20
69.715102998
 10
23.9482677368
 20
69.7025636359
 10
23.9588629077
 20
69.6903849753
 10
23.9690180047
 20
69.6795379428
 10
23.9795874839
 20
69.6690951417
 10
23.9905985908
 20
69.6591181225
 10
23.9985030731
 20
69.6525105305
 10
24.0066371849
 20
69.6461873075
 10
24.0150053155
 20
69.6401794994
 10
24.0236118539
 20
69.634518152
 10
24.0319047065
 20
69.629550601
 10
24.0404051702
 20
69.6249456046
 10
24.0491071851
 20
69.620733497
 10
24.0580046915
 20
69.6169446123
 10
24.0667723671
 20
69.6137149188
 10
24.0756910585
 20
69.6109274932
 10
24.0847351681
 20
69.608601737
 10
24.093879098
 20
69.6067570517
  0
LWPOLYLINE
  5
26C
100
AcDbEntity
  8
0
100
AcDbPolyline
 62
7
  6
CONTINUOUS
 90
9
 70
0
 10
76.2302529413
 20
61.7959952666
 10
76.2089680867
 20
63.9599241366
 10
76.1878905757
 20
66.1239357928
 10
76.1775573377
 20
67.2060230139
 10
76.1676372507
 20
68.288266758
 10
76.1630180686
 20
68.8295159168
 10
76.1589758993
 20
69.3709524126
 10
76.1560923315
 20
69.9128376711
 10
76.15499352
 20
70.454728372
  0
LWPOLYLINE
  5
26D
100
AcDbEntity
  8
0
100
AcDbPolyline
 62
7
  6
CONTINUOUS
 90
49
 70
0
 10
25.6124192925
 20
81.1006326167
 10
25.6122840727
 20
81.1303759675
 10
25.6130183624
 20
81.1601285145
 10
25.6146262229
 20
81.1898592415
 10
25.6171117154
 20
81.2195371324
 10
25.6204789011
 20
81.2491311711
 10
25.6247318412
 20
81.2786103412
 10
25.6298647132
 20
81.3078974956
 10
25.6358828663
 20
81.3370119584
 10
25.6427846066
 20
81.3659264568
 10
25.6505682405
 20
81.3946137181
 10
25.6592320742
 20
81.4230464694
 10
25.668774414
 20
81.451197438
 10
25.6791715483
 20
81.478985946
 10
25.690433303
 20
81.5064376299
 10
25.7025508473
 20
81.5335235366
 10
25.7155153501
 20
81.5602147129
 10
25.7293179806
 20
81.5864822056
 10
25.7439499079
 20
81.6122970615
 10
25.7593701765
 20
81.6375820261
 10
25.7755912503
 20
81.6623613716
 10
25.7925966568
 20
81.6866091974
 10
25.8103699235
 20
81.710299603
 10
25.8288945778
 20
81.7334066881
 10
25.8481541474
 20
81.755904552
 10
25.8680975435
 20
81.7777326402
 10
25.8887341381
 20
81.7989071497
 10
25.910041055
 20
81.8194075302
 10
25.9319954181
 20
81.839213231
 10
25.9545743514
 20
81.8583037018
 10
25.9777549786
 20
81.8766583921
 10
26.0014875481
 20
81.8942392496
 10
26.025770304
 20
81.9110521105
 10
26.0505758717
 20
81.9270836672
 10
26.0758768764
 20
81.9423206121
 10
26.1016459435
 20
81.9567496374
 10
26.1278556982
 20
81.9703574355
 10
26.1544685858
 20
81.983127261
 10
26.1814674642
 20
81.9950575546
 10
26.2088253267
 20
82.0061426822
 10
26.2365151666
 20
82.0163770098
 10
26.2645099771
 20
82.0257549035
 10
26.2927827514
 20
82.0342707292
 10
26.3213146345
 20
82.0419220799
 10
26.3500659414
 20
82.0487054204
 10
26.3790049824
 20
82.0546209835
 10
26.4081000677
 20
82.0596690021
 10
26.4373195077
 20
82.0638497089
 10
26.4666316124
 20
82.0671633367
  0
LWPOLYLINE
  5
26E
100
AcDbEntity
  8
0
100
AcDbPolyline
 62
7
  6
CONTINUOUS
 90
27
 70
0
 10
78.3936037467
 20
70.454728372
 10
78.3939390474
 20
70.3827238327
 10
78.3949591427
 20
70.3107210933
 10
78.3966853225
 20
70.238730179
 10
78.3991388766
 20
70.166761115
 10
78.4023410949
 20
70.0948239264
 10
78.4053981357
 20
70.0383628516
 10
78.4089630749
 20
69.981933167
 10
78.4130690207
 20
69.9255404248
 10
78.4173970058
 20
69.87323433
 10
78.4222681662
 20
69.8209759344
 10
78.4277310198
 20
69.7687763239
 10
78.4332001126
 20
69.7218532141
 10
78.4392593441
 20
69.6750025493
 10
78.4459801893
 20
69.628240169
 10
78.4507439678
 20
69.5978907992
 10
78.4558666744
 20
69.5676003888
 10
78.4613972937
 20
69.5373838748
 10
78.4673848107
 20
69.5072561938
 10
78.4730213936
 20
69.4810820638
 10
78.4791147803
 20
69.4550105455
 10
78.4850220583
 20
69.4317802296
 10
78.4914385503
 20
69.408686026
 10
78.4975754171
 20
69.3885309314
 10
78.5042831262
 20
69.3685570132
 10
78.5106032355
 20
69.3515783283
 10
78.5175724425
 20
69.3348611736
  0
LWPOLYLINE
  5
26F
100
AcDbEntity
  8
0
100
AcDbPolyline
 62
7
  6
CONTINUOUS
 90
49
 70
0
 10
76.2302529414
 20
79.1134614775
 10
76.2300846066
 20
79.1524267995
 10
76.2288113848
 20
79.1913928647
 10
76.2264331361
 20
79.2303227529
 10
76.2229497206
 20
79.2691795439
 10
76.2183609984
 20
79.3079263174
 10
76.2126668298
 20
79.3465261532
 10
76.2057541594
 20
79.3855336362
 10
76.197704904
 20
79.4243177651
 10
76.1885224213
 20
79.4628447573
 10
76.178210069
 20
79.5010808301
 10
76.1667712047
 20
79.5389922007
 10
76.1542091863
 20
79.5765450864
 10
76.1402722585
 20
79.614377001
 10
76.1251982599
 20
79.6517733632
 10
76.1090109054
 20
79.6887052468
 10
76.09173391
 20
79.7251437257
 10
76.0733909888
 20
79.7610598736
 10
76.0540058568
 20
79.7964247645
 10
76.0332458982
 20
79.831796421
 10
76.0114541423
 20
79.8665398149
 10
75.9886522362
 20
79.9006267749
 10
75.9648618265
 20
79.9340291298
 10
75.9401045601
 20
79.9667187084
 10
75.9144020839
 20
79.9986673395
 10
75.8873901806
 20
80.0302903048
 10
75.8594628665
 20
80.0611086031
 10
75.8306549347
 20
80.0911088718
 10
75.8010011785
 20
80.1202777485
 10
75.7705363909
 20
80.148601871
 10
75.7392953651
 20
80.1760678768
 10
75.7070631903
 20
80.2028627888
 10
75.6741056726
 20
80.2287566095
 10
75.6404503442
 20
80.2537331617
 10
75.6061247373
 20
80.2777762681
 10
75.5711563842
 20
80.3008697514
 10
75.5355728172
 20
80.3229974344
 10
75.4994659954
 20
80.3441095131
 10
75.4628042389
 20
80.3642422975
 10
75.4256182369
 20
80.3833950329
 10
75.3879386787
 20
80.4015669644
 10
75.3497962537
 20
80.4187573371
 10
75.311221651
 20
80.4349653963
 10
75.2727697402
 20
80.4499916763
 10
75.2339553569
 20
80.4640521559
 10
75.1948068376
 20
80.4771379545
 10
75.1553525191
 20
80.4892401917
 10
75.1156207379
 20
80.5003499869
 10
75.0756398309
 20
80.5104584597
  0
LWPOLYLINE
  5
270
100
AcDbEntity
  8
0
100
AcDbPolyline
 62
7
  6
CONTINUOUS
 90
16
 70
0
 10
48.0840432278
 20
61.9163393962
 10
48.084374027
 20
61.7194643311
 10
48.0860721234
 20
61.5225952746
 10
48.0889467803
 20
61.3336154
 10
48.0930040779
 20
61.1446574605
 10
48.0978003026
 20
60.96955452
 10
48.1036164674
 20
60.7944826488
 10
48.1096798021
 20
60.6385597498
 10
48.116577646
 20
60.4826716302
 10
48.123101613
 20
60.3499520798
 10
48.1301889366
 20
60.2172615246
 10
48.1426371805
 20
60.0022883511
 10
48.1478585378
 20
59.9145731883
 10
48.1521174709
 20
59.8399274628
 10
48.1551969954
 20
59.7780305058
 10
48.156880127
 20
59.7285616479
  0
LINE
  5
271
100
AcDbEntity
  8
0
100
AcDbLine
 62
7
  6
CONTINUOUS
 10
48.0396448699
 20
78.984220573
 11
48.0396825151
 21
78.927762276
  0
LWPOLYLINE
  5
272
100
AcDbEntity
  8
0
100
AcDbPolyline
 62
7
  6
CONTINUOUS
 90
15
 70
0
 10
48.0396452746
 20
61.9252361702
 10
48.0398064244
 20
61.580182041
 10
48.0398045374
 20
61.4176183081
 10
48.0395118902
 20
61.2550550066
 10
48.0388138964
 20
61.1039756556
 10
48.0376153655
 20
60.9528992442
 10
48.0360088015
 20
60.8149046498
 10
48.0337850625
 20
60.6769189565
 10
48.0311694409
 20
60.5532672343
 10
48.0279465133
 20
60.4296296945
 10
48.0246201553
 20
60.3211227668
 10
48.0208392574
 20
60.2126310023
 10
48.0135315485
 20
60.0270766451
 10
48.0104189045
 20
59.9500978772
 10
48.0075478905
 20
59.8731101927
  0
LWPOLYLINE
  5
273
100
AcDbEntity
  8
0
100
AcDbPolyline
 62
7
  6
CONTINUOUS
 90
3
 70
0
 10
48.0915623578
 20
70.454728372
 10
48.0898505426
 20
74.7241632164
 10
48.0840430282
 20
78.9931173472
  0
LINE
  5
274
100
AcDbEntity
  8
0
100
AcDbLine
 62
7
  6
CONTINUOUS
 10
52.9945290506
 20
81.6599288305
 11
52.9945351225
 21
81.6364636615
  0
LINE
  5
275
100
AcDbEntity
  8
0
100
AcDbLine
 62
7
  6
CONTINUOUS
 10
27.0035091635
 20
71.8087965683
 11
27.0035091635
 21
69.1006601757
  0
LINE
  5
276
100
AcDbEntity
  8
0
100
AcDbLine
 62
7
  6
CONTINUOUS
 10
27.8980171702
 20
67.8572738045
 11
27.8980171702
 21
62.3219033081
  0
LINE
  5
277
100
AcDbEntity
  8
0
100
AcDbLine
 62
7
  6
CONTINUOUS
 10
27.8980171702
 20
73.0521829396
 11
27.8980171702
 21
78.587553436
  0
LINE
  5
278
100
AcDbEntity
  8
0
100
AcDbLine
 62
7
  6
CONTINUOUS
 10
48.0396825151
 20
61.9816944681
 11
48.0396825151
 21
78.927762276
  0
LINE
  5
279
100
AcDbEntity
  8
DEFAULT_1
100
AcDbLine
 62
7
  6
CENTER
 10
71.7602541725
 20
65.6222166204
 11
71.7602541725
 21
75.2872401237
  0
LINE
  5
27A
100
AcDbEntity
  8
0
100
AcDbLine
 62
7
  6
CONTINUOUS
 10
79.4911046121
 20
58.0811250846
 11
79.4911046121
 21
82.8283316595
  0
LINE
  5
27B
100
AcDbEntity
  8
0
100
AcDbLine
 62
7
  6
CONTINUOUS
 10
82.6826953693
 20
53.0667829733
 11
82.6826953693
 21
87.8426737708
  0
LINE
  5
27C
100
AcDbEntity
  8
0
100
AcDbLine
 62
7
  6
CONTINUOUS
 10
83.0102541725
 20
52.9528257211
 11
83.0102541725
 21
87.956631023
  0
LWPOLYLINE
  5
27D
100
AcDbEntity
  8
0
100
AcDbPolyline
 62
7
  6
CONTINUOUS
 90
15
 70
0
 10
48.0396452746
 20
78.9842205739
 10
48.0398064244
 20
79.3292747031
 10
48.0398045374
 20
79.491838436
 10
48.0395118902
 20
79.6544017374
 10
48.0388138964
 20
79.8054810885
 10
48.0376153655
 20
79.9565574999
 10
48.0360088015
 20
80.0945520943
 10
48.0337850625
 20
80.2325377876
 10
48.0311694409
 20
80.3561895098
 10
48.0279465133
 20
80.4798270496
 10
48.0246201553
 20
80.5883339773
 10
48.0208392574
 20
80.6968257418
 10
48.0135315485
 20
80.882380099
 10
48.0104189045
 20
80.9593588669
 10
48.0075478905
 20
81.0363465514
  0
LWPOLYLINE
  5
27E
100
AcDbEntity
  8
0
100
AcDbPolyline
 62
7
  6
CONTINUOUS
 90
3
 70
0
 10
48.0915623578
 20
70.454728372
 10
48.0898505445
 20
66.1852935276
 10
48.0840430282
 20
61.9163393969
  0
LINE
  5
27F
100
AcDbEntity
  8
0
100
AcDbLine
 62
7
  6
CONTINUOUS
 10
48.0396448699
 20
61.9252361711
 11
48.0396825151
 21
61.9816944681
  0
LWPOLYLINE
  5
280
100
AcDbEntity
  8
0
100
AcDbPolyline
 62
7
  6
CONTINUOUS
 90
16
 70
0
 10
48.0840432278
 20
78.9931173478
 10
48.084374027
 20
79.189992413
 10
48.0860721234
 20
79.3868614695
 10
48.0889467803
 20
79.5758413441
 10
48.0930040779
 20
79.7647992836
 10
48.0978003026
 20
79.9399022241
 10
48.1036164674
 20
80.1149740953
 10
48.1096798021
 20
80.2708969943
 10
48.116577646
 20
80.4267851139
 10
48.123101613
 20
80.5595046643
 10
48.1301889366
 20
80.6921952195
 10
48.1426371805
 20
80.9071683929
 10
48.1478585378
 20
80.9948835557
 10
48.1521174709
 20
81.0695292812
 10
48.1551969954
 20
81.1314262383
 10
48.156880127
 20
81.1808950962
  0
LWPOLYLINE
  5
281
100
AcDbEntity
  8
0
100
AcDbPolyline
 62
7
  6
CONTINUOUS
 90
49
 70
0
 10
76.2302529414
 20
61.7959952666
 10
76.2300846066
 20
61.7570299446
 10
76.2288113848
 20
61.7180638794
 10
76.2264331361
 20
61.6791339912
 10
76.2229497206
 20
61.6402772002
 10
76.2183609984
 20
61.6015304267
 10
76.2126668298
 20
61.5629305909
 10
76.2057541594
 20
61.5239231079
 10
76.197704904
 20
61.485138979
 10
76.1885224213
 20
61.4466119868
 10
76.178210069
 20
61.408375914
 10
76.1667712047
 20
61.3704645434
 10
76.1542091863
 20
61.3329116577
 10
76.1402722585
 20
61.2950797431
 10
76.1251982599
 20
61.2576833809
 10
76.1090109054
 20
61.2207514973
 10
76.09173391
 20
61.1843130184
 10
76.0733909888
 20
61.1483968705
 10
76.0540058568
 20
61.1130319796
 10
76.0332458982
 20
61.0776603231
 10
76.0114541423
 20
61.0429169292
 10
75.9886522362
 20
61.0088299692
 10
75.9648618265
 20
60.9754276142
 10
75.9401045601
 20
60.9427380356
 10
75.9144020839
 20
60.9107894045
 10
75.8873901806
 20
60.8791664392
 10
75.8594628665
 20
60.8483481409
 10
75.8306549347
 20
60.8183478722
 10
75.8010011785
 20
60.7891789955
 10
75.7705363909
 20
60.760854873
 10
75.7392953651
 20
60.7333888672
 10
75.7070631903
 20
60.7065939553
 10
75.6741056726
 20
60.6807001346
 10
75.6404503442
 20
60.6557235824
 10
75.6061247373
 20
60.631680476
 10
75.5711563842
 20
60.6085869927
 10
75.5355728172
 20
60.5864593097
 10
75.4994659954
 20
60.565347231
 10
75.4628042389
 20
60.5452144466
 10
75.4256182369
 20
60.5260617112
 10
75.3879386787
 20
60.5078897797
 10
75.3497962537
 20
60.490699407
 10
75.311221651
 20
60.4744913477
 10
75.2727697402
 20
60.4594650677
 10
75.2339553569
 20
60.4454045882
 10
75.1948068376
 20
60.4323187895
 10
75.1553525191
 20
60.4202165524
 10
75.1156207379
 20
60.4091067571
 10
75.0756398309
 20
60.3989982844
  0
LWPOLYLINE
  5
282
100
AcDbEntity
  8
0
100
AcDbPolyline
 62
7
  6
CONTINUOUS
 90
49
 70
0
 10
25.6124192925
 20
59.8088241274
 10
25.6122840727
 20
59.7790807766
 10
25.6130183624
 20
59.7493282296
 10
25.6146262229
 20
59.7195975026
 10
25.6171117154
 20
59.6899196117
 10
25.6204789011
 20
59.660325573
 10
25.6247318412
 20
59.6308464029
 10
25.6298647132
 20
59.6015592484
 10
25.6358828663
 20
59.5724447856
 10
25.6427846066
 20
59.5435302872
 10
25.6505682405
 20
59.514843026
 10
25.6592320742
 20
59.4864102746
 10
25.668774414
 20
59.458259306
 10
25.6791715483
 20
59.4304707981
 10
25.690433303
 20
59.4030191141
 10
25.7025508473
 20
59.3759332074
 10
25.7155153501
 20
59.3492420311
 10
25.7293179806
 20
59.3229745384
 10
25.7439499079
 20
59.2971596826
 10
25.7593701765
 20
59.271874718
 10
25.7755912503
 20
59.2470953725
 10
25.7925966568
 20
59.2228475467
 10
25.8103699235
 20
59.199157141
 10
25.8288945778
 20
59.176050056
 10
25.8481541474
 20
59.153552192
 10
25.8680975435
 20
59.1317241039
 10
25.8887341381
 20
59.1105495943
 10
25.910041055
 20
59.0900492138
 10
25.9319954181
 20
59.070243513
 10
25.9545743514
 20
59.0511530422
 10
25.9777549786
 20
59.0327983519
 10
26.0014875481
 20
59.0152174945
 10
26.025770304
 20
58.9984046336
 10
26.0505758717
 20
58.9823730768
 10
26.0758768764
 20
58.967136132
 10
26.1016459435
 20
58.9527071067
 10
26.1278556982
 20
58.9390993086
 10
26.1544685858
 20
58.9263294831
 10
26.1814674642
 20
58.9143991895
 10
26.2088253267
 20
58.9033140619
 10
26.2365151666
 20
58.8930797343
 10
26.2645099771
 20
58.8837018406
 10
26.2927827514
 20
58.8751860149
 10
26.3213146345
 20
58.8675346642
 10
26.3500659414
 20
58.8607513237
 10
26.3790049824
 20
58.8548357606
 10
26.4081000677
 20
58.849787742
 10
26.4373195077
 20
58.8456070352
 10
26.4666316124
 20
58.8422934074
  0
LWPOLYLINE
  5
283
100
AcDbEntity
  8
0
100
AcDbPolyline
 62
7
  6
CONTINUOUS
 90
40
 70
0
 10
78.2701427041
 20
70.454728372
 10
78.2705346892
 20
70.531959767
 10
78.2717198677
 20
70.6091850517
 10
78.2737120742
 20
70.6863949343
 10
78.276410801
 20
70.7606888063
 10
78.2799183345
 20
70.8349476803
 10
78.284282963
 20
70.9091594371
 10
78.2879342094
 20
70.961850631
 10
78.2920771573
 20
71.0145051924
 10
78.2965040377
 20
71.0645068003
 10
78.3014490572
 20
71.1144598533
 10
78.3066034322
 20
71.1612923374
 10
78.3123084043
 20
71.2080608494
 10
78.3181328556
 20
71.2512759269
 10
78.324550613
 20
71.2944068748
 10
78.3309797082
 20
71.3335928924
 10
78.3380577777
 20
71.372666572
 10
78.34501802
 20
71.4074523731
 10
78.3526998276
 20
71.4420864809
 10
78.3575559986
 20
71.4621496568
 10
78.3627508309
 20
71.4821271351
 10
78.3683357759
 20
71.5019981607
 10
78.3734194672
 20
71.5187387586
 10
78.378889517
 20
71.5353576871
 10
78.384815067
 20
71.5518246624
 10
78.3900498587
 20
71.5651268016
 10
78.3957369833
 20
71.5782373186
 10
78.4019790326
 20
71.5910860755
 10
78.4062144651
 20
71.5989489186
 10
78.4107663407
 20
71.6066326049
 10
78.4150415853
 20
71.6131389792
 10
78.4196624017
 20
71.6194043054
 10
78.4239728207
 20
71.6245510503
 10
78.4286457947
 20
71.6293704071
 10
78.4329952684
 20
71.6331619868
 10
78.4376948894
 20
71.6365066112
 10
78.4421030246
 20
71.6389456441
 10
78.446787873
 20
71.6407961979
 10
78.4512971929
 20
71.6418577796
 10
78.4559028354
 20
71.6422282234
  0
LWPOLYLINE
  5
284
100
AcDbEntity
  8
0
100
AcDbPolyline
 62
7
  6
CONTINUOUS
 90
40
 70
0
 10
78.6416745586
 20
70.454728372
 10
78.6412825517
 20
70.377494856
 10
78.6400973073
 20
70.3002674506
 10
78.6381049897
 20
70.2230554486
 10
78.635406107
 20
70.1487594301
 10
78.6318983662
 20
70.0744984129
 10
78.6275334722
 20
70.0002845176
 10
78.6238819941
 20
69.9475917565
 10
78.6197387758
 20
69.8949356321
 10
78.6153115995
 20
69.8449325677
 10
78.6103662382
 20
69.7949780645
 10
78.6052115045
 20
69.7481443193
 10
78.5995061192
 20
69.7013745556
 10
78.5936812524
 20
69.6581585127
 10
78.5872630134
 20
69.615026613
 10
78.5808334565
 20
69.5758400346
 10
78.5737548426
 20
69.536765816
 10
78.5667941055
 20
69.5019799557
 10
78.5591117047
 20
69.4673458189
 10
78.5542552133
 20
69.4472829773
 10
78.5490600102
 20
69.4273058544
 10
78.5434746267
 20
69.4074352153
 10
78.538390616
 20
69.3906953515
 10
78.5329201933
 20
69.3740771851
 10
78.5269942109
 20
69.3576110025
 10
78.5217591678
 20
69.3443099379
 10
78.5160717057
 20
69.3312005642
 10
78.5098291697
 20
69.3183530729
 10
78.5055934927
 20
69.3104913768
 10
78.5010413527
 20
69.3028088761
 10
78.4967659146
 20
69.2963036355
 10
78.4921448154
 20
69.2900395798
 10
78.4878341773
 20
69.2848942833
 10
78.4831609693
 20
69.2800764779
 10
78.4788112871
 20
69.2762862461
 10
78.4741114694
 20
69.272943201
 10
78.4697030861
 20
69.2705058047
 10
78.4650181128
 20
69.2686570608
 10
78.4605085023
 20
69.2675971156
 10
78.4559028243
 20
69.2672285208
  0
LWPOLYLINE
  5
285
100
AcDbEntity
  8
0
100
AcDbPolyline
 62
7
  6
CONTINUOUS
 90
9
 70
0
 10
76.2302529413
 20
79.1134614774
 10
76.2089680867
 20
76.9495326074
 10
76.1878905757
 20
74.7855209513
 10
76.1775573377
 20
73.7034337301
 10
76.1676372507
 20
72.621189986
 10
76.1630180686
 20
72.0799408273
 10
76.1589758993
 20
71.5385043315
 10
76.1560923315
 20
70.996619073
 10
76.15499352
 20
70.454728372
  0
LWPOLYLINE
  5
286
100
AcDbEntity
  8
0
100
AcDbPolyline
 62
7
  6
CONTINUOUS
 90
48
 70
0
 10
23.7276254225
 20
70.454728372
 10
23.7279791882
 20
70.4875976005
 10
23.7290395328
 20
70.5204598042
 10
23.7308050276
 20
70.5532970948
 10
23.7332742442
 20
70.5860915841
 10
23.7364457539
 20
70.6188253837
 10
23.7400849992
 20
70.6496672957
 10
23.7443517355
 20
70.68042617
 10
23.7492483746
 20
70.7110890501
 10
23.7547773286
 20
70.7416429794
 10
23.7609410095
 20
70.7720750016
 10
23.7672492577
 20
70.8002694995
 10
23.7741169646
 20
70.8283332846
 10
23.7815519757
 20
70.8562524043
 10
23.789562137
 20
70.8840129063
 10
23.7981552942
 20
70.9116008379
 10
23.8065016058
 20
70.9365763475
 10
23.8153540568
 20
70.961376823
 10
23.8247281781
 20
70.9859821102
 10
23.834639501
 20
71.0103720551
 10
23.8451035564
 20
71.0345265036
 10
23.8534855165
 20
71.0528136172
 10
23.8622215747
 20
71.0709327902
 10
23.8713339203
 20
71.0888654009
 10
23.8802165889
 20
71.1054485146
 10
23.8894714569
 20
71.1218269846
 10
23.8991222374
 20
71.13797561
 10
23.9084644923
 20
71.1527474447
 10
23.9181952974
 20
71.1672658683
 10
23.9283410518
 20
71.1814975821
 10
23.9381027524
 20
71.194353746
 10
23.9482677368
 20
71.2068931082
 10
23.9588629077
 20
71.2190717687
 10
23.9690180047
 20
71.2299188012
 10
23.9795874839
 20
71.2403616023
 10
23.9905985908
 20
71.2503386215
 10
23.9985030731
 20
71.2569462135
 10
24.0066371849
 20
71.2632694365
 10
24.0150053155
 20
71.2692772446
 10
24.0236118539
 20
71.274938592
 10
24.0319047065
 20
71.2799061431
 10
24.0404051702
 20
71.2845111394
 10
24.0491071851
 20
71.288723247
 10
24.0580046915
 20
71.2925121318
 10
24.0667723671
 20
71.2957418253
 10
24.0756910585
 20
71.2985292509
 10
24.0847351681
 20
71.300855007
 10
24.093879098
 20
71.3026996923
  0
LWPOLYLINE
  5
287
100
AcDbEntity
  8
0
100
AcDbPolyline
 62
7
  6
CONTINUOUS
 90
85
 70
0
 10
69.9566989205
 20
70.454728372
 10
69.9576692462
 20
70.5138769099
 10
69.9605777529
 20
70.572977779
 10
69.9654213006
 20
70.6319555808
 10
69.9721956167
 20
70.6907365894
 10
69.9808926516
 20
70.7492600234
 10
69.991503291
 20
70.807466767
 10
70.0040172582
 20
70.8652974164
 10
70.0184187146
 20
70.9226873137
 10
70.0346906137
 20
70.9795715222
 10
70.0528161194
 20
71.0358873756
 10
70.0727794666
 20
71.0915819946
 10
70.0945651079
 20
71.1466047681
 10
70.1230511093
 20
71.2115931386
 10
70.1540799851
 20
71.2754388729
 10
70.1875991739
 20
71.338037161
 10
70.2235561146
 20
71.3992831929
 10
70.2618982459
 20
71.4590721586
 10
70.3025689546
 20
71.5173020851
 10
70.3454951983
 20
71.5738820343
 10
70.3905998784
 20
71.628723908
 10
70.4378058963
 20
71.681739608
 10
70.4870361535
 20
71.7328410359
 10
70.529604759
 20
71.773951405
 10
70.5734874151
 20
71.8136344697
 10
70.6186427224
 20
71.8518568218
 10
70.6650275332
 20
71.8885840064
 10
70.712591664
 20
71.9237773475
 10
70.7612831821
 20
71.9573971228
 10
70.8110492426
 20
71.9894048702
 10
70.861833535
 20
72.0197672867
 10
70.9135788376
 20
72.0484523277
 10
70.966229814
 20
72.0754291659
 10
71.0197386625
 20
72.1006718396
 10
71.0740594666
 20
72.1241556047
 10
71.140165786
 20
72.1499513
 10
71.2072590636
 20
72.1731492929
 10
71.2752258062
 20
72.1937141824
 10
71.3439525208
 20
72.2116105677
 10
71.4133257143
 20
72.2268030475
 10
71.4832333755
 20
72.2392608089
 10
71.553568106
 20
72.248971166
 10
71.6242239862
 20
72.2559260378
 10
71.6950950963
 20
72.2601173435
 10
71.7660755163
 20
72.2615370022
 10
71.8370589995
 20
72.2601800408
 10
71.9079375936
 20
72.2560539275
 10
71.9786030192
 20
72.2491692434
 10
72.048946997
 20
72.2395365696
 10
72.1188612477
 20
72.2271664871
 10
72.1882377035
 20
72.2120727284
 10
72.256971689
 20
72.1942810607
 10
72.3249587339
 20
72.1738203691
 10
72.3920943679
 20
72.1507195387
 10
72.4582741206
 20
72.1250074546
 10
72.5233932612
 20
72.0967164598
 10
72.5873520948
 20
72.0658900408
 10
72.6500506327
 20
72.0325750612
 10
72.7113888865
 20
71.9968183847
 10
72.7712668677
 20
71.9586668752
 10
72.8295857251
 20
71.9181716683
 10
72.8862558408
 20
71.8753976903
 10
72.9411886923
 20
71.8304140762
 10
72.9942957572
 20
71.7832899612
 10
73.0454885128
 20
71.7340944804
 10
73.0946819579
 20
71.6828997338
 10
73.1418038659
 20
71.6297910614
 10
73.1867855493
 20
71.574856786
 10
73.2295583206
 20
71.5181852306
 10
73.2700534923
 20
71.4598647178
 10
73.3082068616
 20
71.3999844431
 10
73.3439673016
 20
71.3386448372
 10
73.377288271
 20
71.2759472704
 10
73.4081232285
 20
71.211993113
 10
73.4364256326
 20
71.1468837354
 10
73.4621525498
 20
71.0807185804
 10
73.4852719892
 20
71.0135985324
 10
73.5057556862
 20
70.9456225967
 10
73.5235753763
 20
70.8768897788
 10
73.5387027949
 20
70.807499084
 10
73.5511121237
 20
70.7375542676
 10
73.5607873984
 20
70.6671776846
 10
73.5677150957
 20
70.5964964385
 10
73.5718816922
 20
70.525637633
 10
73.5732736646
 20
70.454728372
  0
LWPOLYLINE
  5
288
100
AcDbEntity
  8
0
100
AcDbPolyline
 62
7
  6
CONTINUOUS
 90
49
 70
0
 10
82.6826953693
 20
53.0667829733
 10
82.6825584856
 20
53.0585761006
 10
82.6821481359
 20
53.0503720512
 10
82.681464769
 20
53.0421816632
 10
82.6805088336
 20
53.0340157749
 10
82.6792807787
 20
53.0258852244
 10
82.6777810528
 20
53.01780085
 10
82.676012007
 20
53.0097796353
 10
82.6739747059
 20
53.0018238711
 10
82.6716716736
 20
52.9939420864
 10
82.6691054345
 20
52.9861428105
 10
82.6662785127
 20
52.9784345728
 10
82.6631934324
 20
52.9708259023
 10
82.6598581282
 20
52.9633361911
 10
82.6562724504
 20
52.9559625326
 10
82.6524409114
 20
52.9487131991
 10
82.6483680238
 20
52.9415964631
 10
82.6440583003
 20
52.9346205971
 10
82.6395162532
 20
52.9277938734
 10
82.6347557649
 20
52.9211365871
 10
82.6297745014
 20
52.914642925
 10
82.6245786513
 20
52.9083196819
 10
82.6191744031
 20
52.9021736528
 10
82.6135679454
 20
52.8962116325
 10
82.6077654667
 20
52.8904404157
 10
82.6017851599
 20
52.8848771521
 10
82.5956231023
 20
52.8795158984
 10
82.5892866394
 20
52.8743618321
 10
82.5827831169
 20
52.8694201307
 10
82.5761198804
 20
52.8646959717
 10
82.5693042757
 20
52.8601945325
 10
82.5623557804
 20
52.8559277881
 10
82.5552709222
 20
52.8518915564
 10
82.5480578666
 20
52.8480892294
 10
82.540724779
 20
52.844524199
 10
82.5332798249
 20
52.8411998572
 10
82.5257311698
 20
52.838119596
 10
82.5180963229
 20
52.8352898289
 10
82.5103740797
 20
52.8327086142
 10
82.5025723467
 20
52.8303776352
 10
82.4946990302
 20
52.8282985754
 10
82.4867620364
 20
52.8264731181
 10
82.4787692718
 20
52.8249029466
 10
82.4707336221
 20
52.8235901687
 10
82.4626598586
 20
52.8225341651
 10
82.4545576767
 20
52.8217350389
 10
82.4464367715
 20
52.8211928934
 10
82.4383068383
 20
52.8209078318
 10
82.4301775725
 20
52.8208799573
  0
LINE
  5
289
100
AcDbEntity
  8
0
100
AcDbLine
 62
7
  6
CONTINUOUS
 10
25.6389268294
 20
61.1864744973
 11
25.6124192925
 21
59.8088241274
  0
LWPOLYLINE
  5
28A
100
AcDbEntity
  8
0
100
AcDbPolyline
 62
7
  6
CONTINUOUS
 90
37
 70
0
 10
27.8980172061
 20
73.0521829396
 10
27.897731314
 20
73.038977767
 10
27.8970902794
 20
73.0257745857
 10
27.8960955637
 20
73.0125844591
 10
27.8947486286
 20
72.9994184508
 10
27.8930509357
 20
72.9862876244
 10
27.8910039466
 20
72.9732030434
 10
27.888609123
 20
72.9601757714
 10
27.8858679264
 20
72.9472168719
 10
27.8827818185
 20
72.9343374086
 10
27.8793443016
 20
72.9215184684
 10
27.8755654922
 20
72.9087987311
 10
27.87144914
 20
72.8961864802
 10
27.8669989945
 20
72.8836899992
 10
27.8622188054
 20
72.8713175718
 10
27.8571123224
 20
72.8590774815
 10
27.851683295
 20
72.8469780119
 10
27.8459354729
 20
72.8350274466
 10
27.8398726058
 20
72.823234069
 10
27.8334846514
 20
72.81158122
 10
27.8267892164
 20
72.8001019653
 10
27.8197914543
 20
72.7888037163
 10
27.8124965183
 20
72.7776938846
 10
27.8049095619
 20
72.7667798815
 10
27.7970357386
 20
72.7560691185
 10
27.7888802015
 20
72.7455690071
 10
27.7804481043
 20
72.7352869585
 10
27.7717446001
 20
72.7252303844
 10
27.7627617355
 20
72.7153920675
 10
27.7535202465
 20
72.7057943306
 10
27.7440285616
 20
72.696444169
 10
27.7342951093
 20
72.6873485778
 10
27.7243283177
 20
72.6785145522
 10
27.7141366154
 20
72.6699490874
 10
27.7037284307
 20
72.6616591787
 10
27.6931121919
 20
72.653651821
 10
27.6822963275
 20
72.6459340098
  0
LWPOLYLINE
  5
28B
100
AcDbEntity
  8
0
100
AcDbPolyline
 62
7
  6
CONTINUOUS
 90
18
 70
0
 10
48.156880127
 20
59.7285616479
 10
48.1566232795
 20
59.7202735057
 10
48.156305785
 20
59.7119870206
 10
48.1559244465
 20
59.7037029165
 10
48.1554760671
 20
59.6954219176
 10
48.1549574497
 20
59.6871447479
 10
48.1543653972
 20
59.6788721314
 10
48.1536967127
 20
59.6706047923
 10
48.1529481991
 20
59.6623434546
 10
48.1522884007
 20
59.6557283716
 10
48.1515723008
 20
59.6491188314
 10
48.1507969112
 20
59.642516058
 10
48.1499592439
 20
59.6359212755
 10
48.1490563107
 20
59.6293357083
 10
48.1480851234
 20
59.6227605803
 10
48.1470426938
 20
59.6161971156
 10
48.1459260339
 20
59.6096465385
 10
48.1447321554
 20
59.6031100731
  0
LWPOLYLINE
  5
28C
100
AcDbEntity
  8
0
100
AcDbPolyline
 62
7
  6
CONTINUOUS
 90
24
 70
0
 10
48.0075478905
 20
59.8731101927
 10
48.0061943263
 20
59.844514618
 10
48.0049753627
 20
59.8159130197
 10
48.0038368245
 20
59.7873073015
 10
48.0027245364
 20
59.7586993672
 10
48.0019318773
 20
59.7387459081
 10
48.0010858739
 20
59.7187948515
 10
48.000146767
 20
59.6988487518
 10
47.9990747975
 20
59.6789101636
 10
47.9978302059
 20
59.6589816412
 10
47.9967970471
 20
59.6445834497
 10
47.9956171308
 20
59.6301964702
 10
47.9942546894
 20
59.6158253196
 10
47.9928538031
 20
59.6030191509
 10
47.9912424295
 20
59.5902380247
 10
47.9893839081
 20
59.5774907027
 10
47.9879990813
 20
59.5690809327
 10
47.9864700088
 20
59.560696118
 10
47.9847766607
 20
59.5523425836
 10
47.9828990072
 20
59.5440266549
 10
47.981088944
 20
59.5367920017
 10
47.9791011996
 20
59.5296044667
 10
47.9769143457
 20
59.5224775744
 10
47.9745069541
 20
59.5154248497
  0
LWPOLYLINE
  5
28D
100
AcDbEntity
  8
0
100
AcDbPolyline
 62
7
  6
CONTINUOUS
 90
26
 70
0
 10
68.3928140334
 20
83.13699372
 10
68.39235898
 20
83.1345354647
 10
68.3918923023
 20
83.1320785627
 10
68.3914117921
 20
83.1296238425
 10
68.3909152414
 20
83.1271721325
 10
68.390400442
 20
83.1247242609
 10
68.3898651857
 20
83.1222810561
 10
68.3893072645
 20
83.1198433465
 10
68.3887244702
 20
83.1174119605
 10
68.3881145947
 20
83.1149877264
 10
68.3874754298
 20
83.1125714725
 10
68.3868047674
 20
83.1101640273
 10
68.3863438373
 20
83.1085818654
 10
68.3858653393
 20
83.1070048978
 10
68.3853663615
 20
83.1054341281
 10
68.3848439922
 20
83.1038705601
 10
68.3842953196
 20
83.1023151975
 10
68.3837174321
 20
83.1007690441
 10
68.3833819854
 20
83.0999134328
 10
68.3830347221
 20
83.099062376
 10
68.382673769
 20
83.0982172674
 10
68.3822972528
 20
83.0973795006
 10
68.3819033004
 20
83.0965504692
 10
68.3814900384
 20
83.0957315668
 10
68.3810555936
 20
83.0949241871
 10
68.3805980928
 20
83.0941297237
  0
LWPOLYLINE
  5
28E
100
AcDbEntity
  8
0
100
AcDbPolyline
 62
7
  6
CONTINUOUS
 90
27
 70
0
 10
78.5175724147
 20
71.5745955082
 10
78.5106032094
 20
71.5578783496
 10
78.5042831015
 20
71.5408996609
 10
78.4975753937
 20
71.520925739
 10
78.4914385278
 20
71.500770641
 10
78.4850220375
 20
71.4776764362
 10
78.4791147609
 20
71.4544461192
 10
78.4730213756
 20
71.4283745999
 10
78.4673847939
 20
71.402200469
 10
78.4613972785
 20
71.372072789
 10
78.4558666604
 20
71.3418562759
 10
78.4507439551
 20
71.3115658666
 10
78.4459801776
 20
71.2812164978
 10
78.4392593338
 20
71.2344541193
 10
78.4332001036
 20
71.1876034564
 10
78.4277310118
 20
71.1406803485
 10
78.4222681594
 20
71.0884807408
 10
78.417397
 20
71.036222348
 10
78.4130690158
 20
70.9839162559
 10
78.4089630711
 20
70.9275235207
 10
78.4053981328
 20
70.8710938431
 10
78.4023410929
 20
70.8146327753
 10
78.3991388754
 20
70.7426955952
 10
78.3966853218
 20
70.6707265396
 10
78.3949591424
 20
70.5987356338
 10
78.3939390473
 20
70.5267329028
 10
78.3936037467
 20
70.454728372
  0
LINE
  5
28F
100
AcDbEntity
  8
0
100
AcDbLine
 62
7
  6
CONTINUOUS
 10
55.4112985269
 20
82.0155207365
 11
55.1137317517
 21
81.9346142165
  0
LINE
  5
290
100
AcDbEntity
  8
0
100
AcDbLine
 62
7
  6
CONTINUOUS
 10
50.3517548405
 20
58.8952452246
 11
50.6493634469
 21
58.9759977359
  0
LINE
  5
291
100
AcDbEntity
  8
0
100
AcDbLine
 62
7
  6
CONTINUOUS
 10
55.3265216249
 20
80.46620656
 11
55.6541168574
 21
80.5489673097
  0
LINE
  5
292
100
AcDbEntity
  8
0
100
AcDbLine
 62
7
  6
CONTINUOUS
 10
50.437333538
 20
60.4445153195
 11
50.1096955187
 21
60.3619241193
  0
LWPOLYLINE
  5
293
100
AcDbEntity
  8
0
100
AcDbPolyline
 62
7
  6
CONTINUOUS
 90
4
 70
0
 10
45.0368136413
 20
57.1393597569
 10
45.0354602572
 20
57.1390249459
 10
45.0341185216
 20
57.1386499998
 10
45.0327797766
 20
57.1382517933
  0
LWPOLYLINE
  5
294
100
AcDbEntity
  8
0
100
AcDbPolyline
 62
7
  6
CONTINUOUS
 90
28
 70
0
 10
25.1396594241
 20
71.8573939886
 10
25.1094057549
 20
71.8499598301
 10
25.0790445832
 20
71.8429663435
 10
25.0485910122
 20
71.8363784032
 10
25.0180601453
 20
71.8301608839
 10
24.9782154833
 20
71.8225575899
 10
24.9382870463
 20
71.8154142864
 10
24.8982964919
 20
71.8086225524
 10
24.85060908
 20
71.8008385166
 10
24.8028974825
 20
71.7932031731
 10
24.7551949224
 20
71.7855202096
 10
24.7075346228
 20
71.7775933143
 10
24.6599498067
 20
71.7692261748
 10
24.6195841807
 20
71.7616249501
 10
24.5793258736
 20
71.7534696268
 10
24.5392036476
 20
71.7446661116
 10
24.5082053322
 20
71.7373365427
 10
24.4773223087
 20
71.7295333509
 10
24.4465707575
 20
71.7212292084
 10
24.4159668592
 20
71.7123967872
 10
24.3839504187
 20
71.7025093162
 10
24.3521321729
 20
71.6919979489
 10
24.320529025
 20
71.6808536023
 10
24.289157878
 20
71.6690671932
 10
24.2558208132
 20
71.6557197063
 10
24.2227866011
 20
71.6416381105
 10
24.1900723432
 20
71.626835838
 10
24.1576951405
 20
71.611326321
  0
LINE
  5
295
100
AcDbEntity
  8
0
100
AcDbLine
 62
7
  6
CONTINUOUS
 10
55.1137317517
 20
81.9346142165
 11
54.8138169371
 21
81.8644313296
  0
LINE
  5
296
100
AcDbEntity
  8
0
100
AcDbLine
 62
7
  6
CONTINUOUS
 10
50.6493634469
 20
58.9759977359
 11
50.9493145426
 21
59.0460254003
  0
LINE
  5
297
100
AcDbEntity
  8
0
100
AcDbLine
 62
7
  6
CONTINUOUS
 10
54.996495778
 20
80.394372829
 11
55.3265216249
 21
80.46620656
  0
LINE
  5
298
100
AcDbEntity
  8
0
100
AcDbLine
 62
7
  6
CONTINUOUS
 10
50.7673965163
 20
60.5161782448
 11
50.437333538
 21
60.4445153195
  0
LWPOLYLINE
  5
299
100
AcDbEntity
  8
0
100
AcDbPolyline
 62
7
  6
CONTINUOUS
 90
30
 70
0
 10
58.6932564504
 20
83.7798071364
 10
58.6896470346
 20
83.7790474333
 10
58.6860422881
 20
83.7782646745
 10
58.6824431243
 20
83.7774563674
 10
58.6788504567
 20
83.7766200194
 10
58.6752651985
 20
83.775753138
 10
58.6716882632
 20
83.7748532306
 10
58.6687338816
 20
83.774081051
 10
58.6657869771
 20
83.7732809804
 10
58.6628486956
 20
83.7724494744
 10
58.6599201831
 20
83.7715829885
 10
58.6570025855
 20
83.7706779783
 10
58.6540970488
 20
83.7697308993
 10
58.6524051659
 20
83.7691561497
 10
58.6507194095
 20
83.7685631197
 10
58.6490413945
 20
83.7679491097
 10
58.6473727363
 20
83.7673114203
 10
58.6457150498
 20
83.766647352
 10
58.6440699502
 20
83.7659542052
 10
58.6424390526
 20
83.7652292805
 10
58.6408239722
 20
83.7644698783
 10
58.6395685037
 20
83.7638472556
 10
58.6383268304
 20
83.7631973547
 10
58.6371020027
 20
83.7625158117
 10
58.6358970713
 20
83.7617982629
 10
58.6351161299
 20
83.7613037127
 10
58.6343480239
 20
83.7607894344
 10
58.6335956341
 20
83.760253213
 10
58.6328618413
 20
83.759692833
 10
58.6321495262
 20
83.7591060793
  0
LINE
  5
29A
100
AcDbEntity
  8
0
100
AcDbLine
 62
7
  6
CONTINUOUS
 10
58.7644263963
 20
83.794586461
 11
58.6932564504
 21
83.7798071364
  0
LINE
  5
29B
100
AcDbEntity
  8
0
100
AcDbLine
 62
7
  6
CONTINUOUS
 10
46.9977065694
 20
57.0989957763
 11
47.0688841924
 21
57.1137380838
  0
LINE
  5
29C
100
AcDbEntity
  8
0
100
AcDbLine
 62
7
  6
CONTINUOUS
 10
54.8138169371
 20
81.8644313296
 11
54.5118627294
 21
81.805011576
  0
LINE
  5
29D
100
AcDbEntity
  8
0
100
AcDbLine
 62
7
  6
CONTINUOUS
 10
50.9493145426
 20
59.0460254003
 11
51.251299461
 21
59.1052888775
  0
LINE
  5
29E
100
AcDbEntity
  8
0
100
AcDbLine
 62
7
  6
CONTINUOUS
 10
54.6643885181
 20
80.3335268289
 11
54.996495778
 21
80.394372829
  0
LINE
  5
29F
100
AcDbEntity
  8
0
100
AcDbLine
 62
7
  6
CONTINUOUS
 10
51.099535221
 20
60.5768523633
 11
50.7673965163
 21
60.5161782448
  0
LWPOLYLINE
  5
2A0
100
AcDbEntity
  8
0
100
AcDbPolyline
 62
7
  6
CONTINUOUS
 90
47
 70
0
 10
28.3177361163
 20
79.0795863056
 10
28.3033456164
 20
79.0769869747
 10
28.2890290249
 20
79.0739632752
 10
28.2748008719
 20
79.0705203173
 10
28.2606756878
 20
79.0666632112
 10
28.2466680028
 20
79.0623970674
 10
28.2327923469
 20
79.057726996
 10
28.2190549255
 20
79.0526548476
 10
28.2054737396
 20
79.0471863317
 10
28.1920583044
 20
79.0413243358
 10
28.1788181351
 20
79.0350717471
 10
28.1657627469
 20
79.028431453
 10
28.1529016551
 20
79.0214063408
 10
28.1391503844
 20
79.0133362143
 10
28.1256538925
 20
79.0048251423
 10
28.1124260338
 20
78.9958836576
 10
28.0994806626
 20
78.9865222928
 10
28.0868316332
 20
78.9767515805
 10
28.0744927999
 20
78.9665820536
 10
28.0624780171
 20
78.9560242446
 10
28.0508011392
 20
78.9450886863
 10
28.0394760203
 20
78.9337859114
 10
28.0285165149
 20
78.9221264525
 10
28.0179364772
 20
78.9101208423
 10
28.0077526061
 20
78.897785126
 10
27.9979700818
 20
78.8851293564
 10
27.9885972256
 20
78.8721688459
 10
27.9796423585
 20
78.8589189066
 10
27.9711138019
 20
78.845394851
 10
27.9630198768
 20
78.8316119913
 10
27.9553689045
 20
78.8175856398
 10
27.9481692062
 20
78.8033311089
 10
27.9414291031
 20
78.7888637108
 10
27.9351569163
 20
78.7741987579
 10
27.9293609671
 20
78.7593515625
 10
27.9244590452
 20
78.7455541417
 10
27.9199680545
 20
78.7316255151
 10
27.9158893945
 20
78.7175755608
 10
27.9122244644
 20
78.7034141564
 10
27.9089746637
 20
78.6891511798
 10
27.9061413916
 20
78.6747965088
 10
27.9037279015
 20
78.6603715692
 10
27.9017344974
 20
78.6458801287
 10
27.9001639523
 20
78.6313373825
 10
27.8990190394
 20
78.6167585256
 10
27.8983025319
 20
78.6021587533
 10
27.8980172028
 20
78.5875532608
  0
LINE
  5
2A1
100
AcDbEntity
  8
0
100
AcDbLine
 62
7
  6
CONTINUOUS
 10
24.0938791033
 20
71.302699376
 11
27.0035091635
 21
71.8087965683
  0
LINE
  5
2A2
100
AcDbEntity
  8
0
100
AcDbLine
 62
7
  6
CONTINUOUS
 10
25.1396594241
 20
71.8573939886
 11
27.195852883
 21
72.215045571
  0
LWPOLYLINE
  5
2A3
100
AcDbEntity
  8
0
100
AcDbPolyline
 62
7
  6
CONTINUOUS
 90
13
 70
0
 10
70.1309557555
 20
59.390670507
 10
70.5455716886
 20
59.461336529
 10
70.9597590107
 20
59.5344947464
 10
71.3735006341
 20
59.6101383306
 10
71.7867993635
 20
59.6882604147
 10
72.1996263708
 20
59.7688328454
 10
72.611972761
 20
59.8518272091
 10
73.0238462669
 20
59.9372178265
 10
73.4352236594
 20
60.0249696473
 10
73.8460983751
 20
60.1150501665
 10
74.2564691233
 20
60.207430283
 10
74.6663198603
 20
60.3020864077
 10
75.0756398299
 20
60.3989982887
  0
LINE
  5
2A4
100
AcDbEntity
  8
0
100
AcDbLine
 62
7
  6
CONTINUOUS
 10
54.5118627294
 20
81.805011576
 11
54.2082763851
 21
81.7564060821
  0
LINE
  5
2A5
100
AcDbEntity
  8
0
100
AcDbLine
 62
7
  6
CONTINUOUS
 10
51.251299461
 20
59.1052888775
 11
51.5549109192
 21
59.1537372518
  0
LWPOLYLINE
  5
2A6
100
AcDbEntity
  8
0
100
AcDbPolyline
 62
7
  6
CONTINUOUS
 90
13
 70
0
 10
28.3177360614
 20
79.0795877344
 10
29.8033557737
 20
79.3121886553
 10
31.2903031597
 20
79.5362283837
 10
32.7785278312
 20
79.7516434505
 10
34.2709704207
 20
79.958787763
 10
35.7645940715
 20
80.1572122911
 10
37.2593480169
 20
80.346920296
 10
38.7627540462
 20
80.5288096583
 10
40.2671997903
 20
80.7019056738
 10
41.772634482
 20
80.8662166692
 10
43.2813693664
 20
81.0219767717
 10
44.7909889063
 20
81.1688737296
 10
46.3014366321
 20
81.3068486397
  0
LINE
  5
2A7
100
AcDbEntity
  8
0
100
AcDbLine
 62
7
  6
CONTINUOUS
 10
54.3305487765
 20
80.2837202488
 11
54.6643885181
 21
80.3335268289
  0
LINE
  5
2A8
100
AcDbEntity
  8
0
100
AcDbLine
 62
7
  6
CONTINUOUS
 10
51.433400694
 20
60.6264861667
 11
51.099535221
 21
60.5768523633
  0
LINE
  5
2A9
100
AcDbEntity
  8
0
100
AcDbLine
 62
7
  6
CONTINUOUS
 10
54.2082763851
 20
81.7564060821
 11
53.9033890445
 21
81.7186396322
  0
LINE
  5
2AA
100
AcDbEntity
  8
0
100
AcDbLine
 62
7
  6
CONTINUOUS
 10
51.5549109192
 20
59.1537372518
 11
51.859817764
 21
59.1913459102
  0
LINE
  5
2AB
100
AcDbEntity
  8
0
100
AcDbLine
 62
7
  6
CONTINUOUS
 10
53.9953268415
 20
80.2449941771
 11
54.3305487765
 21
80.2837202488
  0
LINE
  5
2AC
100
AcDbEntity
  8
0
100
AcDbLine
 62
7
  6
CONTINUOUS
 10
51.7686426258
 20
60.6650387479
 11
51.433400694
 21
60.6264861667
  0
LWPOLYLINE
  5
2AD
100
AcDbEntity
  8
0
100
AcDbPolyline
 62
7
  6
CONTINUOUS
 90
15
 70
0
 10
26.4666316124
 20
82.0671633367
 10
27.6110116788
 20
82.175515495
 10
28.7560898919
 20
82.2762841493
 10
29.9035629152
 20
82.3699541617
 10
31.0515825586
 20
82.4566783197
 10
32.5860536723
 20
82.5622067697
 10
34.1212727443
 20
82.6564522801
 10
35.6571178065
 20
82.7399794147
 10
37.1967387201
 20
82.8134740876
 10
38.7367885242
 20
82.8771952349
 10
40.2771899435
 20
82.93156633
 10
41.4340922042
 20
82.9664980403
 10
42.5911297505
 20
82.9965449332
 10
43.7489902299
 20
83.0218599223
 10
44.9069416173
 20
83.0425229125
  0
LINE
  5
2AE
100
AcDbEntity
  8
0
100
AcDbLine
 62
7
  6
CONTINUOUS
 10
53.9033890445
 20
81.7186396322
 11
53.5975155357
 21
81.6917310106
  0
LINE
  5
2AF
100
AcDbEntity
  8
0
100
AcDbLine
 62
7
  6
CONTINUOUS
 10
51.859817764
 20
59.1913459102
 11
52.1657051577
 21
59.2180962314
  0
LWPOLYLINE
  5
2B0
100
AcDbEntity
  8
1_CURVES
100
AcDbPolyline
 62
7
  6
CONTINUOUS
 90
9
 70
0
 10
46.3014366523
 20
81.3068488071
 10
46.4898364832
 20
81.3230279656
 10
46.6783017698
 20
81.3384228394
 10
46.8668146254
 20
81.3532488184
 10
47.0553571632
 20
81.3677212928
 10
47.2439114964
 20
81.3820556526
 10
47.4324597382
 20
81.3964672877
 10
47.6209840019
 20
81.4111715883
 10
47.8094664006
 20
81.4263839443
  0
LINE
  5
2B1
100
AcDbEntity
  8
1_CURVES
100
AcDbLine
 62
7
  6
CONTINUOUS
 10
47.8094664062
 20
81.4263839508
 11
47.9504477132
 21
81.4379688904
  0
LINE
  5
2B2
100
AcDbEntity
  8
0
100
AcDbLine
 62
7
  6
CONTINUOUS
 10
53.6590743
 20
80.2173807588
 11
53.9953268415
 21
80.2449941771
  0
LINE
  5
2B3
100
AcDbEntity
  8
1_CURVES
100
AcDbLine
 62
7
  6
CONTINUOUS
 10
47.9504477135
 20
81.4379688932
 11
48.0798659889
 21
81.4485350062
  0
LINE
  5
2B4
100
AcDbEntity
  8
0
100
AcDbLine
 62
7
  6
CONTINUOUS
 10
52.1049094128
 20
60.6924781439
 11
51.7686426258
 21
60.6650387479
  0
LINE
  5
2B5
100
AcDbEntity
  8
1_CURVES
100
AcDbLine
 62
7
  6
CONTINUOUS
 10
48.0798659894
 20
81.448535005
 11
48.0942190523
 21
81.4497027852
  0
LINE
  5
2B6
100
AcDbEntity
  8
0
100
AcDbLine
 62
7
  6
CONTINUOUS
 10
52.9125525727
 20
82.6475649097
 11
52.8813814406
 21
82.6455657034
  0
LINE
  5
2B7
100
AcDbEntity
  8
0
100
AcDbLine
 62
7
  6
CONTINUOUS
 10
53.5975155357
 20
81.6917310106
 11
53.2910253125
 21
81.6756968694
  0
LINE
  5
2B8
100
AcDbEntity
  8
0
100
AcDbLine
 62
7
  6
CONTINUOUS
 10
52.1657051577
 20
59.2180962314
 11
52.4722036379
 21
59.2339717545
  0
LINE
  5
2B9
100
AcDbEntity
  8
0
100
AcDbLine
 62
7
  6
CONTINUOUS
 10
53.3221439056
 20
80.2009021536
 11
53.6590743
 21
80.2173807588
  0
LINE
  5
2BA
100
AcDbEntity
  8
0
100
AcDbLine
 62
7
  6
CONTINUOUS
 10
52.4418482902
 20
60.7087823774
 11
52.1049094128
 21
60.6924781439
  0
LINE
  5
2BB
100
AcDbEntity
  8
0
100
AcDbLine
 62
7
  6
CONTINUOUS
 10
52.8521663116
 20
83.1004316251
 11
52.8835400284
 21
83.10142414
  0
LWPOLYLINE
  5
2BC
100
AcDbEntity
  8
0
100
AcDbPolyline
 62
7
  6
CONTINUOUS
 90
7
 70
0
 10
52.8835400284
 20
83.1014241401
 10
53.5162645386
 20
83.1208691023
 10
54.1490216476
 20
83.1392270382
 10
54.7817449254
 20
83.1565049457
 10
55.4144960293
 20
83.1727418147
 10
56.6797285626
 20
83.2022141166
 10
57.9450456332
 20
83.2277692198
  0
LWPOLYLINE
  5
2BD
100
AcDbEntity
  8
0
100
AcDbPolyline
 62
7
  6
CONTINUOUS
 90
4
 70
0
 10
60.3981299879
 20
57.118505742
 10
59.9141924503
 20
57.1046271481
 10
59.4524428143
 20
57.0919079726
 10
59.0081572232
 20
57.0802046866
  0
LWPOLYLINE
  5
2BE
100
AcDbEntity
  8
0
100
AcDbPolyline
 62
7
  6
CONTINUOUS
 90
27
 70
0
 10
59.0081572232
 20
57.0802046866
 10
58.984462212
 20
57.0796594027
 10
58.9607646063
 20
57.0792372451
 10
58.9357444894
 20
57.0789180984
 10
58.9107231043
 20
57.0787244813
 10
58.8853176892
 20
57.0786530216
 10
58.8599122245
 20
57.0787067284
 10
58.8348193843
 20
57.0788829333
 10
58.8097277378
 20
57.0791841982
 10
58.7857427637
 20
57.0795927729
 10
58.7617602302
 20
57.0801254049
 10
58.7397236199
 20
57.0807308787
 10
58.7176906576
 20
57.0814567981
 10
58.697930302
 20
57.0822195733
 10
58.6781748595
 20
57.0831001646
 10
58.6608098771
 20
57.0839832037
 10
58.6434512522
 20
57.0849832988
 10
58.6285386312
 20
57.085950108
 10
58.6136341419
 20
57.0870346021
 10
58.6010053665
 20
57.0880627568
 10
58.5883871348
 20
57.0892134273
 10
58.5779453216
 20
57.0902793721
 10
58.5675179265
 20
57.0914767025
 10
58.5592524362
 20
57.0925452978
 10
58.5510060169
 20
57.0937544456
 10
58.5447914432
 20
57.0947906744
 10
58.5386052165
 20
57.0959797524
  0
LWPOLYLINE
  5
2BF
100
AcDbEntity
  8
0
100
AcDbPolyline
 62
7
  6
CONTINUOUS
 90
23
 70
0
 10
46.7539675938
 20
83.8071309683
 10
46.7865630487
 20
83.8078685334
 10
46.819163537
 20
83.8083775415
 10
46.8517670197
 20
83.8086673949
 10
46.8843714579
 20
83.8087474964
 10
46.9171789362
 20
83.8086229977
 10
46.9499846004
 20
83.8082878872
 10
46.9822455766
 20
83.8077436639
 10
47.0145019081
 20
83.8069705954
 10
47.0455836801
 20
83.8059891428
 10
47.0766561948
 20
83.804743032
 10
47.0959794769
 20
83.8038158781
 10
47.1152952915
 20
83.8027476799
 10
47.1346008763
 20
83.8015136261
 10
47.1478618018
 20
83.8005544256
 10
47.1611144026
 20
83.7994851336
 10
47.1732091778
 20
83.7983925779
 10
47.1852901528
 20
83.7971599595
 10
47.1958548765
 20
83.795935673
 10
47.2063979618
 20
83.7945293333
 10
47.2121275438
 20
83.793664767
 10
47.2178402458
 20
83.7926990779
 10
47.2235277416
 20
83.7916001164
  0
LWPOLYLINE
  5
2C0
100
AcDbEntity
  8
0
100
AcDbPolyline
 62
7
  6
CONTINUOUS
 90
49
 70
0
 10
77.5262784402
 20
56.0509838448
 10
77.5913892543
 20
56.05240369
 10
77.656433895
 20
56.056013151
 10
77.7213250797
 20
56.0618095785
 10
77.7859802215
 20
56.0697891185
 10
77.8503250469
 20
56.079941746
 10
77.9142899914
 20
56.0922561136
 10
77.977815722
 20
56.1067220481
 10
78.0408196465
 20
56.1233190768
 10
78.1032295559
 20
56.1420271761
 10
78.164992752
 20
56.1628316494
 10
78.2260214997
 20
56.1857003082
 10
78.2862479818
 20
56.2106050123
 10
78.3456304157
 20
56.2375283677
 10
78.4040778912
 20
56.2664254395
 10
78.4615262835
 20
56.2972603065
 10
78.517942517
 20
56.3300142523
 10
78.5732359703
 20
56.3646305008
 10
78.6273482171
 20
56.4010674309
 10
78.6802539503
 20
56.4393062191
 10
78.7318635558
 20
56.4792753358
 10
78.7821220828
 20
56.5209238332
 10
78.8310096228
 20
56.5642321615
 10
78.8784484289
 20
56.6091289984
 10
78.9243977059
 20
56.6555722082
 10
78.9688105107
 20
56.7035098406
 10
79.0116506202
 20
56.7528892219
 10
79.0528752558
 20
56.8036482647
 10
79.0924416389
 20
56.8557248816
 10
79.1303069907
 20
56.9090569849
 10
79.1664285328
 20
56.9635824873
 10
79.2008117324
 20
57.0193151917
 10
79.2333794544
 20
57.0761203013
 10
79.2641076338
 20
57.1339358551
 10
79.2929722057
 20
57.1926998918
 10
79.319949105
 20
57.2523504506
 10
79.3450142667
 20
57.3128255702
 10
79.3681683159
 20
57.3741276166
 10
79.3893681178
 20
57.4361327827
 10
79.4085992613
 20
57.4987799991
 10
79.4258473357
 20
57.5620081966
 10
79.4410979298
 20
57.6257563058
 10
79.4543366327
 20
57.6899632575
 10
79.4655566451
 20
57.7546023822
 10
79.4747445375
 20
57.8195641237
 10
79.4818967952
 20
57.8847728732
 10
79.4870099033
 20
57.9501530223
 10
79.4900803472
 20
58.0156289623
 10
79.4911046121
 20
58.0811250846
  0
LWPOLYLINE
  5
2C1
100
AcDbEntity
  8
0
100
AcDbPolyline
 62
7
  6
CONTINUOUS
 90
12
 70
0
 10
58.601191986
 20
81.8835178126
 10
59.4702177297
 20
81.9002436204
 10
60.3393515653
 20
81.9115761436
 10
61.2085493327
 20
81.9175331563
 10
62.0777668715
 20
81.9181324326
 10
62.9469600218
 20
81.9133917465
 10
63.6712744464
 20
81.9053768095
 10
64.3955305005
 20
81.8936903836
 10
65.1197174213
 20
81.8783572991
 10
65.8438372285
 20
81.8594041881
 10
66.5678554133
 20
81.8368672555
 10
67.2917502523
 20
81.8107846539
  0
LINE
  5
2C2
100
AcDbEntity
  8
0
100
AcDbLine
 62
7
  6
CONTINUOUS
 10
53.2910253125
 20
81.6756968694
 11
52.9945263052
 21
81.6705385423
  0
LINE
  5
2C3
100
AcDbEntity
  8
0
100
AcDbLine
 62
7
  6
CONTINUOUS
 10
52.4722036379
 20
59.2339717545
 11
52.768705275
 21
59.2389766356
  0
LINE
  5
2C4
100
AcDbEntity
  8
0
100
AcDbLine
 62
7
  6
CONTINUOUS
 10
52.9949078312
 20
80.1955684529
 11
53.3221439056
 21
80.2009021536
  0
LINE
  5
2C5
100
AcDbEntity
  8
0
100
AcDbLine
 62
7
  6
CONTINUOUS
 10
52.7690870811
 20
60.713946725
 11
52.4418482902
 21
60.7087823774
  0
LWPOLYLINE
  5
2C6
100
AcDbEntity
  8
0
100
AcDbPolyline
 62
7
  6
CONTINUOUS
 90
55
 70
0
 10
25.8734880139
 20
79.2698276932
 10
25.8655264482
 20
79.269743058
 10
25.8575561211
 20
79.2699549846
 10
25.8495922092
 20
79.2704686587
 10
25.8416498886
 20
79.2712892659
 10
25.8337443359
 20
79.2724219919
 10
25.8258907273
 20
79.2738720225
 10
25.8181042394
 20
79.2756445434
 10
25.810318543
 20
79.2777667736
 10
25.8026299943
 20
79.2802171555
 10
25.7950516919
 20
79.2829891889
 10
25.7875967345
 20
79.2860763739
 10
25.7802782209
 20
79.2894722106
 10
25.7731092497
 20
79.2931701989
 10
25.7661029197
 20
79.2971638387
 10
25.7588117301
 20
79.3017474073
 10
25.7517264543
 20
79.3066439916
 10
25.7448524936
 20
79.3118366963
 10
25.738195249
 20
79.3173086258
 10
25.7317601217
 20
79.3230428844
 10
25.7255525127
 20
79.3290225768
 10
25.7195778233
 20
79.3352308073
 10
25.7132075751
 20
79.342388136
 10
25.7071274233
 20
79.3497892494
 10
25.7013323521
 20
79.3574158554
 10
25.6958173455
 20
79.365249662
 10
25.690577388
 20
79.373272377
 10
25.6856074635
 20
79.3814657084
 10
25.6809025565
 20
79.389811364
 10
25.675920108
 20
79.3993605409
 10
25.6712566859
 20
79.4090654805
 10
25.6669023215
 20
79.4189123471
 10
25.6628470465
 20
79.4288873049
 10
25.6590808922
 20
79.4389765182
 10
25.6555938903
 20
79.449166151
 10
25.6523760721
 20
79.4594423677
 10
25.6491169575
 20
79.4709020046
 10
25.6461652858
 20
79.4824418639
 10
25.6435109577
 20
79.4940530505
 10
25.641143874
 20
79.5057266695
 10
25.6390539354
 20
79.517453826
 10
25.6372310426
 20
79.5292256249
 10
25.6356650965
 20
79.5410331715
 10
25.6340517808
 20
79.5558624226
 10
25.6328132009
 20
79.5707255822
 10
25.6319367485
 20
79.5856144228
 10
25.631409815
 20
79.6005207169
 10
25.6312197923
 20
79.6154362367
 10
25.6313540718
 20
79.6303527548
 10
25.6318246916
 20
79.6458482807
 10
25.6326233862
 20
79.6613295254
 10
25.6337415512
 20
79.6767900166
 10
25.6351705824
 20
79.692223282
 10
25.6369018756
 20
79.7076228494
 10
25.6389268265
 20
79.7229822464
  0
LWPOLYLINE
  5
2C7
100
AcDbEntity
  8
0
100
AcDbPolyline
 62
7
  6
CONTINUOUS
 90
13
 70
0
 10
60.2806481827
 20
83.2628876895
 10
61.2977020648
 20
83.2696194216
 10
62.3147795943
 20
83.2704637617
 10
63.331072035
 20
83.2652833042
 10
64.3466363661
 20
83.2539087464
 10
64.8539525017
 20
83.2458238523
 10
65.3612392665
 20
83.2360754135
 10
65.8678981487
 20
83.2246186132
 10
66.3745134542
 20
83.2113618704
 10
66.8801632616
 20
83.1962254439
 10
67.3857450083
 20
83.178990609
 10
67.8900875551
 20
83.1594373466
 10
68.3928140334
 20
83.13699372
  0
LWPOLYLINE
  5
2C8
100
AcDbEntity
  8
0
100
AcDbPolyline
 62
7
  6
CONTINUOUS
 90
49
 70
0
 10
17.5903307725
 20
88.0885767868
 10
17.5822015066
 20
88.0885489091
 10
17.5740715735
 20
88.0882638462
 10
17.5659506683
 20
88.0877217008
 10
17.5578484863
 20
88.0869225757
 10
17.5497747229
 20
88.0858665735
 10
17.5417390732
 20
88.0845537971
 10
17.5337463086
 20
88.0829836264
 10
17.5258093148
 20
88.0811581694
 10
17.5179359983
 20
88.0790791095
 10
17.5101342653
 20
88.0767481303
 10
17.5024120222
 20
88.0741669153
 10
17.4947771752
 20
88.0713371478
 10
17.4872285202
 20
88.0682568864
 10
17.4797835661
 20
88.0649325446
 10
17.4724504785
 20
88.0613675142
 10
17.4652374228
 20
88.0575651872
 10
17.4581525646
 20
88.0535289556
 10
17.4512040694
 20
88.0492622114
 10
17.4443884646
 20
88.0447607722
 10
17.4377252282
 20
88.0400366132
 10
17.4312217056
 20
88.0350949119
 10
17.4248852427
 20
88.0299408456
 10
17.4187231851
 20
88.0245795919
 10
17.4127428783
 20
88.0190163283
 10
17.4069403996
 20
88.0132451116
 10
17.4013339419
 20
88.0072830912
 10
17.3959296937
 20
88.0011370621
 10
17.3907338436
 20
87.9948138191
 10
17.38575258
 20
87.988320157
 10
17.3809920916
 20
87.9816628706
 10
17.3764500444
 20
87.974836147
 10
17.3721403207
 20
87.967860281
 10
17.368067433
 20
87.960743545
 10
17.364235894
 20
87.9534942115
 10
17.3606502162
 20
87.946120553
 10
17.3573149123
 20
87.9386308419
 10
17.3542298323
 20
87.9310221714
 10
17.3514029109
 20
87.9233139336
 10
17.3488366721
 20
87.9155146578
 10
17.3465336399
 20
87.9076328732
 10
17.3444963384
 20
87.8996771089
 10
17.3427272917
 20
87.8916558943
 10
17.3412275643
 20
87.8835715198
 10
17.3399995077
 20
87.8754409693
 10
17.3390435712
 20
87.867275081
 10
17.3383602041
 20
87.859084693
 10
17.3379498559
 20
87.8508806435
 10
17.3378129757
 20
87.8426737708
  0
LWPOLYLINE
  5
2C9
100
AcDbEntity
  8
0
100
AcDbPolyline
 62
7
  6
CONTINUOUS
 90
5
 70
0
 10
22.5935167899
 20
84.8628340056
 10
33.7186639231
 20
84.8905018759
 10
39.2973929115
 20
84.8992230708
 10
42.0887985761
 20
84.9022530773
 10
44.8808029912
 20
84.9043813781
  0
LWPOLYLINE
  5
2CA
100
AcDbEntity
  8
0
100
AcDbPolyline
 62
7
  6
CONTINUOUS
 90
4
 70
0
 10
48.2839088462
 20
83.0638755435
 10
49.18034865
 20
83.0655454259
 10
50.5251896095
 20
83.0672564513
 10
51.8700314186
 20
83.068025974
  0
LINE
  5
2CB
100
AcDbEntity
  8
0
100
AcDbLine
 62
7
  6
CONTINUOUS
 10
44.8808029912
 20
84.9043813781
 11
45.0102541725
 21
84.9044497937
  0
LWPOLYLINE
  5
2CC
100
AcDbEntity
  8
0
100
AcDbPolyline
 62
7
  6
CONTINUOUS
 90
8
 70
0
 10
45.0102541725
 20
84.9044497937
 10
46.1541309722
 20
84.9048824845
 10
47.4130971238
 20
84.9049288619
 10
48.778000047
 20
84.9049304345
 10
50.248559527
 20
84.9049304758
 10
51.8326988721
 20
84.9049312439
 10
53.500805029
 20
84.9049284325
 10
55.0102541725
 20
84.9049459274
  0
LWPOLYLINE
  5
2CD
100
AcDbEntity
  8
0
100
AcDbPolyline
 62
7
  6
CONTINUOUS
 90
8
 70
0
 10
45.0102541725
 20
84.9044497937
 10
46.1541309722
 20
84.9048824845
 10
47.4130971238
 20
84.9049288619
 10
48.778000047
 20
84.9049304345
 10
50.248559527
 20
84.9049304758
 10
51.8326988721
 20
84.9049312439
 10
53.500805029
 20
84.9049284325
 10
55.0102541725
 20
84.9049459274
  0
LINE
  5
2CE
100
AcDbEntity
  8
0
100
AcDbLine
 62
7
  6
CONTINUOUS
 10
82.5121568234
 20
52.454728372
 11
17.5083515215
 21
52.454728372
  0
LINE
  5
2CF
100
AcDbEntity
  8
0
100
AcDbLine
 62
7
  6
CONTINUOUS
 10
55.0102541725
 20
52.9900214879
 11
45.0102541725
 21
52.9900214879
  0
LINE
  5
2D0
100
AcDbEntity
  8
0
100
AcDbLine
 62
7
  6
CONTINUOUS
 10
55.0102541725
 20
52.9900214879
 11
45.0102541725
 21
52.9900214879
  0
LWPOLYLINE
  5
2D1
100
AcDbEntity
  8
0
100
AcDbPolyline
 62
7
  6
CONTINUOUS
 90
9
 70
0
 10
55.0102541725
 20
56.0045108167
 10
56.4206388044
 20
56.0045434212
 10
57.8309497209
 20
56.0045638254
 10
59.2411133613
 20
56.0046111278
 10
60.651056014
 20
56.0049081628
 10
63.4699830179
 20
56.0072114673
 10
66.2871401813
 20
56.0117312098
 10
71.9137853007
 20
56.0271919528
 10
77.5262784402
 20
56.0509838448
  0
LINE
  5
2D2
100
AcDbEntity
  8
DEFAULT_1
100
AcDbLine
 62
7
  6
CENTER
 10
48.5810420728
 20
70.454728372
 11
48.0396824412
 21
70.4547024539
  0
LINE
  5
2D3
100
AcDbEntity
  8
0
100
AcDbLine
 62
7
  6
CONTINUOUS
 10
48.0396824412
 20
70.4547024539
 11
47.6726540818
 21
70.4547024539
  0
LINE
  5
2D4
100
AcDbEntity
  8
0
100
AcDbLine
 62
7
  6
CONTINUOUS
 10
23.7276255329
 20
70.454728372
 11
23.5078292014
 21
70.454728372
  0
LINE
  5
2D5
100
AcDbEntity
  8
DEFAULT_1
100
AcDbLine
 62
7
  6
CENTER
 10
23.5078292014
 20
70.454728372
 11
15.1058994053
 21
70.454728372
  0
LINE
  5
2D6
100
AcDbEntity
  8
0
100
AcDbLine
 62
7
  6
CONTINUOUS
 10
48.5810420728
 20
70.454728372
 11
69.9566989253
 21
70.454728372
  0
LINE
  5
2D7
100
AcDbEntity
  8
DEFAULT_1
100
AcDbLine
 62
7
  6
CENTER
 10
69.9566989253
 20
70.454728372
 11
73.5732736622
 21
70.454728372
  0
LINE
  5
2D8
100
AcDbEntity
  8
0
100
AcDbLine
 62
7
  6
CONTINUOUS
 10
73.5732736622
 20
70.454728372
 11
78.2701427041
 21
70.454728372
  0
LINE
  5
2D9
100
AcDbEntity
  8
DEFAULT_1
100
AcDbLine
 62
7
  6
CENTER
 10
78.2701427041
 20
70.454728372
 11
78.6416745586
 21
70.454728372
  0
LINE
  5
2DA
100
AcDbEntity
  8
0
100
AcDbLine
 62
7
  6
CONTINUOUS
 10
78.6416745586
 20
70.454728372
 11
79.4911046121
 21
70.454728372
  0
LINE
  5
2DB
100
AcDbEntity
  8
DEFAULT_1
100
AcDbLine
 62
7
  6
CENTER
 10
79.4911046121
 20
70.454728372
 11
84.7216457468
 21
70.454728372
  0
LINE
  5
2DC
100
AcDbEntity
  8
DEFAULT_1
100
AcDbLine
 62
7
  6
CENTER
 10
47.6726540818
 20
70.4547024539
 11
23.7276255329
 21
70.454728372
  0
LINE
  5
2DD
100
AcDbEntity
  8
0
100
AcDbLine
 62
7
  6
CONTINUOUS
 10
48.5810420724
 20
70.4546745614
 11
48.0915623437
 21
70.4546769514
  0
LWPOLYLINE
  5
2DE
100
AcDbEntity
  8
0
100
AcDbPolyline
 62
7
  6
CONTINUOUS
 90
9
 70
0
 10
55.0102541725
 20
84.9049459274
 10
56.4206388044
 20
84.9049133228
 10
57.8309497209
 20
84.9048929187
 10
59.2411133613
 20
84.9048456162
 10
60.651056014
 20
84.9045485813
 10
63.4699830179
 20
84.9022452767
 10
66.2871401813
 20
84.8977255342
 10
71.9137853007
 20
84.8822647913
 10
77.5262784402
 20
84.8584728992
  0
LINE
  5
2DF
100
AcDbEntity
  8
0
100
AcDbLine
 62
7
  6
CONTINUOUS
 10
55.0102541725
 20
87.9194352562
 11
45.0102541725
 21
87.9194352562
  0
LINE
  5
2E0
100
AcDbEntity
  8
0
100
AcDbLine
 62
7
  6
CONTINUOUS
 10
55.0102541725
 20
87.9194352562
 11
45.0102541725
 21
87.9194352562
  0
LINE
  5
2E1
100
AcDbEntity
  8
0
100
AcDbLine
 62
7
  6
CONTINUOUS
 10
82.5121568234
 20
88.454728372
 11
17.5083515215
 21
88.454728372
  0
LWPOLYLINE
  5
2E2
100
AcDbEntity
  8
0
100
AcDbPolyline
 62
7
  6
CONTINUOUS
 90
8
 70
0
 10
45.0102541725
 20
56.0050069504
 10
46.1541309722
 20
56.0045742595
 10
47.4130971238
 20
56.0045278822
 10
48.778000047
 20
56.0045263096
 10
50.248559527
 20
56.0045262683
 10
51.8326988721
 20
56.0045255002
 10
53.500805029
 20
56.0045283116
 10
55.0102541725
 20
56.0045108167
  0
LWPOLYLINE
  5
2E3
100
AcDbEntity
  8
0
100
AcDbPolyline
 62
7
  6
CONTINUOUS
 90
8
 70
0
 10
45.0102541725
 20
56.0050069504
 10
46.1541309722
 20
56.0045742595
 10
47.4130971238
 20
56.0045278822
 10
48.778000047
 20
56.0045263096
 10
50.248559527
 20
56.0045262683
 10
51.8326988721
 20
56.0045255002
 10
53.500805029
 20
56.0045283116
 10
55.0102541725
 20
56.0045108167
  0
LINE
  5
2E4
100
AcDbEntity
  8
0
100
AcDbLine
 62
7
  6
CONTINUOUS
 10
44.8808029912
 20
56.005075366
 11
45.0102541725
 21
56.0050069504
  0
LWPOLYLINE
  5
2E5
100
AcDbEntity
  8
0
100
AcDbPolyline
 62
7
  6
CONTINUOUS
 90
5
 70
0
 10
22.5935167899
 20
56.0466227384
 10
33.7186639231
 20
56.0189548681
 10
39.2973929115
 20
56.0102336733
 10
42.0887985761
 20
56.0072036668
 10
44.8808029912
 20
56.005075366
  0
LWPOLYLINE
  5
2E6
100
AcDbEntity
  8
0
100
AcDbPolyline
 62
7
  6
CONTINUOUS
 90
49
 70
0
 10
17.5903307725
 20
52.8208799573
 10
17.5822015066
 20
52.820907835
 10
17.5740715735
 20
52.8211928979
 10
17.5659506683
 20
52.8217350433
 10
17.5578484863
 20
52.8225341684
 10
17.5497747229
 20
52.8235901706
 10
17.5417390732
 20
52.824902947
 10
17.5337463086
 20
52.8264731177
 10
17.5258093148
 20
52.8282985747
 10
17.5179359983
 20
52.8303776346
 10
17.5101342653
 20
52.8327086138
 10
17.5024120222
 20
52.8352898288
 10
17.4947771752
 20
52.8381195963
 10
17.4872285202
 20
52.8411998577
 10
17.4797835661
 20
52.8445241995
 10
17.4724504785
 20
52.8480892299
 10
17.4652374228
 20
52.8518915568
 10
17.4581525646
 20
52.8559277884
 10
17.4512040694
 20
52.8601945326
 10
17.4443884646
 20
52.8646959718
 10
17.4377252282
 20
52.8694201308
 10
17.4312217056
 20
52.8743618322
 10
17.4248852427
 20
52.8795158984
 10
17.4187231851
 20
52.8848771521
 10
17.4127428783
 20
52.8904404157
 10
17.4069403996
 20
52.8962116325
 10
17.4013339419
 20
52.9021736528
 10
17.3959296937
 20
52.9083196819
 10
17.3907338436
 20
52.9146429249
 10
17.38575258
 20
52.921136587
 10
17.3809920916
 20
52.9277938734
 10
17.3764500444
 20
52.934620597
 10
17.3721403207
 20
52.9415964631
 10
17.368067433
 20
52.948713199
 10
17.364235894
 20
52.9559625325
 10
17.3606502162
 20
52.963336191
 10
17.3573149123
 20
52.9708259021
 10
17.3542298323
 20
52.9784345726
 10
17.3514029109
 20
52.9861428104
 10
17.3488366721
 20
52.9939420862
 10
17.3465336399
 20
53.0018238709
 10
17.3444963384
 20
53.0097796352
 10
17.3427272917
 20
53.0178008498
 10
17.3412275643
 20
53.0258852243
 10
17.3399995077
 20
53.0340157748
 10
17.3390435712
 20
53.0421816631
 10
17.3383602041
 20
53.0503720511
 10
17.3379498559
 20
53.0585761006
 10
17.3378129757
 20
53.0667829733
  0
LWPOLYLINE
  5
2E7
100
AcDbEntity
  8
0
100
AcDbPolyline
 62
7
  6
CONTINUOUS
 90
14
 70
0
 10
60.0525520905
 20
57.648880653
 10
61.0984141308
 20
57.6407005891
 10
62.1438497556
 20
57.6387165612
 10
63.1887190807
 20
57.643079308
 10
63.7107915662
 20
57.647688911
 10
64.2328467699
 20
57.653957509
 10
64.7544334792
 20
57.6619171848
 10
65.2759905136
 20
57.6716246609
 10
65.7969028094
 20
57.6831264962
 10
66.3177703027
 20
57.6965171176
 10
66.8376444764
 20
57.7118800559
 10
67.357448041
 20
57.7294427222
 10
67.8759721778
 20
57.749435846
 10
68.3928140334
 20
57.772463024
  0
LWPOLYLINE
  5
2E8
100
AcDbEntity
  8
0
100
AcDbPolyline
 62
7
  6
CONTINUOUS
 90
55
 70
0
 10
25.8734880139
 20
61.6396290508
 10
25.8655264482
 20
61.639713686
 10
25.8575561211
 20
61.6395017594
 10
25.8495922092
 20
61.6389880854
 10
25.8416498886
 20
61.6381674782
 10
25.8337443359
 20
61.6370347522
 10
25.8258907273
 20
61.6355847215
 10
25.8181042394
 20
61.6338122007
 10
25.810318543
 20
61.6316899704
 10
25.8026299943
 20
61.6292395886
 10
25.7950516919
 20
61.6264675552
 10
25.7875967345
 20
61.6233803701
 10
25.7802782209
 20
61.6199845334
 10
25.7731092497
 20
61.6162865452
 10
25.7661029197
 20
61.6122929053
 10
25.7588117301
 20
61.6077093368
 10
25.7517264543
 20
61.6028127524
 10
25.7448524936
 20
61.5976200477
 10
25.738195249
 20
61.5921481183
 10
25.7317601217
 20
61.5864138596
 10
25.7255525127
 20
61.5804341673
 10
25.7195778233
 20
61.5742259367
 10
25.7132075751
 20
61.5670686081
 10
25.7071274233
 20
61.5596674947
 10
25.7013323521
 20
61.5520408886
 10
25.6958173455
 20
61.5442070821
 10
25.690577388
 20
61.5361843671
 10
25.6856074635
 20
61.5279910357
 10
25.6809025565
 20
61.51964538
 10
25.675920108
 20
61.5100962032
 10
25.6712566859
 20
61.5003912636
 10
25.6669023215
 20
61.4905443969
 10
25.6628470465
 20
61.4805694391
 10
25.6590808922
 20
61.4704802259
 10
25.6555938903
 20
61.460290593
 10
25.6523760721
 20
61.4500143764
 10
25.6491169575
 20
61.4385547395
 10
25.6461652858
 20
61.4270148802
 10
25.6435109577
 20
61.4154036936
 10
25.641143874
 20
61.4037300746
 10
25.6390539354
 20
61.3920029181
 10
25.6372310426
 20
61.3802311192
 10
25.6356650965
 20
61.3684235726
 10
25.6340517808
 20
61.3535943215
 10
25.6328132009
 20
61.3387311619
 10
25.6319367485
 20
61.3238423213
 10
25.631409815
 20
61.3089360272
 10
25.6312197923
 20
61.2940205074
 10
25.6313540718
 20
61.2791039893
 10
25.6318246916
 20
61.2636084634
 10
25.6326233862
 20
61.2481272187
 10
25.6337415512
 20
61.2326667275
 10
25.6351705824
 20
61.2172334621
 10
25.6369018756
 20
61.2018338947
 10
25.6389268265
 20
61.1864744977
  0
LINE
  5
2E9
100
AcDbEntity
  8
0
100
AcDbLine
 62
7
  6
CONTINUOUS
 10
52.6676690507
 20
80.2007328091
 11
52.9949078312
 21
80.1955684529
  0
LINE
  5
2EA
100
AcDbEntity
  8
0
100
AcDbLine
 62
7
  6
CONTINUOUS
 10
53.0963231451
 20
60.7086130157
 11
52.7690870811
 21
60.713946725
  0
LINE
  5
2EB
100
AcDbEntity
  8
0
100
AcDbLine
 62
7
  6
CONTINUOUS
 10
52.9945263052
 20
81.6705385423
 11
52.698024668
 21
81.6755434234
  0
LINE
  5
2EC
100
AcDbEntity
  8
0
100
AcDbLine
 62
7
  6
CONTINUOUS
 10
52.768705275
 20
59.2389766356
 11
53.0652042823
 21
59.2338183085
  0
LWPOLYLINE
  5
2ED
100
AcDbEntity
  8
0
100
AcDbPolyline
 62
7
  6
CONTINUOUS
 90
12
 70
0
 10
58.3681689943
 20
59.031343127
 10
59.2604686273
 20
59.0127575398
 10
60.1528914025
 20
58.9998604076
 10
61.0453894411
 20
58.9926336823
 10
61.9379148647
 20
58.9910593158
 10
62.8304197944
 20
58.9951192598
 10
63.5741629824
 20
59.0027913278
 10
64.3178469781
 20
59.0143375631
 10
65.0614600747
 20
59.029731567
 10
65.8050041462
 20
59.0489449412
 10
66.5484420561
 20
59.0719387979
 10
67.2917502523
 20
59.0986720901
  0
LWPOLYLINE
  5
2EE
100
AcDbEntity
  8
0
100
AcDbPolyline
 62
7
  6
CONTINUOUS
 90
49
 70
0
 10
77.5262784402
 20
84.8584728992
 10
77.5913892543
 20
84.8570530541
 10
77.656433895
 20
84.8534435931
 10
77.7213250797
 20
84.8476471655
 10
77.7859802215
 20
84.8396676256
 10
77.8503250469
 20
84.8295149981
 10
77.9142899914
 20
84.8172006304
 10
77.977815722
 20
84.802734696
 10
78.0408196465
 20
84.7861376673
 10
78.1032295559
 20
84.7674295679
 10
78.164992752
 20
84.7466250947
 10
78.2260214997
 20
84.7237564358
 10
78.2862479818
 20
84.6988517318
 10
78.3456304157
 20
84.6719283764
 10
78.4040778912
 20
84.6430313046
 10
78.4615262835
 20
84.6121964376
 10
78.517942517
 20
84.5794424918
 10
78.5732359703
 20
84.5448262433
 10
78.6273482171
 20
84.5083893132
 10
78.6802539503
 20
84.470150525
 10
78.7318635558
 20
84.4301814083
 10
78.7821220828
 20
84.3885329109
 10
78.8310096228
 20
84.3452245826
 10
78.8784484289
 20
84.3003277457
 10
78.9243977059
 20
84.2538845359
 10
78.9688105107
 20
84.2059469035
 10
79.0116506202
 20
84.1565675222
 10
79.0528752558
 20
84.1058084794
 10
79.0924416389
 20
84.0537318625
 10
79.1303069907
 20
84.0003997591
 10
79.1664285328
 20
83.9458742568
 10
79.2008117324
 20
83.8901415523
 10
79.2333794544
 20
83.8333364427
 10
79.2641076338
 20
83.775520889
 10
79.2929722057
 20
83.7167568522
 10
79.319949105
 20
83.6571062935
 10
79.3450142667
 20
83.5966311738
 10
79.3681683159
 20
83.5353291274
 10
79.3893681178
 20
83.4733239614
 10
79.4085992613
 20
83.410676745
 10
79.4258473357
 20
83.3474485475
 10
79.4410979298
 20
83.2837004383
 10
79.4543366327
 20
83.2194934865
 10
79.4655566451
 20
83.1548543618
 10
79.4747445375
 20
83.0898926204
 10
79.4818967952
 20
83.0246838709
 10
79.4870099033
 20
82.9593037218
 10
79.4900803472
 20
82.8938277818
 10
79.4911046121
 20
82.8283316595
  0
LWPOLYLINE
  5
2EF
100
AcDbEntity
  8
0
100
AcDbPolyline
 62
7
  6
CONTINUOUS
 90
23
 70
0
 10
59.2339784436
 20
83.8103603193
 10
59.2013826113
 20
83.8110810154
 10
59.168781864
 20
83.8115731519
 10
59.1361782356
 20
83.8118461323
 10
59.1035737604
 20
83.8119093602
 10
59.0707663509
 20
83.8117678828
 10
59.0379608645
 20
83.8114157946
 10
59.0057001742
 20
83.8108548756
 10
58.9734442472
 20
83.8100651138
 10
58.9423629873
 20
83.8090675758
 10
58.9112911217
 20
83.8078053843
 10
58.8919683219
 20
83.8068682303
 10
58.8726530627
 20
83.8057900358
 10
58.8533481191
 20
83.8045459911
 10
58.8400876918
 20
83.803579928
 10
58.8268356462
 20
83.8025037775
 10
58.8147414381
 20
83.8014049627
 10
58.8026611026
 20
83.8001660921
 10
58.7920970139
 20
83.7989363383
 10
58.7815546578
 20
83.7975245425
 10
58.775825524
 20
83.7966570112
 10
58.7701133226
 20
83.7956883658
 10
58.7644263963
 20
83.794586461
  0
LWPOLYLINE
  5
2F0
100
AcDbEntity
  8
0
100
AcDbPolyline
 62
7
  6
CONTINUOUS
 90
27
 70
0
 10
46.5281463818
 20
57.083466132
 10
46.5518411047
 20
57.0829084636
 10
46.5755384865
 20
57.08247392
 10
46.6005584332
 20
57.0821416962
 10
46.6255797137
 20
57.0819350012
 10
46.650985088
 20
57.081850263
 10
46.6763905773
 20
57.0818906913
 10
46.7014835062
 20
57.082053781
 10
46.7265753068
 20
57.0823419312
 10
46.750560491
 20
57.0827379697
 10
46.7745432997
 20
57.0832580667
 10
46.7965802234
 20
57.0838520226
 10
46.8186135621
 20
57.084566426
 10
46.8383743137
 20
57.085318873
 10
46.8581302137
 20
57.0861891387
 10
46.8754956553
 20
57.0870631015
 10
46.8928548006
 20
57.0880541237
 10
46.9077679248
 20
57.0890131384
 10
46.9226729789
 20
57.0900898423
 10
46.93530229
 20
57.0911113963
 10
46.9479211214
 20
57.0922554714
 10
46.9583634903
 20
57.0933159585
 10
46.9687915098
 20
57.0945078387
 10
46.9770575574
 20
57.0955721137
 10
46.9853046076
 20
57.0967769512
 10
46.9915197221
 20
57.0978099317
 10
46.9977065694
 20
57.0989957763
  0
LWPOLYLINE
  5
2F1
100
AcDbEntity
  8
0
100
AcDbPolyline
 62
7
  6
CONTINUOUS
 90
4
 70
0
 10
45.1381938256
 20
57.1224936751
 10
45.6221240433
 20
57.1083621449
 10
46.0838669682
 20
57.0954016299
 10
46.5281463818
 20
57.083466132
  0
LWPOLYLINE
  5
2F2
100
AcDbEntity
  8
0
100
AcDbPolyline
 62
7
  6
CONTINUOUS
 90
7
 70
0
 10
52.8835400284
 20
57.808032604
 10
53.4872798484
 20
57.789454416
 10
54.0910494439
 20
57.7718667681
 10
54.6947902245
 20
57.7552646913
 10
55.2985566142
 20
57.7396127825
 10
56.5058545127
 20
57.7110502284
 10
57.7132314053
 20
57.6860769669
  0
LINE
  5
2F3
100
AcDbEntity
  8
0
100
AcDbLine
 62
7
  6
CONTINUOUS
 10
52.8521663116
 20
57.809025119
 11
52.8835400284
 21
57.8080326041
  0
LINE
  5
2F4
100
AcDbEntity
  8
0
100
AcDbLine
 62
7
  6
CONTINUOUS
 10
52.3307301845
 20
80.2170370508
 11
52.6676690507
 21
80.2007328091
  0
LINE
  5
2F5
100
AcDbEntity
  8
0
100
AcDbLine
 62
7
  6
CONTINUOUS
 10
53.4332535284
 20
60.6921344023
 11
53.0963231451
 21
60.7086130157
  0
LINE
  5
2F6
100
AcDbEntity
  8
0
100
AcDbLine
 62
7
  6
CONTINUOUS
 10
52.698024668
 20
81.6755434234
 11
52.3915261878
 21
81.6914189466
  0
LINE
  5
2F7
100
AcDbEntity
  8
0
100
AcDbLine
 62
7
  6
CONTINUOUS
 10
53.0652042823
 20
59.2338183085
 11
53.3716945055
 21
59.2177841673
  0
LINE
  5
2F8
100
AcDbEntity
  8
0
100
AcDbLine
 62
7
  6
CONTINUOUS
 10
52.9125525727
 20
58.2618918344
 11
52.8813814406
 21
58.2638910407
  0
LWPOLYLINE
  5
2F9
100
AcDbEntity
  8
0
100
AcDbPolyline
 62
7
  6
CONTINUOUS
 90
40
 70
0
 10
78.4559028354
 20
71.6422282234
 10
78.4605085128
 20
71.6418596269
 10
78.4650181226
 20
71.6407996801
 10
78.4697030953
 20
71.6389509351
 10
78.4741114779
 20
71.6365135383
 10
78.4788112954
 20
71.6331704916
 10
78.4831609772
 20
71.6293802581
 10
78.487834185
 20
71.6245624517
 10
78.4921448233
 20
71.6194171544
 10
78.4967659221
 20
71.6131530981
 10
78.5010413598
 20
71.6066478567
 10
78.5055934994
 20
71.5989653553
 10
78.509829176
 20
71.5911036587
 10
78.5160717118
 20
71.5782561661
 10
78.5217591739
 20
71.5651467912
 10
78.526994217
 20
71.5518457253
 10
78.5329201988
 20
71.5353795429
 10
78.5383906209
 20
71.5187613767
 10
78.5434746312
 20
71.5020215132
 10
78.5490600144
 20
71.4821508739
 10
78.5542552172
 20
71.4621737508
 10
78.5591117085
 20
71.442110909
 10
78.5667941086
 20
71.4074767736
 10
78.5737548452
 20
71.3726909148
 10
78.580833459
 20
71.3336166957
 10
78.5872630156
 20
71.2944301168
 10
78.5936812539
 20
71.2512982204
 10
78.5995061201
 20
71.2080821808
 10
78.6052115053
 20
71.1613124174
 10
78.6103662389
 20
71.1144786725
 10
78.6153115998
 20
71.0645241731
 10
78.6197387757
 20
71.0145211126
 10
78.6238819942
 20
70.9618649869
 10
78.6275334723
 20
70.9091722247
 10
78.6318983662
 20
70.8349583295
 10
78.635406107
 20
70.7606973125
 10
78.6381049897
 20
70.6864012942
 10
78.6400973074
 20
70.6091892926
 10
78.6412825517
 20
70.5319618876
 10
78.6416745586
 20
70.454728372
  0
LWPOLYLINE
  5
2FA
100
AcDbEntity
  8
0
100
AcDbPolyline
 62
7
  6
CONTINUOUS
 90
40
 70
0
 10
78.4559028243
 20
69.2672285208
 10
78.4512971817
 20
69.2675989661
 10
78.4467878619
 20
69.2686605496
 10
78.4421030134
 20
69.2705111052
 10
78.4376948784
 20
69.2729501398
 10
78.4329952571
 20
69.2762947664
 10
78.4286457832
 20
69.2800863481
 10
78.423972809
 20
69.2849057071
 10
78.4196623896
 20
69.2900524542
 10
78.4150415733
 20
69.2963177823
 10
78.4107663286
 20
69.3028241583
 10
78.4062144533
 20
69.3105078461
 10
78.4019790211
 20
69.3183706905
 10
78.3957369719
 20
69.3312194501
 10
78.3900498474
 20
69.3443299698
 10
78.3848150556
 20
69.3576321116
 10
78.3788895064
 20
69.3740990879
 10
78.3734194571
 20
69.3907180173
 10
78.3683357663
 20
69.407458616
 10
78.3627508216
 20
69.4273296434
 10
78.3575559895
 20
69.4473071234
 10
78.3526998187
 20
69.467370301
 10
78.345018012
 20
69.5020044092
 10
78.3380577704
 20
69.5367902105
 10
78.3309797014
 20
69.5758638918
 10
78.3245506065
 20
69.6150499112
 10
78.3181328501
 20
69.6581808563
 10
78.3123083996
 20
69.701395931
 10
78.306603428
 20
69.7481644427
 10
78.3014490535
 20
69.7949969266
 10
78.2965040349
 20
69.8449499749
 10
78.2920771551
 20
69.8949515781
 10
78.2879342075
 20
69.9476061392
 10
78.2842829614
 20
70.0002973328
 10
78.2799183333
 20
70.0745090863
 10
78.2764108002
 20
70.1487679569
 10
78.2737120738
 20
70.2230618255
 10
78.2717198675
 20
70.3002717028
 10
78.2705346892
 20
70.3774969823
 10
78.2701427041
 20
70.454728372
  0
LINE
  5
2FB
100
AcDbEntity
  8
0
100
AcDbLine
 62
7
  6
CONTINUOUS
 10
51.9944634088
 20
80.2444764543
 11
52.3307301845
 21
80.2170370508
  0
LINE
  5
2FC
100
AcDbEntity
  8
0
100
AcDbLine
 62
7
  6
CONTINUOUS
 10
53.7695060584
 20
60.6645209764
 11
53.4332535284
 21
60.6921344023
  0
LINE
  5
2FD
100
AcDbEntity
  8
0
100
AcDbLine
 62
7
  6
CONTINUOUS
 10
47.8094664062
 20
59.4830727932
 11
47.896926141
 21
59.4758767307
  0
LWPOLYLINE
  5
2FE
100
AcDbEntity
  8
0
100
AcDbPolyline
 62
7
  6
CONTINUOUS
 90
9
 70
0
 10
46.3014366523
 20
59.6026079369
 10
46.4898364832
 20
59.5864287784
 10
46.6783017698
 20
59.5710339046
 10
46.8668146254
 20
59.5562079256
 10
47.0553571632
 20
59.5417354512
 10
47.2439114964
 20
59.5274010914
 10
47.4324597382
 20
59.5129894563
 10
47.6209840019
 20
59.4982851558
 10
47.8094664006
 20
59.4830727998
  0
LINE
  5
2FF
100
AcDbEntity
  8
0
100
AcDbLine
 62
7
  6
CONTINUOUS
 10
52.3915261878
 20
81.6914189466
 11
52.0856387941
 21
81.7181692678
  0
LINE
  5
300
100
AcDbEntity
  8
0
100
AcDbLine
 62
7
  6
CONTINUOUS
 10
53.3716945055
 20
59.2177841673
 11
53.6775680143
 21
59.1908755457
  0
LWPOLYLINE
  5
301
100
AcDbEntity
  8
0
100
AcDbPolyline
 62
7
  6
CONTINUOUS
 90
15
 70
0
 10
26.4666316124
 20
58.8422934074
 10
27.6110116788
 20
58.7339412491
 10
28.7560898919
 20
58.6331725948
 10
29.9035629152
 20
58.5395025824
 10
31.0515825586
 20
58.4527784244
 10
32.5860536723
 20
58.3472499744
 10
34.1212727443
 20
58.253004464
 10
35.6571178065
 20
58.1694773294
 10
37.1967387201
 20
58.0959826564
 10
38.7367885242
 20
58.0322615091
 10
40.2771899435
 20
57.9778904141
 10
41.4340922042
 20
57.9429587038
 10
42.5911297505
 20
57.9129118109
 10
43.7489902299
 20
57.8875968218
 10
44.9069416173
 20
57.8669338316
  0
LINE
  5
302
100
AcDbEntity
  8
0
100
AcDbLine
 62
7
  6
CONTINUOUS
 10
51.6592214886
 20
80.2830290423
 11
51.9944634088
 21
80.2444764543
  0
LINE
  5
303
100
AcDbEntity
  8
0
100
AcDbLine
 62
7
  6
CONTINUOUS
 10
54.1047279818
 20
60.625794898
 11
53.7695060584
 21
60.6645209764
  0
LINE
  5
304
100
AcDbEntity
  8
0
100
AcDbLine
 62
7
  6
CONTINUOUS
 10
52.0856387941
 20
81.7181692678
 11
51.7807319494
 21
81.7557779261
  0
LINE
  5
305
100
AcDbEntity
  8
0
100
AcDbLine
 62
7
  6
CONTINUOUS
 10
53.6775680143
 20
59.1908755457
 11
53.9824553549
 21
59.1531090959
  0
LINE
  5
306
100
AcDbEntity
  8
0
100
AcDbLine
 62
7
  6
CONTINUOUS
 10
51.3253560274
 20
80.3326628517
 11
51.6592214886
 21
80.2830290423
  0
LINE
  5
307
100
AcDbEntity
  8
0
100
AcDbLine
 62
7
  6
CONTINUOUS
 10
54.4385677116
 20
60.5759883119
 11
54.1047279818
 21
60.625794898
  0
LWPOLYLINE
  5
308
100
AcDbEntity
  8
0
100
AcDbPolyline
 62
7
  6
CONTINUOUS
 90
13
 70
0
 10
28.2428130427
 20
79.0966043906
 10
28.2381777474
 20
79.0973231954
 10
28.2335362697
 20
79.0980016182
 10
28.228889429
 20
79.0986430953
 10
28.2235924706
 20
79.0993324463
 10
28.2182901469
 20
79.0999804862
 10
28.2129829838
 20
79.1005893533
 10
28.2076715075
 20
79.1011611862
 10
28.202356244
 20
79.1016981233
 10
28.1970377194
 20
79.1022023029
 10
28.1917164598
 20
79.1026758635
 10
28.1863929913
 20
79.1031209435
 10
28.18106784
 20
79.1035396813
  0
LWPOLYLINE
  5
309
100
AcDbEntity
  8
0
100
AcDbPolyline
 62
7
  6
CONTINUOUS
 90
13
 70
0
 10
28.3177360614
 20
61.8298690096
 10
29.8033557737
 20
61.5972680888
 10
31.2903031597
 20
61.3732283604
 10
32.7785278312
 20
61.1578132936
 10
34.2709704207
 20
60.9506689811
 10
35.7645940715
 20
60.752244453
 10
37.2593480169
 20
60.562536448
 10
38.7627540462
 20
60.3806470858
 10
40.2671997903
 20
60.2075510702
 10
41.772634482
 20
60.0432400749
 10
43.2813693664
 20
59.8874799723
 10
44.7909889063
 20
59.7405830145
 10
46.3014366321
 20
59.6026081044
  0
LINE
  5
30A
100
AcDbEntity
  8
0
100
AcDbLine
 62
7
  6
CONTINUOUS
 10
51.7807319494
 20
81.7557779261
 11
51.4771204911
 21
81.8042263004
  0
LINE
  5
30B
100
AcDbEntity
  8
0
100
AcDbLine
 62
7
  6
CONTINUOUS
 10
53.9824553549
 20
59.1531090959
 11
54.2860416993
 21
59.1045036019
  0
LWPOLYLINE
  5
30C
100
AcDbEntity
  8
0
100
AcDbPolyline
 62
7
  6
CONTINUOUS
 90
13
 70
0
 10
70.1309557555
 20
81.5187862371
 10
70.5455716886
 20
81.4481202151
 10
70.9597590107
 20
81.3749619976
 10
71.3735006341
 20
81.2993184135
 10
71.7867993635
 20
81.2211963294
 10
72.1996263708
 20
81.1406238987
 10
72.611972761
 20
81.0576295349
 10
73.0238462669
 20
80.9722389176
 10
73.4352236594
 20
80.8844870968
 10
73.8460983751
 20
80.7944065776
 10
74.2564691233
 20
80.7020264611
 10
74.6663198603
 20
80.6073703364
 10
75.0756398299
 20
80.5104584554
  0
LINE
  5
30D
100
AcDbEntity
  8
0
100
AcDbLine
 62
7
  6
CONTINUOUS
 10
25.1396594241
 20
69.0520627554
 11
27.195852883
 21
68.6944111731
  0
LINE
  5
30E
100
AcDbEntity
  8
0
100
AcDbLine
 62
7
  6
CONTINUOUS
 10
24.0938791033
 20
69.6067573681
 11
27.0035091635
 21
69.1006601757
  0
LWPOLYLINE
  5
30F
100
AcDbEntity
  8
0
100
AcDbPolyline
 62
7
  6
CONTINUOUS
 90
47
 70
0
 10
28.3177361163
 20
61.8298704385
 10
28.3033456164
 20
61.8324697693
 10
28.2890290249
 20
61.8354934688
 10
28.2748008719
 20
61.8389364268
 10
28.2606756878
 20
61.8427935328
 10
28.2466680028
 20
61.8470596767
 10
28.2327923469
 20
61.8517297481
 10
28.2190549255
 20
61.8568018965
 10
28.2054737396
 20
61.8622704124
 10
28.1920583044
 20
61.8681324083
 10
28.1788181351
 20
61.874384997
 10
28.1657627469
 20
61.8810252911
 10
28.1529016551
 20
61.8880504032
 10
28.1391503844
 20
61.8961205297
 10
28.1256538925
 20
61.9046316017
 10
28.1124260338
 20
61.9135730864
 10
28.0994806626
 20
61.9229344513
 10
28.0868316332
 20
61.9327051635
 10
28.0744927999
 20
61.9428746905
 10
28.0624780171
 20
61.9534324995
 10
28.0508011392
 20
61.9643680578
 10
28.0394760203
 20
61.9756708327
 10
28.0285165149
 20
61.9873302916
 10
28.0179364772
 20
61.9993359018
 10
28.0077526061
 20
62.0116716181
 10
27.9979700818
 20
62.0243273876
 10
27.9885972256
 20
62.0372878982
 10
27.9796423585
 20
62.0505378375
 10
27.9711138019
 20
62.0640618931
 10
27.9630198768
 20
62.0778447528
 10
27.9553689045
 20
62.0918711043
 10
27.9481692062
 20
62.1061256352
 10
27.9414291031
 20
62.1205930333
 10
27.9351569163
 20
62.1352579862
 10
27.9293609671
 20
62.1501051816
 10
27.9244590452
 20
62.1639026024
 10
27.9199680545
 20
62.177831229
 10
27.9158893945
 20
62.1918811833
 10
27.9122244644
 20
62.2060425877
 10
27.9089746637
 20
62.2203055643
 10
27.9061413916
 20
62.2346602353
 10
27.9037279015
 20
62.2490851749
 10
27.9017344974
 20
62.2635766154
 10
27.9001639523
 20
62.2781193616
 10
27.8990190394
 20
62.2926982185
 10
27.8983025319
 20
62.3072979907
 10
27.8980172028
 20
62.3219034832
  0
LINE
  5
310
100
AcDbEntity
  8
0
100
AcDbLine
 62
7
  6
CONTINUOUS
 10
50.9932173346
 20
80.3933369755
 11
51.3253560274
 21
80.3326628517
  0
LINE
  5
311
100
AcDbEntity
  8
0
100
AcDbLine
 62
7
  6
CONTINUOUS
 10
54.7706749597
 20
60.5151423065
 11
54.4385677116
 21
60.5759883119
  0
LINE
  5
312
100
AcDbEntity
  8
0
100
AcDbLine
 62
7
  6
CONTINUOUS
 10
51.4771204911
 20
81.8042263004
 11
51.1751355727
 21
81.8634897776
  0
LINE
  5
313
100
AcDbEntity
  8
0
100
AcDbLine
 62
7
  6
CONTINUOUS
 10
54.2860416993
 20
59.1045036019
 11
54.587995907
 21
59.0450838483
  0
LINE
  5
314
100
AcDbEntity
  8
0
100
AcDbLine
 62
7
  6
CONTINUOUS
 10
47.2235277416
 20
83.7916001164
 11
47.2947053266
 21
83.7768576259
  0
LINE
  5
315
100
AcDbEntity
  8
0
100
AcDbLine
 62
7
  6
CONTINUOUS
 10
58.5386052165
 20
57.0959797524
 11
58.4674353086
 21
57.1107592601
  0
LWPOLYLINE
  5
316
100
AcDbEntity
  8
0
100
AcDbPolyline
 62
7
  6
CONTINUOUS
 90
30
 70
0
 10
47.2947053266
 20
83.7768576259
 10
47.2983151351
 20
83.7760997909
 10
47.3019202862
 20
83.7753188977
 10
47.3055198678
 20
83.7745124534
 10
47.3091129678
 20
83.7736779648
 10
47.3126986741
 20
83.772812939
 10
47.3162760747
 20
83.7719148829
 10
47.3192308555
 20
83.7711442323
 10
47.3221781737
 20
83.770345687
 10
47.3251168851
 20
83.7695157017
 10
47.3280458457
 20
83.7686507315
 10
47.3309639112
 20
83.7677472313
 10
47.3338699376
 20
83.7668016562
 10
47.3355621177
 20
83.7662277822
 10
47.3372481809
 20
83.7656356247
 10
47.3389265133
 20
83.7650224832
 10
47.3405955014
 20
83.7643856575
 10
47.3422535313
 20
83.7637224472
 10
47.3438989894
 20
83.7630301519
 10
47.345530262
 20
83.7623060713
 10
47.3471457352
 20
83.761547505
 10
47.3484015257
 20
83.7609255321
 10
47.3496435352
 20
83.7602762738
 10
47.3508687154
 20
83.7595953648
 10
47.352074018
 20
83.7588784397
 10
47.3528552152
 20
83.7583842937
 10
47.3536235872
 20
83.757870413
 10
47.3543762545
 20
83.757334581
 10
47.3551103372
 20
83.7567745808
 10
47.3558229559
 20
83.7561881959
  0
LINE
  5
317
100
AcDbEntity
  8
0
100
AcDbLine
 62
7
  6
CONTINUOUS
 10
50.6631543682
 20
80.4649999053
 11
50.9932173346
 21
80.3933369755
  0
LINE
  5
318
100
AcDbEntity
  8
0
100
AcDbLine
 62
7
  6
CONTINUOUS
 10
55.1007007946
 20
60.4433085709
 11
54.7706749597
 21
60.5151423065
  0
LINE
  5
319
100
AcDbEntity
  8
0
100
AcDbLine
 62
7
  6
CONTINUOUS
 10
51.1751355727
 20
81.8634897776
 11
50.875184477
 21
81.933517442
  0
LINE
  5
31A
100
AcDbEntity
  8
0
100
AcDbLine
 62
7
  6
CONTINUOUS
 10
54.587995907
 20
59.0450838483
 11
54.8879107216
 21
58.9749009615
  0
LWPOLYLINE
  5
31B
100
AcDbEntity
  8
0
100
AcDbPolyline
 62
7
  6
CONTINUOUS
 90
28
 70
0
 10
25.1396594241
 20
69.0520627554
 10
25.1094057549
 20
69.0594969139
 10
25.0790445832
 20
69.0664904006
 10
25.0485910122
 20
69.0730783409
 10
25.0180601453
 20
69.0792958602
 10
24.9782154833
 20
69.0868991542
 10
24.9382870463
 20
69.0940424577
 10
24.8982964919
 20
69.1008341917
 10
24.85060908
 20
69.1086182275
 10
24.8028974825
 20
69.116253571
 10
24.7551949224
 20
69.1239365344
 10
24.7075346228
 20
69.1318634298
 10
24.6599498067
 20
69.1402305692
 10
24.6195841807
 20
69.147831794
 10
24.5793258736
 20
69.1559871172
 10
24.5392036476
 20
69.1647906325
 10
24.5082053322
 20
69.1721202014
 10
24.4773223087
 20
69.1799233932
 10
24.4465707575
 20
69.1882275357
 10
24.4159668592
 20
69.1970599569
 10
24.3839504187
 20
69.2069474279
 10
24.3521321729
 20
69.2174587951
 10
24.320529025
 20
69.2286031417
 10
24.289157878
 20
69.2403895508
 10
24.2558208132
 20
69.2537370378
 10
24.2227866011
 20
69.2678186336
 10
24.1900723432
 20
69.2826209061
 10
24.1576951405
 20
69.2981304231
  0
LWPOLYLINE
  5
31C
100
AcDbEntity
  8
0
100
AcDbPolyline
 62
7
  6
CONTINUOUS
 90
5
 70
0
 10
60.4995189737
 20
57.1353188335
 10
60.5008721826
 20
57.1349833152
 10
60.5022137221
 20
57.1346076678
 10
60.5035522587
 20
57.1342087616
 10
60.5053608471
 20
57.1336637614
  0
LINE
  5
31D
100
AcDbEntity
  8
0
100
AcDbLine
 62
7
  6
CONTINUOUS
 10
50.3355163609
 20
80.5475911094
 11
50.6631543682
 21
80.4649999053
  0
LINE
  5
31E
100
AcDbEntity
  8
0
100
AcDbLine
 62
7
  6
CONTINUOUS
 10
55.4282960152
 20
60.3605478175
 11
55.1007007946
 21
60.4433085709
  0
LINE
  5
31F
100
AcDbEntity
  8
0
100
AcDbLine
 62
7
  6
CONTINUOUS
 10
50.875184477
 20
81.933517442
 11
50.5775758706
 21
82.0142699533
  0
LINE
  5
320
100
AcDbEntity
  8
0
100
AcDbLine
 62
7
  6
CONTINUOUS
 10
54.8879107216
 20
58.9749009615
 11
55.1854774968
 21
58.8939944415
  0
LINE
  5
321
100
AcDbEntity
  8
0
100
AcDbLine
 62
7
  6
CONTINUOUS
 10
50.0106499835
 20
80.6410399431
 11
50.3355163609
 21
80.5475911094
  0
LINE
  5
322
100
AcDbEntity
  8
0
100
AcDbLine
 62
7
  6
CONTINUOUS
 10
55.7531139871
 20
60.2669308702
 11
55.4282960152
 21
60.3605478175
  0
LWPOLYLINE
  5
323
100
AcDbEntity
  8
0
100
AcDbPolyline
 62
7
  6
CONTINUOUS
 90
48
 70
0
 10
24.1576951405
 20
69.2981304231
 10
24.1409211418
 20
69.3030095503
 10
24.1243318526
 20
69.3085150996
 10
24.1079554648
 20
69.3146385811
 10
24.0918201699
 20
69.321371505
 10
24.0761088391
 20
69.3286274642
 10
24.060675935
 20
69.336453224
 10
24.0455359444
 20
69.3448295605
 10
24.0307033543
 20
69.3537372494
 10
24.0160430361
 20
69.3632558837
 10
24.0017169371
 20
69.3732712765
 10
23.9877307092
 20
69.3837574298
 10
23.9740900042
 20
69.3946883455
 10
23.9559894299
 20
69.4103209963
 10
23.9385375549
 20
69.4266744997
 10
23.9217254295
 20
69.4436854831
 10
23.9049594588
 20
69.4619516791
 10
23.8888545281
 20
69.4808028128
 10
23.873393604
 20
69.5001851902
 10
23.8579610714
 20
69.5208748355
 10
23.8431827411
 20
69.5420372072
 10
23.8290331534
 20
69.5636273497
 10
23.8146582217
 20
69.586992496
 10
23.800939793
 20
69.6107550675
 10
23.7878530885
 20
69.6348801796
 10
23.7753733296
 20
69.6593329473
 10
23.7634757374
 20
69.684078486
 10
23.7521355332
 20
69.7090819109
 10
23.7382608557
 20
69.7417474497
 10
23.7252445252
 20
69.774754731
 10
23.7130542728
 20
69.8080725998
 10
23.7016578293
 20
69.8416699013
 10
23.691022926
 20
69.8755154805
 10
23.6805355454
 20
69.9116765088
 10
23.6708482999
 20
69.948059622
 10
23.6619398388
 20
69.9846423278
 10
23.653788811
 20
70.0214021335
 10
23.6463738657
 20
70.0583165467
 10
23.6393956647
 20
70.0970032141
 10
23.6331826669
 20
70.1358185581
 10
23.6277208344
 20
70.1747472164
 10
23.6229961294
 20
70.2137738263
 10
23.6189945139
 20
70.2528830255
 10
23.615620229
 20
70.2931738742
 10
23.6129904228
 20
70.3335198293
 10
23.6110996437
 20
70.3739048947
 10
23.6099424406
 20
70.4143130743
 10
23.6095133622
 20
70.454728372
  0
LINE
  5
324
100
AcDbEntity
  8
0
100
AcDbLine
 62
7
  6
CONTINUOUS
 10
50.5775758706
 20
82.0142699533
 11
50.2826387182
 21
82.1056988503
  0
LINE
  5
325
100
AcDbEntity
  8
0
100
AcDbLine
 62
7
  6
CONTINUOUS
 10
55.1854774968
 20
58.8939944415
 11
55.480367293
 21
58.8024129198
  0
LINE
  5
326
100
AcDbEntity
  8
0
100
AcDbLine
 62
7
  6
CONTINUOUS
 10
27.6301682844
 20
68.2668083281
 11
25.1396594241
 21
69.0520627554
  0
LWPOLYLINE
  5
327
100
AcDbEntity
  8
0
100
AcDbPolyline
 62
7
  6
CONTINUOUS
 90
49
 70
0
 10
60.5053608471
 20
57.1336637614
 10
60.5058217111
 20
57.1335149226
 10
60.5062738316
 20
57.1333465765
 10
60.506711989
 20
57.1331483492
 10
60.5071309635
 20
57.1329098667
 10
60.5075255352
 20
57.1326207551
 10
60.5078904845
 20
57.1322706404
 10
60.5080876809
 20
57.132033754
 10
60.5082636828
 20
57.1317790788
 10
60.5084093283
 20
57.1315134756
 10
60.5085154554
 20
57.1312438053
 10
60.5085729022
 20
57.1309769286
 10
60.5085725067
 20
57.1307197065
 10
60.5085081802
 20
57.1304778285
 10
60.5083858632
 20
57.1302514844
 10
60.5082144934
 20
57.1300397114
 10
60.5080030083
 20
57.1298415468
 10
60.5076740743
 20
57.1295968321
 10
60.5073108985
 20
57.1293723166
 10
60.5069346665
 20
57.1291657184
 10
60.5062321454
 20
57.1288145218
 10
60.5055522613
 20
57.128511616
 10
60.5048881152
 20
57.1282484823
 10
60.5042328078
 20
57.128016602
 10
60.50357944
 20
57.1278074561
 10
60.5029211127
 20
57.1276125261
 10
60.5013396712
 20
57.1271816884
 10
60.4997114151
 20
57.1267808456
 10
60.4980544898
 20
57.1264087854
 10
60.4963870403
 20
57.1260642953
 10
60.4940738395
 20
57.1256275903
 10
60.4917697566
 20
57.1252335447
 10
60.489469147
 20
57.1248737612
 10
60.487166366
 20
57.1245398423
 10
60.4831546979
 20
57.1240033151
 10
60.4791274371
 20
57.1235136655
 10
60.4750925276
 20
57.1230651713
 10
60.4701091832
 20
57.122560258
 10
60.4651248249
 20
57.1221020379
 10
60.4601379888
 20
57.1216831882
 10
60.4541827895
 20
57.121226069
 10
60.448223376
 20
57.1208102769
 10
60.4422611463
 20
57.1204315081
 10
60.4353359338
 20
57.1200329683
 10
60.4284089066
 20
57.1196748787
 10
60.4214801621
 20
57.1193535733
 10
60.4136982546
 20
57.1190325335
 10
60.4059147235
 20
57.1187507549
 10
60.3981299879
 20
57.118505742
  0
LINE
  5
328
100
AcDbEntity
  8
0
100
AcDbLine
 62
7
  6
CONTINUOUS
 10
49.6889039173
 20
80.7452648397
 11
50.0106499835
 21
80.6410399431
  0
LINE
  5
329
100
AcDbEntity
  8
0
100
AcDbLine
 62
7
  6
CONTINUOUS
 10
56.0748060714
 20
60.1625394764
 11
55.7531139871
 21
60.2669308702
  0
LINE
  5
32A
100
AcDbEntity
  8
0
100
AcDbLine
 62
7
  6
CONTINUOUS
 10
50.2826387182
 20
82.1056988503
 11
49.9907794918
 21
82.2077213829
  0
LINE
  5
32B
100
AcDbEntity
  8
0
100
AcDbLine
 62
7
  6
CONTINUOUS
 10
55.480367293
 20
58.8024129198
 11
55.7721736813
 21
58.7002393568
  0
LINE
  5
32C
100
AcDbEntity
  8
0
100
AcDbLine
 62
7
  6
CONTINUOUS
 10
49.370633375
 20
80.8601709774
 11
49.6889039173
 21
80.7452648397
  0
LINE
  5
32D
100
AcDbEntity
  8
0
100
AcDbLine
 62
7
  6
CONTINUOUS
 10
56.3930171044
 20
60.0474686414
 11
56.0748060714
 21
60.1625394764
  0
LINE
  5
32E
100
AcDbEntity
  8
0
100
AcDbLine
 62
7
  6
CONTINUOUS
 10
49.9907794918
 20
82.2077213829
 11
49.7022983352
 21
82.3202789832
  0
LINE
  5
32F
100
AcDbEntity
  8
0
100
AcDbLine
 62
7
  6
CONTINUOUS
 10
55.7721736813
 20
58.7002393568
 11
56.0605965481
 21
58.5875324757
  0
LINE
  5
330
100
AcDbEntity
  8
0
100
AcDbLine
 62
7
  6
CONTINUOUS
 10
49.0561889289
 20
80.9856528672
 11
49.370633375
 21
80.8601709774
  0
LINE
  5
331
100
AcDbEntity
  8
0
100
AcDbLine
 62
7
  6
CONTINUOUS
 10
56.7073965685
 20
59.921824036
 11
56.3930171044
 21
60.0474686414
  0
LINE
  5
332
100
AcDbEntity
  8
0
100
AcDbLine
 62
7
  6
CONTINUOUS
 10
49.7022983352
 20
82.3202789832
 11
49.4175415425
 21
82.4432932617
  0
LINE
  5
333
100
AcDbEntity
  8
0
100
AcDbLine
 62
7
  6
CONTINUOUS
 10
56.0605965481
 20
58.5875324757
 11
56.3452896398
 21
58.4643708453
  0
LINE
  5
334
100
AcDbEntity
  8
0
100
AcDbLine
 62
7
  6
CONTINUOUS
 10
48.7459211274
 20
81.1215924039
 11
49.0561889289
 21
80.9856528672
  0
LINE
  5
335
100
AcDbEntity
  8
0
100
AcDbLine
 62
7
  6
CONTINUOUS
 10
57.0175939765
 20
59.7857239466
 11
56.7073965685
 21
59.921824036
  0
LINE
  5
336
100
AcDbEntity
  8
0
100
AcDbLine
 62
7
  6
CONTINUOUS
 10
49.4175415425
 20
82.4432932617
 11
49.1369239388
 21
82.5766413668
  0
LINE
  5
337
100
AcDbEntity
  8
0
100
AcDbLine
 62
7
  6
CONTINUOUS
 10
56.3452896398
 20
58.4643708453
 11
56.6258381951
 21
58.3308775318
  0
LINE
  5
338
100
AcDbEntity
  8
0
100
AcDbLine
 62
7
  6
CONTINUOUS
 10
48.4401790125
 20
81.2678594838
 11
48.7459211274
 21
81.1215924039
  0
LINE
  5
339
100
AcDbEntity
  8
0
100
AcDbLine
 62
7
  6
CONTINUOUS
 10
57.3232603537
 20
59.6392986575
 11
57.0175939765
 21
59.7857239466
  0
LINE
  5
33A
100
AcDbEntity
  8
0
100
AcDbLine
 62
7
  6
CONTINUOUS
 10
49.1369239388
 20
82.5766413668
 11
48.8607453247
 21
82.7202409717
  0
LINE
  5
33B
100
AcDbEntity
  8
0
100
AcDbLine
 62
7
  6
CONTINUOUS
 10
48.1393081855
 20
81.4243114086
 11
48.4401790125
 21
81.2678594838
  0
LINE
  5
33C
100
AcDbEntity
  8
0
100
AcDbLine
 62
7
  6
CONTINUOUS
 10
56.6258381951
 20
58.3308775318
 11
56.901942456
 21
58.1871350171
  0
LINE
  5
33D
100
AcDbEntity
  8
0
100
AcDbLine
 62
7
  6
CONTINUOUS
 10
57.6240501729
 20
59.4826910458
 11
57.3232603537
 21
59.6392986575
  0
LINE
  5
33E
100
AcDbEntity
  8
0
100
AcDbLine
 62
7
  6
CONTINUOUS
 10
47.8436518203
 20
81.5907927247
 11
48.1393081855
 21
81.4243114086
  0
LINE
  5
33F
100
AcDbEntity
  8
0
100
AcDbLine
 62
7
  6
CONTINUOUS
 10
57.9196203405
 20
59.3160567429
 11
57.6240501729
 21
59.4826910458
  0
LINE
  5
340
100
AcDbEntity
  8
0
100
AcDbLine
 62
7
  6
CONTINUOUS
 10
48.8607453247
 20
82.7202409717
 11
48.5895115674
 21
82.873888469
  0
LINE
  5
341
100
AcDbEntity
  8
0
100
AcDbLine
 62
7
  6
CONTINUOUS
 10
56.901942456
 20
58.1871350171
 11
57.1730966608
 21
58.0333471705
  0
LINE
  5
342
100
AcDbEntity
  8
0
100
AcDbLine
 62
7
  6
CONTINUOUS
 10
47.5535518153
 20
81.7671348135
 11
47.8436518203
 21
81.5907927247
  0
LINE
  5
343
100
AcDbEntity
  8
0
100
AcDbLine
 62
7
  6
CONTINUOUS
 10
58.2096290454
 20
59.1395645441
 11
57.9196203405
 21
59.3160567429
  0
LINE
  5
344
100
AcDbEntity
  8
0
100
AcDbLine
 62
7
  6
CONTINUOUS
 10
48.5895115674
 20
82.873888469
 11
48.3236198415
 21
83.037407922
  0
LINE
  5
345
100
AcDbEntity
  8
0
100
AcDbLine
 62
7
  6
CONTINUOUS
 10
57.1730966608
 20
58.0333471705
 11
57.4389037259
 21
57.8696901341
  0
LINE
  5
346
100
AcDbEntity
  8
0
100
AcDbLine
 62
7
  6
CONTINUOUS
 10
47.2693429501
 20
81.953155485
 11
47.5535518153
 21
81.7671348135
  0
LINE
  5
347
100
AcDbEntity
  8
0
100
AcDbLine
 62
7
  6
CONTINUOUS
 10
58.4937416024
 20
58.9533968126
 11
58.2096290454
 21
59.1395645441
  0
LINE
  5
348
100
AcDbEntity
  8
0
100
AcDbLine
 62
7
  6
CONTINUOUS
 10
48.3236198415
 20
83.037407922
 11
48.0633460957
 21
83.2106824908
  0
LINE
  5
349
100
AcDbEntity
  8
0
100
AcDbLine
 62
7
  6
CONTINUOUS
 10
57.4389037259
 20
57.8696901341
 11
57.6990877631
 21
57.6962808907
  0
LINE
  5
34A
100
AcDbEntity
  8
0
100
AcDbLine
 62
7
  6
CONTINUOUS
 10
46.9913627679
 20
82.1486568603
 11
47.2693429501
 21
81.953155485
  0
LINE
  5
34B
100
AcDbEntity
  8
0
100
AcDbLine
 62
7
  6
CONTINUOUS
 10
58.7716205708
 20
58.7577516022
 11
58.4937416024
 21
58.9533968126
  0
LINE
  5
34C
100
AcDbEntity
  8
0
100
AcDbLine
 62
7
  6
CONTINUOUS
 10
48.0633460957
 20
83.2106824908
 11
47.8091009007
 21
83.3934985479
  0
LINE
  5
34D
100
AcDbEntity
  8
0
100
AcDbLine
 62
7
  6
CONTINUOUS
 10
57.6990877631
 20
57.6962808907
 11
57.9532383125
 21
57.5133332801
  0
LINE
  5
34E
100
AcDbEntity
  8
0
100
AcDbLine
 62
7
  6
CONTINUOUS
 10
46.7199454737
 20
82.3534223839
 11
46.9913627679
 21
82.1486568603
  0
LINE
  5
34F
100
AcDbEntity
  8
0
100
AcDbLine
 62
7
  6
CONTINUOUS
 10
59.0429318577
 20
58.552845641
 11
58.7716205708
 21
58.7577516022
  0
LINE
  5
350
100
AcDbEntity
  8
0
100
AcDbLine
 62
7
  6
CONTINUOUS
 10
47.8091009007
 20
83.3934985479
 11
47.5613050499
 21
83.5856037491
  0
LINE
  5
351
100
AcDbEntity
  8
0
100
AcDbLine
 62
7
  6
CONTINUOUS
 10
57.9532383125
 20
57.5133332801
 11
58.200934711
 21
57.3210998644
  0
LWPOLYLINE
  5
352
100
AcDbEntity
  8
0
100
AcDbPolyline
 62
7
  6
CONTINUOUS
 90
37
 70
0
 10
27.195852883
 20
68.6944111731
 10
27.1858370416
 20
68.7022387673
 10
27.1760313717
 20
68.7103438698
 10
27.1664429424
 20
68.7187180662
 10
27.1570788227
 20
68.7273529417
 10
27.1479460819
 20
68.7362400818
 10
27.139051789
 20
68.745371072
 10
27.1304030132
 20
68.7547374976
 10
27.1220068234
 20
68.7643309441
 10
27.1138702889
 20
68.7741429968
 10
27.1059060151
 20
68.7842881292
 10
27.0982181327
 20
68.7946404356
 10
27.0908098003
 20
68.8051917699
 10
27.0836841768
 20
68.8159339857
 10
27.0768444209
 20
68.8268589367
 10
27.0702936915
 20
68.8379584767
 10
27.0640351472
 20
68.8492244592
 10
27.058071947
 20
68.8606487381
 10
27.0524072496
 20
68.8722231669
 10
27.0469839268
 20
68.8840754521
 10
27.0418710009
 20
68.8960648296
 10
27.0370702147
 20
68.9081830964
 10
27.0325833108
 20
68.9204220491
 10
27.028412032
 20
68.9327734849
 10
27.0245581209
 20
68.9452292005
 10
27.0210233203
 20
68.9577809928
 10
27.0178093729
 20
68.9704206587
 10
27.0149180213
 20
68.9831399951
 10
27.0123303675
 20
68.9960391574
 10
27.0100726128
 20
69.0090010954
 10
27.0081448008
 20
69.022015902
 10
27.0065469749
 20
69.0350736699
 10
27.0052791788
 20
69.0481644918
 10
27.004341456
 20
69.0612784606
 10
27.0037338502
 20
69.0744056691
 10
27.0034564048
 20
69.0875362098
 10
27.0035091635
 20
69.1006601757
  0
LINE
  5
353
100
AcDbEntity
  8
0
100
AcDbLine
 62
7
  6
CONTINUOUS
 10
46.4554169574
 20
82.5672240692
 11
46.7199454737
 21
82.3534223839
  0
LINE
  5
354
100
AcDbEntity
  8
0
100
AcDbLine
 62
7
  6
CONTINUOUS
 10
59.3073496911
 20
58.3389070847
 11
59.0429318577
 21
58.552845641
  0
LINE
  5
355
100
AcDbEntity
  8
0
100
AcDbLine
 62
7
  6
CONTINUOUS
 10
47.5613050499
 20
83.5856037491
 11
47.3558229382
 21
83.7561881957
  0
LINE
  5
356
100
AcDbEntity
  8
0
100
AcDbLine
 62
7
  6
CONTINUOUS
 10
58.200934711
 20
57.3210998644
 11
58.4063285137
 21
57.1504090988
  0
LINE
  5
357
100
AcDbEntity
  8
0
100
AcDbLine
 62
7
  6
CONTINUOUS
 10
46.1980923474
 20
82.7898214279
 11
46.4554169574
 21
82.5672240692
  0
LINE
  5
358
100
AcDbEntity
  8
0
100
AcDbLine
 62
7
  6
CONTINUOUS
 10
59.5645590672
 20
58.1161765841
 11
59.3073496911
 21
58.3389070847
  0
LINE
  5
359
100
AcDbEntity
  8
0
100
AcDbLine
 62
7
  6
CONTINUOUS
 10
45.9482762739
 20
83.0209631941
 11
46.1980923474
 21
82.7898214279
  0
LINE
  5
35A
100
AcDbEntity
  8
0
100
AcDbLine
 62
7
  6
CONTINUOUS
 10
59.8142554859
 20
57.8849055632
 11
59.5645590672
 21
58.1161765841
  0
LINE
  5
35B
100
AcDbEntity
  8
0
100
AcDbLine
 62
7
  6
CONTINUOUS
 10
45.7062634009
 20
83.2603863787
 11
45.9482762739
 21
83.0209631941
  0
LINE
  5
35C
100
AcDbEntity
  8
0
100
AcDbLine
 62
7
  6
CONTINUOUS
 10
60.0561444193
 20
57.6453571633
 11
59.8142554859
 21
57.8849055632
  0
LINE
  5
35D
100
AcDbEntity
  8
0
100
AcDbLine
 62
7
  6
CONTINUOUS
 10
45.4723373748
 20
83.5078173827
 11
45.7062634009
 21
83.2603863787
  0
LINE
  5
35E
100
AcDbEntity
  8
0
100
AcDbLine
 62
7
  6
CONTINUOUS
 10
60.2899423627
 20
57.3978051301
 11
60.0561444193
 21
57.6453571633
  0
LWPOLYLINE
  5
35F
100
AcDbEntity
  8
0
100
AcDbPolyline
 62
7
  6
CONTINUOUS
 90
33
 70
0
 10
28.3177360682
 20
79.0795878664
 10
28.3171651368
 20
79.0802276462
 10
28.3165571248
 20
79.0808315006
 10
28.3159152204
 20
79.0814011295
 10
28.3152426115
 20
79.0819382331
 10
28.3145424864
 20
79.0824445114
 10
28.313818033
 20
79.0829216646
 10
28.3130724395
 20
79.0833713927
 10
28.312308894
 20
79.0837953958
 10
28.3115305845
 20
79.084195374
 10
28.3107406992
 20
79.0845730274
 10
28.3099424261
 20
79.0849300561
 10
28.3091389533
 20
79.0852681602
 10
28.3078194997
 20
79.085784431
 10
28.3064941625
 20
79.0862597526
 10
28.3051624396
 20
79.086699255
 10
28.3038238287
 20
79.0871080685
 10
28.3024778276
 20
79.0874913229
 10
28.300410549
 20
79.0880362144
 10
28.2983286551
 20
79.0885396991
 10
28.2962358883
 20
79.0890078889
 10
28.2941359912
 20
79.0894468956
 10
28.2910111701
 20
79.0900556177
 10
28.2878797566
 20
79.0906193788
 10
28.2847426267
 20
79.0911440773
 10
28.2816006566
 20
79.0916356116
 10
28.2784547223
 20
79.0920998801
 10
28.2753056999
 20
79.0925427812
 10
28.2721544657
 20
79.0929702135
 10
28.2648296499
 20
79.0939258381
 10
28.2574994444
 20
79.094841886
 10
28.2501656665
 20
79.0957304162
 10
28.2428301335
 20
79.0966034878
  0
LINE
  5
360
100
AcDbEntity
  8
0
100
AcDbLine
 62
7
  6
CONTINUOUS
 10
45.2539098089
 20
83.7546286095
 11
45.4723373748
 21
83.5078173827
  0
LINE
  5
361
100
AcDbEntity
  8
0
100
AcDbLine
 62
7
  6
CONTINUOUS
 10
60.5082421687
 20
57.1508808949
 11
60.2899423627
 21
57.3978051301
  0
LWPOLYLINE
  5
362
100
AcDbEntity
  8
0
100
AcDbPolyline
 62
7
  6
CONTINUOUS
 90
39
 70
0
 10
45.2539100278
 20
83.7546286116
 10
45.2537689817
 20
83.7548116386
 10
45.2536519721
 20
83.7550115259
 10
45.2535707787
 20
83.7552272889
 10
45.2535335925
 20
83.755527689
 10
45.2535762289
 20
83.7558271075
 10
45.2536609094
 20
83.7560426481
 10
45.2537812371
 20
83.7562421515
 10
45.253926347
 20
83.7564258774
 10
45.2542535916
 20
83.7567453325
 10
45.2546162736
 20
83.7570215084
 10
45.2551759893
 20
83.7573732875
 10
45.2557632298
 20
83.7576795787
 10
45.2563700974
 20
83.7579502724
 10
45.2569886945
 20
83.758195259
 10
45.2581863715
 20
83.7586188938
 10
45.2593962194
 20
83.758994925
 10
45.2606163533
 20
83.7593337687
 10
45.2617405437
 20
83.7596194207
 10
45.2628698825
 20
83.7598859277
 10
45.2653974712
 20
83.7604250492
 10
45.2681844913
 20
83.760950005
 10
45.2712160487
 20
83.761459992
 10
45.2745810743
 20
83.7619695483
 10
45.2779529446
 20
83.7624323743
 10
45.2817207148
 20
83.7629047366
 10
45.2854931359
 20
83.763338139
 10
45.2896093587
 20
83.7637733737
 10
45.2937290017
 20
83.7641750479
 10
45.2981456776
 20
83.7645732606
 10
45.3025648948
 20
83.7649422472
 10
45.3089403614
 20
83.7654295009
 10
45.3153193329
 20
83.7658694836
 10
45.3217010724
 20
83.7662678378
 10
45.3285762124
 20
83.7666561123
 10
45.3354533866
 20
83.7670058163
 10
45.3423322738
 20
83.7673201165
 10
45.3531722951
 20
83.7677501752
 10
45.3640149373
 20
83.7681069996
  0
LWPOLYLINE
  5
363
100
AcDbEntity
  8
0
100
AcDbPolyline
 62
7
  6
CONTINUOUS
 90
20
 70
0
 10
48.1060828336
 20
81.4154454778
 10
48.1049403403
 20
81.4172650044
 10
48.1037782493
 20
81.4190720275
 10
48.1025961933
 20
81.4208662644
 10
48.101393805
 20
81.4226474323
 10
48.1001707172
 20
81.4244152483
 10
48.0988662128
 20
81.4262535061
 10
48.0975387057
 20
81.4280762292
 10
48.0961883376
 20
81.4298828621
 10
48.0948152502
 20
81.4316728493
 10
48.0934195852
 20
81.4334456354
 10
48.0920014843
 20
81.4352006649
 10
48.0905610892
 20
81.4369373822
 10
48.0890985416
 20
81.4386552321
 10
48.0876139832
 20
81.4403536589
 10
48.0861075558
 20
81.4420321072
 10
48.0845794009
 20
81.4436900215
 10
48.0830296603
 20
81.4453268463
 10
48.0814584757
 20
81.4469420263
 10
48.0798659888
 20
81.4485350058
  0
LWPOLYLINE
  5
364
100
AcDbEntity
  8
0
100
AcDbPolyline
 62
7
  6
CONTINUOUS
 90
46
 70
0
 10
27.6822963353
 20
72.6459339988
 10
27.682066069
 20
72.6463208006
 10
27.6818046521
 20
72.6466834689
 10
27.6815142814
 20
72.6470228473
 10
27.6811971534
 20
72.6473397794
 10
27.6808554651
 20
72.6476351089
 10
27.6804914129
 20
72.6479096792
 10
27.6801071937
 20
72.6481643341
 10
27.6797050042
 20
72.6483999171
 10
27.679287041
 20
72.6486172718
 10
27.678855501
 20
72.6488172418
 10
27.6784125806
 20
72.6490006708
 10
27.6779604768
 20
72.6491684024
 10
27.6775013862
 20
72.64932128
 10
27.6770375055
 20
72.6494601475
 10
27.6765710314
 20
72.6495858483
 10
27.6761041607
 20
72.649699226
 10
27.6756390899
 20
72.6498011243
 10
27.6748720845
 20
72.6499474847
 10
27.674114076
 20
72.6500669096
 10
27.6733629652
 20
72.6501619929
 10
27.6726166526
 20
72.6502353282
 10
27.6718730386
 20
72.6502895093
 10
27.671130024
 20
72.6503271299
 10
27.6703855092
 20
72.6503507839
 10
27.6691404317
 20
72.6503646044
 10
27.6678880742
 20
72.6503492882
 10
27.6666311114
 20
72.6503071513
 10
27.6653722183
 20
72.6502405099
 10
27.6641140699
 20
72.6501516804
 10
27.662398029
 20
72.6499978728
 10
27.660688039
 20
72.6498093007
 10
27.6589837531
 20
72.6495883783
 10
27.6572848248
 20
72.6493375197
 10
27.6555909072
 20
72.649059139
 10
27.6539016536
 20
72.6487556506
 10
27.6522167173
 20
72.6484294685
 10
27.6505357515
 20
72.6480830068
 10
27.6488584097
 20
72.6477186798
 10
27.6461620002
 20
72.6470986512
 10
27.6434742102
 20
72.6464405001
 10
27.6407951464
 20
72.6457462411
 10
27.6381249152
 20
72.6450178886
 10
27.6354636235
 20
72.6442574572
 10
27.6328113776
 20
72.6434669615
 10
27.6301682844
 20
72.642648416
  0
ARC
  5
365
100
AcDbEntity
  8
0
100
AcDbCircle
 62
7
  6
CONTINUOUS
 10
44.9595436289
 20
-2161.4272394131
 40
2214.4172614816
100
AcDbArc
 50
89.9986879166
 51
90.7081683926
  0
ARC
  5
366
100
AcDbEntity
  8
0
100
AcDbCircle
 62
7
  6
CONTINUOUS
 10
44.9595436289
 20
2302.3366961572
 40
2214.4172614816
100
AcDbArc
 50
269.2918316074
 51
270.0013120834
  0
ARC
  5
367
100
AcDbEntity
  8
0
100
AcDbCircle
 62
7
  6
CONTINUOUS
 10
55.0609647161
 20
-2161.4272394045
 40
2214.417261473
100
AcDbArc
 50
89.2918316074
 51
90.0013120834
  0
ARC
  5
368
100
AcDbEntity
  8
0
100
AcDbCircle
 62
7
  6
CONTINUOUS
 10
55.0609647161
 20
2302.336696147
 40
2214.4172614714
100
AcDbArc
 50
269.9986879166
 51
270.7081683926
  0
ARC
  5
369
100
AcDbEntity
  8
0
100
AcDbCircle
 62
7
  6
CONTINUOUS
 10
52.2901388602
 20
1972.3228441189
 40
1914.4814594423
100
AcDbArc
 50
269.8733635004
 51
269.9874272047
  0
ARC
  5
36A
100
AcDbEntity
  8
0
100
AcDbCircle
 62
7
  6
CONTINUOUS
 10
57.5079240765
 20
-323.9995727654
 40
407.9484712438
100
AcDbArc
 50
91.5105527954
 51
91.7058466777
  0
ARC
  5
36B
100
AcDbEntity
  8
0
100
AcDbCircle
 62
7
  6
CONTINUOUS
 10
48.6910730421
 20
-324.0018542289
 40
407.9484712424
100
AcDbArc
 50
88.3238052484
 51
88.5190991307
  0
ARC
  5
36C
100
AcDbEntity
  8
0
100
AcDbCircle
 62
7
  6
CONTINUOUS
 10
64.656298906
 20
-289.5510296295
 40
372.8383687737
100
AcDbArc
 50
91.8142982984
 51
91.9653096547
  0
ARC
  5
36D
100
AcDbEntity
  8
0
100
AcDbCircle
 62
7
  6
CONTINUOUS
 10
64.6562989058
 20
430.4604863676
 40
372.8383687678
100
AcDbArc
 50
268.0346903453
 51
268.1857017016
  0
ARC
  5
36E
100
AcDbEntity
  8
0
100
AcDbCircle
 62
7
  6
CONTINUOUS
 10
7.3606412956
 20
-193.7274051268
 40
273.6242215273
100
AcDbArc
 50
85.636070814
 51
86.1205228883
  0
ARC
  5
36F
100
AcDbEntity
  8
0
100
AcDbCircle
 62
7
  6
CONTINUOUS
 10
67.3702456844
 20
-143.0018527066
 40
226.112097844
100
AcDbArc
 50
95.1825954181
 51
100.5750289326
  0
ARC
  5
370
100
AcDbEntity
  8
0
100
AcDbCircle
 62
7
  6
CONTINUOUS
 10
67.3702349704
 20
283.9112369569
 40
226.1120246153
100
AcDbArc
 50
259.4249703649
 51
264.7661971101
  0
ARC
  5
371
100
AcDbEntity
  8
0
100
AcDbCircle
 62
7
  6
CONTINUOUS
 10
67.3700887901
 20
-142.9947346309
 40
226.104993072
100
AcDbArc
 50
93.6740053533
 51
94.529324673
  0
ARC
  5
372
100
AcDbEntity
  8
0
100
AcDbCircle
 62
7
  6
CONTINUOUS
 10
67.3699308214
 20
283.9019779706
 40
226.1027740941
100
AcDbArc
 50
265.4223333029
 51
266.325998653
  0
ARC
  5
373
100
AcDbEntity
  8
0
100
AcDbCircle
 62
7
  6
CONTINUOUS
 10
67.0092141809
 20
278.2741313645
 40
220.4633789222
100
AcDbArc
 50
266.3339462764
 51
267.4442472376
  0
ARC
  5
374
100
AcDbEntity
  8
0
100
AcDbCircle
 62
7
  6
CONTINUOUS
 10
67.0086332725
 20
-137.3542020181
 40
220.4528906064
100
AcDbArc
 50
92.4924959871
 51
93.6660770911
  0
ARC
  5
375
100
AcDbEntity
  8
0
100
AcDbCircle
 62
7
  6
CONTINUOUS
 10
66.9944104581
 20
277.7463421751
 40
219.9353835633
100
AcDbArc
 50
268.1165110846
 51
270.3611207328
  0
ARC
  5
376
100
AcDbEntity
  8
0
100
AcDbCircle
 62
7
  6
CONTINUOUS
 10
66.9943984435
 20
-136.8297872018
 40
219.9282855509
100
AcDbArc
 50
89.6388644821
 51
91.822591322
  0
ARC
  5
377
100
AcDbEntity
  8
0
100
AcDbCircle
 62
7
  6
CONTINUOUS
 10
47.2750996943
 20
-66.7393362311
 40
149.8005791083
100
AcDbArc
 50
90.5205229798
 51
90.9058116874
  0
ARC
  5
378
100
AcDbEntity
  8
0
100
AcDbCircle
 62
7
  6
CONTINUOUS
 10
47.2551279471
 20
206.0622400077
 40
148.2139087659
100
AcDbArc
 50
269.0922120843
 51
269.3951349213
  0
ARC
  5
379
100
AcDbEntity
  8
0
100
AcDbCircle
 62
7
  6
CONTINUOUS
 10
66.800556093
 20
91.2801846811
 40
33.5455316825
100
AcDbArc
 50
272.7205993326
 51
275.3658327523
  0
ARC
  5
37A
100
AcDbEntity
  8
0
100
AcDbCircle
 62
7
  6
CONTINUOUS
 10
66.800556093
 20
49.629272063
 40
33.5455316825
100
AcDbArc
 50
84.6341672477
 51
87.2794006674
  0
ARC
  5
37B
100
AcDbEntity
  8
0
100
AcDbCircle
 62
7
  6
CONTINUOUS
 10
66.3754468003
 20
81.9575091191
 40
22.8771947976
100
AcDbArc
 50
272.2954898297
 51
279.4484117516
  0
ARC
  5
37C
100
AcDbEntity
  8
0
100
AcDbCircle
 62
7
  6
CONTINUOUS
 10
66.3754468003
 20
58.9519476249
 40
22.8771947976
100
AcDbArc
 50
80.5515882484
 51
87.7045101703
  0
ARC
  5
37D
100
AcDbEntity
  8
0
100
AcDbCircle
 62
7
  6
CONTINUOUS
 10
68.2482831659
 20
79.2288219315
 40
21.4139036959
100
AcDbArc
 50
270.3540286356
 51
274.5245709421
  0
ARC
  5
37E
100
AcDbEntity
  8
0
100
AcDbCircle
 62
7
  6
CONTINUOUS
 10
68.2482831659
 20
61.6806348125
 40
21.4139036959
100
AcDbArc
 50
85.4754290579
 51
89.6459713644
  0
CIRCLE
  5
37F
100
AcDbEntity
  8
0
100
AcDbCircle
 62
7
  6
CONTINUOUS
 10
71.7602541725
 20
70.454728372
 40
1.4482233047
  0
ARC
  5
380
100
AcDbEntity
  8
0
100
AcDbCircle
 62
7
  6
CONTINUOUS
 10
47.0484928467
 20
57.2121899387
 40
0.100541408
100
AcDbArc
 50
281.7016443202
 51
324.1645179095
  0
ARC
  5
381
100
AcDbEntity
  8
0
100
AcDbCircle
 62
7
  6
CONTINUOUS
 10
58.4878711149
 20
57.2091667641
 40
0.1005070098
100
AcDbArc
 50
215.7756273085
 51
258.268409063
  0
ELLIPSE
  5
382
100
AcDbEntity
  8
0
100
AcDbEllipse
 62
7
  6
CONTINUOUS
 10
82.5083442537
 20
87.9528184533
 30
0.0
 11
0.3562493039
 21
0.3562493039
 31
0.0
 40
0.9924325091
 41
-0.7816000651
 42
0.7816000651
  0
ELLIPSE
  5
383
100
AcDbEntity
  8
0
100
AcDbEllipse
 62
7
  6
CONTINUOUS
 10
17.5121640913
 20
87.9528184533
 30
0.0
 11
0.3562493039
 21
-0.3562493039
 31
0.0
 40
0.9924325091
 41
2.3599925885
 42
3.9231927187
  0
ELLIPSE
  5
384
100
AcDbEntity
  8
0
100
AcDbEllipse
 62
7
  6
CONTINUOUS
 10
82.5083442537
 20
52.9566382908
 30
0.0
 11
-0.3562493039
 21
0.3562493039
 31
0.0
 40
0.9924325091
 41
2.3599925885
 42
3.9231927187
  0
ELLIPSE
  5
385
100
AcDbEntity
  8
0
100
AcDbEllipse
 62
7
  6
CONTINUOUS
 10
17.5121640913
 20
52.9566382908
 30
0.0
 11
0.3562493039
 21
0.3562493039
 31
0.0
 40
0.9924325091
 41
2.3599925885
 42
3.9231927187
  0
ENDSEC
  0
SECTION
  2
OBJECTS
  0
DICTIONARY
  5
386
100
AcDbDictionary
  3
ACAD_GROUP
350
387
  3
ACAD_MLINESTYLE
350
388
  0
DICTIONARY
  5
387
102
{ACAD_REACTORS
330
386
102
}
100
AcDbDictionary
  0
DICTIONARY
  5
388
102
{ACAD_REACTORS
330
386
102
}
100
AcDbDictionary
  3
STANDARD
350
389
  0
MLINESTYLE
  5
389
102
{ACAD_REACTORS
330
388
102
}
100
AcDbMlineStyle
  2
STANDARD
 70
0
  3

 62
256
 51
90.0
 52
90.0
 71
2
 49
0.5
 62
256
  6
BYLAYER
 49
-0.5
 62
256
  6
BYLAYER
  0
ENDSEC
  0
EOF
