  0
SECTION
  2
HEADER
  9
$ACADVER
  1
AC1014
  9
$DWGCODEPAGE
  3
ANSI_1252
  9
$EXTMAX
 10
22.0
 20
17.0
 30
0.0
  9
$EXTMIN
 10
0.0
 20
0.0
 30
0.0
  9
$LIMMIN
 10
0.0
 20
0.0
  9
$LIMMAX
 10
22.0
 20
17.0
  9
$VIEWCTR
 10
11.0
 20
8.5
  9
$VIEWSIZE
 40
17.0
  9
$CLAYER
  8
0
  9
$LTSCALE
 40
1.21
  9
$CELTYPE
  6
BYLAYER
  9
$DIMSCALE
 40
1.0
  9
$DIMASZ
 40
0.1875
  9
$DIMEXO
 40
0.1375
  9
$DIMDLI
 40
0.836
  9
$DIMEXE
 40
0.396
  9
$DIMCEN
 40
0.198
  9
$DIMLFAC
 40
1.0
  9
$DIMBLK
  1
_ARROW_FILLED
  9
$DIMTXT
 40
0.125
  9
$DIMTOL
 70
1
  9
$DIMLIM
 70
0
  9
$DIMTFAC
 40
1.0
  9
$DIMTP
 40
0.00001
  9
$DIMTM
 40
0.00001
  9
$PDMODE
 70
3
  9
$PDSIZE
 40
0.03125
  9
$HANDSEED
  5
3BD
  9
$TILEMODE
 70
1
  9
$MEASUREMENT
 70
0
  0
ENDSEC
  0
SECTION
  2
CLASSES
  0
ENDSEC
  0
SECTION
  2
TABLES
  0
TABLE
  2
VPORT
  5
8
100
AcDbSymbolTable
 70
2
  0
VPORT
  5
1F4
100
AcDbSymbolTableRecord
100
AcDbViewportTableRecord
  2
*ACTIVE
 70
0
 10
0.0
 20
0.0
 11
1.0
 21
1.0
 12
11.0
 22
8.5
 13
0.0
 23
0.0
 14
1.0
 24
1.0
 15
0.0
 25
0.0
 16
0.0
 26
0.0
 36
1.0
 17
0.0
 27
0.0
 37
0.0
 40
17.0
 41
1.2941176471
 42
50.0
 43
0.0
 44
0.0
 50
0.0
 51
0.0
 71
0
 72
100
 73
1
 74
1
 75
0
 76
0
 77
0
 78
0
  0
ENDTAB
  0
TABLE
  2
LTYPE
  5
5
100
AcDbSymbolTable
 70
6
  0
LTYPE
  5
14
100
AcDbSymbolTableRecord
100
AcDbLinetypeTableRecord
  2
BYBLOCK
 70
0
  3

 72
65
 73
0
 40
0.0
  0
LTYPE
  5
15
100
AcDbSymbolTableRecord
100
AcDbLinetypeTableRecord
  2
BYLAYER
 70
0
  3

 72
65
 73
0
 40
0.0
  0
LTYPE
  5
16
100
AcDbSymbolTableRecord
100
AcDbLinetypeTableRecord
  2
CONTINUOUS
 70
64
  3
Solid line
 72
65
 73
0
 40
0.0
  0
LTYPE
  5
1F5
100
AcDbSymbolTableRecord
100
AcDbLinetypeTableRecord
  2
CENTER
 70
64
  3
____ _ ____ _ ____ _ ____ _ ____ _ ____ _ ____
 72
65
 73
4
 40
0.6
 49
0.375
 74
0
 49
-0.075
 74
0
 49
0.075
 74
0
 49
-0.075
 74
0
  0
LTYPE
  5
1F6
100
AcDbSymbolTableRecord
100
AcDbLinetypeTableRecord
  2
HIDDEN
 70
64
  3
- - - - - - - - - - - - - - - - - - - -
 72
65
 73
2
 40
0.2
 49
0.1
 74
0
 49
-0.1
 74
0
  0
LTYPE
  5
1F7
100
AcDbSymbolTableRecord
100
AcDbLinetypeTableRecord
  2
PHANTOM
 70
64
  3
_____ _ _ _____ _ _ _____ _ _ _____
 72
65
 73
6
 40
0.8
 49
0.45
 74
0
 49
-0.05
 74
0
 49
0.1
 74
0
 49
-0.05
 74
0
 49
0.1
 74
0
 49
-0.05
 74
0
  0
LTYPE
  5
1F8
100
AcDbSymbolTableRecord
100
AcDbLinetypeTableRecord
  2
DOT
 70
64
  3
. . . . . . . . . . . . . . . . . . . .
 72
65
 73
2
 40
0.2
 49
0.1
 74
0
 49
-0.1
 74
0
  0
LTYPE
  5
1F9
100
AcDbSymbolTableRecord
100
AcDbLinetypeTableRecord
  2
DASHED
 70
64
  3
- - - - - - - - - - - - - - - - - - - -
 72
65
 73
2
 40
0.2
 49
0.1
 74
0
 49
-0.1
 74
0
  0
ENDTAB
  0
TABLE
  2
LAYER
  5
2
100
AcDbSymbolTable
 70
36
  0
LAYER
  5
10
100
AcDbSymbolTableRecord
100
AcDbLayerTableRecord
  2
0
 70
0
 62
7
  6
CONTINUOUS
  0
LAYER
  5
1FA
100
AcDbSymbolTableRecord
100
AcDbLayerTableRecord
  2
DEFAULT_1
 70
0
 62
7
  6
CENTER
  0
LAYER
  5
1FB
100
AcDbSymbolTableRecord
100
AcDbLayerTableRecord
  2
DEFAULT_2
 70
0
 62
8
  6
HIDDEN
  0
LAYER
  5
1FC
100
AcDbSymbolTableRecord
100
AcDbLayerTableRecord
  2
DEFAULT_3
 70
0
 62
7
  6
PHANTOM
  0
LAYER
  5
1FD
100
AcDbSymbolTableRecord
100
AcDbLayerTableRecord
  2
1_CURVES
 70
0
 62
7
  6
CONTINUOUS
  0
LAYER
  5
1FE
100
AcDbSymbolTableRecord
100
AcDbLayerTableRecord
  2
1_CURVES_CONDUIT
 70
0
 62
7
  6
CONTINUOUS
  0
LAYER
  5
1FF
100
AcDbSymbolTableRecord
100
AcDbLayerTableRecord
  2
1_CURVES_DRW
 70
0
 62
7
  6
CONTINUOUS
  0
LAYER
  5
200
100
AcDbSymbolTableRecord
100
AcDbLayerTableRecord
  2
1_CURVES_JETS
 70
0
 62
7
  6
CONTINUOUS
  0
LAYER
  5
201
100
AcDbSymbolTableRecord
100
AcDbLayerTableRecord
  2
1_CURVES_PATINS
 70
0
 62
7
  6
CONTINUOUS
  0
LAYER
  5
202
100
AcDbSymbolTableRecord
100
AcDbLayerTableRecord
  2
1_CURVES_RESURFACAGE
 70
0
 62
7
  6
CONTINUOUS
  0
LAYER
  5
203
100
AcDbSymbolTableRecord
100
AcDbLayerTableRecord
  2
1_CURVES_SPEC
 70
0
 62
7
  6
CONTINUOUS
  0
LAYER
  5
204
100
AcDbSymbolTableRecord
100
AcDbLayerTableRecord
  2
2_PLANES
 70
0
 62
7
  6
CONTINUOUS
  0
LAYER
  5
205
100
AcDbSymbolTableRecord
100
AcDbLayerTableRecord
  2
2_PLANES_JETS
 70
0
 62
7
  6
CONTINUOUS
  0
LAYER
  5
206
100
AcDbSymbolTableRecord
100
AcDbLayerTableRecord
  2
3_POINTS
 70
0
 62
7
  6
CONTINUOUS
  0
LAYER
  5
207
100
AcDbSymbolTableRecord
100
AcDbLayerTableRecord
  2
3_POINTS-JETS
 70
0
 62
7
  6
CONTINUOUS
  0
LAYER
  5
208
100
AcDbSymbolTableRecord
100
AcDbLayerTableRecord
  2
4_CSYS
 70
0
 62
7
  6
CONTINUOUS
  0
LAYER
  5
209
100
AcDbSymbolTableRecord
100
AcDbLayerTableRecord
  2
5_AXIS
 70
0
 62
7
  6
CONTINUOUS
  0
LAYER
  5
20A
100
AcDbSymbolTableRecord
100
AcDbLayerTableRecord
  2
5_AXIS_JETS
 70
0
 62
7
  6
CONTINUOUS
  0
LAYER
  5
20B
100
AcDbSymbolTableRecord
100
AcDbLayerTableRecord
  2
6_AIRE_CONDUIT
 70
0
 62
7
  6
CONTINUOUS
  0
LAYER
  5
20C
100
AcDbSymbolTableRecord
100
AcDbLayerTableRecord
  2
6_SURFACE-OFFSET-FIBRE-ACRYLIQU
 70
0
 62
7
  6
CONTINUOUS
  0
LAYER
  5
20D
100
AcDbSymbolTableRecord
100
AcDbLayerTableRecord
  2
6_SURFACES
 70
0
 62
7
  6
CONTINUOUS
  0
LAYER
  5
20E
100
AcDbSymbolTableRecord
100
AcDbLayerTableRecord
  2
6_SURFACES-PATINS-SPEC
 70
0
 62
7
  6
CONTINUOUS
  0
LAYER
  5
20F
100
AcDbSymbolTableRecord
100
AcDbLayerTableRecord
  2
6_SURFACES_AIRE
 70
0
 62
7
  6
CONTINUOUS
  0
LAYER
  5
210
100
AcDbSymbolTableRecord
100
AcDbLayerTableRecord
  2
6_SURFACES_OFFSET_FIBRE
 70
0
 62
7
  6
CONTINUOUS
  0
LAYER
  5
211
100
AcDbSymbolTableRecord
100
AcDbLayerTableRecord
  2
6_SURFACES_OFFSET_FIBRE_ACRYLIQ
 70
0
 62
7
  6
CONTINUOUS
  0
LAYER
  5
212
100
AcDbSymbolTableRecord
100
AcDbLayerTableRecord
  2
6_SURFACES_POUR_CONDUIT
 70
0
 62
7
  6
CONTINUOUS
  0
LAYER
  5
213
100
AcDbSymbolTableRecord
100
AcDbLayerTableRecord
  2
6_SURFACES_POUR_HFL
 70
0
 62
7
  6
CONTINUOUS
  0
LAYER
  5
214
100
AcDbSymbolTableRecord
100
AcDbLayerTableRecord
  2
6_SURFACES_TOOLING
 70
0
 62
7
  6
CONTINUOUS
  0
LAYER
  5
215
100
AcDbSymbolTableRecord
100
AcDbLayerTableRecord
  2
7_NOTES
 70
0
 62
7
  6
CONTINUOUS
  0
LAYER
  5
216
100
AcDbSymbolTableRecord
100
AcDbLayerTableRecord
  2
8_COSMETIC
 70
0
 62
7
  6
CONTINUOUS
  0
LAYER
  5
217
100
AcDbSymbolTableRecord
100
AcDbLayerTableRecord
  2
8_TOL_GEOM
 70
0
 62
7
  6
CONTINUOUS
  0
LAYER
  5
218
100
AcDbSymbolTableRecord
100
AcDbLayerTableRecord
  2
9_IMPORT
 70
0
 62
7
  6
CONTINUOUS
  0
LAYER
  5
219
100
AcDbSymbolTableRecord
100
AcDbLayerTableRecord
  2
DEGAGEMENT_SERIGRAPHIE
 70
0
 62
7
  6
CONTINUOUS
  0
LAYER
  5
21A
100
AcDbSymbolTableRecord
100
AcDbLayerTableRecord
  2
NONE
 70
0
 62
7
  6
CONTINUOUS
  0
LAYER
  5
21B
100
AcDbSymbolTableRecord
100
AcDbLayerTableRecord
  2
XSEC_DATUMS
 70
0
 62
7
  6
CONTINUOUS
  0
ENDTAB
  0
TABLE
  2
STYLE
  5
3
100
AcDbSymbolTable
 70
1
  0
STYLE
  5
11
100
AcDbSymbolTableRecord
100
AcDbTextStyleTableRecord
  2
STANDARD
 70
0
 40
0.0
 41
0.8
 50
0.0
 71
0
 42
0.2
  3
txt
  4

  0
STYLE
  5
21C
100
AcDbSymbolTableRecord
100
AcDbTextStyleTableRecord
  2
TEXTSTYLE_1
 70
0
 40
0.0
 41
0.8
 50
0.0
 71
0
 42
0.2
  3
gdt
  4

  0
ENDTAB
  0
TABLE
  2
VIEW
  5
6
100
AcDbSymbolTable
 70
0
  0
ENDTAB
  0
TABLE
  2
UCS
  5
7
100
AcDbSymbolTable
 70
0
  0
ENDTAB
  0
TABLE
  2
APPID
  5
9
100
AcDbSymbolTable
 70
1
  0
APPID
  5
21D
100
AcDbSymbolTableRecord
100
AcDbRegAppTableRecord
  2
ACAD
 70
0
  0
ENDTAB
  0
TABLE
  2
BLOCK_RECORD
  5
1
100
AcDbSymbolTable
 70
0
  0
BLOCK_RECORD
  5
1F
100
AcDbSymbolTableRecord
100
AcDbBlockTableRecord
  2
*MODEL_SPACE
  0
BLOCK_RECORD
  5
1B
100
AcDbSymbolTableRecord
100
AcDbBlockTableRecord
  2
*PAPER_SPACE
  0
ENDTAB
  0
TABLE
  2
DIMSTYLE
  5
A
100
AcDbSymbolTable
 70
1
  0
DIMSTYLE
105
21E
100
AcDbSymbolTableRecord
100
AcDbDimStyleTableRecord
  2
STANDARD
 70
0
  3

  4

  5
_ARROW_FILLED
  6
_ARROW_FILLED
  7
_ARROW_FILLED
 40
1.0
 41
0.1875
 42
0.0625
 43
0.38
 44
0.18
 45
0.0
 46
0.0
 47
0.00001
 48
0.00001
140
0.125
141
0.09
142
0.0
143
25.4
144
1.0
145
0.0
146
1.0
147
0.09
 71
1.0
 72
0.0
 73
1
 74
1
 75
0
 76
0
 77
0
 78
4
170
0
171
2
172
0
173
0
174
0
175
0
176
0
177
0
178
0
270
2
271
5
272
5
273
2
274
2
275
0
280
0
281
0
282
0
283
1
284
4
285
0
286
0
287
3
288
0
340
11
  0
ENDTAB
  0
ENDSEC
  0
SECTION
  2
BLOCKS
  0
BLOCK
  5
20
100
AcDbEntity
  8
0
100
AcDbBlockBegin
  2
*MODEL_SPACE
 70
0
 10
0.0
 20
0.0
 30
0.0
  3
*MODEL_SPACE
  1

  0
ENDBLK
  5
21
100
AcDbEntity
  8
0
100
AcDbBlockEnd
  0
BLOCK
  5
1C
100
AcDbEntity
  8
0
100
AcDbBlockBegin
  2
*PAPER_SPACE
 70
0
 10
0.0
 20
0.0
 30
0.0
  3
*PAPER_SPACE
  1

  0
ENDBLK
  5
1D
100
AcDbEntity
  8
0
100
AcDbBlockEnd
  0
ENDSEC
  0
SECTION
  2
ENTITIES
  0
LWPOLYLINE
  5
21F
100
AcDbEntity
  8
0
100
AcDbPolyline
 62
7
  6
CONTINUOUS
 90
39
 70
0
 10
53.853287254
 20
90.8336474348
 10
53.8534282527
 20
90.8338304983
 10
53.8535452106
 20
90.8340304159
 10
53.8536263481
 20
90.8342462
 10
53.8536634566
 20
90.8345466097
 10
53.8536207428
 20
90.8348460172
 10
53.8535360065
 20
90.8350615358
 10
53.8534156272
 20
90.8352610081
 10
53.8532704698
 20
90.8354446964
 10
53.8529431426
 20
90.8357640668
 10
53.8525803891
 20
90.8360401489
 10
53.8520205824
 20
90.8363917831
 10
53.8514332626
 20
90.8366979224
 10
53.850826325
 20
90.8369684591
 10
53.8502076645
 20
90.8372132855
 10
53.8490098779
 20
90.8376366104
 10
53.8477999327
 20
90.8380123286
 10
53.8465797112
 20
90.8383508565
 10
53.8454554469
 20
90.8386362176
 10
53.8443260392
 20
90.8389024324
 10
53.841798311
 20
90.8394408999
 10
53.8390111552
 20
90.8399651344
 10
53.835979466
 20
90.8404743369
 10
53.8326143086
 20
90.8409830225
 10
53.8292423187
 20
90.8414449759
 10
53.8254744264
 20
90.8419163632
 10
53.8217018933
 20
90.8423487895
 10
53.817585558
 20
90.8427829591
 10
53.8134658111
 20
90.8431835673
 10
53.8090490324
 20
90.843580637
 10
53.8046297199
 20
90.8439484801
 10
53.7982541275
 20
90.844434084
 10
53.7918750423
 20
90.8448724161
 10
53.7854931999
 20
90.8452691189
 10
53.7786179597
 20
90.8456556145
 10
53.7717406952
 20
90.8460035389
 10
53.7648617269
 20
90.8463160591
 10
53.7540215947
 20
90.8467433128
 10
53.7431788605
 20
90.8470973315
  0
LINE
  5
220
100
AcDbEntity
  8
0
100
AcDbLine
 62
7
  6
CONTINUOUS
 10
53.6349237723
 20
90.5867796855
 11
53.8532874729
 21
90.8336474328
  0
LINE
  5
221
100
AcDbEntity
  8
0
100
AcDbLine
 62
7
  6
CONTINUOUS
 10
38.5914972653
 20
61.4798869811
 11
38.3731335647
 21
61.2330192339
  0
LINE
  5
222
100
AcDbEntity
  8
0
100
AcDbLine
 62
7
  6
CONTINUOUS
 10
53.4010617718
 20
90.3392881511
 11
53.6349237723
 21
90.5867796855
  0
LINE
  5
223
100
AcDbEntity
  8
0
100
AcDbLine
 62
7
  6
CONTINUOUS
 10
38.8253592658
 20
61.7273785156
 11
38.5914972653
 21
61.4798869811
  0
LINE
  5
224
100
AcDbEntity
  8
0
100
AcDbLine
 62
7
  6
CONTINUOUS
 10
53.1591108522
 20
90.0998023438
 11
53.4010617718
 21
90.3392881511
  0
LINE
  5
225
100
AcDbEntity
  8
0
100
AcDbLine
 62
7
  6
CONTINUOUS
 10
39.0673101854
 20
61.9668643229
 11
38.8253592658
 21
61.7273785156
  0
LINE
  5
226
100
AcDbEntity
  8
0
100
AcDbLine
 62
7
  6
CONTINUOUS
 10
52.9093545889
 20
89.8685959361
 11
53.1591108522
 21
90.0998023438
  0
LINE
  5
227
100
AcDbEntity
  8
0
100
AcDbLine
 62
7
  6
CONTINUOUS
 10
39.3170664487
 20
62.1980707306
 11
39.0673101854
 21
61.9668643229
  0
LWPOLYLINE
  5
228
100
AcDbEntity
  8
0
100
AcDbPolyline
 62
7
  6
CONTINUOUS
 90
30
 70
0
 10
21.7751610289
 20
66.7413851196
 10
21.7743063093
 20
66.7406189723
 10
21.7734035212
 20
66.7399078332
 10
21.7724594897
 20
66.7392478144
 10
21.7714810397
 20
66.7386350283
 10
21.7704749962
 20
66.7380655871
 10
21.7694481842
 20
66.7375356032
 10
21.7678475507
 20
66.7367922847
 10
21.7662187858
 20
66.7361230102
 10
21.7645664647
 20
66.7355183894
 10
21.7628951628
 20
66.7349690319
 10
21.7612094554
 20
66.7344655473
 10
21.7585292672
 20
66.7337458269
 10
21.7558290182
 20
66.7331050582
 10
21.7531131196
 20
66.7325313701
 10
21.7503859828
 20
66.7320128916
 10
21.7470357001
 20
66.7314378478
 10
21.7436768532
 20
66.7309190906
 10
21.74031112
 20
66.7304478868
 10
21.7369401787
 20
66.730015503
 10
21.731585919
 20
66.7293914249
 10
21.7262247488
 20
66.7288294823
 10
21.7208586389
 20
66.7283161137
 10
21.714624141
 20
66.7277649123
 10
21.7083865616
 20
66.7272508016
 10
21.7021468215
 20
66.7267636706
 10
21.6908525859
 20
66.7259248846
 10
21.6795557199
 20
66.7251219331
 10
21.6682576528
 20
66.7243354155
 10
21.656959814
 20
66.7235459311
  0
LWPOLYLINE
  5
229
100
AcDbEntity
  8
0
100
AcDbPolyline
 62
7
  6
CONTINUOUS
 90
30
 70
0
 10
70.224838971
 20
85.325281547
 10
70.2256936906
 20
85.3260476943
 10
70.2265964787
 20
85.3267588335
 10
70.2275405102
 20
85.3274188523
 10
70.2285189602
 20
85.3280316384
 10
70.2295250037
 20
85.3286010796
 10
70.2305518157
 20
85.3291310635
 10
70.2321524492
 20
85.329874382
 10
70.2337812141
 20
85.3305436564
 10
70.2354335352
 20
85.3311482772
 10
70.2371048371
 20
85.3316976347
 10
70.2387905445
 20
85.3322011193
 10
70.2414707327
 20
85.3329208398
 10
70.2441709817
 20
85.3335616085
 10
70.2468868803
 20
85.3341352966
 10
70.2496140172
 20
85.3346537751
 10
70.2529642998
 20
85.3352288188
 10
70.2563231468
 20
85.335747576
 10
70.2596888799
 20
85.3362187799
 10
70.2630598212
 20
85.3366511637
 10
70.268414081
 20
85.3372752418
 10
70.2737752512
 20
85.3378371844
 10
70.279141361
 20
85.338350553
 10
70.2853758589
 20
85.3389017544
 10
70.2916134383
 20
85.3394158651
 10
70.2978531784
 20
85.3399029961
 10
70.309147414
 20
85.3407417821
 10
70.32044428
 20
85.3415447336
 10
70.3317423471
 20
85.3423312511
 10
70.3430401859
 20
85.3431207355
  0
LINE
  5
22A
100
AcDbEntity
  8
0
100
AcDbLine
 62
7
  6
CONTINUOUS
 10
52.6520875779
 20
89.6459319931
 11
52.9093545889
 21
89.8685959361
  0
LINE
  5
22B
100
AcDbEntity
  8
0
100
AcDbLine
 62
7
  6
CONTINUOUS
 10
39.5743334597
 20
62.4207346735
 11
39.3170664487
 21
62.1980707306
  0
LINE
  5
22C
100
AcDbEntity
  8
0
100
AcDbLine
 62
7
  6
CONTINUOUS
 10
51.7513740104
 20
90.834663124
 11
51.5459360463
 21
90.6640255122
  0
LINE
  5
22D
100
AcDbEntity
  8
0
100
AcDbLine
 62
7
  6
CONTINUOUS
 10
40.4750470272
 20
61.2320035427
 11
40.6804849913
 21
61.4026411544
  0
LINE
  5
22E
100
AcDbEntity
  8
0
100
AcDbLine
 62
7
  6
CONTINUOUS
 10
52.3876143845
 20
89.4320618599
 11
52.6520875779
 21
89.6459319931
  0
LINE
  5
22F
100
AcDbEntity
  8
0
100
AcDbLine
 62
7
  6
CONTINUOUS
 10
39.8388066531
 20
62.6346048068
 11
39.5743334597
 21
62.4207346735
  0
LWPOLYLINE
  5
230
100
AcDbEntity
  8
0
100
AcDbPolyline
 62
7
  6
CONTINUOUS
 90
37
 70
0
 10
20.7131160439
 20
77.8010689626
 10
20.7031002041
 20
77.7932413682
 10
20.6932945358
 20
77.7851362655
 10
20.683706108
 20
77.7767620692
 10
20.67434199
 20
77.7681271936
 10
20.6652092507
 20
77.7592400536
 10
20.6563149593
 20
77.7501090635
 10
20.6476661849
 20
77.7407426381
 10
20.6392699967
 20
77.731149192
 10
20.6311334636
 20
77.7213371396
 10
20.6231691912
 20
77.7111920076
 10
20.6154813101
 20
77.7008397016
 10
20.6080729791
 20
77.6902883679
 10
20.6009473568
 20
77.6795461526
 10
20.5941076022
 20
77.6686212022
 10
20.5875568739
 20
77.657521663
 10
20.5812983309
 20
77.6462556811
 10
20.5753351317
 20
77.6348314031
 10
20.5696704353
 20
77.623256975
 10
20.5642471135
 20
77.6114046907
 10
20.5591341886
 20
77.5994153141
 10
20.5543334033
 20
77.5872970483
 10
20.5498465003
 20
77.5750580965
 10
20.5456752223
 20
77.5627066618
 10
20.5418213119
 20
77.5502509472
 10
20.538286512
 20
77.537699156
 10
20.5350725652
 20
77.5250594911
 10
20.5321812142
 20
77.5123401558
 10
20.5295935609
 20
77.4994409947
 10
20.5273358067
 20
77.4864790579
 10
20.525407995
 20
77.4734642525
 10
20.5238101695
 20
77.4604064858
 10
20.5225423736
 20
77.447315665
 10
20.521604651
 20
77.4342016975
 10
20.5209970453
 20
77.4210744903
 10
20.5207196
 20
77.4079439508
 10
20.5207723587
 20
77.3948199861
  0
LWPOLYLINE
  5
231
100
AcDbEntity
  8
0
100
AcDbPolyline
 62
7
  6
CONTINUOUS
 90
37
 70
0
 10
71.2868839561
 20
74.265597704
 10
71.2968997959
 20
74.2734252984
 10
71.3067054642
 20
74.2815304011
 10
71.3162938919
 20
74.2899045975
 10
71.32565801
 20
74.298539473
 10
71.3347907492
 20
74.3074266131
 10
71.3436850406
 20
74.3165576031
 10
71.352333815
 20
74.3259240285
 10
71.3607300033
 20
74.3355174747
 10
71.3688665364
 20
74.3453295271
 10
71.3768308087
 20
74.355474659
 10
71.3845186898
 20
74.3658269651
 10
71.3919270209
 20
74.3763782988
 10
71.3990526431
 20
74.3871205141
 10
71.4058923978
 20
74.3980454645
 10
71.412443126
 20
74.4091450037
 10
71.4187016691
 20
74.4204109855
 10
71.4246648682
 20
74.4318352636
 10
71.4303295646
 20
74.4434096916
 10
71.4357528864
 20
74.455261976
 10
71.4408658113
 20
74.4672513526
 10
71.4456665966
 20
74.4793696184
 10
71.4501534996
 20
74.4916085702
 10
71.4543247776
 20
74.5039600049
 10
71.458178688
 20
74.5164157194
 10
71.4617134879
 20
74.5289675107
 10
71.4649274347
 20
74.5416071755
 10
71.4678187858
 20
74.5543265108
 10
71.470406439
 20
74.5672256719
 10
71.4726641933
 20
74.5801876088
 10
71.474592005
 20
74.5932024142
 10
71.4761898305
 20
74.6062601809
 10
71.4774576264
 20
74.6193510016
 10
71.4783953489
 20
74.6324649692
 10
71.4790029547
 20
74.6455921764
 10
71.4792804
 20
74.6587227159
 10
71.4792276413
 20
74.6718466806
  0
LINE
  5
232
100
AcDbEntity
  8
0
100
AcDbLine
 62
7
  6
CONTINUOUS
 10
51.5459360463
 20
90.6640255122
 11
51.2981899134
 21
90.4718561974
  0
LINE
  5
233
100
AcDbEntity
  8
0
100
AcDbLine
 62
7
  6
CONTINUOUS
 10
40.6804849913
 20
61.4026411544
 11
40.9282311242
 21
61.5948104693
  0
LINE
  5
234
100
AcDbEntity
  8
0
100
AcDbLine
 62
7
  6
CONTINUOUS
 10
52.1162500748
 20
89.227226106
 11
52.3876143845
 21
89.4320618599
  0
LINE
  5
235
100
AcDbEntity
  8
0
100
AcDbLine
 62
7
  6
CONTINUOUS
 10
40.1101709628
 20
62.8394405607
 11
39.8388066531
 21
62.6346048068
  0
LINE
  5
236
100
AcDbEntity
  8
0
100
AcDbLine
 62
7
  6
CONTINUOUS
 10
51.2981899134
 20
90.4718561974
 11
51.0439920326
 21
90.2889743574
  0
LINE
  5
237
100
AcDbEntity
  8
0
100
AcDbLine
 62
7
  6
CONTINUOUS
 10
40.9282311242
 20
61.5948104693
 11
41.182429005
 21
61.7776923093
  0
LINE
  5
238
100
AcDbEntity
  8
0
100
AcDbLine
 62
7
  6
CONTINUOUS
 10
51.8383204798
 20
89.0316528026
 11
52.1162500748
 21
89.227226106
  0
LINE
  5
239
100
AcDbEntity
  8
0
100
AcDbLine
 62
7
  6
CONTINUOUS
 10
40.3881005578
 20
63.0350138641
 11
40.1101709628
 21
62.8394405607
  0
LINE
  5
23A
100
AcDbEntity
  8
0
100
AcDbLine
 62
7
  6
CONTINUOUS
 10
51.0439920326
 20
90.2889743574
 11
50.7837631325
 21
90.1156324455
  0
LINE
  5
23B
100
AcDbEntity
  8
0
100
AcDbLine
 62
7
  6
CONTINUOUS
 10
41.182429005
 20
61.7776923093
 11
41.4426579051
 21
61.9510342212
  0
LINE
  5
23C
100
AcDbEntity
  8
0
100
AcDbLine
 62
7
  6
CONTINUOUS
 10
51.5541597484
 20
88.8455585915
 11
51.8383204798
 21
89.0316528026
  0
LINE
  5
23D
100
AcDbEntity
  8
0
100
AcDbLine
 62
7
  6
CONTINUOUS
 10
40.6722612892
 20
63.2211080752
 11
40.3881005578
 21
63.0350138641
  0
LINE
  5
23E
100
AcDbEntity
  8
0
100
AcDbLine
 62
7
  6
CONTINUOUS
 10
50.7837631325
 20
90.1156324455
 11
50.5179137281
 21
89.9520441953
  0
LINE
  5
23F
100
AcDbEntity
  8
0
100
AcDbLine
 62
7
  6
CONTINUOUS
 10
41.4426579051
 20
61.9510342212
 11
41.7085073096
 21
62.1146224714
  0
LINE
  5
240
100
AcDbEntity
  8
0
100
AcDbLine
 62
7
  6
CONTINUOUS
 10
51.2641053727
 20
88.6691414391
 11
51.5541597484
 21
88.8455585915
  0
LINE
  5
241
100
AcDbEntity
  8
0
100
AcDbLine
 62
7
  6
CONTINUOUS
 10
40.9623156649
 20
63.3975252276
 11
40.6722612892
 21
63.2211080752
  0
LINE
  5
242
100
AcDbEntity
  8
0
100
AcDbLine
 62
7
  6
CONTINUOUS
 10
50.5179137281
 20
89.9520441953
 11
50.2467197379
 21
89.7983265182
  0
LINE
  5
243
100
AcDbEntity
  8
0
100
AcDbLine
 62
7
  6
CONTINUOUS
 10
41.7085073096
 20
62.1146224714
 11
41.9797012997
 21
62.2683401485
  0
LINE
  5
244
100
AcDbEntity
  8
0
100
AcDbLine
 62
7
  6
CONTINUOUS
 10
50.9684920851
 20
88.502583622
 11
51.2641053727
 21
88.6691414391
  0
LINE
  5
245
100
AcDbEntity
  8
0
100
AcDbLine
 62
7
  6
CONTINUOUS
 10
41.2579289525
 20
63.5640830446
 11
40.9623156649
 21
63.3975252276
  0
LINE
  5
246
100
AcDbEntity
  8
0
100
AcDbLine
 62
7
  6
CONTINUOUS
 10
50.6676617404
 20
88.3460538473
 11
50.9684920851
 21
88.502583622
  0
LINE
  5
247
100
AcDbEntity
  8
0
100
AcDbLine
 62
7
  6
CONTINUOUS
 10
41.5587592972
 20
63.7206128194
 11
41.2579289525
 21
63.5640830446
  0
LINE
  5
248
100
AcDbEntity
  8
0
100
AcDbLine
 62
7
  6
CONTINUOUS
 10
50.2467197379
 20
89.7983265182
 11
49.9705782912
 21
89.6546554535
  0
LINE
  5
249
100
AcDbEntity
  8
0
100
AcDbLine
 62
7
  6
CONTINUOUS
 10
41.9797012997
 20
62.2683401485
 11
42.2558427465
 21
62.4120112131
  0
LINE
  5
24A
100
AcDbEntity
  8
0
100
AcDbLine
 62
7
  6
CONTINUOUS
 10
50.3619574725
 20
88.1997076572
 11
50.6676617404
 21
88.3460538473
  0
LINE
  5
24B
100
AcDbEntity
  8
0
100
AcDbLine
 62
7
  6
CONTINUOUS
 10
41.8644635652
 20
63.8669590094
 11
41.5587592972
 21
63.7206128194
  0
LINE
  5
24C
100
AcDbEntity
  8
0
100
AcDbLine
 62
7
  6
CONTINUOUS
 10
49.9705782912
 20
89.6546554535
 11
49.6899952023
 21
89.5212347398
  0
LINE
  5
24D
100
AcDbEntity
  8
0
100
AcDbLine
 62
7
  6
CONTINUOUS
 10
42.2558427465
 20
62.4120112131
 11
42.5364258353
 21
62.5454319269
  0
LWPOLYLINE
  5
24E
100
AcDbEntity
  8
0
100
AcDbPolyline
 62
7
  6
CONTINUOUS
 90
28
 70
0
 10
17.6749583356
 20
77.1973497388
 10
17.707046816
 20
77.2122506303
 10
17.7394457212
 20
77.2264795724
 10
17.7721378296
 20
77.2400289018
 10
17.8051059198
 20
77.2528909551
 10
17.8363503748
 20
77.2643574111
 10
17.8678077784
 20
77.2752210859
 10
17.8994621687
 20
77.2854939709
 10
17.9312975841
 20
77.2951880575
 10
17.9618972555
 20
77.303931219
 10
17.9926330699
 20
77.3121832275
 10
18.0234902086
 20
77.3199713139
 10
18.0544538528
 20
77.327322709
 10
18.0946824985
 20
77.3362422883
 10
18.1350384414
 20
77.3445640169
 10
18.1754952505
 20
77.3523765726
 10
18.2232991985
 20
77.3610618462
 10
18.2711749288
 20
77.3693430291
 10
18.3190907131
 20
77.3774007766
 10
18.3670148231
 20
77.3854157443
 10
18.4149155303
 20
77.3935685877
 10
18.4550548485
 20
77.400644598
 10
18.4951349627
 20
77.4080450031
 10
18.5351354614
 20
77.4158700651
 10
18.5657046808
 20
77.4222110899
 10
18.5962014575
 20
77.4288936079
 10
18.6266120256
 20
77.4359511898
 10
18.6569226192
 20
77.4434174064
  0
LWPOLYLINE
  5
24F
100
AcDbEntity
  8
0
100
AcDbPolyline
 62
7
  6
CONTINUOUS
 90
28
 70
0
 10
74.3250416643
 20
74.8693169279
 10
74.2929531839
 20
74.8544160364
 10
74.2605542787
 20
74.8401870942
 10
74.2278621703
 20
74.8266377648
 10
74.1948940801
 20
74.8137757116
 10
74.1636496251
 20
74.8023092556
 10
74.1321922215
 20
74.7914455808
 10
74.1005378312
 20
74.7811726958
 10
74.0687024158
 20
74.7714786091
 10
74.0381027444
 20
74.7627354476
 10
74.00736693
 20
74.7544834391
 10
73.9765097913
 20
74.7466953527
 10
73.9455461471
 20
74.7393439576
 10
73.9053175014
 20
74.7304243783
 10
73.8649615585
 20
74.7221026497
 10
73.8245047494
 20
74.714290094
 10
73.7767008014
 20
74.7056048204
 10
73.7288250711
 20
74.6973236375
 10
73.6809092868
 20
74.68926589
 10
73.6329851769
 20
74.6812509223
 10
73.5850844696
 20
74.673098079
 10
73.5449451515
 20
74.6660220687
 10
73.5048650373
 20
74.6586216636
 10
73.4648645385
 20
74.6507966016
 10
73.4342953192
 20
74.6444555768
 10
73.4037985424
 20
74.6377730588
 10
73.3733879743
 20
74.6307154769
 10
73.3430773807
 20
74.6232492603
  0
LINE
  5
250
100
AcDbEntity
  8
0
100
AcDbLine
 62
7
  6
CONTINUOUS
 10
50.0517248455
 20
88.0636878398
 11
50.3619574725
 21
88.1997076572
  0
LINE
  5
251
100
AcDbEntity
  8
0
100
AcDbLine
 62
7
  6
CONTINUOUS
 10
42.1746961921
 20
64.0029788269
 11
41.8644635652
 21
63.8669590094
  0
LINE
  5
252
100
AcDbEntity
  8
0
100
AcDbLine
 62
7
  6
CONTINUOUS
 10
49.6899952023
 20
89.5212347398
 11
49.4052702506
 21
89.3981467813
  0
LINE
  5
253
100
AcDbEntity
  8
0
100
AcDbLine
 62
7
  6
CONTINUOUS
 10
42.5364258353
 20
62.5454319269
 11
42.8211507871
 21
62.6685198854
  0
LINE
  5
254
100
AcDbEntity
  8
0
100
AcDbLine
 62
7
  6
CONTINUOUS
 10
49.737312868
 20
87.9381245888
 11
50.0517248455
 21
88.0636878398
  0
LINE
  5
255
100
AcDbEntity
  8
0
100
AcDbLine
 62
7
  6
CONTINUOUS
 10
42.4891081697
 20
64.1285420778
 11
42.1746961921
 21
64.0029788269
  0
LINE
  5
256
100
AcDbEntity
  8
0
100
AcDbLine
 62
7
  6
CONTINUOUS
 10
49.4052702506
 20
89.3981467813
 11
49.1168182292
 21
89.2855145367
  0
LINE
  5
257
100
AcDbEntity
  8
0
100
AcDbLine
 62
7
  6
CONTINUOUS
 10
42.8211507871
 20
62.6685198854
 11
43.1096028084
 21
62.7811521299
  0
LINE
  5
258
100
AcDbEntity
  8
0
100
AcDbLine
 62
7
  6
CONTINUOUS
 10
49.4190720577
 20
87.8231361002
 11
49.737312868
 21
87.9381245888
  0
LINE
  5
259
100
AcDbEntity
  8
0
100
AcDbLine
 62
7
  6
CONTINUOUS
 10
42.8073489799
 20
64.2435305664
 11
42.4891081697
 21
64.1285420778
  0
LINE
  5
25A
100
AcDbEntity
  8
0
100
AcDbLine
 62
7
  6
CONTINUOUS
 10
49.1168182292
 20
89.2855145367
 11
48.8249854121
 21
89.1834164855
  0
LINE
  5
25B
100
AcDbEntity
  8
0
100
AcDbLine
 62
7
  6
CONTINUOUS
 10
43.1096028084
 20
62.7811521299
 11
43.4014356256
 21
62.8832501812
  0
LINE
  5
25C
100
AcDbEntity
  8
0
100
AcDbLine
 62
7
  6
CONTINUOUS
 10
51.8124862715
 20
90.8553483685
 11
51.7513740104
 21
90.834663124
  0
LINE
  5
25D
100
AcDbEntity
  8
0
100
AcDbLine
 62
7
  6
CONTINUOUS
 10
49.0973529597
 20
87.7188279539
 11
49.4190720577
 21
87.8231361002
  0
LINE
  5
25E
100
AcDbEntity
  8
0
100
AcDbLine
 62
7
  6
CONTINUOUS
 10
43.129068078
 20
64.3478387128
 11
42.8073489799
 21
64.2435305664
  0
LINE
  5
25F
100
AcDbEntity
  8
0
100
AcDbLine
 62
7
  6
CONTINUOUS
 10
18.6569226192
 20
77.4434174064
 11
21.1094956269
 21
78.2167107053
  0
LINE
  5
260
100
AcDbEntity
  8
0
100
AcDbLine
 62
7
  6
CONTINUOUS
 10
73.3430773807
 20
74.6232492603
 11
70.890504373
 21
73.8499559613
  0
LWPOLYLINE
  5
261
100
AcDbEntity
  8
0
100
AcDbPolyline
 62
7
  6
CONTINUOUS
 90
42
 70
0
 10
21.1094956269
 20
78.2167107053
 10
21.1140601945
 20
78.218127823
 10
21.1186387714
 20
78.2195020971
 10
21.1232316592
 20
78.2208290093
 10
21.1278391595
 20
78.2221040412
 10
21.1324615738
 20
78.2233226744
 10
21.1370992037
 20
78.2244803906
 10
21.1417523508
 20
78.2255726714
 10
21.1452427886
 20
78.2263436214
 10
21.148742512
 20
78.2270706377
 10
21.1522519584
 20
78.227748915
 10
21.1557715652
 20
78.2283736478
 10
21.158893506
 20
78.2288772305
 10
21.1620234086
 20
78.2293286021
 10
21.1651609429
 20
78.2297212046
 10
21.1683057787
 20
78.2300484804
 10
21.1704873437
 20
78.2302328968
 10
21.1726719094
 20
78.2303778739
 10
21.1748591339
 20
78.2304784356
 10
21.1770486758
 20
78.2305296058
 10
21.1792401932
 20
78.2305264085
 10
21.1807736712
 20
78.2304886443
 10
21.1823060848
 20
78.2304168088
 10
21.1838355706
 20
78.2303058604
 10
21.1853602649
 20
78.2301507575
 10
21.1868783041
 20
78.2299464585
 10
21.1883878246
 20
78.2296879218
 10
21.1896738985
 20
78.229418447
 10
21.1909481876
 20
78.2290980999
 10
21.1922065456
 20
78.2287196207
 10
21.1930418533
 20
78.2284284764
 10
21.1938650595
 20
78.2281046565
 10
21.1946731513
 20
78.2277450874
 10
21.195463116
 20
78.2273466952
 10
21.1961591371
 20
78.2269501969
 10
21.1968327143
 20
78.2265166252
 10
21.1974787043
 20
78.2260431943
 10
21.1980919639
 20
78.2255271183
 10
21.1986342851
 20
78.2250008709
 10
21.1991374474
 20
78.2244367667
 10
21.1995958239
 20
78.2238371715
 10
21.2000037875
 20
78.223204451
  0
LWPOLYLINE
  5
262
100
AcDbEntity
  8
0
100
AcDbPolyline
 62
7
  6
CONTINUOUS
 90
42
 70
0
 10
70.890504373
 20
73.8499559613
 10
70.8859398054
 20
73.8485388436
 10
70.8813612285
 20
73.8471645695
 10
70.8767683407
 20
73.8458376574
 10
70.8721608404
 20
73.8445626255
 10
70.8675384261
 20
73.8433439923
 10
70.8629007962
 20
73.8421862761
 10
70.8582476491
 20
73.8410939953
 10
70.8547572113
 20
73.8403230453
 10
70.8512574879
 20
73.839596029
 10
70.8477480415
 20
73.8389177517
 10
70.8442284347
 20
73.8382930189
 10
70.8411064939
 20
73.8377894362
 10
70.8379765913
 20
73.8373380646
 10
70.834839057
 20
73.8369454621
 10
70.8316942212
 20
73.8366181863
 10
70.8295126562
 20
73.8364337699
 10
70.8273280905
 20
73.8362887927
 10
70.825140866
 20
73.836188231
 10
70.8229513241
 20
73.8361370608
 10
70.8207598067
 20
73.8361402581
 10
70.8192263287
 20
73.8361780223
 10
70.8176939151
 20
73.8362498578
 10
70.8161644293
 20
73.8363608062
 10
70.814639735
 20
73.8365159091
 10
70.8131216958
 20
73.8367202081
 10
70.8116121753
 20
73.8369787448
 10
70.8103261014
 20
73.8372482196
 10
70.8090518123
 20
73.8375685667
 10
70.8077934543
 20
73.8379470459
 10
70.8069581466
 20
73.8382381902
 10
70.8061349405
 20
73.8385620101
 10
70.8053268486
 20
73.8389215792
 10
70.8045368839
 20
73.8393199714
 10
70.8038408629
 20
73.8397164697
 10
70.8031672857
 20
73.8401500414
 10
70.8025212956
 20
73.8406234723
 10
70.8019080361
 20
73.8411395483
 10
70.8013657149
 20
73.8416657957
 10
70.8008625526
 20
73.8422298999
 10
70.8004041761
 20
73.8428294951
 10
70.7999962125
 20
73.8434622156
  0
LINE
  5
263
100
AcDbEntity
  8
0
100
AcDbLine
 62
7
  6
CONTINUOUS
 10
48.8249854121
 20
89.1834164855
 11
48.5300719279
 21
89.0919112731
  0
LINE
  5
264
100
AcDbEntity
  8
0
100
AcDbLine
 62
7
  6
CONTINUOUS
 10
43.4014356256
 20
62.8832501812
 11
43.6963491098
 21
62.9747553935
  0
LINE
  5
265
100
AcDbEntity
  8
0
100
AcDbLine
 62
7
  6
CONTINUOUS
 10
48.7725107622
 20
87.6252950633
 11
49.0973529597
 21
87.7188279539
  0
LINE
  5
266
100
AcDbEntity
  8
0
100
AcDbLine
 62
7
  6
CONTINUOUS
 10
43.4539102755
 20
64.4413716033
 11
43.129068078
 21
64.3478387128
  0
LWPOLYLINE
  5
267
100
AcDbEntity
  8
0
100
AcDbPolyline
 62
7
  6
CONTINUOUS
 90
39
 70
0
 10
38.3731337836
 20
61.2330192318
 10
38.3729927849
 20
61.2328361683
 10
38.372875827
 20
61.2326362508
 10
38.3727946895
 20
61.2324204667
 10
38.3727575811
 20
61.232120057
 10
38.3728002948
 20
61.2318206495
 10
38.3728850312
 20
61.2316051309
 10
38.3730054104
 20
61.2314056586
 10
38.3731505679
 20
61.2312219703
 10
38.3734778951
 20
61.2309025999
 10
38.3738406486
 20
61.2306265178
 10
38.3744004553
 20
61.2302748835
 10
38.3749877751
 20
61.2299687443
 10
38.3755947127
 20
61.2296982076
 10
38.3762133732
 20
61.2294533811
 10
38.3774111598
 20
61.2290300563
 10
38.378621105
 20
61.2286543381
 10
38.3798413265
 20
61.2283158102
 10
38.3809655908
 20
61.2280304491
 10
38.3820949984
 20
61.2277642343
 10
38.3846227266
 20
61.2272257668
 10
38.3874098824
 20
61.2267015323
 10
38.3904415717
 20
61.2261923298
 10
38.393806729
 20
61.2256836442
 10
38.397178719
 20
61.2252216908
 10
38.4009466112
 20
61.2247503034
 10
38.4047191443
 20
61.2243178772
 10
38.4088354796
 20
61.2238837076
 10
38.4129552265
 20
61.2234830994
 10
38.4173720052
 20
61.2230860297
 10
38.4217913177
 20
61.2227181866
 10
38.4281669102
 20
61.2222325827
 10
38.4345459954
 20
61.2217942506
 10
38.4409278378
 20
61.2213975478
 10
38.447803078
 20
61.2210110522
 10
38.4546803424
 20
61.2206631278
 10
38.4615593107
 20
61.2203506076
 10
38.4723994429
 20
61.2199233538
 10
38.4832421771
 20
61.2195693351
  0
LWPOLYLINE
  5
268
100
AcDbEntity
  8
0
100
AcDbPolyline
 62
7
  6
CONTINUOUS
 90
29
 70
0
 10
38.5439414134
 20
63.6221732922
 10
38.5427512634
 20
63.6200467275
 10
38.5415644372
 20
63.6179178814
 10
38.5403872189
 20
63.6157845564
 10
38.5392258927
 20
63.6136445554
 10
38.5385308864
 20
63.6123400377
 10
38.5378460689
 20
63.6110304044
 10
38.5371734442
 20
63.609713815
 10
38.5365150162
 20
63.6083884289
 10
38.5358727889
 20
63.6070524056
 10
38.5352487662
 20
63.6057039044
 10
38.5348959348
 20
63.6049151224
 10
38.5345508829
 20
63.6041216294
 10
38.5342145869
 20
63.6033235348
 10
38.5338880231
 20
63.6025209476
 10
38.5335721678
 20
63.6017139773
 10
38.5332679975
 20
63.6009027331
 10
38.5329764885
 20
63.6000873241
 10
38.5326986172
 20
63.5992678597
 10
38.53243536
 20
63.5984444491
 10
38.5321876932
 20
63.5976172015
 10
38.5319565932
 20
63.5967862262
 10
38.5317430364
 20
63.5959516325
 10
38.5315479992
 20
63.5951135295
 10
38.5313724578
 20
63.5942720265
 10
38.5312173888
 20
63.5934272329
 10
38.5310837685
 20
63.5925792577
 10
38.5309725732
 20
63.5917282103
 10
38.5308847793
 20
63.5908741999
  0
LWPOLYLINE
  5
269
100
AcDbEntity
  8
0
100
AcDbPolyline
 62
7
  6
CONTINUOUS
 90
29
 70
0
 10
53.4560585865
 20
88.4444933745
 10
53.4572487365
 20
88.4466199391
 10
53.4584355627
 20
88.4487487853
 10
53.459612781
 20
88.4508821102
 10
53.4607741072
 20
88.4530221113
 10
53.4614691135
 20
88.454326629
 10
53.462153931
 20
88.4556362623
 10
53.4628265558
 20
88.4569528517
 10
53.4634849838
 20
88.4582782378
 10
53.4641272111
 20
88.4596142611
 10
53.4647512338
 20
88.4609627623
 10
53.4651040651
 20
88.4617515443
 10
53.465449117
 20
88.4625450373
 10
53.4657854131
 20
88.4633431319
 10
53.4661119769
 20
88.4641457191
 10
53.4664278322
 20
88.4649526894
 10
53.4667320025
 20
88.4657639336
 10
53.4670235115
 20
88.4665793426
 10
53.4673013827
 20
88.467398807
 10
53.46756464
 20
88.4682222176
 10
53.4678123068
 20
88.4690494652
 10
53.4680434067
 20
88.4698804405
 10
53.4682569635
 20
88.4707150342
 10
53.4684520008
 20
88.4715531372
 10
53.4686275421
 20
88.4723946402
 10
53.4687826111
 20
88.4732394338
 10
53.4689162314
 20
88.474087409
 10
53.4690274267
 20
88.4749384564
 10
53.4691152206
 20
88.4757924668
  0
LINE
  5
26A
100
AcDbEntity
  8
0
100
AcDbLine
 62
7
  6
CONTINUOUS
 10
10.0
 20
95.5352359843
 11
10.0
 21
56.5314306824
  0
LINE
  5
26B
100
AcDbEntity
  8
0
100
AcDbLine
 62
7
  6
CONTINUOUS
 10
10.3307084619
 20
95.4215248773
 11
10.3307084619
 21
56.6451417893
  0
LWPOLYLINE
  5
26C
100
AcDbEntity
  8
0
100
AcDbPolyline
 62
7
  6
CONTINUOUS
 90
39
 70
0
 10
38.5514956058
 20
88.274453655
 10
38.5535296911
 20
88.2801135452
 10
38.5554703159
 20
88.2858068373
 10
38.5573112608
 20
88.2915333769
 10
38.5590463066
 20
88.2972930099
 10
38.5606692339
 20
88.3030855821
 10
38.5619502617
 20
88.3080134683
 10
38.563141027
 20
88.312963936
 10
38.5642360285
 20
88.3179360837
 10
38.565229765
 20
88.32292901
 10
38.5661167352
 20
88.3279418136
 10
38.566891438
 20
88.3329735931
 10
38.5674588643
 20
88.3372764321
 10
38.567936564
 20
88.3415904518
 10
38.5683203665
 20
88.3459137021
 10
38.5686061014
 20
88.3502442329
 10
38.5687895982
 20
88.354580094
 10
38.5688666864
 20
88.3589193355
 10
38.5688299738
 20
88.3634186407
 10
38.5686707311
 20
88.3679154608
 10
38.5683852534
 20
88.3724057739
 10
38.567969836
 20
88.376885558
 10
38.567420774
 20
88.3813507912
 10
38.5668251043
 20
88.3852613555
 10
38.5661232025
 20
88.3891543579
 10
38.5653150078
 20
88.3930265931
 10
38.564400459
 20
88.3968748562
 10
38.5633794953
 20
88.4006959418
 10
38.5621133344
 20
88.4049306619
 10
38.5607193554
 20
88.4091249971
 10
38.5592027338
 20
88.4132765114
 10
38.5575686451
 20
88.4173827693
 10
38.555997057
 20
88.4210506383
 10
38.5543420115
 20
88.4246814509
 10
38.5526116262
 20
88.4282770442
 10
38.5508140182
 20
88.4318392554
 10
38.5485752419
 20
88.4360855151
 10
38.546276002
 20
88.4402991936
 10
38.5439414093
 20
88.4444933819
  0
LINE
  5
26D
100
AcDbEntity
  8
0
100
AcDbLine
 62
7
  6
CONTINUOUS
 10
14.1359317791
 20
62.0411554711
 11
14.1359317791
 21
90.0255111956
  0
LWPOLYLINE
  5
26E
100
AcDbEntity
  8
0
100
AcDbPolyline
 62
7
  6
CONTINUOUS
 90
49
 70
0
 10
19.1242068438
 20
88.1983574591
 10
19.1244189634
 20
88.2282105036
 10
19.1255129684
 20
88.2580625419
 10
19.1274913939
 20
88.2878819673
 10
19.1303567752
 20
88.3176371732
 10
19.1341116473
 20
88.3472965527
 10
19.1387585454
 20
88.3768284992
 10
19.1442921005
 20
88.4061682018
 10
19.1507149051
 20
88.4353221984
 10
19.1580237202
 20
88.4642634543
 10
19.1662153072
 20
88.4929649347
 10
19.1752864272
 20
88.5213996049
 10
19.1852338416
 20
88.54954043
 10
19.1960342388
 20
88.5773136134
 10
19.2076947851
 20
88.6047388253
 10
19.2202055107
 20
88.6317878947
 10
19.2335564462
 20
88.6584326504
 10
19.2477376222
 20
88.6846449213
 10
19.2627390691
 20
88.7103965361
 10
19.2785178977
 20
88.7356108522
 10
19.2950869832
 20
88.7603133656
 10
19.3124294525
 20
88.7844791878
 10
19.3305284326
 20
88.8080834299
 10
19.3493670503
 20
88.8311012032
 10
19.3689284326
 20
88.8535076189
 10
19.3891551666
 20
88.875237433
 10
19.4100625569
 20
88.8963136184
 10
19.4316280762
 20
88.9167163519
 10
19.4538291974
 20
88.9364258099
 10
19.4766433933
 20
88.9554221691
 10
19.5000481369
 20
88.9736856061
 10
19.5239820913
 20
88.9911704658
 10
19.5484556703
 20
89.0078917444
 10
19.5734422622
 20
89.0238362423
 10
19.5989152552
 20
89.0389907596
 10
19.6248480376
 20
89.0533420968
 10
19.6512139975
 20
89.066877054
 10
19.6779596844
 20
89.0795713485
 10
19.705084842
 20
89.0914315414
 10
19.7325631855
 20
89.1024514576
 10
19.76036843
 20
89.1126249224
 10
19.7884742905
 20
89.1219457606
 10
19.8168544822
 20
89.1304077974
 10
19.8454724642
 20
89.1380034344
 10
19.8743069777
 20
89.1447340172
 10
19.9033266705
 20
89.1505989019
 10
19.9325001903
 20
89.1555974447
 10
19.9617961848
 20
89.1597290017
 10
19.9911833017
 20
89.1629929291
  0
LINE
  5
26F
100
AcDbEntity
  8
0
100
AcDbLine
 62
7
  6
CONTINUOUS
 10
19.1408680603
 20
66.1169268765
 11
19.1242068438
 21
63.8683092076
  0
LWPOLYLINE
  5
270
100
AcDbEntity
  8
0
100
AcDbPolyline
 62
7
  6
CONTINUOUS
 90
49
 70
0
 10
19.1242068438
 20
63.8683092076
 10
19.1244189634
 20
63.8384561631
 10
19.1255129684
 20
63.8086041248
 10
19.1274913939
 20
63.7787846994
 10
19.1303567752
 20
63.7490294935
 10
19.1341116473
 20
63.719370114
 10
19.1387585454
 20
63.6898381675
 10
19.1442921005
 20
63.6604984649
 10
19.1507149051
 20
63.6313444683
 10
19.1580237202
 20
63.6024032124
 10
19.1662153072
 20
63.573701732
 10
19.1752864272
 20
63.5452670618
 10
19.1852338416
 20
63.5171262367
 10
19.1960342388
 20
63.4893530533
 10
19.2076947851
 20
63.4619278414
 10
19.2202055107
 20
63.434878772
 10
19.2335564462
 20
63.4082340163
 10
19.2477376222
 20
63.3820217454
 10
19.2627390691
 20
63.3562701306
 10
19.2785178977
 20
63.3310558145
 10
19.2950869832
 20
63.306353301
 10
19.3124294525
 20
63.2821874789
 10
19.3305284326
 20
63.2585832368
 10
19.3493670503
 20
63.2355654635
 10
19.3689284326
 20
63.2131590477
 10
19.3891551666
 20
63.1914292336
 10
19.4100625569
 20
63.1703530482
 10
19.4316280762
 20
63.1499503148
 10
19.4538291974
 20
63.1302408568
 10
19.4766433933
 20
63.1112444976
 10
19.5000481369
 20
63.0929810606
 10
19.5239820913
 20
63.0754962009
 10
19.5484556703
 20
63.0587749223
 10
19.5734422622
 20
63.0428304244
 10
19.5989152552
 20
63.027675907
 10
19.6248480376
 20
63.0133245698
 10
19.6512139975
 20
62.9997896127
 10
19.6779596844
 20
62.9870953181
 10
19.705084842
 20
62.9752351252
 10
19.7325631855
 20
62.964215209
 10
19.76036843
 20
62.9540417442
 10
19.7884742905
 20
62.944720906
 10
19.8168544822
 20
62.9362588692
 10
19.8454724642
 20
62.9286632322
 10
19.8743069777
 20
62.9219326494
 10
19.9033266705
 20
62.9160677647
 10
19.9325001903
 20
62.9110692219
 10
19.9617961848
 20
62.9069376649
 10
19.9911833017
 20
62.9036737375
  0
LINE
  5
271
100
AcDbEntity
  8
0
100
AcDbLine
 62
7
  6
CONTINUOUS
 10
19.1408680603
 20
85.9497397901
 11
19.1242068438
 21
88.1983574591
  0
LWPOLYLINE
  5
272
100
AcDbEntity
  8
0
100
AcDbPolyline
 62
7
  6
CONTINUOUS
 90
47
 70
0
 10
21.4155701175
 20
84.8468411069
 10
21.4158122435
 20
84.8601725752
 10
21.4164127697
 20
84.8734996198
 10
21.4173697623
 20
84.8868106712
 10
21.4186812875
 20
84.9000941598
 10
21.4203454114
 20
84.9133385161
 10
21.4223602003
 20
84.9265321706
 10
21.4247255348
 20
84.9396727729
 10
21.4274390816
 20
84.9527435307
 10
21.4304998673
 20
84.9657369521
 10
21.4339069182
 20
84.978645545
 10
21.4376592609
 20
84.9914618175
 10
21.4417559218
 20
85.0041782776
 10
21.4466036336
 20
85.0178949008
 10
21.4518521941
 20
85.0314725571
 10
21.4574958043
 20
85.0448993682
 10
21.4635286652
 20
85.0581634554
 10
21.4699449777
 20
85.0712529403
 10
21.4767389429
 20
85.0841559443
 10
21.4839047616
 20
85.0968605888
 10
21.491436635
 20
85.1093549955
 10
21.4993287639
 20
85.1216272856
 10
21.5075753493
 20
85.1336655808
 10
21.5161705923
 20
85.1454580024
 10
21.5251109174
 20
85.1569968103
 10
21.5343844832
 20
85.168268894
 10
21.5439814543
 20
85.1792654453
 10
21.553891995
 20
85.1899776559
 10
21.5641062696
 20
85.2003967177
 10
21.5746144424
 20
85.2105138223
 10
21.5854066777
 20
85.2203201615
 10
21.59647314
 20
85.2298069272
 10
21.6078039935
 20
85.2389653111
 10
21.6193894026
 20
85.2477865049
 10
21.6312195317
 20
85.2562617004
 10
21.6423019162
 20
85.2637403803
 10
21.6535758605
 20
85.2709162652
 10
21.665034443
 20
85.2777863783
 10
21.6766707419
 20
85.2843477426
 10
21.6884778356
 20
85.2905973812
 10
21.7004488024
 20
85.2965323171
 10
21.7125704109
 20
85.3021466778
 10
21.7248382695
 20
85.3074386087
 10
21.7372418234
 20
85.312403063
 10
21.7497705181
 20
85.3170349938
 10
21.7624137988
 20
85.321329354
 10
21.7751611108
 20
85.3252810967
  0
LWPOLYLINE
  5
273
100
AcDbEntity
  8
0
100
AcDbPolyline
 62
7
  6
CONTINUOUS
 90
37
 70
0
 10
21.4155701528
 20
78.6294539926
 10
21.4152801753
 20
78.6162509288
 10
21.414635567
 20
78.6030499741
 10
21.4136377919
 20
78.5898621599
 10
21.4122883139
 20
78.5766985177
 10
21.410588597
 20
78.5635700787
 10
21.408540105
 20
78.5504878746
 10
21.4061443021
 20
78.5374629368
 10
21.403402652
 20
78.5245062966
 10
21.4003166188
 20
78.5116289856
 10
21.3968797404
 20
78.4988121872
 10
21.3931020915
 20
78.4860944294
 10
21.3889874041
 20
78.4734839749
 10
21.3845394103
 20
78.4609890864
 10
21.379761842
 20
78.4486180268
 10
21.3746584313
 20
78.4363790587
 10
21.3692329103
 20
78.424280445
 10
21.363489011
 20
78.4123304483
 10
21.3574304654
 20
78.4005373316
 10
21.3510478231
 20
78.388885479
 10
21.3443581114
 20
78.3774068517
 10
21.3373664545
 20
78.3661088528
 10
21.3300779768
 20
78.3549988854
 10
21.3224978026
 20
78.3440843525
 10
21.3146310563
 20
78.3333726572
 10
21.3064828621
 20
78.3228712025
 10
21.2980583444
 20
78.3125873916
 10
21.2893626274
 20
78.3025286274
 10
21.2803891269
 20
78.2926891639
 10
21.2711572272
 20
78.283089779
 10
21.2616753215
 20
78.2737374749
 10
21.251951803
 20
78.2646392538
 10
21.2419950647
 20
78.2558021176
 10
21.2318134999
 20
78.2472330686
 10
21.2214155017
 20
78.2389391089
 10
21.2108094631
 20
78.2309272405
 10
21.2000037774
 20
78.2232044655
  0
LINE
  5
274
100
AcDbEntity
  8
0
100
AcDbLine
 62
7
  6
CONTINUOUS
 10
20.5207723587
 20
74.6718466806
 11
20.5207723587
 21
77.3948199861
  0
LWPOLYLINE
  5
275
100
AcDbEntity
  8
0
100
AcDbPolyline
 62
7
  6
CONTINUOUS
 90
29
 70
0
 10
38.4963698632
 20
87.4383308529
 10
38.4934197457
 20
87.4836775841
 10
38.4908410026
 20
87.5290476637
 10
38.488651625
 20
87.5744383816
 10
38.4869604372
 20
87.6172875627
 10
38.4856564034
 20
87.6601500648
 10
38.4847639399
 20
87.7030232443
 10
38.4843272738
 20
87.7429962853
 10
38.4843080669
 20
87.7829715444
 10
38.4847449109
 20
87.8229442582
 10
38.4855869668
 20
87.8597461007
 10
38.4868979433
 20
87.8965343247
 10
38.4887273226
 20
87.9333015091
 10
38.4902993918
 20
87.958350953
 10
38.4921651521
 20
87.9833800625
 10
38.4943543501
 20
88.0083817313
 10
38.4968967319
 20
88.033348853
 10
38.4995887582
 20
88.05638928
 10
38.5026441057
 20
88.0793841149
 10
38.5059019971
 20
88.1010805246
 10
38.5095551037
 20
88.1227139566
 10
38.5133985959
 20
88.1430546596
 10
38.5176614639
 20
88.1633111593
 10
38.5220912117
 20
88.1822979425
 10
38.5269563429
 20
88.2011790685
 10
38.5319785795
 20
88.2188409121
 10
38.5375226076
 20
88.2363428293
 10
38.5432684709
 20
88.2526499189
 10
38.5514956058
 20
88.274453655
  0
LWPOLYLINE
  5
276
100
AcDbEntity
  8
0
100
AcDbPolyline
 62
7
  6
CONTINUOUS
 90
29
 70
0
 10
53.5036301367
 20
64.6283358138
 10
53.5065802542
 20
64.5829890826
 10
53.5091589973
 20
64.537619003
 10
53.5113483749
 20
64.4922282851
 10
53.5130395627
 20
64.449379104
 10
53.5143435965
 20
64.4065166019
 10
53.5152360601
 20
64.3636434223
 10
53.5156727262
 20
64.3236703813
 10
53.5156919331
 20
64.2836951223
 10
53.515255089
 20
64.2437224085
 10
53.5144130331
 20
64.2069205659
 10
53.5131020566
 20
64.1701323419
 10
53.5112726773
 20
64.1333651575
 10
53.5097006082
 20
64.1083157136
 10
53.5078348478
 20
64.0832866041
 10
53.5056456499
 20
64.0582849353
 10
53.5031032681
 20
64.0333178137
 10
53.5004112417
 20
64.0102773867
 10
53.4973558942
 20
63.9872825518
 10
53.4940980028
 20
63.9655861421
 10
53.4904448962
 20
63.9439527101
 10
53.486601404
 20
63.923612007
 10
53.482338536
 20
63.9033555073
 10
53.4779087882
 20
63.8843687241
 10
53.473043657
 20
63.8654875981
 10
53.4680214204
 20
63.8478257545
 10
53.4624773923
 20
63.8303238373
 10
53.456731529
 20
63.8140167477
 10
53.4485043942
 20
63.7922130117
  0
LWPOLYLINE
  5
277
100
AcDbEntity
  8
0
100
AcDbPolyline
 62
7
  6
CONTINUOUS
 90
37
 70
0
 10
21.4155701528
 20
73.4372126741
 10
21.4152801753
 20
73.4504157379
 10
21.414635567
 20
73.4636166926
 10
21.4136377919
 20
73.4768045068
 10
21.4122883139
 20
73.489968149
 10
21.410588597
 20
73.503096588
 10
21.408540105
 20
73.5161787921
 10
21.4061443021
 20
73.5292037299
 10
21.403402652
 20
73.5421603701
 10
21.4003166188
 20
73.5550376811
 10
21.3968797404
 20
73.5678544795
 10
21.3931020915
 20
73.5805722373
 10
21.3889874041
 20
73.5931826918
 10
21.3845394103
 20
73.6056775803
 10
21.379761842
 20
73.6180486399
 10
21.3746584313
 20
73.630287608
 10
21.3692329103
 20
73.6423862217
 10
21.363489011
 20
73.6543362184
 10
21.3574304654
 20
73.6661293351
 10
21.3510478231
 20
73.6777811877
 10
21.3443581114
 20
73.689259815
 10
21.3373664545
 20
73.7005578139
 10
21.3300779768
 20
73.7116677813
 10
21.3224978026
 20
73.7225823142
 10
21.3146310563
 20
73.7332940095
 10
21.3064828621
 20
73.7437954642
 10
21.2980583444
 20
73.7540792751
 10
21.2893626274
 20
73.7641380392
 10
21.2803891269
 20
73.7739775028
 10
21.2711572272
 20
73.7835768877
 10
21.2616753215
 20
73.7929291917
 10
21.251951803
 20
73.8020274129
 10
21.2419950647
 20
73.810864549
 10
21.2318134999
 20
73.819433598
 10
21.2214155017
 20
73.8277275578
 10
21.2108094631
 20
73.8357394262
 10
21.2000037774
 20
73.8434622012
  0
LWPOLYLINE
  5
278
100
AcDbEntity
  8
0
100
AcDbPolyline
 62
7
  6
CONTINUOUS
 90
37
 70
0
 10
70.5844298472
 20
78.6294539926
 10
70.5847198247
 20
78.6162509288
 10
70.585364433
 20
78.6030499741
 10
70.5863622081
 20
78.5898621599
 10
70.5877116861
 20
78.5766985177
 10
70.589411403
 20
78.5635700787
 10
70.5914598949
 20
78.5504878746
 10
70.5938556979
 20
78.5374629368
 10
70.5965973479
 20
78.5245062966
 10
70.5996833811
 20
78.5116289856
 10
70.6031202595
 20
78.4988121872
 10
70.6068979084
 20
78.4860944294
 10
70.6110125958
 20
78.4734839749
 10
70.6154605896
 20
78.4609890864
 10
70.6202381579
 20
78.4486180268
 10
70.6253415686
 20
78.4363790587
 10
70.6307670896
 20
78.424280445
 10
70.6365109889
 20
78.4123304483
 10
70.6425695345
 20
78.4005373316
 10
70.6489521768
 20
78.388885479
 10
70.6556418885
 20
78.3774068517
 10
70.6626335454
 20
78.3661088528
 10
70.6699220231
 20
78.3549988854
 10
70.6775021973
 20
78.3440843525
 10
70.6853689436
 20
78.3333726572
 10
70.6935171378
 20
78.3228712025
 10
70.7019416556
 20
78.3125873916
 10
70.7106373725
 20
78.3025286274
 10
70.7196108731
 20
78.2926891639
 10
70.7288427728
 20
78.283089779
 10
70.7383246785
 20
78.2737374749
 10
70.748048197
 20
78.2646392538
 10
70.7580049352
 20
78.2558021176
 10
70.7681865001
 20
78.2472330686
 10
70.7785844983
 20
78.2389391089
 10
70.7891905369
 20
78.2309272405
 10
70.7999962226
 20
78.2232044655
  0
LWPOLYLINE
  5
279
100
AcDbEntity
  8
0
100
AcDbPolyline
 62
7
  6
CONTINUOUS
 90
47
 70
0
 10
21.4155701175
 20
67.2198255598
 10
21.4158122435
 20
67.2064940914
 10
21.4164127697
 20
67.1931670468
 10
21.4173697623
 20
67.1798559954
 10
21.4186812875
 20
67.1665725068
 10
21.4203454114
 20
67.1533281505
 10
21.4223602003
 20
67.140134496
 10
21.4247255348
 20
67.1269938937
 10
21.4274390816
 20
67.1139231359
 10
21.4304998673
 20
67.1009297146
 10
21.4339069182
 20
67.0880211217
 10
21.4376592609
 20
67.0752048492
 10
21.4417559218
 20
67.0624883891
 10
21.4466036336
 20
67.0487717659
 10
21.4518521941
 20
67.0351941096
 10
21.4574958043
 20
67.0217672985
 10
21.4635286652
 20
67.0085032113
 10
21.4699449777
 20
66.9954137264
 10
21.4767389429
 20
66.9825107224
 10
21.4839047616
 20
66.9698060779
 10
21.491436635
 20
66.9573116712
 10
21.4993287639
 20
66.9450393811
 10
21.5075753493
 20
66.9330010859
 10
21.5161705923
 20
66.9212086643
 10
21.5251109174
 20
66.9096698564
 10
21.5343844832
 20
66.8983977727
 10
21.5439814543
 20
66.8874012214
 10
21.553891995
 20
66.8766890108
 10
21.5641062696
 20
66.866269949
 10
21.5746144424
 20
66.8561528444
 10
21.5854066777
 20
66.8463465052
 10
21.59647314
 20
66.8368597395
 10
21.6078039935
 20
66.8277013556
 10
21.6193894026
 20
66.8188801618
 10
21.6312195317
 20
66.8104049663
 10
21.6423019162
 20
66.8029262864
 10
21.6535758605
 20
66.7957504015
 10
21.665034443
 20
66.7888802884
 10
21.6766707419
 20
66.7823189241
 10
21.6884778356
 20
66.7760692855
 10
21.7004488024
 20
66.7701343496
 10
21.7125704109
 20
66.7645199889
 10
21.7248382695
 20
66.759228058
 10
21.7372418234
 20
66.7542636037
 10
21.7497705181
 20
66.7496316729
 10
21.7624137988
 20
66.7453373127
 10
21.7751611108
 20
66.74138557
  0
LWPOLYLINE
  5
27A
100
AcDbEntity
  8
0
100
AcDbPolyline
 62
7
  6
CONTINUOUS
 90
47
 70
0
 10
70.5844298824
 20
84.8468411069
 10
70.5841877564
 20
84.8601725752
 10
70.5835872302
 20
84.8734996198
 10
70.5826302376
 20
84.8868106712
 10
70.5813187124
 20
84.9000941598
 10
70.5796545885
 20
84.9133385161
 10
70.5776397996
 20
84.9265321706
 10
70.5752744651
 20
84.9396727729
 10
70.5725609183
 20
84.9527435307
 10
70.5695001326
 20
84.9657369521
 10
70.5660930817
 20
84.978645545
 10
70.562340739
 20
84.9914618175
 10
70.5582440781
 20
85.0041782776
 10
70.5533963663
 20
85.0178949008
 10
70.5481478058
 20
85.0314725571
 10
70.5425041956
 20
85.0448993682
 10
70.5364713347
 20
85.0581634554
 10
70.5300550222
 20
85.0712529403
 10
70.523261057
 20
85.0841559443
 10
70.5160952383
 20
85.0968605888
 10
70.5085633649
 20
85.1093549955
 10
70.500671236
 20
85.1216272856
 10
70.4924246506
 20
85.1336655808
 10
70.4838294076
 20
85.1454580024
 10
70.4748890826
 20
85.1569968103
 10
70.4656155167
 20
85.168268894
 10
70.4560185456
 20
85.1792654453
 10
70.4461080049
 20
85.1899776559
 10
70.4358937304
 20
85.2003967177
 10
70.4253855576
 20
85.2105138223
 10
70.4145933222
 20
85.2203201615
 10
70.40352686
 20
85.2298069272
 10
70.3921960064
 20
85.2389653111
 10
70.3806105973
 20
85.2477865049
 10
70.3687804683
 20
85.2562617004
 10
70.3576980838
 20
85.2637403803
 10
70.3464241395
 20
85.2709162652
 10
70.334965557
 20
85.2777863783
 10
70.323329258
 20
85.2843477426
 10
70.3115221643
 20
85.2905973812
 10
70.2995511975
 20
85.2965323171
 10
70.287429589
 20
85.3021466778
 10
70.2751617305
 20
85.3074386087
 10
70.2627581765
 20
85.312403063
 10
70.2502294819
 20
85.3170349938
 10
70.2375862012
 20
85.321329354
 10
70.2248388891
 20
85.3252810967
  0
LWPOLYLINE
  5
27B
100
AcDbEntity
  8
0
100
AcDbPolyline
 62
7
  6
CONTINUOUS
 90
49
 70
0
 10
44.191274644
 20
76.0333333333
 10
44.1922448135
 20
75.9741790652
 10
44.1951529114
 20
75.9150724494
 10
44.1999959377
 20
75.8560886645
 10
44.2067696108
 20
75.7973013342
 10
44.2154652742
 20
75.7387716283
 10
44.2260730577
 20
75.6805591687
 10
44.2385823035
 20
75.6227233273
 10
44.2529782162
 20
75.5653269152
 10
44.269245164
 20
75.508432484
 10
44.2873665271
 20
75.4521021075
 10
44.3073220214
 20
75.3963950707
 10
44.3290903847
 20
75.3413701837
 10
44.3526490323
 20
75.287086347
 10
44.3779700784
 20
75.2336028516
 10
44.4050243146
 20
75.1809790791
 10
44.4337831994
 20
75.1292722699
 10
44.4642208537
 20
75.078531112
 10
44.4963120653
 20
75.0288021523
 10
44.5299873485
 20
74.9801910319
 10
44.5652456249
 20
74.9326894957
 10
44.6020454603
 20
74.88635093
 10
44.6403454202
 20
74.8412287208
 10
44.6801040703
 20
74.7973762543
 10
44.7212799762
 20
74.7548469168
 10
44.7638296961
 20
74.7136921019
 10
44.8077018158
 20
74.6739551789
 10
44.8528429141
 20
74.6356775251
 10
44.8991995698
 20
74.5989005177
 10
44.946718362
 20
74.5636655342
 10
44.9953458695
 20
74.530013952
 10
45.0450903052
 20
74.497946826
 10
45.0958459877
 20
74.4675334911
 10
45.1475663254
 20
74.4387990427
 10
45.2002025899
 20
74.4117692348
 10
45.2536975068
 20
74.3864724531
 10
45.3079916649
 20
74.3629377418
 10
45.3630257349
 20
74.3411928178
 10
45.418740824
 20
74.3212600479
 10
45.4750781222
 20
74.3031604729
 10
45.5319783958
 20
74.2869141394
 10
45.5893795746
 20
74.2725374372
 10
45.6472191611
 20
74.2600457496
 10
45.7054343762
 20
74.2494536122
 10
45.7639659773
 20
74.2407713493
 10
45.8227544502
 20
74.2340084883
 10
45.88173885
 20
74.2291733787
 10
45.9408456787
 20
74.2262701806
 10
46.0
 20
74.2253018019
  0
LWPOLYLINE
  5
27C
100
AcDbEntity
  8
0
100
AcDbPolyline
 62
7
  6
CONTINUOUS
 90
49
 70
0
 10
47.808725356
 20
76.0333333333
 10
47.8077551865
 20
76.0924876014
 10
47.8048470886
 20
76.1515942173
 10
47.8000040622
 20
76.2105780022
 10
47.7932303891
 20
76.2693653325
 10
47.7845347258
 20
76.3278950384
 10
47.7739269422
 20
76.386107498
 10
47.7614176964
 20
76.4439433394
 10
47.7470217837
 20
76.5013397515
 10
47.7307548359
 20
76.5582341827
 10
47.7126334728
 20
76.6145645592
 10
47.6926779785
 20
76.670271596
 10
47.6709096152
 20
76.725296483
 10
47.6473509676
 20
76.7795803197
 10
47.6220299215
 20
76.8330638151
 10
47.5949756853
 20
76.8856875876
 10
47.5662168005
 20
76.9373943968
 10
47.5357791462
 20
76.9881355547
 10
47.5036879346
 20
77.0378645144
 10
47.4700126514
 20
77.0864756348
 10
47.434754375
 20
77.133977171
 10
47.3979545396
 20
77.1803157367
 10
47.3596545797
 20
77.2254379459
 10
47.3198959296
 20
77.2692904124
 10
47.2787200237
 20
77.3118197499
 10
47.2361703038
 20
77.3529745648
 10
47.1922981842
 20
77.3927114878
 10
47.1471570859
 20
77.4309891416
 10
47.1008004301
 20
77.467766149
 10
47.053281638
 20
77.5030011324
 10
47.0046541305
 20
77.5366527147
 10
46.9549096948
 20
77.5687198406
 10
46.9041540123
 20
77.5991331755
 10
46.8524336746
 20
77.6278676239
 10
46.7997974101
 20
77.6548974319
 10
46.7463024931
 20
77.6801942136
 10
46.6920083351
 20
77.7037289249
 10
46.636974265
 20
77.7254738489
 10
46.5812591759
 20
77.7454066188
 10
46.5249218777
 20
77.7635061938
 10
46.4680216041
 20
77.7797525273
 10
46.4106204253
 20
77.7941292294
 10
46.3527808388
 20
77.8066209171
 10
46.2945656238
 20
77.8172130544
 10
46.2360340227
 20
77.8258953173
 10
46.1772455498
 20
77.8326581784
 10
46.11826115
 20
77.837493288
 10
46.0591543213
 20
77.8403964861
 10
46.0
 20
77.8413648648
  0
LINE
  5
27D
100
AcDbEntity
  8
0
100
AcDbLine
 62
7
  6
CONTINUOUS
 10
72.8591319396
 20
66.1169268765
 11
72.8757931561
 21
63.8683092076
  0
LWPOLYLINE
  5
27E
100
AcDbEntity
  8
0
100
AcDbPolyline
 62
7
  6
CONTINUOUS
 90
15
 70
0
 10
38.5572552769
 20
86.0354259329
 10
38.5562919031
 20
86.1680433857
 10
38.5545277166
 20
86.3006537618
 10
38.5519377522
 20
86.4332513924
 10
38.5486903513
 20
86.5589114737
 10
38.5446112364
 20
86.6845464963
 10
38.5396329562
 20
86.8101479438
 10
38.5355791369
 20
86.8979183222
 10
38.5310056832
 20
86.9856630423
 10
38.5262032216
 20
87.0678547704
 10
38.5208441229
 20
87.1500119905
 10
38.5153518378
 20
87.2257470233
 10
38.5092573393
 20
87.3014362252
 10
38.5031461296
 20
87.3699153428
 10
38.4963699248
 20
87.4383308177
  0
LWPOLYLINE
  5
27F
100
AcDbEntity
  8
0
100
AcDbPolyline
 62
7
  6
CONTINUOUS
 90
15
 70
0
 10
53.442744723
 20
66.0312407338
 10
53.4437080968
 20
65.898623281
 10
53.4454722833
 20
65.7660129048
 10
53.4480622477
 20
65.6334152742
 10
53.4513096486
 20
65.5077551929
 10
53.4553887635
 20
65.3821201704
 10
53.4603670438
 20
65.2565187229
 10
53.464420863
 20
65.1687483445
 10
53.4689943168
 20
65.0810036244
 10
53.4737967783
 20
64.9988118963
 10
53.479155877
 20
64.9166546762
 10
53.4846481621
 20
64.8409196434
 10
53.4907426606
 20
64.7652304415
 10
53.4968538703
 20
64.6967513239
 10
53.5036300751
 20
64.628335849
  0
LWPOLYLINE
  5
280
100
AcDbEntity
  8
0
100
AcDbPolyline
 62
7
  6
CONTINUOUS
 90
49
 70
0
 10
72.8757931561
 20
88.1983574591
 10
72.8755810366
 20
88.2282105036
 10
72.8744870316
 20
88.2580625419
 10
72.872508606
 20
88.2878819673
 10
72.8696432247
 20
88.3176371732
 10
72.8658883526
 20
88.3472965527
 10
72.8612414546
 20
88.3768284992
 10
72.8557078994
 20
88.4061682018
 10
72.8492850948
 20
88.4353221984
 10
72.8419762797
 20
88.4642634543
 10
72.8337846927
 20
88.4929649347
 10
72.8247135727
 20
88.5213996049
 10
72.8147661583
 20
88.54954043
 10
72.8039657611
 20
88.5773136134
 10
72.7923052148
 20
88.6047388253
 10
72.7797944892
 20
88.6317878947
 10
72.7664435537
 20
88.6584326504
 10
72.7522623777
 20
88.6846449213
 10
72.7372609308
 20
88.7103965361
 10
72.7214821022
 20
88.7356108522
 10
72.7049130167
 20
88.7603133656
 10
72.6875705474
 20
88.7844791878
 10
72.6694715674
 20
88.8080834299
 10
72.6506329497
 20
88.8311012032
 10
72.6310715674
 20
88.8535076189
 10
72.6108448333
 20
88.875237433
 10
72.5899374431
 20
88.8963136184
 10
72.5683719238
 20
88.9167163519
 10
72.5461708026
 20
88.9364258099
 10
72.5233566066
 20
88.9554221691
 10
72.499951863
 20
88.9736856061
 10
72.4760179086
 20
88.9911704658
 10
72.4515443296
 20
89.0078917444
 10
72.4265577378
 20
89.0238362423
 10
72.4010847448
 20
89.0389907596
 10
72.3751519624
 20
89.0533420968
 10
72.3487860024
 20
89.066877054
 10
72.3220403156
 20
89.0795713485
 10
72.294915158
 20
89.0914315414
 10
72.2674368145
 20
89.1024514576
 10
72.23963157
 20
89.1126249224
 10
72.2115257095
 20
89.1219457606
 10
72.1831455178
 20
89.1304077974
 10
72.1545275358
 20
89.1380034344
 10
72.1256930222
 20
89.1447340172
 10
72.0966733294
 20
89.1505989019
 10
72.0674998096
 20
89.1555974447
 10
72.0382038151
 20
89.1597290017
 10
72.0088166982
 20
89.1629929291
  0
LWPOLYLINE
  5
281
100
AcDbEntity
  8
0
100
AcDbPolyline
 62
7
  6
CONTINUOUS
 90
12
 70
0
 10
38.5294282687
 20
86.0030215339
 10
38.5289648928
 20
86.1905420872
 10
38.5275317398
 20
86.3780582024
 10
38.5260245831
 20
86.5011723945
 10
38.5240411857
 20
86.6242797365
 10
38.5215579494
 20
86.7473779306
 10
38.518661054
 20
86.8661970343
 10
38.5152342375
 20
86.9850021202
 10
38.5112353482
 20
87.1037898365
 10
38.5069153323
 20
87.215331876
 10
38.5019835303
 20
87.3268480619
 10
38.4963699248
 20
87.4383308177
  0
LWPOLYLINE
  5
282
100
AcDbEntity
  8
0
100
AcDbPolyline
 62
7
  6
CONTINUOUS
 90
12
 70
0
 10
53.4705717312
 20
66.0636451327
 10
53.4710351071
 20
65.8761245794
 10
53.4724682601
 20
65.6886084643
 10
53.4739754168
 20
65.5654942721
 10
53.4759588142
 20
65.4423869301
 10
53.4784420506
 20
65.3192887361
 10
53.481338946
 20
65.2004696324
 10
53.4847657624
 20
65.0816645465
 10
53.4887646517
 20
64.9628768302
 10
53.4930846676
 20
64.8513347906
 10
53.4980164696
 20
64.7398186047
 10
53.5036300751
 20
64.628335849
  0
LWPOLYLINE
  5
283
100
AcDbEntity
  8
0
100
AcDbPolyline
 62
7
  6
CONTINUOUS
 90
5
 70
0
 10
38.5832678641
 20
76.0333333724
 10
38.5813935432
 20
78.5351269587
 10
38.5758129665
 20
81.0361978851
 10
38.5674110622
 20
83.5362392662
 10
38.5572552769
 20
86.0354259329
  0
LWPOLYLINE
  5
284
100
AcDbEntity
  8
0
100
AcDbPolyline
 62
7
  6
CONTINUOUS
 90
5
 70
0
 10
53.4167321358
 20
76.0333332943
 10
53.4186064567
 20
73.531539708
 10
53.4241870334
 20
71.0304687815
 10
53.4325889377
 20
68.5304274004
 10
53.442744723
 20
66.0312407338
  0
LINE
  5
285
100
AcDbEntity
  8
0
100
AcDbLine
 62
7
  6
CONTINUOUS
 10
21.4155701029
 20
73.4372126642
 11
21.4155701029
 21
67.2198255404
  0
LINE
  5
286
100
AcDbEntity
  8
0
100
AcDbLine
 62
7
  6
CONTINUOUS
 10
21.4155701029
 20
78.6294540024
 11
21.4155701029
 21
84.8468411263
  0
LINE
  5
287
100
AcDbEntity
  8
0
100
AcDbLine
 62
7
  6
CONTINUOUS
 10
38.5294282687
 20
66.0636451327
 11
38.5294282687
 21
86.0030215339
  0
LINE
  5
288
100
AcDbEntity
  8
DEFAULT_1
100
AcDbLine
 62
7
  6
CENTER
 10
46.0
 20
69.7037091333
 11
46.0
 21
82.3629575333
  0
LINE
  5
289
100
AcDbEntity
  8
0
100
AcDbLine
 62
7
  6
CONTINUOUS
 10
46.1132105188
 20
88.7475544591
 11
46.1132105188
 21
88.7369447468
  0
LINE
  5
28A
100
AcDbEntity
  8
0
100
AcDbLine
 62
7
  6
CONTINUOUS
 10
46.1132105188
 20
63.3191122076
 11
46.1132105188
 21
63.3297219198
  0
LINE
  5
28B
100
AcDbEntity
  8
0
100
AcDbLine
 62
7
  6
CONTINUOUS
 10
53.4705717312
 20
66.0636451327
 11
53.4705717312
 21
86.0030215339
  0
LINE
  5
28C
100
AcDbEntity
  8
0
100
AcDbLine
 62
7
  6
CONTINUOUS
 10
70.584429897
 20
73.4372126642
 11
70.584429897
 21
67.2198255404
  0
LINE
  5
28D
100
AcDbEntity
  8
0
100
AcDbLine
 62
7
  6
CONTINUOUS
 10
70.584429897
 20
78.6294540024
 11
70.584429897
 21
84.8468411263
  0
LINE
  5
28E
100
AcDbEntity
  8
0
100
AcDbLine
 62
7
  6
CONTINUOUS
 10
71.4792276413
 20
77.3948199861
 11
71.4792276413
 21
74.6718466806
  0
LINE
  5
28F
100
AcDbEntity
  8
0
100
AcDbLine
 62
7
  6
CONTINUOUS
 10
77.8640682208
 20
90.0255111956
 11
77.8640682208
 21
62.0411554711
  0
LINE
  5
290
100
AcDbEntity
  8
0
100
AcDbLine
 62
7
  6
CONTINUOUS
 10
81.669291538
 20
56.6451417893
 11
81.669291538
 21
95.4215248773
  0
LINE
  5
291
100
AcDbEntity
  8
0
100
AcDbLine
 62
7
  6
CONTINUOUS
 10
82.0
 20
95.5352359843
 11
82.0
 21
56.5314306824
  0
LWPOLYLINE
  5
292
100
AcDbEntity
  8
0
100
AcDbPolyline
 62
7
  6
CONTINUOUS
 90
5
 70
0
 10
38.5832678641
 20
76.0333333724
 10
38.5813945751
 20
73.5315363114
 10
38.5758143878
 20
71.0304629713
 10
38.567411405
 20
68.5304226935
 10
38.5572552769
 20
66.0312407338
  0
LWPOLYLINE
  5
293
100
AcDbEntity
  8
0
100
AcDbPolyline
 62
7
  6
CONTINUOUS
 90
5
 70
0
 10
53.4167321358
 20
76.0333332943
 10
53.4186054248
 20
78.5351303552
 10
53.4241856122
 20
81.0362036954
 10
53.4325885949
 20
83.5362439732
 10
53.442744723
 20
86.0354259329
  0
LWPOLYLINE
  5
294
100
AcDbEntity
  8
0
100
AcDbPolyline
 62
7
  6
CONTINUOUS
 90
12
 70
0
 10
38.5294282687
 20
66.0636451327
 10
38.5289648928
 20
65.8761245794
 10
38.5275317398
 20
65.6886084643
 10
38.5260245831
 20
65.5654942721
 10
38.5240411857
 20
65.4423869301
 10
38.5215579494
 20
65.3192887361
 10
38.518661054
 20
65.2004696324
 10
38.5152342375
 20
65.0816645465
 10
38.5112353482
 20
64.9628768302
 10
38.5069153323
 20
64.8513347906
 10
38.5019835303
 20
64.7398186047
 10
38.4963699248
 20
64.628335849
  0
LWPOLYLINE
  5
295
100
AcDbEntity
  8
0
100
AcDbPolyline
 62
7
  6
CONTINUOUS
 90
12
 70
0
 10
53.4705717312
 20
86.0030215339
 10
53.4710351071
 20
86.1905420872
 10
53.4724682601
 20
86.3780582024
 10
53.4739754168
 20
86.5011723945
 10
53.4759588142
 20
86.6242797365
 10
53.4784420506
 20
86.7473779306
 10
53.481338946
 20
86.8661970343
 10
53.4847657624
 20
86.9850021202
 10
53.4887646517
 20
87.1037898365
 10
53.4930846676
 20
87.215331876
 10
53.4980164696
 20
87.3268480619
 10
53.5036300751
 20
87.4383308177
  0
LWPOLYLINE
  5
296
100
AcDbEntity
  8
0
100
AcDbPolyline
 62
7
  6
CONTINUOUS
 90
49
 70
0
 10
72.8757931561
 20
63.8683092076
 10
72.8755810366
 20
63.8384561631
 10
72.8744870316
 20
63.8086041248
 10
72.872508606
 20
63.7787846994
 10
72.8696432247
 20
63.7490294935
 10
72.8658883526
 20
63.719370114
 10
72.8612414546
 20
63.6898381675
 10
72.8557078994
 20
63.6604984649
 10
72.8492850948
 20
63.6313444683
 10
72.8419762797
 20
63.6024032124
 10
72.8337846927
 20
63.573701732
 10
72.8247135727
 20
63.5452670618
 10
72.8147661583
 20
63.5171262367
 10
72.8039657611
 20
63.4893530533
 10
72.7923052148
 20
63.4619278414
 10
72.7797944892
 20
63.434878772
 10
72.7664435537
 20
63.4082340163
 10
72.7522623777
 20
63.3820217454
 10
72.7372609308
 20
63.3562701306
 10
72.7214821022
 20
63.3310558145
 10
72.7049130167
 20
63.306353301
 10
72.6875705474
 20
63.2821874789
 10
72.6694715674
 20
63.2585832368
 10
72.6506329497
 20
63.2355654635
 10
72.6310715674
 20
63.2131590477
 10
72.6108448333
 20
63.1914292336
 10
72.5899374431
 20
63.1703530482
 10
72.5683719238
 20
63.1499503148
 10
72.5461708026
 20
63.1302408568
 10
72.5233566066
 20
63.1112444976
 10
72.499951863
 20
63.0929810606
 10
72.4760179086
 20
63.0754962009
 10
72.4515443296
 20
63.0587749223
 10
72.4265577378
 20
63.0428304244
 10
72.4010847448
 20
63.027675907
 10
72.3751519624
 20
63.0133245698
 10
72.3487860024
 20
62.9997896127
 10
72.3220403156
 20
62.9870953181
 10
72.294915158
 20
62.9752351252
 10
72.2674368145
 20
62.964215209
 10
72.23963157
 20
62.9540417442
 10
72.2115257095
 20
62.944720906
 10
72.1831455178
 20
62.9362588692
 10
72.1545275358
 20
62.9286632322
 10
72.1256930222
 20
62.9219326494
 10
72.0966733294
 20
62.9160677647
 10
72.0674998096
 20
62.9110692219
 10
72.0382038151
 20
62.9069376649
 10
72.0088166982
 20
62.9036737375
  0
LWPOLYLINE
  5
297
100
AcDbEntity
  8
0
100
AcDbPolyline
 62
7
  6
CONTINUOUS
 90
15
 70
0
 10
38.5572552769
 20
66.0312407338
 10
38.5562919031
 20
65.898623281
 10
38.5545277166
 20
65.7660129048
 10
38.5519377522
 20
65.6334152742
 10
38.5486903513
 20
65.5077551929
 10
38.5446112364
 20
65.3821201704
 10
38.5396329562
 20
65.2565187229
 10
38.5355791369
 20
65.1687483445
 10
38.5310056832
 20
65.0810036244
 10
38.5262032216
 20
64.9988118963
 10
38.5208441229
 20
64.9166546762
 10
38.5153518378
 20
64.8409196434
 10
38.5092573393
 20
64.7652304415
 10
38.5031461296
 20
64.6967513239
 10
38.4963699248
 20
64.628335849
  0
LWPOLYLINE
  5
298
100
AcDbEntity
  8
0
100
AcDbPolyline
 62
7
  6
CONTINUOUS
 90
15
 70
0
 10
53.442744723
 20
86.0354259329
 10
53.4437080968
 20
86.1680433857
 10
53.4454722833
 20
86.3006537618
 10
53.4480622477
 20
86.4332513924
 10
53.4513096486
 20
86.5589114737
 10
53.4553887635
 20
86.6845464963
 10
53.4603670438
 20
86.8101479438
 10
53.464420863
 20
86.8979183222
 10
53.4689943168
 20
86.9856630423
 10
53.4737967783
 20
87.0678547704
 10
53.479155877
 20
87.1500119905
 10
53.4846481621
 20
87.2257470233
 10
53.4907426606
 20
87.3014362252
 10
53.4968538703
 20
87.3699153428
 10
53.5036300751
 20
87.4383308177
  0
LINE
  5
299
100
AcDbEntity
  8
0
100
AcDbLine
 62
7
  6
CONTINUOUS
 10
72.8591319396
 20
85.9497397901
 11
72.8757931561
 21
88.1983574591
  0
LWPOLYLINE
  5
29A
100
AcDbEntity
  8
0
100
AcDbPolyline
 62
7
  6
CONTINUOUS
 90
49
 70
0
 10
44.191274644
 20
76.0333333333
 10
44.1922448135
 20
76.0924876014
 10
44.1951529114
 20
76.1515942173
 10
44.1999959377
 20
76.2105780022
 10
44.2067696108
 20
76.2693653325
 10
44.2154652742
 20
76.3278950384
 10
44.2260730577
 20
76.386107498
 10
44.2385823035
 20
76.4439433394
 10
44.2529782162
 20
76.5013397515
 10
44.269245164
 20
76.5582341827
 10
44.2873665271
 20
76.6145645592
 10
44.3073220214
 20
76.670271596
 10
44.3290903847
 20
76.725296483
 10
44.3526490323
 20
76.7795803197
 10
44.3779700784
 20
76.8330638151
 10
44.4050243146
 20
76.8856875876
 10
44.4337831994
 20
76.9373943968
 10
44.4642208537
 20
76.9881355547
 10
44.4963120653
 20
77.0378645144
 10
44.5299873485
 20
77.0864756348
 10
44.5652456249
 20
77.133977171
 10
44.6020454603
 20
77.1803157367
 10
44.6403454202
 20
77.2254379459
 10
44.6801040703
 20
77.2692904124
 10
44.7212799762
 20
77.3118197499
 10
44.7638296961
 20
77.3529745648
 10
44.8077018158
 20
77.3927114878
 10
44.8528429141
 20
77.4309891416
 10
44.8991995698
 20
77.467766149
 10
44.946718362
 20
77.5030011324
 10
44.9953458695
 20
77.5366527147
 10
45.0450903052
 20
77.5687198406
 10
45.0958459877
 20
77.5991331755
 10
45.1475663254
 20
77.6278676239
 10
45.2002025899
 20
77.6548974319
 10
45.2536975068
 20
77.6801942136
 10
45.3079916649
 20
77.7037289249
 10
45.3630257349
 20
77.7254738489
 10
45.418740824
 20
77.7454066188
 10
45.4750781222
 20
77.7635061938
 10
45.5319783958
 20
77.7797525273
 10
45.5893795746
 20
77.7941292294
 10
45.6472191611
 20
77.8066209171
 10
45.7054343762
 20
77.8172130544
 10
45.7639659773
 20
77.8258953173
 10
45.8227544502
 20
77.8326581784
 10
45.88173885
 20
77.837493288
 10
45.9408456787
 20
77.8403964861
 10
46.0
 20
77.8413648648
  0
LWPOLYLINE
  5
29B
100
AcDbEntity
  8
0
100
AcDbPolyline
 62
7
  6
CONTINUOUS
 90
49
 70
0
 10
47.808725356
 20
76.0333333333
 10
47.8077551865
 20
75.9741790652
 10
47.8048470886
 20
75.9150724494
 10
47.8000040622
 20
75.8560886645
 10
47.7932303891
 20
75.7973013342
 10
47.7845347258
 20
75.7387716283
 10
47.7739269422
 20
75.6805591687
 10
47.7614176964
 20
75.6227233273
 10
47.7470217837
 20
75.5653269152
 10
47.7307548359
 20
75.508432484
 10
47.7126334728
 20
75.4521021075
 10
47.6926779785
 20
75.3963950707
 10
47.6709096152
 20
75.3413701837
 10
47.6473509676
 20
75.287086347
 10
47.6220299215
 20
75.2336028516
 10
47.5949756853
 20
75.1809790791
 10
47.5662168005
 20
75.1292722699
 10
47.5357791462
 20
75.078531112
 10
47.5036879346
 20
75.0288021523
 10
47.4700126514
 20
74.9801910319
 10
47.434754375
 20
74.9326894957
 10
47.3979545396
 20
74.88635093
 10
47.3596545797
 20
74.8412287208
 10
47.3198959296
 20
74.7973762543
 10
47.2787200237
 20
74.7548469168
 10
47.2361703038
 20
74.7136921019
 10
47.1922981842
 20
74.6739551789
 10
47.1471570859
 20
74.6356775251
 10
47.1008004301
 20
74.5989005177
 10
47.053281638
 20
74.5636655342
 10
47.0046541305
 20
74.530013952
 10
46.9549096948
 20
74.497946826
 10
46.9041540123
 20
74.4675334911
 10
46.8524336746
 20
74.4387990427
 10
46.7997974101
 20
74.4117692348
 10
46.7463024931
 20
74.3864724531
 10
46.6920083351
 20
74.3629377418
 10
46.636974265
 20
74.3411928178
 10
46.5812591759
 20
74.3212600479
 10
46.5249218777
 20
74.3031604729
 10
46.4680216041
 20
74.2869141394
 10
46.4106204253
 20
74.2725374372
 10
46.3527808388
 20
74.2600457496
 10
46.2945656238
 20
74.2494536122
 10
46.2360340227
 20
74.2407713493
 10
46.1772455498
 20
74.2340084883
 10
46.11826115
 20
74.2291733787
 10
46.0591543213
 20
74.2262701806
 10
46.0
 20
74.2253018019
  0
LWPOLYLINE
  5
29C
100
AcDbEntity
  8
0
100
AcDbPolyline
 62
7
  6
CONTINUOUS
 90
47
 70
0
 10
70.5844298824
 20
67.2198255598
 10
70.5841877564
 20
67.2064940914
 10
70.5835872302
 20
67.1931670468
 10
70.5826302376
 20
67.1798559954
 10
70.5813187124
 20
67.1665725068
 10
70.5796545885
 20
67.1533281505
 10
70.5776397996
 20
67.140134496
 10
70.5752744651
 20
67.1269938937
 10
70.5725609183
 20
67.1139231359
 10
70.5695001326
 20
67.1009297146
 10
70.5660930817
 20
67.0880211217
 10
70.562340739
 20
67.0752048492
 10
70.5582440781
 20
67.0624883891
 10
70.5533963663
 20
67.0487717659
 10
70.5481478058
 20
67.0351941096
 10
70.5425041956
 20
67.0217672985
 10
70.5364713347
 20
67.0085032113
 10
70.5300550222
 20
66.9954137264
 10
70.523261057
 20
66.9825107224
 10
70.5160952383
 20
66.9698060779
 10
70.5085633649
 20
66.9573116712
 10
70.500671236
 20
66.9450393811
 10
70.4924246506
 20
66.9330010859
 10
70.4838294076
 20
66.9212086643
 10
70.4748890826
 20
66.9096698564
 10
70.4656155167
 20
66.8983977727
 10
70.4560185456
 20
66.8874012214
 10
70.4461080049
 20
66.8766890108
 10
70.4358937304
 20
66.866269949
 10
70.4253855576
 20
66.8561528444
 10
70.4145933222
 20
66.8463465052
 10
70.40352686
 20
66.8368597395
 10
70.3921960064
 20
66.8277013556
 10
70.3806105973
 20
66.8188801618
 10
70.3687804683
 20
66.8104049663
 10
70.3576980838
 20
66.8029262864
 10
70.3464241395
 20
66.7957504015
 10
70.334965557
 20
66.7888802884
 10
70.323329258
 20
66.7823189241
 10
70.3115221643
 20
66.7760692855
 10
70.2995511975
 20
66.7701343496
 10
70.287429589
 20
66.7645199889
 10
70.2751617305
 20
66.759228058
 10
70.2627581765
 20
66.7542636037
 10
70.2502294819
 20
66.7496316729
 10
70.2375862012
 20
66.7453373127
 10
70.2248388891
 20
66.74138557
  0
LWPOLYLINE
  5
29D
100
AcDbEntity
  8
0
100
AcDbPolyline
 62
7
  6
CONTINUOUS
 90
37
 70
0
 10
70.5844298472
 20
73.4372126741
 10
70.5847198247
 20
73.4504157379
 10
70.585364433
 20
73.4636166926
 10
70.5863622081
 20
73.4768045068
 10
70.5877116861
 20
73.489968149
 10
70.589411403
 20
73.503096588
 10
70.5914598949
 20
73.5161787921
 10
70.5938556979
 20
73.5292037299
 10
70.5965973479
 20
73.5421603701
 10
70.5996833811
 20
73.5550376811
 10
70.6031202595
 20
73.5678544795
 10
70.6068979084
 20
73.5805722373
 10
70.6110125958
 20
73.5931826918
 10
70.6154605896
 20
73.6056775803
 10
70.6202381579
 20
73.6180486399
 10
70.6253415686
 20
73.630287608
 10
70.6307670896
 20
73.6423862217
 10
70.6365109889
 20
73.6543362184
 10
70.6425695345
 20
73.6661293351
 10
70.6489521768
 20
73.6777811877
 10
70.6556418885
 20
73.689259815
 10
70.6626335454
 20
73.7005578139
 10
70.6699220231
 20
73.7116677813
 10
70.6775021973
 20
73.7225823142
 10
70.6853689436
 20
73.7332940095
 10
70.6935171378
 20
73.7437954642
 10
70.7019416556
 20
73.7540792751
 10
70.7106373725
 20
73.7641380392
 10
70.7196108731
 20
73.7739775028
 10
70.7288427728
 20
73.7835768877
 10
70.7383246785
 20
73.7929291917
 10
70.748048197
 20
73.8020274129
 10
70.7580049352
 20
73.810864549
 10
70.7681865001
 20
73.819433598
 10
70.7785844983
 20
73.8277275578
 10
70.7891905369
 20
73.8357394262
 10
70.7999962226
 20
73.8434622012
  0
LWPOLYLINE
  5
29E
100
AcDbEntity
  8
0
100
AcDbPolyline
 62
7
  6
CONTINUOUS
 90
28
 70
0
 10
38.4963698632
 20
64.6283358138
 10
38.4934197457
 20
64.5829890826
 10
38.4908410026
 20
64.537619003
 10
38.488651625
 20
64.4922282851
 10
38.4869604372
 20
64.449379104
 10
38.4856564034
 20
64.4065166019
 10
38.4847639399
 20
64.3636434223
 10
38.4843272738
 20
64.3236703813
 10
38.4843080669
 20
64.2836951223
 10
38.4847449109
 20
64.2437224085
 10
38.4855869668
 20
64.2069205659
 10
38.4868979433
 20
64.1701323419
 10
38.4887273226
 20
64.1333651575
 10
38.4902993918
 20
64.1083157136
 10
38.4921651521
 20
64.0832866041
 10
38.4943543501
 20
64.0582849353
 10
38.4968967319
 20
64.0333178137
 10
38.4995887582
 20
64.0102773867
 10
38.5026441057
 20
63.9872825518
 10
38.5059019971
 20
63.9655861421
 10
38.5095551037
 20
63.9439527101
 10
38.5133985959
 20
63.923612007
 10
38.5176614639
 20
63.9033555073
 10
38.5220912117
 20
63.8843687241
 10
38.5269563429
 20
63.8654875981
 10
38.5319785795
 20
63.8478257545
 10
38.5375226076
 20
63.8303238373
 10
38.5432684709
 20
63.8140167477
  0
LWPOLYLINE
  5
29F
100
AcDbEntity
  8
0
100
AcDbPolyline
 62
7
  6
CONTINUOUS
 90
28
 70
0
 10
53.5036301367
 20
87.4383308529
 10
53.5065802542
 20
87.4836775841
 10
53.5091589973
 20
87.5290476637
 10
53.5113483749
 20
87.5744383816
 10
53.5130395627
 20
87.6172875627
 10
53.5143435965
 20
87.6601500648
 10
53.5152360601
 20
87.7030232443
 10
53.5156727262
 20
87.7429962853
 10
53.5156919331
 20
87.7829715444
 10
53.515255089
 20
87.8229442582
 10
53.5144130331
 20
87.8597461007
 10
53.5131020566
 20
87.8965343247
 10
53.5112726773
 20
87.9333015091
 10
53.5097006082
 20
87.958350953
 10
53.5078348478
 20
87.9833800625
 10
53.5056456499
 20
88.0083817313
 10
53.5031032681
 20
88.033348853
 10
53.5004112417
 20
88.05638928
 10
53.4973558942
 20
88.0793841149
 10
53.4940980028
 20
88.1010805246
 10
53.4904448962
 20
88.1227139566
 10
53.486601404
 20
88.1430546596
 10
53.482338536
 20
88.1633111593
 10
53.4779087882
 20
88.1822979425
 10
53.473043657
 20
88.2011790685
 10
53.4680214204
 20
88.2188409121
 10
53.4624773923
 20
88.2363428293
 10
53.456731529
 20
88.2526499189
  0
LWPOLYLINE
  5
2A0
100
AcDbEntity
  8
0
100
AcDbPolyline
 62
7
  6
CONTINUOUS
 90
38
 70
0
 10
44.8125
 20
61.0559448903
 10
44.8128837277
 20
61.0590568778
 10
44.8139305716
 20
61.0620355435
 10
44.815827745
 20
61.0652454723
 10
44.8182181776
 20
61.0681115261
 10
44.8216345269
 20
61.071313954
 10
44.8253530416
 20
61.0741582005
 10
44.8302373534
 20
61.0773215263
 10
44.8353175918
 20
61.0801609956
 10
44.8416371838
 20
61.0832742861
 10
44.8480879658
 20
61.0861054525
 10
44.8558140908
 20
61.0891646075
 10
44.8636335253
 20
61.0919772496
 10
44.8727405358
 20
61.0949786421
 10
44.8819164675
 20
61.0977622529
 10
44.9028932483
 20
61.1034464988
 10
44.9277294621
 20
61.1092912012
 10
44.9527186813
 20
61.1144582867
 10
44.9826255642
 20
61.119965201
 10
45.0126299629
 20
61.1249065653
 10
45.0473049517
 20
61.1300460538
 10
45.0820501714
 20
61.1346907131
 10
45.1211551064
 20
61.1394238725
 10
45.1603107623
 20
61.1437164988
 10
45.2034653779
 20
61.1480072303
 10
45.2466580595
 20
61.1518969945
 10
45.2934448964
 20
61.1557105316
 10
45.3402604868
 20
61.1591534218
 10
45.3902276079
 20
61.1624586259
 10
45.4402165233
 20
61.1654158949
 10
45.492881865
 20
61.1681847774
 10
45.5455636098
 20
61.1706241083
 10
45.619800033
 20
61.1735415374
 10
45.6940575396
 20
61.1758850864
 10
45.7683306879
 20
61.1776877465
 10
45.8455482991
 20
61.1790190693
 10
45.9227727854
 20
61.1798109755
 10
46.0
 20
61.1800728572
  0
LWPOLYLINE
  5
2A1
100
AcDbEntity
  8
0
100
AcDbPolyline
 62
7
  6
CONTINUOUS
 90
38
 70
0
 10
47.1875
 20
61.055944885
 10
47.1871162731
 20
61.0528328966
 10
47.1860694308
 20
61.0498542298
 10
47.1841722561
 20
61.0466442971
 10
47.1817818202
 20
61.0437782406
 10
47.1783654591
 20
61.040575806
 10
47.1746469313
 20
61.0377315549
 10
47.1697625974
 20
61.0345682208
 10
47.1646823361
 20
61.0317287452
 10
47.1583627092
 20
61.0286154484
 10
47.1519118917
 20
61.0257842772
 10
47.1441857524
 20
61.0227251245
 10
47.1363663043
 20
61.0199124841
 10
47.1272592842
 20
61.0169110999
 10
47.1180833427
 20
61.0141274988
 10
47.0971065645
 20
61.0084432741
 10
47.0722703533
 20
61.0025985949
 10
47.0472811369
 20
60.9974315337
 10
47.017374265
 20
60.9919246486
 10
46.9873698781
 20
60.9869833127
 10
46.95269491
 20
60.9818438585
 10
46.9179497114
 20
60.9771992339
 10
46.8788448028
 20
60.9724661139
 10
46.8396891738
 20
60.9681735275
 10
46.7965345854
 20
60.9638828397
 10
46.7533419314
 20
60.9599931196
 10
46.7065551188
 20
60.9561796296
 10
46.6597395531
 20
60.9527367861
 10
46.60977245
 20
60.9494316306
 10
46.559783553
 20
60.9464744091
 10
46.5071182205
 20
60.9437055742
 10
46.4544364855
 20
60.9412662888
 10
46.3802000549
 20
60.9383489181
 10
46.3059425416
 20
60.9360054208
 10
46.2316693873
 20
60.934202804
 10
46.1544517507
 20
60.9328715154
 10
46.0772272394
 20
60.9320796309
 10
46.0
 20
60.9318177569
  0
LWPOLYLINE
  5
2A2
100
AcDbEntity
  8
0
100
AcDbPolyline
 62
7
  6
CONTINUOUS
 90
39
 70
0
 10
53.4485043942
 20
63.7922130117
 10
53.4464703088
 20
63.7865531214
 10
53.444529684
 20
63.7808598294
 10
53.4426887391
 20
63.7751332898
 10
53.4409536933
 20
63.7693736568
 10
53.4393307661
 20
63.7635810846
 10
53.4380497382
 20
63.7586531983
 10
53.4368589729
 20
63.7537027306
 10
53.4357639715
 20
63.748730583
 10
53.434770235
 20
63.7437376566
 10
53.4338832648
 20
63.738724853
 10
53.4331085619
 20
63.7336930736
 10
53.4325411356
 20
63.7293902345
 10
53.432063436
 20
63.7250762148
 10
53.4316796335
 20
63.7207529645
 10
53.4313938986
 20
63.7164224337
 10
53.4312104017
 20
63.7120865726
 10
53.4311333135
 20
63.7077473311
 10
53.4311700261
 20
63.7032480259
 10
53.4313292688
 20
63.6987512058
 10
53.4316147465
 20
63.6942608927
 10
53.4320301639
 20
63.6897811086
 10
53.4325792259
 20
63.6853158754
 10
53.4331748956
 20
63.6814053111
 10
53.4338767974
 20
63.6775123087
 10
53.4346849922
 20
63.6736400735
 10
53.4355995409
 20
63.6697918104
 10
53.4366205046
 20
63.6659707248
 10
53.4378866655
 20
63.6617360047
 10
53.4392806445
 20
63.6575416696
 10
53.4407972662
 20
63.6533901552
 10
53.4424313548
 20
63.6492838973
 10
53.444002943
 20
63.6456160284
 10
53.4456579884
 20
63.6419852158
 10
53.4473883738
 20
63.6383896224
 10
53.4491859817
 20
63.6348274112
 10
53.451424758
 20
63.6305811516
 10
53.4537239979
 20
63.626367473
 10
53.4560585906
 20
63.6221732848
  0
LWPOLYLINE
  5
2A3
100
AcDbEntity
  8
0
100
AcDbPolyline
 62
7
  6
CONTINUOUS
 90
49
 70
0
 10
74.3250416643
 20
74.8693169279
 10
74.3420241408
 20
74.8739319109
 10
74.3588224534
 20
74.879214671
 10
74.3754044748
 20
74.8851568778
 10
74.3917380777
 20
74.8917502012
 10
74.4075863015
 20
74.8988852373
 10
74.4231464606
 20
74.9066230616
 10
74.4384037633
 20
74.9149403409
 10
74.4533434173
 20
74.9238137418
 10
74.4681232408
 20
74.9333336597
 10
74.4825574759
 20
74.9433703414
 10
74.496640895
 20
74.9538950692
 10
74.5103682704
 20
74.9648791252
 10
74.5241168006
 20
74.9766300577
 10
74.5374876147
 20
74.9888080593
 10
74.5504854416
 20
75.0013843508
 10
74.5631150099
 20
75.0143301532
 10
74.5800126651
 20
75.032824766
 10
74.5962313199
 20
75.0519170202
 10
74.6117896501
 20
75.0715506335
 10
74.6273286171
 20
75.0925390315
 10
74.6421968258
 20
75.1140083353
 10
74.656420988
 20
75.1359121734
 10
74.6708650986
 20
75.1596260816
 10
74.6846364122
 20
75.1837431584
 10
74.6977598304
 20
75.2082278792
 10
74.7102602544
 20
75.2330447193
 10
74.7221625858
 20
75.258158154
 10
74.733491726
 20
75.2835326589
 10
74.7473089081
 20
75.3166310993
 10
74.7602467658
 20
75.3500732294
 10
74.7723400268
 20
75.383826733
 10
74.7836234188
 20
75.4178592939
 10
74.7941316694
 20
75.4521385957
 10
74.8044447167
 20
75.4886552113
 10
74.8139511757
 20
75.5253893976
 10
74.8226738728
 20
75.5623185259
 10
74.8306356344
 20
75.5994199673
 10
74.8378592868
 20
75.6366710931
 10
74.8446103955
 20
75.6755383452
 10
74.8506055782
 20
75.7145277641
 10
74.8558621583
 20
75.7536241641
 10
74.8603974587
 20
75.79281236
 10
74.8642288028
 20
75.8320771663
 10
74.8674324089
 20
75.8722578442
 10
74.8699264636
 20
75.9124882212
 10
74.8717181793
 20
75.9527538759
 10
74.8728147682
 20
75.993040387
 10
74.8732234426
 20
76.0333333333
  0
LWPOLYLINE
  5
2A4
100
AcDbEntity
  8
0
100
AcDbPolyline
 62
7
  6
CONTINUOUS
 90
49
 70
0
 10
17.6749583356
 20
77.1973497388
 10
17.6579758591
 20
77.1927347558
 10
17.6411775465
 20
77.1874519957
 10
17.6245955251
 20
77.1815097888
 10
17.6082619222
 20
77.1749164654
 10
17.5924136984
 20
77.1677814294
 10
17.5768535393
 20
77.1600436051
 10
17.5615962366
 20
77.1517263258
 10
17.5466565826
 20
77.1428529249
 10
17.5318767591
 20
77.133333007
 10
17.517442524
 20
77.1232963252
 10
17.5033591049
 20
77.1127715975
 10
17.4896317295
 20
77.1017875414
 10
17.4758831993
 20
77.0900366089
 10
17.4625123852
 20
77.0778586073
 10
17.4495145584
 20
77.0652823158
 10
17.43688499
 20
77.0523365134
 10
17.4199873348
 20
77.0338419006
 10
17.4037686801
 20
77.0147496465
 10
17.3882103499
 20
76.9951160332
 10
17.3726713829
 20
76.9741276352
 10
17.3578031742
 20
76.9526583314
 10
17.343579012
 20
76.9307544933
 10
17.3291349014
 20
76.9070405851
 10
17.3153635877
 20
76.8829235083
 10
17.3022401696
 20
76.8584387875
 10
17.2897397455
 20
76.8336219474
 10
17.2778374141
 20
76.8085085126
 10
17.2665082739
 20
76.7831340078
 10
17.2526910918
 20
76.7500355673
 10
17.2397532341
 20
76.7165934372
 10
17.2276599731
 20
76.6828399336
 10
17.2163765811
 20
76.6488073727
 10
17.2058683305
 20
76.6145280709
 10
17.1955552832
 20
76.5780114553
 10
17.1860488242
 20
76.541277269
 10
17.1773261271
 20
76.5043481407
 10
17.1693643655
 20
76.4672466993
 10
17.1621407131
 20
76.4299955736
 10
17.1553896044
 20
76.3911283214
 10
17.1493944217
 20
76.3521389026
 10
17.1441378416
 20
76.3130425026
 10
17.1396025412
 20
76.2738543067
 10
17.1357711971
 20
76.2345895004
 10
17.132567591
 20
76.1944088225
 10
17.1300735363
 20
76.1541784455
 10
17.1282818207
 20
76.1139127908
 10
17.1271852318
 20
76.0736262796
 10
17.1267765573
 20
76.0333333333
  0
LINE
  5
2A5
100
AcDbEntity
  8
0
100
AcDbLine
 62
7
  6
CONTINUOUS
 10
43.6963491098
 20
62.9747553935
 11
43.9939368105
 21
63.0555849118
  0
LINE
  5
2A6
100
AcDbEntity
  8
0
100
AcDbLine
 62
7
  6
CONTINUOUS
 10
48.5300719279
 20
89.0919112731
 11
48.2324842271
 21
89.0110817548
  0
LINE
  5
2A7
100
AcDbEntity
  8
0
100
AcDbLine
 62
7
  6
CONTINUOUS
 10
43.7815269124
 20
64.5240475811
 11
43.4539102755
 21
64.4413716033
  0
LINE
  5
2A8
100
AcDbEntity
  8
0
100
AcDbLine
 62
7
  6
CONTINUOUS
 10
48.4448941252
 20
87.5426190856
 11
48.7725107622
 21
87.6252950633
  0
LWPOLYLINE
  5
2A9
100
AcDbEntity
  8
0
100
AcDbPolyline
 62
7
  6
CONTINUOUS
 90
33
 70
0
 10
38.3810789903
 20
61.2362288922
 10
38.3806899779
 20
61.2361360722
 10
38.3803013809
 20
61.2360409609
 10
38.3799133678
 20
61.2359432423
 10
38.3795261066
 20
61.2358426005
 10
38.3791397656
 20
61.2357387195
 10
38.3787545131
 20
61.2356312831
 10
38.3783705173
 20
61.2355199756
 10
38.3779879463
 20
61.2354044807
 10
38.3776069685
 20
61.2352844827
 10
38.3772277521
 20
61.2351596654
 10
38.3768504653
 20
61.2350297128
 10
38.3764752764
 20
61.2348943091
 10
38.3761023535
 20
61.2347531381
 10
38.3758657079
 20
61.2346598335
 10
38.3756302678
 20
61.2345635236
 10
38.375396248
 20
61.2344636794
 10
38.3751638631
 20
61.2343597719
 10
38.3749333277
 20
61.2342512721
 10
38.3747048564
 20
61.2341376511
 10
38.374478664
 20
61.2340183798
 10
38.3742549651
 20
61.2338929294
 10
38.3741425633
 20
61.2338267332
 10
38.3740312079
 20
61.2337585807
 10
38.3739212487
 20
61.2336882421
 10
38.373813035
 20
61.2336154873
 10
38.3737069166
 20
61.2335400864
 10
38.3736032431
 20
61.2334618093
 10
38.373502364
 20
61.233380426
 10
38.3734046289
 20
61.2332957066
 10
38.3733103874
 20
61.2332074211
 10
38.3732199891
 20
61.2331153395
 10
38.3731337836
 20
61.2330192318
  0
LWPOLYLINE
  5
2AA
100
AcDbEntity
  8
0
100
AcDbPolyline
 62
7
  6
CONTINUOUS
 90
33
 70
0
 10
53.8453420474
 20
90.8304377745
 10
53.8457310598
 20
90.8305305945
 10
53.8461196567
 20
90.8306257058
 10
53.8465076698
 20
90.8307234243
 10
53.846894931
 20
90.8308240661
 10
53.847281272
 20
90.8309279472
 10
53.8476665245
 20
90.8310353835
 10
53.8480505203
 20
90.8311466911
 10
53.8484330913
 20
90.831262186
 10
53.8488140691
 20
90.831382184
 10
53.8491932855
 20
90.8315070013
 10
53.8495705723
 20
90.8316369539
 10
53.8499457612
 20
90.8317723576
 10
53.8503186841
 20
90.8319135286
 10
53.8505553297
 20
90.8320068332
 10
53.8507907698
 20
90.8321031431
 10
53.8510247896
 20
90.8322029873
 10
53.8512571745
 20
90.8323068948
 10
53.8514877099
 20
90.8324153946
 10
53.8517161812
 20
90.8325290156
 10
53.8519423736
 20
90.8326482869
 10
53.8521660725
 20
90.8327737373
 10
53.8522784743
 20
90.8328399335
 10
53.8523898297
 20
90.8329080859
 10
53.8524997889
 20
90.8329784245
 10
53.8526080026
 20
90.8330511793
 10
53.852714121
 20
90.8331265803
 10
53.8528177945
 20
90.8332048574
 10
53.8529186736
 20
90.8332862406
 10
53.8530164087
 20
90.83337096
 10
53.8531106502
 20
90.8334592455
 10
53.8532010485
 20
90.8335513271
 10
53.853287254
 20
90.8336474348
  0
LINE
  5
2AB
100
AcDbEntity
  8
0
100
AcDbLine
 62
7
  6
CONTINUOUS
 10
43.9939368105
 20
63.0555849118
 11
44.2938697757
 21
63.1256901899
  0
LINE
  5
2AC
100
AcDbEntity
  8
0
100
AcDbLine
 62
7
  6
CONTINUOUS
 10
48.2324842271
 20
89.0110817548
 11
47.9325512619
 21
88.9409764768
  0
LINE
  5
2AD
100
AcDbEntity
  8
0
100
AcDbLine
 62
7
  6
CONTINUOUS
 10
38.3818575887
 20
61.2364089223
 11
38.3810789903
 21
61.2362288922
  0
LINE
  5
2AE
100
AcDbEntity
  8
0
100
AcDbLine
 62
7
  6
CONTINUOUS
 10
53.844563449
 20
90.8302577443
 11
53.8453420474
 21
90.8304377745
  0
LINE
  5
2AF
100
AcDbEntity
  8
0
100
AcDbLine
 62
7
  6
CONTINUOUS
 10
44.111571336
 20
64.5957959116
 11
43.7815269124
 21
64.5240475811
  0
LINE
  5
2B0
100
AcDbEntity
  8
0
100
AcDbLine
 62
7
  6
CONTINUOUS
 10
48.1148497016
 20
87.4708707551
 11
48.4448941252
 21
87.5426190856
  0
LINE
  5
2B1
100
AcDbEntity
  8
0
100
AcDbLine
 62
7
  6
CONTINUOUS
 10
40.3427609983
 20
61.1965573902
 11
40.4139347661
 21
61.2113182982
  0
LINE
  5
2B2
100
AcDbEntity
  8
0
100
AcDbLine
 62
7
  6
CONTINUOUS
 10
51.8836600394
 20
90.8701092765
 11
51.8124862715
 21
90.8553483685
  0
LWPOLYLINE
  5
2B3
100
AcDbEntity
  8
0
100
AcDbPolyline
 62
7
  6
CONTINUOUS
 90
49
 70
0
 10
74.3888577014
 20
75.1779438795
 10
74.3990796648
 20
75.179971874
 10
74.4092077933
 20
75.1824835143
 10
74.4192130457
 20
75.1854737008
 10
74.4290663807
 20
75.1889373339
 10
74.438738757
 20
75.1928693139
 10
74.4480474583
 20
75.1971835426
 10
74.4571456005
 20
75.2019204057
 10
74.4660256302
 20
75.2070547189
 10
74.4746799941
 20
75.2125612981
 10
74.4831011389
 20
75.218414959
 10
74.4936593227
 20
75.2264768146
 10
74.503822849
 20
75.2350292804
 10
74.5136014155
 20
75.2440223697
 10
74.5230047195
 20
75.2534060956
 10
74.5325880684
 20
75.2637418018
 10
74.5417816672
 20
75.2744229435
 10
74.5506076558
 20
75.2854111384
 10
74.5590881741
 20
75.2966680043
 10
74.5677719925
 20
75.3089247821
 10
74.5761075189
 20
75.3214193301
 10
74.584113912
 20
75.3341277056
 10
74.5918103304
 20
75.3470259659
 10
74.602177137
 20
75.3655064548
 10
74.6120044709
 20
75.3842789911
 10
74.6213318221
 20
75.4033052614
 10
74.6305963611
 20
75.4234453816
 10
74.6393881949
 20
75.4437958459
 10
74.6477387341
 20
75.4643311712
 10
74.6559344633
 20
75.4857160745
 10
74.6637186239
 20
75.5072542809
 10
74.6711171514
 20
75.5289289763
 10
74.6796986214
 20
75.5556771758
 10
74.6877604911
 20
75.5825889605
 10
74.6953242578
 20
75.6096478873
 10
74.7024114188
 20
75.6368375131
 10
74.7090434713
 20
75.6641413948
 10
74.7165895989
 20
75.6978000426
 10
74.7234867268
 20
75.7315945481
 10
74.7297395109
 20
75.7655133191
 10
74.735352607
 20
75.7995447633
 10
74.7399585664
 20
75.8309892596
 10
74.7440082316
 20
75.8625099362
 10
74.7474843774
 20
75.8940971673
 10
74.7503697787
 20
75.9257413274
 10
74.7524290444
 20
75.9540789838
 10
74.7539506687
 20
75.9824502598
 10
74.7548076649
 20
76.0078863652
 10
74.7551112695
 20
76.0333333333
  0
LWPOLYLINE
  5
2B4
100
AcDbEntity
  8
0
100
AcDbPolyline
 62
7
  6
CONTINUOUS
 90
49
 70
0
 10
17.6111422985
 20
76.8887227872
 10
17.6009203351
 20
76.8866947927
 10
17.5907922066
 20
76.8841831524
 10
17.5807869542
 20
76.8811929659
 10
17.5709336192
 20
76.8777293328
 10
17.5612612429
 20
76.8737973528
 10
17.5519525416
 20
76.8694831241
 10
17.5428543994
 20
76.864746261
 10
17.5339743697
 20
76.8596119478
 10
17.5253200058
 20
76.8541053686
 10
17.516898861
 20
76.8482517077
 10
17.5063406773
 20
76.8401898521
 10
17.4961771509
 20
76.8316373863
 10
17.4863985845
 20
76.822644297
 10
17.4769952804
 20
76.8132605711
 10
17.4674119316
 20
76.8029248649
 10
17.4582183328
 20
76.7922437232
 10
17.4493923441
 20
76.7812555283
 10
17.4409118259
 20
76.7699986624
 10
17.4322280075
 20
76.7577418846
 10
17.4238924811
 20
76.7452473366
 10
17.415886088
 20
76.7325389611
 10
17.4081896696
 20
76.7196407007
 10
17.397822863
 20
76.7011602119
 10
17.3879955291
 20
76.6823876755
 10
17.3786681778
 20
76.6633614053
 10
17.3694036388
 20
76.643221285
 10
17.360611805
 20
76.6228708207
 10
17.3522612658
 20
76.6023354955
 10
17.3440655366
 20
76.5809505922
 10
17.336281376
 20
76.5594123858
 10
17.3288828485
 20
76.5377376904
 10
17.3203013786
 20
76.5109894909
 10
17.3122395089
 20
76.4840777062
 10
17.3046757422
 20
76.4570187794
 10
17.2975885812
 20
76.4298291536
 10
17.2909565286
 20
76.4025252719
 10
17.2834104011
 20
76.3688666241
 10
17.2765132731
 20
76.3350721186
 10
17.270260489
 20
76.3011533476
 10
17.2646473929
 20
76.2671219034
 10
17.2600414335
 20
76.2356774071
 10
17.2559917683
 20
76.2041567305
 10
17.2525156225
 20
76.1725694993
 10
17.2496302212
 20
76.1409253393
 10
17.2475709555
 20
76.1125876829
 10
17.2460493312
 20
76.0842164069
 10
17.245192335
 20
76.0587803015
 10
17.2448887304
 20
76.0333333333
  0
LINE
  5
2B5
100
AcDbEntity
  8
0
100
AcDbLine
 62
7
  6
CONTINUOUS
 10
44.2938697757
 20
63.1256901899
 11
44.5958393489
 21
63.1850318072
  0
LINE
  5
2B6
100
AcDbEntity
  8
0
100
AcDbLine
 62
7
  6
CONTINUOUS
 10
47.9325512619
 20
88.9409764768
 11
47.6305816888
 21
88.8816348595
  0
LINE
  5
2B7
100
AcDbEntity
  8
0
100
AcDbLine
 62
7
  6
CONTINUOUS
 10
44.4436943295
 20
64.6565559729
 11
44.111571336
 21
64.5957959116
  0
LINE
  5
2B8
100
AcDbEntity
  8
0
100
AcDbLine
 62
7
  6
CONTINUOUS
 10
47.7827267081
 20
87.4101106937
 11
48.1148497016
 21
87.4708707551
  0
LINE
  5
2B9
100
AcDbEntity
  8
0
100
AcDbLine
 62
7
  6
CONTINUOUS
 10
73.3430773807
 20
74.6232492603
 11
71.2868839561
 21
74.265597704
  0
LINE
  5
2BA
100
AcDbEntity
  8
0
100
AcDbLine
 62
7
  6
CONTINUOUS
 10
71.4792276413
 20
74.6718466806
 11
74.3888577015
 21
75.1779438729
  0
LINE
  5
2BB
100
AcDbEntity
  8
0
100
AcDbLine
 62
7
  6
CONTINUOUS
 10
20.5207723587
 20
77.3948199861
 11
17.6111422984
 21
76.8887227937
  0
LINE
  5
2BC
100
AcDbEntity
  8
0
100
AcDbLine
 62
7
  6
CONTINUOUS
 10
18.6569226192
 20
77.4434174064
 11
20.7131160439
 21
77.8010689626
  0
LINE
  5
2BD
100
AcDbEntity
  8
0
100
AcDbLine
 62
7
  6
CONTINUOUS
 10
44.5958393489
 20
63.1850318072
 11
44.8994382603
 21
63.233558743
  0
LINE
  5
2BE
100
AcDbEntity
  8
0
100
AcDbLine
 62
7
  6
CONTINUOUS
 10
47.6305816888
 20
88.8816348595
 11
47.3269827773
 21
88.8331079237
  0
LINE
  5
2BF
100
AcDbEntity
  8
0
100
AcDbLine
 62
7
  6
CONTINUOUS
 10
44.7775469479
 20
64.7062761663
 11
44.4436943295
 21
64.6565559729
  0
LINE
  5
2C0
100
AcDbEntity
  8
0
100
AcDbLine
 62
7
  6
CONTINUOUS
 10
47.4488740897
 20
87.3603905003
 11
47.7827267081
 21
87.4101106937
  0
LINE
  5
2C1
100
AcDbEntity
  8
0
100
AcDbLine
 62
7
  6
CONTINUOUS
 10
44.8994382603
 20
63.233558743
 11
45.2043353632
 21
63.2712462983
  0
LINE
  5
2C2
100
AcDbEntity
  8
0
100
AcDbLine
 62
7
  6
CONTINUOUS
 10
47.3269827773
 20
88.8331079237
 11
47.0220856744
 21
88.7954203683
  0
LWPOLYLINE
  5
2C3
100
AcDbEntity
  8
0
100
AcDbPolyline
 62
7
  6
CONTINUOUS
 90
12
 70
0
 10
21.6569577159
 20
66.7235448374
 10
21.652581288
 20
66.7230290115
 10
21.6482013986
 20
66.7225429598
 10
21.6438183775
 20
66.7220851788
 10
21.6384787353
 20
66.7215640482
 10
21.6331353516
 20
66.7210810028
 10
21.6277886368
 20
66.7206344581
 10
21.6224390018
 20
66.7202228292
 10
21.6170868571
 20
66.7198445314
 10
21.6117326135
 20
66.71949798
 10
21.6063766816
 20
66.7191815902
 10
21.601019472
 20
66.7188937772
  0
LWPOLYLINE
  5
2C4
100
AcDbEntity
  8
0
100
AcDbPolyline
 62
7
  6
CONTINUOUS
 90
12
 70
0
 10
70.3430422841
 20
85.3431218292
 10
70.347418712
 20
85.3436376552
 10
70.3517986014
 20
85.3441237068
 10
70.3561816224
 20
85.3445814879
 10
70.3615212646
 20
85.3451026185
 10
70.3668646484
 20
85.3455856639
 10
70.3722113631
 20
85.3460322086
 10
70.3775609982
 20
85.3464438375
 10
70.3829131428
 20
85.3468221353
 10
70.3882673864
 20
85.3471686867
 10
70.3936233184
 20
85.3474850765
 10
70.3989805279
 20
85.3477728895
  0
LINE
  5
2C5
100
AcDbEntity
  8
0
100
AcDbLine
 62
7
  6
CONTINUOUS
 10
45.1127788925
 20
64.7449154941
 11
44.7775469479
 21
64.7062761663
  0
LINE
  5
2C6
100
AcDbEntity
  8
0
100
AcDbLine
 62
7
  6
CONTINUOUS
 10
47.1136421451
 20
87.3217511726
 11
47.4488740897
 21
87.3603905003
  0
LWPOLYLINE
  5
2C7
100
AcDbEntity
  8
0
100
AcDbPolyline
 62
7
  6
CONTINUOUS
 90
17
 70
0
 10
55.2043449869
 20
63.7476226305
 10
56.1628680753
 20
63.8577401996
 10
57.1200924781
 20
63.9787353591
 10
58.0766036
 20
64.1106267846
 10
59.0315652814
 20
64.253278926
 10
59.9835849286
 20
64.4064253984
 10
60.9338441035
 20
64.5701461535
 10
61.879039302
 20
64.7437248595
 10
62.8222830989
 20
64.9276170512
 10
63.7588824941
 20
65.1207760034
 10
64.69334504
 20
65.3239967432
 10
65.6221418226
 20
65.5363892858
 10
66.5486642036
 20
65.7585748336
 10
67.4714517024
 20
65.9900791013
 10
68.3918153838
 20
66.2311218303
 10
69.3096471674
 20
66.4815936269
 10
70.2248389729
 20
66.741385097
  0
LWPOLYLINE
  5
2C8
100
AcDbEntity
  8
0
100
AcDbPolyline
 62
7
  6
CONTINUOUS
 90
17
 70
0
 10
36.795655013
 20
88.3190440361
 10
35.8371319246
 20
88.2089264671
 10
34.8799075218
 20
88.0879313076
 10
33.9233963999
 20
87.9560398821
 10
32.9684347185
 20
87.8133877407
 10
32.0164150713
 20
87.6602412682
 10
31.0661558964
 20
87.4965205131
 10
30.1209606979
 20
87.3229418072
 10
29.177716901
 20
87.1390496155
 10
28.2411175059
 20
86.9458906632
 10
27.30665496
 20
86.7426699234
 10
26.3778581774
 20
86.5302773808
 10
25.4513357963
 20
86.308091833
 10
24.5285482975
 20
86.0765875654
 10
23.6081846161
 20
85.8355448363
 10
22.6903528325
 20
85.5850730397
 10
21.775161027
 20
85.3252815696
  0
LWPOLYLINE
  5
2C9
100
AcDbEntity
  8
0
100
AcDbPolyline
 62
7
  6
CONTINUOUS
 90
11
 70
0
 10
55.2043467274
 20
63.7476228365
 10
55.0537678792
 20
63.7317412913
 10
54.9030927532
 20
63.7168265956
 10
54.7523387515
 20
63.7027035916
 10
54.6015232766
 20
63.6891971212
 10
54.4506637309
 20
63.6761320265
 10
54.2997775167
 20
63.6633331497
 10
54.1488820363
 20
63.6506253327
 10
53.9979946921
 20
63.6378334177
 10
53.8471328865
 20
63.6247822466
 10
53.6963140218
 20
63.6112966616
  0
LWPOLYLINE
  5
2CA
100
AcDbEntity
  8
0
100
AcDbPolyline
 62
7
  6
CONTINUOUS
 90
11
 70
0
 10
36.7956532725
 20
88.3190438302
 10
36.9462321207
 20
88.3349253754
 10
37.0969072467
 20
88.3498400711
 10
37.2476612484
 20
88.3639630751
 10
37.3984767233
 20
88.3774695455
 10
37.549336269
 20
88.3905346402
 10
37.7002224832
 20
88.403333517
 10
37.8511179636
 20
88.4160413339
 10
38.0020053078
 20
88.428833249
 10
38.1528671134
 20
88.44188442
 10
38.3036859781
 20
88.455370005
  0
LWPOLYLINE
  5
2CB
100
AcDbEntity
  8
0
100
AcDbPolyline
 62
7
  6
CONTINUOUS
 90
16
 70
0
 10
72.0088166982
 20
62.9036737375
 10
70.8896917283
 20
62.7997445259
 10
69.7699240587
 20
62.7029233282
 10
68.6477437795
 20
62.6127325918
 10
67.5250615929
 20
62.5290399425
 10
66.40027794
 20
62.4514553098
 10
65.2750969787
 20
62.3798581102
 10
64.1480963737
 20
62.3139319304
 10
63.0207842346
 20
62.2535641195
 10
61.8919149688
 20
62.1984972365
 10
60.7628050096
 20
62.1486279311
 10
59.6323844394
 20
62.103749857
 10
58.5017769081
 20
62.0637657572
 10
56.992325615
 20
62.01778779
 10
55.4826420348
 20
61.9800395673
 10
53.9727898845
 20
61.9502873166
  0
LWPOLYLINE
  5
2CC
100
AcDbEntity
  8
0
100
AcDbPolyline
 62
7
  6
CONTINUOUS
 90
16
 70
0
 10
19.9911833017
 20
89.1629929291
 10
21.1103082717
 20
89.2669221407
 10
22.2300759412
 20
89.3637433384
 10
23.3522562205
 20
89.4539340748
 10
24.474938407
 20
89.5376267241
 10
25.59972206
 20
89.6152113568
 10
26.7249030212
 20
89.6868085565
 10
27.8519036263
 20
89.7527347363
 10
28.9792157653
 20
89.8131025472
 10
30.1080850311
 20
89.8681694302
 10
31.2371949904
 20
89.9180387355
 10
32.3676155606
 20
89.9629168096
 10
33.4982230918
 20
90.0029009094
 10
35.007674385
 20
90.0488788767
 10
36.5173579652
 20
90.0866270994
 10
38.0272101155
 20
90.11637935
  0
LINE
  5
2CD
100
AcDbEntity
  8
0
100
AcDbLine
 62
7
  6
CONTINUOUS
 10
45.2043353632
 20
63.2712462983
 11
45.5102158247
 21
63.2980757706
  0
LINE
  5
2CE
100
AcDbEntity
  8
0
100
AcDbLine
 62
7
  6
CONTINUOUS
 10
47.0220856744
 20
88.7954203683
 11
46.7162052129
 21
88.768590896
  0
LINE
  5
2CF
100
AcDbEntity
  8
0
100
AcDbLine
 62
7
  6
CONTINUOUS
 10
45.449038568
 20
64.7724419022
 11
45.1127788925
 21
64.7449154941
  0
LINE
  5
2D0
100
AcDbEntity
  8
0
100
AcDbLine
 62
7
  6
CONTINUOUS
 10
46.7773824696
 20
87.2942247645
 11
47.1136421451
 21
87.3217511726
  0
LWPOLYLINE
  5
2D1
100
AcDbEntity
  8
0
100
AcDbPolyline
 62
7
  6
CONTINUOUS
 90
59
 70
0
 10
72.6955507557
 20
66.5985624933
 10
72.7024784271
 20
66.5990108732
 10
72.7094219114
 20
66.5992012261
 10
72.7163691106
 20
66.5991218597
 10
72.7233079266
 20
66.5987610819
 10
72.7300618687
 20
66.5981268834
 10
72.7367822732
 20
66.5972064845
 10
72.7434551231
 20
66.595993035
 10
72.750066401
 20
66.594479685
 10
72.7565716546
 20
66.5926701248
 10
72.7629859891
 20
66.5905582632
 10
72.7692933762
 20
66.5881457153
 10
72.7754777877
 20
66.585434096
 10
72.7816440632
 20
66.5823630775
 10
72.7876532769
 20
66.5789940853
 10
72.7934930211
 20
66.5753386926
 10
72.7991508882
 20
66.5714084725
 10
72.8048621009
 20
66.5670171797
 10
72.8103560599
 20
66.5623565593
 10
72.8156280516
 20
66.557445274
 10
72.8206733621
 20
66.552301986
 10
72.8258005124
 20
66.5465818735
 10
72.8306682778
 20
66.5406397115
 10
72.8352804509
 20
66.5344960936
 10
72.8396408239
 20
66.5281716131
 10
72.8440624701
 20
66.5211769988
 10
72.8482059702
 20
66.5140146443
 10
72.8520811135
 20
66.5067028809
 10
72.8556976893
 20
66.4992600399
 10
72.8593201281
 20
66.491104543
 10
72.8626656657
 20
66.4828321546
 10
72.8657468482
 20
66.4744571608
 10
72.8685762221
 20
66.4659938477
 10
72.8713445307
 20
66.4568342996
 10
72.8738502059
 20
66.4475999318
 10
72.8761057995
 20
66.4383010733
 10
72.8781238631
 20
66.4289480528
 10
72.8800208417
 20
66.4189645676
 10
72.8816760787
 20
66.4089384591
 10
72.8831016685
 20
66.3988765594
 10
72.8843097059
 20
66.3887857009
 10
72.8855080694
 20
66.3764085097
 10
72.8864121163
 20
66.364004729
 10
72.8870351216
 20
66.3515808951
 10
72.8873903602
 20
66.3391435441
 10
72.8874911071
 20
66.3266992125
 10
72.8873506373
 20
66.3142544364
 10
72.8869822256
 20
66.3018157522
 10
72.8862286425
 20
66.2864410385
 10
72.88515941
 20
66.271088884
 10
72.8837875574
 20
66.2557625131
 10
72.882126114
 20
66.24046515
 10
72.880188109
 20
66.225200019
 10
72.8779865717
 20
66.2099703442
 10
72.8749230426
 20
66.1912235203
 10
72.8714917957
 20
66.1725407012
 10
72.8677068494
 20
66.1539269471
 10
72.8635822222
 20
66.1353873183
 10
72.8591319328
 20
66.1169268751
  0
LWPOLYLINE
  5
2D2
100
AcDbEntity
  8
0
100
AcDbPolyline
 62
7
  6
CONTINUOUS
 90
59
 70
0
 10
19.3044492442
 20
85.4681041734
 10
19.2975215728
 20
85.4676557935
 10
19.2905780885
 20
85.4674654406
 10
19.2836308893
 20
85.467544807
 10
19.2766920733
 20
85.4679055848
 10
19.2699381313
 20
85.4685397832
 10
19.2632177268
 20
85.4694601822
 10
19.2565448769
 20
85.4706736316
 10
19.2499335989
 20
85.4721869816
 10
19.2434283454
 20
85.4739965418
 10
19.2370140109
 20
85.4761084034
 10
19.2307066237
 20
85.4785209514
 10
19.2245222122
 20
85.4812325706
 10
19.2183559367
 20
85.4843035892
 10
19.212346723
 20
85.4876725814
 10
19.2065069788
 20
85.4913279741
 10
19.2008491117
 20
85.4952581942
 10
19.195137899
 20
85.499649487
 10
19.18964394
 20
85.5043101074
 10
19.1843719483
 20
85.5092213927
 10
19.1793266378
 20
85.5143646807
 10
19.1741994875
 20
85.5200847932
 10
19.1693317221
 20
85.5260269552
 10
19.164719549
 20
85.5321705731
 10
19.160359176
 20
85.5384950536
 10
19.1559375298
 20
85.5454896679
 10
19.1517940297
 20
85.5526520224
 10
19.1479188864
 20
85.5599637858
 10
19.1443023107
 20
85.5674066268
 10
19.1406798718
 20
85.5755621236
 10
19.1373343343
 20
85.583834512
 10
19.1342531517
 20
85.5922095058
 10
19.1314237778
 20
85.6006728189
 10
19.1286554692
 20
85.609832367
 10
19.126149794
 20
85.6190667348
 10
19.1238942004
 20
85.6283655934
 10
19.1218761368
 20
85.6377186139
 10
19.1199791582
 20
85.6477020991
 10
19.1183239212
 20
85.6577282076
 10
19.1168983314
 20
85.6677901073
 10
19.115690294
 20
85.6778809658
 10
19.1144919305
 20
85.690258157
 10
19.1135878836
 20
85.7026619377
 10
19.1129648783
 20
85.7150857716
 10
19.1126096397
 20
85.7275231226
 10
19.1125088928
 20
85.7399674542
 10
19.1126493627
 20
85.7524122303
 10
19.1130177744
 20
85.7648509145
 10
19.1137713575
 20
85.7802256282
 10
19.11484059
 20
85.7955777827
 10
19.1162124426
 20
85.8109041536
 10
19.117873886
 20
85.8262015167
 10
19.119811891
 20
85.8414666477
 10
19.1220134283
 20
85.8566963225
 10
19.1250769573
 20
85.8754431464
 10
19.1285082043
 20
85.8941259655
 10
19.1322931506
 20
85.9127397195
 10
19.1364177777
 20
85.9312793483
 10
19.1408680671
 20
85.9497397915
  0
LINE
  5
2D3
100
AcDbEntity
  8
0
100
AcDbLine
 62
7
  6
CONTINUOUS
 10
45.5102158247
 20
63.2980757706
 11
45.8167101867
 21
63.3140306033
  0
LINE
  5
2D4
100
AcDbEntity
  8
0
100
AcDbLine
 62
7
  6
CONTINUOUS
 10
46.7162052129
 20
88.768590896
 11
46.409710851
 21
88.7526360633
  0
LINE
  5
2D5
100
AcDbEntity
  8
0
100
AcDbLine
 62
7
  6
CONTINUOUS
 10
45.7859732152
 20
64.7888333221
 11
45.449038568
 21
64.7724419022
  0
LINE
  5
2D6
100
AcDbEntity
  8
0
100
AcDbLine
 62
7
  6
CONTINUOUS
 10
46.4404478224
 20
87.2778333446
 11
46.7773824696
 21
87.2942247645
  0
LWPOLYLINE
  5
2D7
100
AcDbEntity
  8
0
100
AcDbPolyline
 62
7
  6
CONTINUOUS
 90
23
 70
0
 10
52.3532161526
 20
61.1809050346
 10
52.3206205079
 20
61.1801759039
 10
52.288019889
 20
61.1796753316
 10
52.2554163324
 20
61.1793939147
 10
52.2228118746
 20
61.17932225
 10
52.1900044296
 20
61.1794552381
 10
52.1571988532
 20
61.1797988375
 10
52.1249380189
 20
61.1803514087
 10
52.0926818886
 20
61.1811328238
 10
52.0616003716
 20
61.1821223191
 10
52.0305281804
 20
61.1833764703
 10
52.0112051387
 20
61.1843086242
 10
51.9918896012
 20
61.1853818207
 10
51.9725843363
 20
61.1866208699
 10
51.9593236595
 20
61.1875835018
 10
51.9460713359
 20
61.188656223
 10
51.9339768439
 20
61.1897519083
 10
51.9218961882
 20
61.1909876529
 10
51.9113317816
 20
61.1922146731
 10
51.9007890606
 20
61.1936237409
 10
51.8950597026
 20
61.1944897897
 10
51.8893472506
 20
61.195456957
 10
51.8836600394
 20
61.1965573902
  0
LWPOLYLINE
  5
2D8
100
AcDbEntity
  8
0
100
AcDbPolyline
 62
7
  6
CONTINUOUS
 90
23
 70
0
 10
39.873204885
 20
90.8857616321
 10
39.9058005297
 20
90.8864907627
 10
39.9384011486
 20
90.886991335
 10
39.9710047052
 20
90.887272752
 10
40.003609163
 20
90.8873444167
 10
40.036416608
 20
90.8872114286
 10
40.0692221844
 20
90.8868678292
 10
40.1014830187
 20
90.886315258
 10
40.1337391491
 20
90.8855338429
 10
40.1648206661
 20
90.8845443476
 10
40.1958928572
 20
90.8832901964
 10
40.2152158989
 20
90.8823580424
 10
40.2345314364
 20
90.881284846
 10
40.2538367013
 20
90.8800457967
 10
40.2670973781
 20
90.8790831649
 10
40.2803497018
 20
90.8780104437
 10
40.2924441938
 20
90.8769147583
 10
40.3045248494
 20
90.8756790138
 10
40.315089256
 20
90.8744519936
 10
40.3256319771
 20
90.8730429258
 10
40.3313613351
 20
90.872176877
 10
40.337073787
 20
90.8712097097
 10
40.3427609983
 20
90.8701092765
  0
LWPOLYLINE
  5
2D9
100
AcDbEntity
  8
0
100
AcDbPolyline
 62
7
  6
CONTINUOUS
 90
49
 70
0
 10
75.9053998737
 20
60.1240016381
 10
75.9687333861
 20
60.1251207224
 10
76.0320432423
 20
60.1281279367
 10
76.0952624481
 20
60.1330309801
 10
76.1583240096
 20
60.1398375521
 10
76.2211609327
 20
60.1485553518
 10
76.2837062235
 20
60.1591920786
 10
76.345899488
 20
60.1717542562
 10
76.4076680174
 20
60.1862356796
 10
76.4689457773
 20
60.202628568
 10
76.5296667335
 20
60.2209251407
 10
76.5897648516
 20
60.2411176168
 10
76.6491740975
 20
60.2631982156
 10
76.7079170419
 20
60.2871951242
 10
76.7658470368
 20
60.3130632437
 10
76.8229082918
 20
60.3407878324
 10
76.8790645096
 20
60.3703641104
 10
76.9342287081
 20
60.4017584971
 10
76.9883341065
 20
60.4349459631
 10
77.0413391849
 20
60.4699167738
 10
77.0931560618
 20
60.5066239562
 10
77.143723164
 20
60.5450341867
 10
77.1930051924
 20
60.5851343504
 10
77.2409159236
 20
60.6268637701
 10
77.2873967991
 20
60.6701802061
 10
77.3324155451
 20
60.7150661539
 10
77.3758914235
 20
60.7614481668
 10
77.4177716841
 20
60.8092757648
 10
77.4580278798
 20
60.8585265341
 10
77.4965881369
 20
60.9091162598
 10
77.5334068184
 20
60.9609871561
 10
77.5684592012
 20
61.0141111427
 10
77.6016851533
 20
61.0683962667
 10
77.6330474988
 20
61.1237788827
 10
77.6625256121
 20
61.1802246007
 10
77.6900730335
 20
61.2376373511
 10
77.7156618548
 20
61.2959492313
 10
77.7392760388
 20
61.3551190531
 10
77.7608836018
 20
61.4150509017
 10
77.7804662359
 20
61.4756748213
 10
77.7980131549
 20
61.5369427536
 10
77.8135064914
 20
61.5987616445
 10
77.8269373716
 20
61.6610598889
 10
77.8383009819
 20
61.7237824962
 10
77.8475921941
 20
61.7868465758
 10
77.854810978
 20
61.8501856471
 10
77.8599591726
 20
61.9137395122
 10
77.8630422801
 20
61.9774225761
 10
77.8640682208
 20
62.0411554711
  0
LWPOLYLINE
  5
2DA
100
AcDbEntity
  8
0
100
AcDbPolyline
 62
7
  6
CONTINUOUS
 90
49
 70
0
 10
16.0946001262
 20
91.9426650286
 10
16.0312666138
 20
91.9415459442
 10
15.9679567576
 20
91.93853873
 10
15.9047375518
 20
91.9336356865
 10
15.8416759903
 20
91.9268291146
 10
15.7788390672
 20
91.9181113149
 10
15.7162937765
 20
91.9074745881
 10
15.6541005119
 20
91.8949124104
 10
15.5923319826
 20
91.880430987
 10
15.5310542227
 20
91.8640380986
 10
15.4703332665
 20
91.845741526
 10
15.4102351484
 20
91.8255490498
 10
15.3508259025
 20
91.803468451
 10
15.2920829581
 20
91.7794715424
 10
15.2341529632
 20
91.7536034229
 10
15.1770917082
 20
91.7258788342
 10
15.1209354904
 20
91.6963025563
 10
15.0657712919
 20
91.6649081696
 10
15.0116658935
 20
91.6317207035
 10
14.958660815
 20
91.5967498929
 10
14.9068439382
 20
91.5600427105
 10
14.8562768359
 20
91.52163248
 10
14.8069948075
 20
91.4815323163
 10
14.7590840763
 20
91.4398028966
 10
14.7126032008
 20
91.3964864606
 10
14.6675844548
 20
91.3516005127
 10
14.6241085765
 20
91.3052184999
 10
14.5822283159
 20
91.2573909018
 10
14.5419721202
 20
91.2081401325
 10
14.5034118631
 20
91.1575504068
 10
14.4665931816
 20
91.1056795106
 10
14.4315407988
 20
91.052555524
 10
14.3983148466
 20
90.9982704
 10
14.3669525011
 20
90.942887784
 10
14.3374743879
 20
90.886442066
 10
14.3099269665
 20
90.8290293156
 10
14.2843381452
 20
90.7707174354
 10
14.2607239612
 20
90.7115476135
 10
14.2391163981
 20
90.651615765
 10
14.2195337641
 20
90.5909918454
 10
14.201986845
 20
90.5297239131
 10
14.1864935085
 20
90.4679050222
 10
14.1730626283
 20
90.4056067778
 10
14.161699018
 20
90.3428841704
 10
14.1524078058
 20
90.2798200908
 10
14.145189022
 20
90.2164810196
 10
14.1400408274
 20
90.1529271545
 10
14.1369577198
 20
90.0892440906
 10
14.1359317791
 20
90.0255111956
  0
LINE
  5
2DB
100
AcDbEntity
  8
0
100
AcDbLine
 62
7
  6
CONTINUOUS
 10
45.8167101867
 20
63.3140306033
 11
46.1132105188
 21
63.3191122076
  0
LINE
  5
2DC
100
AcDbEntity
  8
0
100
AcDbLine
 62
7
  6
CONTINUOUS
 10
46.409710851
 20
88.7526360633
 11
46.1132105188
 21
88.7475544591
  0
LINE
  5
2DD
100
AcDbEntity
  8
0
100
AcDbLine
 62
7
  6
CONTINUOUS
 10
46.1132106588
 20
64.7940823464
 11
45.7859732152
 21
64.7888333221
  0
LINE
  5
2DE
100
AcDbEntity
  8
0
100
AcDbLine
 62
7
  6
CONTINUOUS
 10
46.1132103788
 20
87.2725843203
 11
46.4404478224
 21
87.2778333446
  0
LWPOLYLINE
  5
2DF
100
AcDbEntity
  8
0
100
AcDbPolyline
 62
7
  6
CONTINUOUS
 90
49
 70
0
 10
81.4171424712
 20
56.3989299957
 10
81.4252757086
 20
56.3989680523
 10
81.4334092954
 20
56.3992642921
 10
81.4415334727
 20
56.3998185607
 10
81.4496384813
 20
56.4006307036
 10
81.4577145623
 20
56.4017005665
 10
81.4657519566
 20
56.4030279949
 10
81.4737450322
 20
56.40461339
 10
81.4816816897
 20
56.4064546903
 10
81.489554003
 20
56.4085501428
 10
81.4973540463
 20
56.4108979946
 10
81.5050738936
 20
56.4134964926
 10
81.512705619
 20
56.416343884
 10
81.5202487742
 20
56.4194413604
 10
81.5276875392
 20
56.4227830107
 10
81.5350137649
 20
56.4263653723
 10
81.5422193018
 20
56.4301849824
 10
81.5492960006
 20
56.4342383784
 10
81.5562357119
 20
56.4385220976
 10
81.5630398246
 20
56.4430388465
 10
81.5696911013
 20
56.4477778656
 10
81.5761822487
 20
56.4527339298
 10
81.5825059737
 20
56.4579018143
 10
81.5886549829
 20
56.4632762941
 10
81.5946219831
 20
56.4688521442
 10
81.6004088834
 20
56.4746331801
 10
81.6059997614
 20
56.4806041824
 10
81.6113884977
 20
56.4867583499
 10
81.6165689727
 20
56.4930888815
 10
81.6215350668
 20
56.4995889759
 10
81.6262806605
 20
56.5062518321
 10
81.6308065915
 20
56.5130808668
 10
81.6351007609
 20
56.5200581023
 10
81.6391587149
 20
56.5271753055
 10
81.6429759994
 20
56.5344242436
 10
81.6465481606
 20
56.5417966835
 10
81.6498707443
 20
56.5492843922
 10
81.6529431264
 20
56.5568882087
 10
81.6557583718
 20
56.5645908527
 10
81.6583139807
 20
56.5723838608
 10
81.6606074533
 20
56.5802587695
 10
81.6626362895
 20
56.5882071155
 10
81.6643979896
 20
56.5962204352
 10
81.6658912954
 20
56.6042952712
 10
81.6671141388
 20
56.6124159371
 10
81.6680660522
 20
56.6205716775
 10
81.6687465683
 20
56.6287517367
 10
81.6691552194
 20
56.6369453591
 10
81.669291538
 20
56.6451417893
  0
LWPOLYLINE
  5
2E0
100
AcDbEntity
  8
0
100
AcDbPolyline
 62
7
  6
CONTINUOUS
 90
49
 70
0
 10
10.5828575287
 20
95.667736671
 10
10.5747242913
 20
95.6676986144
 10
10.5665907045
 20
95.6674023746
 10
10.5584665272
 20
95.666848106
 10
10.5503615186
 20
95.6660359631
 10
10.5422854376
 20
95.6649661002
 10
10.5342480433
 20
95.6636386718
 10
10.5262549677
 20
95.6620532767
 10
10.5183183103
 20
95.6602119764
 10
10.5104459969
 20
95.6581165239
 10
10.5026459537
 20
95.6557686721
 10
10.4949261064
 20
95.6531701741
 10
10.487294381
 20
95.6503227827
 10
10.4797512258
 20
95.6472253063
 10
10.4723124607
 20
95.643883656
 10
10.4649862351
 20
95.6403012944
 10
10.4577806982
 20
95.6364816843
 10
10.4507039994
 20
95.6324282883
 10
10.4437642881
 20
95.628144569
 10
10.4369601754
 20
95.6236278201
 10
10.4303088987
 20
95.6188888011
 10
10.4238177513
 20
95.6139327368
 10
10.4174940263
 20
95.6087648524
 10
10.4113450171
 20
95.6033903726
 10
10.4053780169
 20
95.5978145225
 10
10.3995911166
 20
95.5920334866
 10
10.3940002385
 20
95.5860624843
 10
10.3886115022
 20
95.5799083168
 10
10.3834310272
 20
95.5735777852
 10
10.3784649331
 20
95.5670776907
 10
10.3737193395
 20
95.5604148345
 10
10.3691934085
 20
95.5535857998
 10
10.364899239
 20
95.5466085644
 10
10.3608412851
 20
95.5394913611
 10
10.3570240005
 20
95.532242423
 10
10.3534518394
 20
95.5248699832
 10
10.3501292556
 20
95.5173822745
 10
10.3470568736
 20
95.509778458
 10
10.3442416282
 20
95.502075814
 10
10.3416860193
 20
95.4942828059
 10
10.3393925467
 20
95.4864078972
 10
10.3373637105
 20
95.4784595512
 10
10.3356020104
 20
95.4704462315
 10
10.3341087046
 20
95.4623713955
 10
10.3328858612
 20
95.4542507296
 10
10.3319339477
 20
95.4460949892
 10
10.3312534316
 20
95.43791493
 10
10.3308447805
 20
95.4297213075
 10
10.3307084619
 20
95.4215248773
  0
LWPOLYLINE
  5
2E1
100
AcDbEntity
  8
0
100
AcDbPolyline
 62
7
  6
CONTINUOUS
 90
19
 70
0
 10
46.0
 20
61.0557576203
 10
45.923217386
 20
61.0555010284
 10
45.8464366674
 20
61.0547214914
 10
45.7696630438
 20
61.0534043671
 10
45.6929017149
 20
61.0515350133
 10
45.6194012301
 20
61.0492090953
 10
45.5459212014
 20
61.046324347
 10
45.4762939206
 20
61.043035194
 10
45.4066970244
 20
61.0391545051
 10
45.3421302738
 20
61.0349693444
 10
45.2776078504
 20
61.0301479044
 10
45.2192006168
 20
61.0251544657
 10
45.1608582814
 20
61.0194584561
 10
45.126679841
 20
61.0157406857
 10
45.0925386819
 20
61.0116935063
 10
45.0584431215
 20
61.0072687034
 10
45.0296016914
 20
61.0031810515
 10
45.0008180552
 20
60.9987122836
 10
44.9721113086
 20
60.9937869253
  0
LINE
  5
2E2
100
AcDbEntity
  8
0
100
AcDbLine
 62
7
  6
CONTINUOUS
 10
51.0
 20
60.0831310789
 11
54.0059858483
 21
60.0839363208
  0
LINE
  5
2E3
100
AcDbEntity
  8
0
100
AcDbLine
 62
7
  6
CONTINUOUS
 10
41.0
 20
91.9835355877
 11
37.9940141516
 21
91.9827303458
  0
LINE
  5
2E4
100
AcDbEntity
  8
0
100
AcDbLine
 62
7
  6
CONTINUOUS
 10
81.5019026509
 20
56.0333333333
 11
10.498097349
 21
56.0333333333
  0
LINE
  5
2E5
100
AcDbEntity
  8
0
100
AcDbLine
 62
7
  6
CONTINUOUS
 10
41.0
 20
56.5686264492
 11
51.0
 21
56.5686264492
  0
LINE
  5
2E6
100
AcDbEntity
  8
0
100
AcDbLine
 62
7
  6
CONTINUOUS
 10
41.0
 20
56.5686264492
 11
51.0
 21
56.5686264492
  0
LINE
  5
2E7
100
AcDbEntity
  8
0
100
AcDbLine
 62
7
  6
CONTINUOUS
 10
41.0
 20
60.0831310789
 11
51.0
 21
60.0831310789
  0
LINE
  5
2E8
100
AcDbEntity
  8
0
100
AcDbLine
 62
7
  6
CONTINUOUS
 10
41.0
 20
60.0831310789
 11
51.0
 21
60.0831310789
  0
LINE
  5
2E9
100
AcDbEntity
  8
DEFAULT_1
100
AcDbLine
 62
7
  6
CENTER
 10
53.8376000906
 20
76.0333151216
 11
74.7551112718
 21
76.0333333333
  0
LINE
  5
2EA
100
AcDbEntity
  8
0
100
AcDbLine
 62
7
  6
CONTINUOUS
 10
53.4705717312
 20
76.0333151216
 11
53.8376000906
 21
76.0333151216
  0
LINE
  5
2EB
100
AcDbEntity
  8
0
100
AcDbLine
 62
7
  6
CONTINUOUS
 10
53.4167321354
 20
76.0333340019
 11
47.8087253521
 21
76.0333333333
  0
LINE
  5
2EC
100
AcDbEntity
  8
0
100
AcDbLine
 62
7
  6
CONTINUOUS
 10
44.1912746478
 20
76.0333333333
 11
38.5832678645
 21
76.0333326648
  0
LINE
  5
2ED
100
AcDbEntity
  8
DEFAULT_1
100
AcDbLine
 62
7
  6
CENTER
 10
38.1623999093
 20
76.0333515451
 11
17.2448887281
 21
76.0333333333
  0
LINE
  5
2EE
100
AcDbEntity
  8
0
100
AcDbLine
 62
7
  6
CONTINUOUS
 10
17.2448887281
 20
76.0333333333
 11
17.0250923965
 21
76.0333333333
  0
LINE
  5
2EF
100
AcDbEntity
  8
DEFAULT_1
100
AcDbLine
 62
7
  6
CENTER
 10
17.0250923965
 20
76.0333333333
 11
8.9001458
 21
76.0333333333
  0
LINE
  5
2F0
100
AcDbEntity
  8
DEFAULT_1
100
AcDbLine
 62
7
  6
CENTER
 10
44.1912746478
 20
76.0333333333
 11
47.8087253521
 21
76.0333333333
  0
LINE
  5
2F1
100
AcDbEntity
  8
0
100
AcDbLine
 62
7
  6
CONTINUOUS
 10
74.7551112718
 20
76.0333333333
 11
74.9749076034
 21
76.0333333333
  0
LINE
  5
2F2
100
AcDbEntity
  8
DEFAULT_1
100
AcDbLine
 62
7
  6
CENTER
 10
74.9749076034
 20
76.0333333333
 11
83.1452658
 21
76.0333333333
  0
LINE
  5
2F3
100
AcDbEntity
  8
0
100
AcDbLine
 62
7
  6
CONTINUOUS
 10
38.5294282687
 20
76.0333515451
 11
38.1623999093
 21
76.0333515451
  0
LINE
  5
2F4
100
AcDbEntity
  8
0
100
AcDbLine
 62
7
  6
CONTINUOUS
 10
51.0
 20
91.9835355877
 11
41.0
 21
91.9835355877
  0
LINE
  5
2F5
100
AcDbEntity
  8
0
100
AcDbLine
 62
7
  6
CONTINUOUS
 10
51.0
 20
91.9835355877
 11
41.0
 21
91.9835355877
  0
LINE
  5
2F6
100
AcDbEntity
  8
0
100
AcDbLine
 62
7
  6
CONTINUOUS
 10
51.0
 20
95.4980402175
 11
41.0
 21
95.4980402175
  0
LINE
  5
2F7
100
AcDbEntity
  8
0
100
AcDbLine
 62
7
  6
CONTINUOUS
 10
51.0
 20
95.4980402175
 11
41.0
 21
95.4980402175
  0
LINE
  5
2F8
100
AcDbEntity
  8
0
100
AcDbLine
 62
7
  6
CONTINUOUS
 10
81.5019026509
 20
96.0333333333
 11
10.498097349
 21
96.0333333333
  0
LINE
  5
2F9
100
AcDbEntity
  8
0
100
AcDbLine
 62
7
  6
CONTINUOUS
 10
41.0
 20
60.0831310789
 11
37.9940141516
 21
60.0839363208
  0
LINE
  5
2FA
100
AcDbEntity
  8
DEFAULT_1
100
AcDbLine
 62
7
  6
CENTER
 10
38.5832678645
 20
76.0333326648
 11
38.5294282687
 21
76.0333515451
  0
LINE
  5
2FB
100
AcDbEntity
  8
DEFAULT_1
100
AcDbLine
 62
7
  6
CENTER
 10
53.4167321354
 20
76.0333340019
 11
53.4705717312
 21
76.0333151216
  0
LINE
  5
2FC
100
AcDbEntity
  8
0
100
AcDbLine
 62
7
  6
CONTINUOUS
 10
51.0
 20
91.9835355877
 11
54.0059858483
 21
91.9827303458
  0
LWPOLYLINE
  5
2FD
100
AcDbEntity
  8
0
100
AcDbPolyline
 62
7
  6
CONTINUOUS
 90
38
 70
0
 10
46.0
 20
60.9318177569
 10
45.922772759
 20
60.9320796309
 10
45.8455482463
 20
60.9328715154
 10
45.7683306082
 20
60.934202804
 10
45.6940574531
 20
60.9360054209
 10
45.6197999391
 20
60.9383489183
 10
45.5455635077
 20
60.9412662891
 10
45.492881774
 20
60.9437055745
 10
45.4402164428
 20
60.9464744093
 10
45.3902275448
 20
60.9494316309
 10
45.3402604407
 20
60.9527367866
 10
45.2934448768
 20
60.9561796299
 10
45.2466580659
 20
60.9599931198
 10
45.2034654099
 20
60.9638828401
 10
45.1603108195
 20
60.9681735282
 10
45.1211551932
 20
60.9724661144
 10
45.0820502874
 20
60.9771992341
 10
45.0473050877
 20
60.9818438588
 10
45.0126301186
 20
60.9869833133
 10
44.982625733
 20
60.991924649
 10
44.9527188625
 20
60.9974315339
 10
44.9277296455
 20
61.0025985952
 10
44.9028934337
 20
61.0084432746
 10
44.8819166551
 20
61.0141274994
 10
44.8727407136
 20
61.0169111006
 10
44.8636336935
 20
61.0199124848
 10
44.8558142453
 20
61.0227251253
 10
44.8480881059
 20
61.0257842782
 10
44.8416372883
 20
61.0286154496
 10
44.8353176612
 20
61.0317287467
 10
44.8302373997
 20
61.0345682225
 10
44.8253530656
 20
61.037731557
 10
44.8216345379
 20
61.0405758085
 10
44.8182181769
 20
61.0437782436
 10
44.8158277414
 20
61.0466443008
 10
44.8139305676
 20
61.0498542341
 10
44.8128837263
 20
61.0528329015
 10
44.8125
 20
61.0559448903
  0
LWPOLYLINE
  5
2FE
100
AcDbEntity
  8
0
100
AcDbPolyline
 62
7
  6
CONTINUOUS
 90
38
 70
0
 10
46.0
 20
61.1800728572
 10
46.0772272178
 20
61.1798109755
 10
46.1544517073
 20
61.1790190692
 10
46.2316693218
 20
61.1776877464
 10
46.3059424724
 20
61.1758850861
 10
46.3801999813
 20
61.1735415369
 10
46.4544364069
 20
61.1706241076
 10
46.5071181513
 20
61.1681847766
 10
46.5597834927
 20
61.165415894
 10
46.6097724098
 20
61.1624586248
 10
46.6597395327
 20
61.1591534205
 10
46.7065551219
 20
61.1557105302
 10
46.7533419577
 20
61.1518969931
 10
46.7965346418
 20
61.1480072285
 10
46.8396892599
 20
61.1437164965
 10
46.8788449131
 20
61.1394238703
 10
46.9179498456
 20
61.1346907109
 10
46.9526950663
 20
61.1300460513
 10
46.9873700561
 20
61.1249065624
 10
47.0173744528
 20
61.119965198
 10
47.0472813338
 20
61.1144582838
 10
47.0722705526
 20
61.109291198
 10
47.0971067658
 20
61.1034464952
 10
47.118083545
 20
61.0977622493
 10
47.1272594758
 20
61.0949786384
 10
47.1363664854
 20
61.0919772459
 10
47.1441859193
 20
61.0891646038
 10
47.1519120437
 20
61.0861054486
 10
47.1583628249
 20
61.0832742818
 10
47.1646824161
 20
61.0801609911
 10
47.1697626539
 20
61.0773215219
 10
47.174646965
 20
61.0741581961
 10
47.1783654784
 20
61.0713139497
 10
47.1817818264
 20
61.0681115218
 10
47.184172258
 20
61.0652454677
 10
47.1860694301
 20
61.0620355387
 10
47.1871162729
 20
61.0590568727
 10
47.1875
 20
61.055944885
  0
LWPOLYLINE
  5
2FF
100
AcDbEntity
  8
0
100
AcDbPolyline
 62
7
  6
CONTINUOUS
 90
49
 70
0
 10
10.5828575287
 20
56.3989299957
 10
10.5747242913
 20
56.3989680523
 10
10.5665907045
 20
56.3992642921
 10
10.5584665272
 20
56.3998185607
 10
10.5503615186
 20
56.4006307036
 10
10.5422854376
 20
56.4017005665
 10
10.5342480433
 20
56.4030279949
 10
10.5262549677
 20
56.40461339
 10
10.5183183103
 20
56.4064546903
 10
10.5104459969
 20
56.4085501428
 10
10.5026459537
 20
56.4108979946
 10
10.4949261064
 20
56.4134964926
 10
10.487294381
 20
56.416343884
 10
10.4797512258
 20
56.4194413604
 10
10.4723124607
 20
56.4227830107
 10
10.4649862351
 20
56.4263653723
 10
10.4577806982
 20
56.4301849824
 10
10.4507039994
 20
56.4342383784
 10
10.4437642881
 20
56.4385220976
 10
10.4369601754
 20
56.4430388465
 10
10.4303088987
 20
56.4477778656
 10
10.4238177513
 20
56.4527339298
 10
10.4174940263
 20
56.4579018143
 10
10.4113450171
 20
56.4632762941
 10
10.4053780169
 20
56.4688521442
 10
10.3995911166
 20
56.4746331801
 10
10.3940002385
 20
56.4806041824
 10
10.3886115022
 20
56.4867583499
 10
10.3834310272
 20
56.4930888815
 10
10.3784649331
 20
56.4995889759
 10
10.3737193395
 20
56.5062518321
 10
10.3691934085
 20
56.5130808668
 10
10.364899239
 20
56.5200581023
 10
10.3608412851
 20
56.5271753055
 10
10.3570240005
 20
56.5344242436
 10
10.3534518394
 20
56.5417966835
 10
10.3501292556
 20
56.5492843922
 10
10.3470568736
 20
56.5568882087
 10
10.3442416282
 20
56.5645908527
 10
10.3416860193
 20
56.5723838608
 10
10.3393925467
 20
56.5802587695
 10
10.3373637105
 20
56.5882071155
 10
10.3356020104
 20
56.5962204352
 10
10.3341087046
 20
56.6042952712
 10
10.3328858612
 20
56.6124159371
 10
10.3319339477
 20
56.6205716775
 10
10.3312534316
 20
56.6287517367
 10
10.3308447805
 20
56.6369453591
 10
10.3307084619
 20
56.6451417893
  0
LWPOLYLINE
  5
300
100
AcDbEntity
  8
0
100
AcDbPolyline
 62
7
  6
CONTINUOUS
 90
49
 70
0
 10
81.4171424712
 20
95.667736671
 10
81.4252757086
 20
95.6676986144
 10
81.4334092954
 20
95.6674023746
 10
81.4415334727
 20
95.666848106
 10
81.4496384813
 20
95.6660359631
 10
81.4577145623
 20
95.6649661002
 10
81.4657519566
 20
95.6636386718
 10
81.4737450322
 20
95.6620532767
 10
81.4816816897
 20
95.6602119764
 10
81.489554003
 20
95.6581165239
 10
81.4973540463
 20
95.6557686721
 10
81.5050738936
 20
95.6531701741
 10
81.512705619
 20
95.6503227827
 10
81.5202487742
 20
95.6472253063
 10
81.5276875392
 20
95.643883656
 10
81.5350137649
 20
95.6403012944
 10
81.5422193018
 20
95.6364816843
 10
81.5492960006
 20
95.6324282883
 10
81.5562357119
 20
95.628144569
 10
81.5630398246
 20
95.6236278201
 10
81.5696911013
 20
95.6188888011
 10
81.5761822487
 20
95.6139327368
 10
81.5825059737
 20
95.6087648524
 10
81.5886549829
 20
95.6033903726
 10
81.5946219831
 20
95.5978145225
 10
81.6004088834
 20
95.5920334866
 10
81.6059997614
 20
95.5860624843
 10
81.6113884977
 20
95.5799083168
 10
81.6165689727
 20
95.5735777852
 10
81.6215350668
 20
95.5670776907
 10
81.6262806605
 20
95.5604148345
 10
81.6308065915
 20
95.5535857998
 10
81.6351007609
 20
95.5466085644
 10
81.6391587149
 20
95.5394913611
 10
81.6429759994
 20
95.532242423
 10
81.6465481606
 20
95.5248699832
 10
81.6498707443
 20
95.5173822745
 10
81.6529431264
 20
95.509778458
 10
81.6557583718
 20
95.502075814
 10
81.6583139807
 20
95.4942828059
 10
81.6606074533
 20
95.4864078972
 10
81.6626362895
 20
95.4784595512
 10
81.6643979896
 20
95.4704462315
 10
81.6658912954
 20
95.4623713955
 10
81.6671141388
 20
95.4542507296
 10
81.6680660522
 20
95.4460949892
 10
81.6687465683
 20
95.43791493
 10
81.6691552194
 20
95.4297213075
 10
81.669291538
 20
95.4215248773
  0
LINE
  5
301
100
AcDbEntity
  8
0
100
AcDbLine
 62
7
  6
CONTINUOUS
 10
46.440448092
 20
64.7888333135
 11
46.1132106588
 21
64.7940823464
  0
LINE
  5
302
100
AcDbEntity
  8
0
100
AcDbLine
 62
7
  6
CONTINUOUS
 10
45.7859729456
 20
87.2778333532
 11
46.1132103788
 21
87.2725843203
  0
LINE
  5
303
100
AcDbEntity
  8
0
100
AcDbLine
 62
7
  6
CONTINUOUS
 10
46.1132105188
 20
63.3191122076
 11
46.409710851
 21
63.3140306033
  0
LINE
  5
304
100
AcDbEntity
  8
0
100
AcDbLine
 62
7
  6
CONTINUOUS
 10
46.1132105188
 20
88.7475544591
 11
45.8167101867
 21
88.7526360633
  0
LWPOLYLINE
  5
305
100
AcDbEntity
  8
0
100
AcDbPolyline
 62
7
  6
CONTINUOUS
 90
49
 70
0
 10
16.0946001262
 20
60.1240016381
 10
16.0312666138
 20
60.1251207224
 10
15.9679567576
 20
60.1281279367
 10
15.9047375518
 20
60.1330309801
 10
15.8416759903
 20
60.1398375521
 10
15.7788390672
 20
60.1485553518
 10
15.7162937765
 20
60.1591920786
 10
15.6541005119
 20
60.1717542562
 10
15.5923319826
 20
60.1862356796
 10
15.5310542227
 20
60.202628568
 10
15.4703332665
 20
60.2209251407
 10
15.4102351484
 20
60.2411176168
 10
15.3508259025
 20
60.2631982156
 10
15.2920829581
 20
60.2871951242
 10
15.2341529632
 20
60.3130632437
 10
15.1770917082
 20
60.3407878324
 10
15.1209354904
 20
60.3703641104
 10
15.0657712919
 20
60.4017584971
 10
15.0116658935
 20
60.4349459631
 10
14.958660815
 20
60.4699167738
 10
14.9068439382
 20
60.5066239562
 10
14.8562768359
 20
60.5450341867
 10
14.8069948075
 20
60.5851343504
 10
14.7590840763
 20
60.6268637701
 10
14.7126032008
 20
60.6701802061
 10
14.6675844548
 20
60.7150661539
 10
14.6241085765
 20
60.7614481668
 10
14.5822283159
 20
60.8092757648
 10
14.5419721202
 20
60.8585265341
 10
14.5034118631
 20
60.9091162598
 10
14.4665931816
 20
60.9609871561
 10
14.4315407988
 20
61.0141111427
 10
14.3983148466
 20
61.0683962667
 10
14.3669525011
 20
61.1237788827
 10
14.3374743879
 20
61.1802246007
 10
14.3099269665
 20
61.2376373511
 10
14.2843381452
 20
61.2959492313
 10
14.2607239612
 20
61.3551190531
 10
14.2391163981
 20
61.4150509017
 10
14.2195337641
 20
61.4756748213
 10
14.201986845
 20
61.5369427536
 10
14.1864935085
 20
61.5987616445
 10
14.1730626283
 20
61.6610598889
 10
14.161699018
 20
61.7237824962
 10
14.1524078058
 20
61.7868465758
 10
14.145189022
 20
61.8501856471
 10
14.1400408274
 20
61.9137395122
 10
14.1369577198
 20
61.9774225761
 10
14.1359317791
 20
62.0411554711
  0
LWPOLYLINE
  5
306
100
AcDbEntity
  8
0
100
AcDbPolyline
 62
7
  6
CONTINUOUS
 90
49
 70
0
 10
75.9053998737
 20
91.9426650286
 10
75.9687333861
 20
91.9415459442
 10
76.0320432423
 20
91.93853873
 10
76.0952624481
 20
91.9336356865
 10
76.1583240096
 20
91.9268291146
 10
76.2211609327
 20
91.9181113149
 10
76.2837062235
 20
91.9074745881
 10
76.345899488
 20
91.8949124104
 10
76.4076680174
 20
91.880430987
 10
76.4689457773
 20
91.8640380986
 10
76.5296667335
 20
91.845741526
 10
76.5897648516
 20
91.8255490498
 10
76.6491740975
 20
91.803468451
 10
76.7079170419
 20
91.7794715424
 10
76.7658470368
 20
91.7536034229
 10
76.8229082918
 20
91.7258788342
 10
76.8790645096
 20
91.6963025563
 10
76.9342287081
 20
91.6649081696
 10
76.9883341065
 20
91.6317207035
 10
77.0413391849
 20
91.5967498929
 10
77.0931560618
 20
91.5600427105
 10
77.143723164
 20
91.52163248
 10
77.1930051924
 20
91.4815323163
 10
77.2409159236
 20
91.4398028966
 10
77.2873967991
 20
91.3964864606
 10
77.3324155451
 20
91.3516005127
 10
77.3758914235
 20
91.3052184999
 10
77.4177716841
 20
91.2573909018
 10
77.4580278798
 20
91.2081401325
 10
77.4965881369
 20
91.1575504068
 10
77.5334068184
 20
91.1056795106
 10
77.5684592012
 20
91.052555524
 10
77.6016851533
 20
90.9982704
 10
77.6330474988
 20
90.942887784
 10
77.6625256121
 20
90.886442066
 10
77.6900730335
 20
90.8290293156
 10
77.7156618548
 20
90.7707174354
 10
77.7392760388
 20
90.7115476135
 10
77.7608836018
 20
90.651615765
 10
77.7804662359
 20
90.5909918454
 10
77.7980131549
 20
90.5297239131
 10
77.8135064914
 20
90.4679050222
 10
77.8269373716
 20
90.4056067778
 10
77.8383009819
 20
90.3428841704
 10
77.8475921941
 20
90.2798200908
 10
77.854810978
 20
90.2164810196
 10
77.8599591726
 20
90.1529271545
 10
77.8630422801
 20
90.0892440906
 10
77.8640682208
 20
90.0255111956
  0
LWPOLYLINE
  5
307
100
AcDbEntity
  8
0
100
AcDbPolyline
 62
7
  6
CONTINUOUS
 90
23
 70
0
 10
39.873204885
 20
61.1809050346
 10
39.9058005297
 20
61.1801759039
 10
39.9384011486
 20
61.1796753316
 10
39.9710047052
 20
61.1793939147
 10
40.003609163
 20
61.17932225
 10
40.036416608
 20
61.1794552381
 10
40.0692221844
 20
61.1797988375
 10
40.1014830187
 20
61.1803514087
 10
40.1337391491
 20
61.1811328238
 10
40.1648206661
 20
61.1821223191
 10
40.1958928572
 20
61.1833764703
 10
40.2152158989
 20
61.1843086242
 10
40.2345314364
 20
61.1853818207
 10
40.2538367013
 20
61.1866208699
 10
40.2670973781
 20
61.1875835018
 10
40.2803497018
 20
61.188656223
 10
40.2924441938
 20
61.1897519083
 10
40.3045248494
 20
61.1909876529
 10
40.315089256
 20
61.1922146731
 10
40.3256319771
 20
61.1936237409
 10
40.3313613351
 20
61.1944897897
 10
40.337073787
 20
61.195456957
 10
40.3427609983
 20
61.1965573902
  0
LWPOLYLINE
  5
308
100
AcDbEntity
  8
0
100
AcDbPolyline
 62
7
  6
CONTINUOUS
 90
23
 70
0
 10
52.3532161526
 20
90.8857616321
 10
52.3206205079
 20
90.8864907627
 10
52.288019889
 20
90.886991335
 10
52.2554163324
 20
90.887272752
 10
52.2228118746
 20
90.8873444167
 10
52.1900044296
 20
90.8872114286
 10
52.1571988532
 20
90.8868678292
 10
52.1249380189
 20
90.886315258
 10
52.0926818886
 20
90.8855338429
 10
52.0616003716
 20
90.8845443476
 10
52.0305281804
 20
90.8832901964
 10
52.0112051387
 20
90.8823580424
 10
51.9918896012
 20
90.881284846
 10
51.9725843363
 20
90.8800457967
 10
51.9593236595
 20
90.8790831649
 10
51.9460713359
 20
90.8780104437
 10
51.9339768439
 20
90.8769147583
 10
51.9218961882
 20
90.8756790138
 10
51.9113317816
 20
90.8744519936
 10
51.9007890606
 20
90.8730429258
 10
51.8950597026
 20
90.872176877
 10
51.8893472506
 20
90.8712097097
 10
51.8836600394
 20
90.8701092765
  0
LINE
  5
309
100
AcDbEntity
  8
0
100
AcDbLine
 62
7
  6
CONTINUOUS
 10
46.7773827281
 20
64.7724418853
 11
46.440448092
 21
64.7888333135
  0
LINE
  5
30A
100
AcDbEntity
  8
0
100
AcDbLine
 62
7
  6
CONTINUOUS
 10
45.4490383096
 20
87.2942247813
 11
45.7859729456
 21
87.2778333532
  0
LINE
  5
30B
100
AcDbEntity
  8
0
100
AcDbLine
 62
7
  6
CONTINUOUS
 10
46.409710851
 20
63.3140306033
 11
46.7162052129
 21
63.2980757706
  0
LINE
  5
30C
100
AcDbEntity
  8
0
100
AcDbLine
 62
7
  6
CONTINUOUS
 10
45.8167101867
 20
88.7526360633
 11
45.5102158247
 21
88.768590896
  0
LWPOLYLINE
  5
30D
100
AcDbEntity
  8
0
100
AcDbPolyline
 62
7
  6
CONTINUOUS
 90
59
 70
0
 10
19.3044492442
 20
66.5985624933
 10
19.2975215728
 20
66.5990108732
 10
19.2905780885
 20
66.5992012261
 10
19.2836308893
 20
66.5991218597
 10
19.2766920733
 20
66.5987610819
 10
19.2699381313
 20
66.5981268834
 10
19.2632177268
 20
66.5972064845
 10
19.2565448769
 20
66.595993035
 10
19.2499335989
 20
66.594479685
 10
19.2434283454
 20
66.5926701248
 10
19.2370140109
 20
66.5905582632
 10
19.2307066237
 20
66.5881457153
 10
19.2245222122
 20
66.585434096
 10
19.2183559367
 20
66.5823630775
 10
19.212346723
 20
66.5789940853
 10
19.2065069788
 20
66.5753386926
 10
19.2008491117
 20
66.5714084725
 10
19.195137899
 20
66.5670171797
 10
19.18964394
 20
66.5623565593
 10
19.1843719483
 20
66.557445274
 10
19.1793266378
 20
66.552301986
 10
19.1741994875
 20
66.5465818735
 10
19.1693317221
 20
66.5406397115
 10
19.164719549
 20
66.5344960936
 10
19.160359176
 20
66.5281716131
 10
19.1559375298
 20
66.5211769988
 10
19.1517940297
 20
66.5140146443
 10
19.1479188864
 20
66.5067028809
 10
19.1443023107
 20
66.4992600399
 10
19.1406798718
 20
66.491104543
 10
19.1373343343
 20
66.4828321546
 10
19.1342531517
 20
66.4744571608
 10
19.1314237778
 20
66.4659938477
 10
19.1286554692
 20
66.4568342996
 10
19.126149794
 20
66.4475999318
 10
19.1238942004
 20
66.4383010733
 10
19.1218761368
 20
66.4289480528
 10
19.1199791582
 20
66.4189645676
 10
19.1183239212
 20
66.4089384591
 10
19.1168983314
 20
66.3988765594
 10
19.115690294
 20
66.3887857009
 10
19.1144919305
 20
66.3764085097
 10
19.1135878836
 20
66.364004729
 10
19.1129648783
 20
66.3515808951
 10
19.1126096397
 20
66.3391435441
 10
19.1125088928
 20
66.3266992125
 10
19.1126493627
 20
66.3142544364
 10
19.1130177744
 20
66.3018157522
 10
19.1137713575
 20
66.2864410385
 10
19.11484059
 20
66.271088884
 10
19.1162124426
 20
66.2557625131
 10
19.117873886
 20
66.24046515
 10
19.119811891
 20
66.225200019
 10
19.1220134283
 20
66.2099703442
 10
19.1250769573
 20
66.1912235203
 10
19.1285082043
 20
66.1725407012
 10
19.1322931506
 20
66.1539269471
 10
19.1364177777
 20
66.1353873183
 10
19.1408680671
 20
66.1169268751
  0
LWPOLYLINE
  5
30E
100
AcDbEntity
  8
0
100
AcDbPolyline
 62
7
  6
CONTINUOUS
 90
59
 70
0
 10
72.6955507557
 20
85.4681041734
 10
72.7024784271
 20
85.4676557935
 10
72.7094219114
 20
85.4674654406
 10
72.7163691106
 20
85.467544807
 10
72.7233079266
 20
85.4679055848
 10
72.7300618687
 20
85.4685397832
 10
72.7367822732
 20
85.4694601822
 10
72.7434551231
 20
85.4706736316
 10
72.750066401
 20
85.4721869816
 10
72.7565716546
 20
85.4739965418
 10
72.7629859891
 20
85.4761084034
 10
72.7692933762
 20
85.4785209514
 10
72.7754777877
 20
85.4812325706
 10
72.7816440632
 20
85.4843035892
 10
72.7876532769
 20
85.4876725814
 10
72.7934930211
 20
85.4913279741
 10
72.7991508882
 20
85.4952581942
 10
72.8048621009
 20
85.499649487
 10
72.8103560599
 20
85.5043101074
 10
72.8156280516
 20
85.5092213927
 10
72.8206733621
 20
85.5143646807
 10
72.8258005124
 20
85.5200847932
 10
72.8306682778
 20
85.5260269552
 10
72.8352804509
 20
85.5321705731
 10
72.8396408239
 20
85.5384950536
 10
72.8440624701
 20
85.5454896679
 10
72.8482059702
 20
85.5526520224
 10
72.8520811135
 20
85.5599637858
 10
72.8556976893
 20
85.5674066268
 10
72.8593201281
 20
85.5755621236
 10
72.8626656657
 20
85.583834512
 10
72.8657468482
 20
85.5922095058
 10
72.8685762221
 20
85.6006728189
 10
72.8713445307
 20
85.609832367
 10
72.8738502059
 20
85.6190667348
 10
72.8761057995
 20
85.6283655934
 10
72.8781238631
 20
85.6377186139
 10
72.8800208417
 20
85.6477020991
 10
72.8816760787
 20
85.6577282076
 10
72.8831016685
 20
85.6677901073
 10
72.8843097059
 20
85.6778809658
 10
72.8855080694
 20
85.690258157
 10
72.8864121163
 20
85.7026619377
 10
72.8870351216
 20
85.7150857716
 10
72.8873903602
 20
85.7275231226
 10
72.8874911071
 20
85.7399674542
 10
72.8873506373
 20
85.7524122303
 10
72.8869822256
 20
85.7648509145
 10
72.8862286425
 20
85.7802256282
 10
72.88515941
 20
85.7955777827
 10
72.8837875574
 20
85.8109041536
 10
72.882126114
 20
85.8262015167
 10
72.880188109
 20
85.8414666477
 10
72.8779865717
 20
85.8566963225
 10
72.8749230426
 20
85.8754431464
 10
72.8714917957
 20
85.8941259655
 10
72.8677068494
 20
85.9127397195
 10
72.8635822222
 20
85.9312793483
 10
72.8591319328
 20
85.9497397915
  0
LINE
  5
30F
100
AcDbEntity
  8
0
100
AcDbLine
 62
7
  6
CONTINUOUS
 10
47.1136423922
 20
64.7449154697
 11
46.7773827281
 21
64.7724418853
  0
LINE
  5
310
100
AcDbEntity
  8
0
100
AcDbLine
 62
7
  6
CONTINUOUS
 10
45.1127786454
 20
87.3217511969
 11
45.4490383096
 21
87.2942247813
  0
LINE
  5
311
100
AcDbEntity
  8
0
100
AcDbLine
 62
7
  6
CONTINUOUS
 10
46.7162052129
 20
63.2980757706
 11
47.0220856744
 21
63.2712462983
  0
LINE
  5
312
100
AcDbEntity
  8
0
100
AcDbLine
 62
7
  6
CONTINUOUS
 10
45.5102158247
 20
88.768590896
 11
45.2043353632
 21
88.7954203683
  0
LWPOLYLINE
  5
313
100
AcDbEntity
  8
0
100
AcDbPolyline
 62
7
  6
CONTINUOUS
 90
16
 70
0
 10
19.9911833017
 20
62.9036737375
 10
21.1103082717
 20
62.7997445259
 10
22.2300759412
 20
62.7029233282
 10
23.3522562205
 20
62.6127325918
 10
24.474938407
 20
62.5290399425
 10
25.59972206
 20
62.4514553098
 10
26.7249030212
 20
62.3798581102
 10
27.8519036263
 20
62.3139319304
 10
28.9792157653
 20
62.2535641195
 10
30.1080850311
 20
62.1984972365
 10
31.2371949904
 20
62.1486279311
 10
32.3676155606
 20
62.103749857
 10
33.4982230918
 20
62.0637657572
 10
35.007674385
 20
62.01778779
 10
36.5173579652
 20
61.9800395673
 10
38.0272101155
 20
61.9502873166
  0
LWPOLYLINE
  5
314
100
AcDbEntity
  8
0
100
AcDbPolyline
 62
7
  6
CONTINUOUS
 90
16
 70
0
 10
72.0088166982
 20
89.1629929291
 10
70.8896917283
 20
89.2669221407
 10
69.7699240587
 20
89.3637433384
 10
68.6477437795
 20
89.4539340748
 10
67.5250615929
 20
89.5376267241
 10
66.40027794
 20
89.6152113568
 10
65.2750969787
 20
89.6868085565
 10
64.1480963737
 20
89.7527347363
 10
63.0207842346
 20
89.8131025472
 10
61.8919149688
 20
89.8681694302
 10
60.7628050096
 20
89.9180387355
 10
59.6323844394
 20
89.9629168096
 10
58.5017769081
 20
90.0029009094
 10
56.992325615
 20
90.0488788767
 10
55.4826420348
 20
90.0866270994
 10
53.9727898845
 20
90.11637935
  0
LWPOLYLINE
  5
315
100
AcDbEntity
  8
0
100
AcDbPolyline
 62
7
  6
CONTINUOUS
 90
11
 70
0
 10
36.7956532725
 20
63.7476228365
 10
36.9462321207
 20
63.7317412913
 10
37.0969072467
 20
63.7168265956
 10
37.2476612484
 20
63.7027035916
 10
37.3984767233
 20
63.6891971212
 10
37.549336269
 20
63.6761320265
 10
37.7002224832
 20
63.6633331497
 10
37.8511179636
 20
63.6506253327
 10
38.0020053078
 20
63.6378334177
 10
38.1528671134
 20
63.6247822466
 10
38.3036859781
 20
63.6112966616
  0
LWPOLYLINE
  5
316
100
AcDbEntity
  8
0
100
AcDbPolyline
 62
7
  6
CONTINUOUS
 90
11
 70
0
 10
55.2043467274
 20
88.3190438302
 10
55.0537678792
 20
88.3349253754
 10
54.9030927532
 20
88.3498400711
 10
54.7523387515
 20
88.3639630751
 10
54.6015232766
 20
88.3774695455
 10
54.4506637309
 20
88.3905346402
 10
54.2997775167
 20
88.403333517
 10
54.1488820363
 20
88.4160413339
 10
53.9979946921
 20
88.428833249
 10
53.8471328865
 20
88.44188442
 10
53.6963140218
 20
88.455370005
  0
LWPOLYLINE
  5
317
100
AcDbEntity
  8
0
100
AcDbPolyline
 62
7
  6
CONTINUOUS
 90
17
 70
0
 10
36.795655013
 20
63.7476226305
 10
35.8371319246
 20
63.8577401996
 10
34.8799075218
 20
63.9787353591
 10
33.9233963999
 20
64.1106267846
 10
32.9684347185
 20
64.253278926
 10
32.0164150713
 20
64.4064253984
 10
31.0661558964
 20
64.5701461535
 10
30.1209606979
 20
64.7437248595
 10
29.177716901
 20
64.9276170512
 10
28.2411175059
 20
65.1207760034
 10
27.30665496
 20
65.3239967432
 10
26.3778581774
 20
65.5363892858
 10
25.4513357963
 20
65.7585748336
 10
24.5285482975
 20
65.9900791013
 10
23.6081846161
 20
66.2311218303
 10
22.6903528325
 20
66.4815936269
 10
21.775161027
 20
66.741385097
  0
LWPOLYLINE
  5
318
100
AcDbEntity
  8
0
100
AcDbPolyline
 62
7
  6
CONTINUOUS
 90
17
 70
0
 10
55.2043449869
 20
88.3190440361
 10
56.1628680753
 20
88.2089264671
 10
57.1200924781
 20
88.0879313076
 10
58.0766036
 20
87.9560398821
 10
59.0315652814
 20
87.8133877407
 10
59.9835849286
 20
87.6602412682
 10
60.9338441035
 20
87.4965205131
 10
61.879039302
 20
87.3229418072
 10
62.8222830989
 20
87.1390496155
 10
63.7588824941
 20
86.9458906632
 10
64.69334504
 20
86.7426699234
 10
65.6221418226
 20
86.5302773808
 10
66.5486642036
 20
86.308091833
 10
67.4714517024
 20
86.0765875654
 10
68.3918153838
 20
85.8355448363
 10
69.3096471674
 20
85.5850730397
 10
70.2248389729
 20
85.3252815696
  0
LINE
  5
319
100
AcDbEntity
  8
0
100
AcDbLine
 62
7
  6
CONTINUOUS
 10
47.4488743252
 20
64.7062761353
 11
47.1136423922
 21
64.7449154697
  0
LINE
  5
31A
100
AcDbEntity
  8
0
100
AcDbLine
 62
7
  6
CONTINUOUS
 10
44.7775467124
 20
87.3603905314
 11
45.1127786454
 21
87.3217511969
  0
LWPOLYLINE
  5
31B
100
AcDbEntity
  8
0
100
AcDbPolyline
 62
7
  6
CONTINUOUS
 90
12
 70
0
 10
70.3430422841
 20
66.7235448374
 10
70.347418712
 20
66.7230290115
 10
70.3517986014
 20
66.7225429598
 10
70.3561816224
 20
66.7220851788
 10
70.3615212646
 20
66.7215640482
 10
70.3668646484
 20
66.7210810028
 10
70.3722113631
 20
66.7206344581
 10
70.3775609982
 20
66.7202228292
 10
70.3829131428
 20
66.7198445314
 10
70.3882673864
 20
66.71949798
 10
70.3936233184
 20
66.7191815902
 10
70.3989805279
 20
66.7188937772
  0
LINE
  5
31C
100
AcDbEntity
  8
0
100
AcDbLine
 62
7
  6
CONTINUOUS
 10
47.0220856744
 20
63.2712462983
 11
47.3269827773
 21
63.233558743
  0
LINE
  5
31D
100
AcDbEntity
  8
0
100
AcDbLine
 62
7
  6
CONTINUOUS
 10
45.2043353632
 20
88.7954203683
 11
44.8994382603
 21
88.8331079237
  0
LINE
  5
31E
100
AcDbEntity
  8
0
100
AcDbLine
 62
7
  6
CONTINUOUS
 10
47.7827269319
 20
64.6565559358
 11
47.4488743252
 21
64.7062761353
  0
LINE
  5
31F
100
AcDbEntity
  8
0
100
AcDbLine
 62
7
  6
CONTINUOUS
 10
44.4436941058
 20
87.4101107308
 11
44.7775467124
 21
87.3603905314
  0
LINE
  5
320
100
AcDbEntity
  8
0
100
AcDbLine
 62
7
  6
CONTINUOUS
 10
47.3269827773
 20
63.233558743
 11
47.6305816888
 21
63.1850318072
  0
LINE
  5
321
100
AcDbEntity
  8
0
100
AcDbLine
 62
7
  6
CONTINUOUS
 10
44.8994382603
 20
88.8331079237
 11
44.5958393489
 21
88.8816348595
  0
LWPOLYLINE
  5
322
100
AcDbEntity
  8
0
100
AcDbPolyline
 62
7
  6
CONTINUOUS
 90
19
 70
0
 10
47.0278887368
 20
60.993786917
 10
46.9991819914
 20
60.9987122758
 10
46.9703983564
 20
61.0031810443
 10
46.9415569275
 20
61.0072686967
 10
46.9074613687
 20
61.0116935
 10
46.8733202111
 20
61.0157406797
 10
46.8391417723
 20
61.0194584505
 10
46.7807994339
 20
61.0251544611
 10
46.7223921972
 20
61.0301479007
 10
46.6578697712
 20
61.0349693413
 10
46.5933030178
 20
61.0391545026
 10
46.5237061191
 20
61.043035192
 10
46.4540788357
 20
61.0463243454
 10
46.3805988005
 20
61.0492090942
 10
46.3070983092
 20
61.0515350127
 10
46.2303369743
 20
61.0534043667
 10
46.1535633447
 20
61.0547214913
 10
46.07678262
 20
61.0555010284
 10
46.0
 20
61.0557576203
  0
LINE
  5
323
100
AcDbEntity
  8
0
100
AcDbLine
 62
7
  6
CONTINUOUS
 10
18.6569226192
 20
74.6232492603
 11
20.7131160439
 21
74.265597704
  0
LINE
  5
324
100
AcDbEntity
  8
0
100
AcDbLine
 62
7
  6
CONTINUOUS
 10
20.5207723587
 20
74.6718466806
 11
17.6111422984
 21
75.1779438729
  0
LINE
  5
325
100
AcDbEntity
  8
0
100
AcDbLine
 62
7
  6
CONTINUOUS
 10
71.4792276413
 20
77.3948199861
 11
74.3888577015
 21
76.8887227937
  0
LINE
  5
326
100
AcDbEntity
  8
0
100
AcDbLine
 62
7
  6
CONTINUOUS
 10
73.3430773807
 20
77.4434174064
 11
71.2868839561
 21
77.8010689626
  0
LINE
  5
327
100
AcDbEntity
  8
0
100
AcDbLine
 62
7
  6
CONTINUOUS
 10
48.1148499135
 20
64.5957958692
 11
47.7827269319
 21
64.6565559358
  0
LINE
  5
328
100
AcDbEntity
  8
0
100
AcDbLine
 62
7
  6
CONTINUOUS
 10
44.1115711242
 20
87.4708707974
 11
44.4436941058
 21
87.4101107308
  0
LINE
  5
329
100
AcDbEntity
  8
0
100
AcDbLine
 62
7
  6
CONTINUOUS
 10
47.6305816888
 20
63.1850318072
 11
47.9325512619
 21
63.1256901899
  0
LINE
  5
32A
100
AcDbEntity
  8
0
100
AcDbLine
 62
7
  6
CONTINUOUS
 10
44.5958393489
 20
88.8816348595
 11
44.2938697757
 21
88.9409764768
  0
LWPOLYLINE
  5
32B
100
AcDbEntity
  8
0
100
AcDbPolyline
 62
7
  6
CONTINUOUS
 90
49
 70
0
 10
17.6111422985
 20
75.1779438795
 10
17.6009203351
 20
75.179971874
 10
17.5907922066
 20
75.1824835143
 10
17.5807869542
 20
75.1854737008
 10
17.5709336192
 20
75.1889373339
 10
17.5612612429
 20
75.1928693139
 10
17.5519525416
 20
75.1971835426
 10
17.5428543994
 20
75.2019204057
 10
17.5339743697
 20
75.2070547189
 10
17.5253200058
 20
75.2125612981
 10
17.516898861
 20
75.218414959
 10
17.5063406773
 20
75.2264768146
 10
17.4961771509
 20
75.2350292804
 10
17.4863985845
 20
75.2440223697
 10
17.4769952804
 20
75.2534060956
 10
17.4674119316
 20
75.2637418018
 10
17.4582183328
 20
75.2744229435
 10
17.4493923441
 20
75.2854111384
 10
17.4409118259
 20
75.2966680043
 10
17.4322280075
 20
75.3089247821
 10
17.4238924811
 20
75.3214193301
 10
17.415886088
 20
75.3341277056
 10
17.4081896696
 20
75.3470259659
 10
17.397822863
 20
75.3655064548
 10
17.3879955291
 20
75.3842789911
 10
17.3786681778
 20
75.4033052614
 10
17.3694036388
 20
75.4234453816
 10
17.360611805
 20
75.4437958459
 10
17.3522612658
 20
75.4643311712
 10
17.3440655366
 20
75.4857160745
 10
17.336281376
 20
75.5072542809
 10
17.3288828485
 20
75.5289289763
 10
17.3203013786
 20
75.5556771758
 10
17.3122395089
 20
75.5825889605
 10
17.3046757422
 20
75.6096478873
 10
17.2975885812
 20
75.6368375131
 10
17.2909565286
 20
75.6641413948
 10
17.2834104011
 20
75.6978000426
 10
17.2765132731
 20
75.7315945481
 10
17.270260489
 20
75.7655133191
 10
17.2646473929
 20
75.7995447633
 10
17.2600414335
 20
75.8309892596
 10
17.2559917683
 20
75.8625099362
 10
17.2525156225
 20
75.8940971673
 10
17.2496302212
 20
75.9257413274
 10
17.2475709555
 20
75.9540789838
 10
17.2460493312
 20
75.9824502598
 10
17.245192335
 20
76.0078863652
 10
17.2448887304
 20
76.0333333333
  0
LWPOLYLINE
  5
32C
100
AcDbEntity
  8
0
100
AcDbPolyline
 62
7
  6
CONTINUOUS
 90
49
 70
0
 10
74.3888577014
 20
76.8887227872
 10
74.3990796648
 20
76.8866947927
 10
74.4092077933
 20
76.8841831524
 10
74.4192130457
 20
76.8811929659
 10
74.4290663807
 20
76.8777293328
 10
74.438738757
 20
76.8737973528
 10
74.4480474583
 20
76.8694831241
 10
74.4571456005
 20
76.864746261
 10
74.4660256302
 20
76.8596119478
 10
74.4746799941
 20
76.8541053686
 10
74.4831011389
 20
76.8482517077
 10
74.4936593227
 20
76.8401898521
 10
74.503822849
 20
76.8316373863
 10
74.5136014155
 20
76.822644297
 10
74.5230047195
 20
76.8132605711
 10
74.5325880684
 20
76.8029248649
 10
74.5417816672
 20
76.7922437232
 10
74.5506076558
 20
76.7812555283
 10
74.5590881741
 20
76.7699986624
 10
74.5677719925
 20
76.7577418846
 10
74.5761075189
 20
76.7452473366
 10
74.584113912
 20
76.7325389611
 10
74.5918103304
 20
76.7196407007
 10
74.602177137
 20
76.7011602119
 10
74.6120044709
 20
76.6823876755
 10
74.6213318221
 20
76.6633614053
 10
74.6305963611
 20
76.643221285
 10
74.6393881949
 20
76.6228708207
 10
74.6477387341
 20
76.6023354955
 10
74.6559344633
 20
76.5809505922
 10
74.6637186239
 20
76.5594123858
 10
74.6711171514
 20
76.5377376904
 10
74.6796986214
 20
76.5109894909
 10
74.6877604911
 20
76.4840777062
 10
74.6953242578
 20
76.4570187794
 10
74.7024114188
 20
76.4298291536
 10
74.7090434713
 20
76.4025252719
 10
74.7165895989
 20
76.3688666241
 10
74.7234867268
 20
76.3350721186
 10
74.7297395109
 20
76.3011533476
 10
74.735352607
 20
76.2671219034
 10
74.7399585664
 20
76.2356774071
 10
74.7440082316
 20
76.2041567305
 10
74.7474843774
 20
76.1725694993
 10
74.7503697787
 20
76.1409253393
 10
74.7524290444
 20
76.1125876829
 10
74.7539506687
 20
76.0842164069
 10
74.7548076649
 20
76.0587803015
 10
74.7551112695
 20
76.0333333333
  0
LINE
  5
32D
100
AcDbEntity
  8
0
100
AcDbLine
 62
7
  6
CONTINUOUS
 10
51.8836600394
 20
61.1965573902
 11
51.8124862715
 21
61.2113182982
  0
LINE
  5
32E
100
AcDbEntity
  8
0
100
AcDbLine
 62
7
  6
CONTINUOUS
 10
40.3427609983
 20
90.8701092765
 11
40.4139347661
 21
90.8553483685
  0
LINE
  5
32F
100
AcDbEntity
  8
0
100
AcDbLine
 62
7
  6
CONTINUOUS
 10
48.4448943251
 20
64.5240475341
 11
48.1148499135
 21
64.5957958692
  0
LINE
  5
330
100
AcDbEntity
  8
0
100
AcDbLine
 62
7
  6
CONTINUOUS
 10
43.7815267125
 20
87.5426191325
 11
44.1115711242
 21
87.4708707974
  0
LWPOLYLINE
  5
331
100
AcDbEntity
  8
0
100
AcDbPolyline
 62
7
  6
CONTINUOUS
 90
34
 70
0
 10
53.844563449
 20
61.2364089223
 10
53.8453420474
 20
61.2362288922
 10
53.8457310598
 20
61.2361360722
 10
53.8461196567
 20
61.2360409609
 10
53.8465076698
 20
61.2359432423
 10
53.846894931
 20
61.2358426005
 10
53.847281272
 20
61.2357387195
 10
53.8476665245
 20
61.2356312831
 10
53.8480505203
 20
61.2355199756
 10
53.8484330913
 20
61.2354044807
 10
53.8488140691
 20
61.2352844827
 10
53.8491932855
 20
61.2351596654
 10
53.8495705723
 20
61.2350297128
 10
53.8499457612
 20
61.2348943091
 10
53.8503186841
 20
61.2347531381
 10
53.8505553297
 20
61.2346598335
 10
53.8507907698
 20
61.2345635236
 10
53.8510247896
 20
61.2344636794
 10
53.8512571745
 20
61.2343597719
 10
53.8514877099
 20
61.2342512721
 10
53.8517161812
 20
61.2341376511
 10
53.8519423736
 20
61.2340183798
 10
53.8521660725
 20
61.2338929294
 10
53.8522784743
 20
61.2338267332
 10
53.8523898297
 20
61.2337585807
 10
53.8524997889
 20
61.2336882421
 10
53.8526080026
 20
61.2336154873
 10
53.852714121
 20
61.2335400864
 10
53.8528177945
 20
61.2334618093
 10
53.8529186736
 20
61.233380426
 10
53.8530164087
 20
61.2332957066
 10
53.8531106502
 20
61.2332074211
 10
53.8532010485
 20
61.2331153395
 10
53.853287254
 20
61.2330192318
  0
LWPOLYLINE
  5
332
100
AcDbEntity
  8
0
100
AcDbPolyline
 62
7
  6
CONTINUOUS
 90
34
 70
0
 10
38.3818575887
 20
90.8302577443
 10
38.3810789903
 20
90.8304377745
 10
38.3806899779
 20
90.8305305945
 10
38.3803013809
 20
90.8306257058
 10
38.3799133678
 20
90.8307234243
 10
38.3795261066
 20
90.8308240661
 10
38.3791397656
 20
90.8309279472
 10
38.3787545131
 20
90.8310353835
 10
38.3783705173
 20
90.8311466911
 10
38.3779879463
 20
90.831262186
 10
38.3776069685
 20
90.831382184
 10
38.3772277521
 20
90.8315070013
 10
38.3768504653
 20
90.8316369539
 10
38.3764752764
 20
90.8317723576
 10
38.3761023535
 20
90.8319135286
 10
38.3758657079
 20
90.8320068332
 10
38.3756302678
 20
90.8321031431
 10
38.375396248
 20
90.8322029873
 10
38.3751638631
 20
90.8323068948
 10
38.3749333277
 20
90.8324153946
 10
38.3747048564
 20
90.8325290156
 10
38.374478664
 20
90.8326482869
 10
38.3742549651
 20
90.8327737373
 10
38.3741425633
 20
90.8328399335
 10
38.3740312079
 20
90.8329080859
 10
38.3739212487
 20
90.8329784245
 10
38.373813035
 20
90.8330511793
 10
38.3737069166
 20
90.8331265803
 10
38.3736032431
 20
90.8332048574
 10
38.373502364
 20
90.8332862406
 10
38.3734046289
 20
90.83337096
 10
38.3733103874
 20
90.8334592455
 10
38.3732199891
 20
90.8335513271
 10
38.3731337836
 20
90.8336474348
  0
LINE
  5
333
100
AcDbEntity
  8
0
100
AcDbLine
 62
7
  6
CONTINUOUS
 10
47.9325512619
 20
63.1256901899
 11
48.2324842271
 21
63.0555849118
  0
LINE
  5
334
100
AcDbEntity
  8
0
100
AcDbLine
 62
7
  6
CONTINUOUS
 10
44.2938697757
 20
88.9409764768
 11
43.9939368105
 21
89.0110817548
  0
LINE
  5
335
100
AcDbEntity
  8
0
100
AcDbLine
 62
7
  6
CONTINUOUS
 10
48.7725109501
 20
64.4413715526
 11
48.4448943251
 21
64.5240475341
  0
LINE
  5
336
100
AcDbEntity
  8
0
100
AcDbLine
 62
7
  6
CONTINUOUS
 10
43.4539100875
 20
87.6252951141
 11
43.7815267125
 21
87.5426191325
  0
LINE
  5
337
100
AcDbEntity
  8
0
100
AcDbLine
 62
7
  6
CONTINUOUS
 10
48.2324842271
 20
63.0555849118
 11
48.5300719279
 21
62.9747553935
  0
LINE
  5
338
100
AcDbEntity
  8
0
100
AcDbLine
 62
7
  6
CONTINUOUS
 10
43.9939368105
 20
89.0110817548
 11
43.6963491098
 21
89.0919112731
  0
LWPOLYLINE
  5
339
100
AcDbEntity
  8
0
100
AcDbPolyline
 62
7
  6
CONTINUOUS
 90
49
 70
0
 10
17.6749583356
 20
74.8693169279
 10
17.6579758591
 20
74.8739319109
 10
17.6411775465
 20
74.879214671
 10
17.6245955251
 20
74.8851568778
 10
17.6082619222
 20
74.8917502012
 10
17.5924136984
 20
74.8988852373
 10
17.5768535393
 20
74.9066230616
 10
17.5615962366
 20
74.9149403409
 10
17.5466565826
 20
74.9238137418
 10
17.5318767591
 20
74.9333336597
 10
17.517442524
 20
74.9433703414
 10
17.5033591049
 20
74.9538950692
 10
17.4896317295
 20
74.9648791252
 10
17.4758831993
 20
74.9766300577
 10
17.4625123852
 20
74.9888080593
 10
17.4495145584
 20
75.0013843508
 10
17.43688499
 20
75.0143301532
 10
17.4199873348
 20
75.032824766
 10
17.4037686801
 20
75.0519170202
 10
17.3882103499
 20
75.0715506335
 10
17.3726713829
 20
75.0925390315
 10
17.3578031742
 20
75.1140083353
 10
17.343579012
 20
75.1359121734
 10
17.3291349014
 20
75.1596260816
 10
17.3153635877
 20
75.1837431584
 10
17.3022401696
 20
75.2082278792
 10
17.2897397455
 20
75.2330447193
 10
17.2778374141
 20
75.258158154
 10
17.2665082739
 20
75.2835326589
 10
17.2526910918
 20
75.3166310993
 10
17.2397532341
 20
75.3500732294
 10
17.2276599731
 20
75.383826733
 10
17.2163765811
 20
75.4178592939
 10
17.2058683305
 20
75.4521385957
 10
17.1955552832
 20
75.4886552113
 10
17.1860488242
 20
75.5253893976
 10
17.1773261271
 20
75.5623185259
 10
17.1693643655
 20
75.5994199673
 10
17.1621407131
 20
75.6366710931
 10
17.1553896044
 20
75.6755383452
 10
17.1493944217
 20
75.7145277641
 10
17.1441378416
 20
75.7536241641
 10
17.1396025412
 20
75.79281236
 10
17.1357711971
 20
75.8320771663
 10
17.132567591
 20
75.8722578442
 10
17.1300735363
 20
75.9124882212
 10
17.1282818207
 20
75.9527538759
 10
17.1271852318
 20
75.993040387
 10
17.1267765573
 20
76.0333333333
  0
LWPOLYLINE
  5
33A
100
AcDbEntity
  8
0
100
AcDbPolyline
 62
7
  6
CONTINUOUS
 90
49
 70
0
 10
74.3250416643
 20
77.1973497388
 10
74.3420241408
 20
77.1927347558
 10
74.3588224534
 20
77.1874519957
 10
74.3754044748
 20
77.1815097888
 10
74.3917380777
 20
77.1749164654
 10
74.4075863015
 20
77.1677814294
 10
74.4231464606
 20
77.1600436051
 10
74.4384037633
 20
77.1517263258
 10
74.4533434173
 20
77.1428529249
 10
74.4681232408
 20
77.133333007
 10
74.4825574759
 20
77.1232963252
 10
74.496640895
 20
77.1127715975
 10
74.5103682704
 20
77.1017875414
 10
74.5241168006
 20
77.0900366089
 10
74.5374876147
 20
77.0778586073
 10
74.5504854416
 20
77.0652823158
 10
74.5631150099
 20
77.0523365134
 10
74.5800126651
 20
77.0338419006
 10
74.5962313199
 20
77.0147496465
 10
74.6117896501
 20
76.9951160332
 10
74.6273286171
 20
76.9741276352
 10
74.6421968258
 20
76.9526583314
 10
74.656420988
 20
76.9307544933
 10
74.6708650986
 20
76.9070405851
 10
74.6846364122
 20
76.8829235083
 10
74.6977598304
 20
76.8584387875
 10
74.7102602544
 20
76.8336219474
 10
74.7221625858
 20
76.8085085126
 10
74.733491726
 20
76.7831340078
 10
74.7473089081
 20
76.7500355673
 10
74.7602467658
 20
76.7165934372
 10
74.7723400268
 20
76.6828399336
 10
74.7836234188
 20
76.6488073727
 10
74.7941316694
 20
76.6145280709
 10
74.8044447167
 20
76.5780114553
 10
74.8139511757
 20
76.541277269
 10
74.8226738728
 20
76.5043481407
 10
74.8306356344
 20
76.4672466993
 10
74.8378592868
 20
76.4299955736
 10
74.8446103955
 20
76.3911283214
 10
74.8506055782
 20
76.3521389026
 10
74.8558621583
 20
76.3130425026
 10
74.8603974587
 20
76.2738543067
 10
74.8642288028
 20
76.2345895004
 10
74.8674324089
 20
76.1944088225
 10
74.8699264636
 20
76.1541784455
 10
74.8717181793
 20
76.1139127908
 10
74.8728147682
 20
76.0736262796
 10
74.8732234426
 20
76.0333333333
  0
LINE
  5
33B
100
AcDbEntity
  8
0
100
AcDbLine
 62
7
  6
CONTINUOUS
 10
49.0973531356
 20
64.347838659
 11
48.7725109501
 21
64.4413715526
  0
LINE
  5
33C
100
AcDbEntity
  8
0
100
AcDbLine
 62
7
  6
CONTINUOUS
 10
43.1290679021
 20
87.7188280077
 11
43.4539100875
 21
87.6252951141
  0
LINE
  5
33D
100
AcDbEntity
  8
0
100
AcDbLine
 62
7
  6
CONTINUOUS
 10
48.5300719279
 20
62.9747553935
 11
48.8249854121
 21
62.8832501812
  0
LINE
  5
33E
100
AcDbEntity
  8
0
100
AcDbLine
 62
7
  6
CONTINUOUS
 10
43.6963491098
 20
89.0919112731
 11
43.4014356256
 21
89.1834164855
  0
LWPOLYLINE
  5
33F
100
AcDbEntity
  8
0
100
AcDbPolyline
 62
7
  6
CONTINUOUS
 90
42
 70
0
 10
21.1094956269
 20
73.8499559613
 10
21.1140601945
 20
73.8485388436
 10
21.1186387714
 20
73.8471645695
 10
21.1232316592
 20
73.8458376574
 10
21.1278391595
 20
73.8445626255
 10
21.1324615738
 20
73.8433439923
 10
21.1370992037
 20
73.8421862761
 10
21.1417523508
 20
73.8410939953
 10
21.1452427886
 20
73.8403230453
 10
21.148742512
 20
73.839596029
 10
21.1522519584
 20
73.8389177517
 10
21.1557715652
 20
73.8382930189
 10
21.158893506
 20
73.8377894362
 10
21.1620234086
 20
73.8373380646
 10
21.1651609429
 20
73.8369454621
 10
21.1683057787
 20
73.8366181863
 10
21.1704873437
 20
73.8364337699
 10
21.1726719094
 20
73.8362887927
 10
21.1748591339
 20
73.836188231
 10
21.1770486758
 20
73.8361370608
 10
21.1792401932
 20
73.8361402581
 10
21.1807736712
 20
73.8361780223
 10
21.1823060848
 20
73.8362498578
 10
21.1838355706
 20
73.8363608062
 10
21.1853602649
 20
73.8365159091
 10
21.1868783041
 20
73.8367202081
 10
21.1883878246
 20
73.8369787448
 10
21.1896738985
 20
73.8372482196
 10
21.1909481876
 20
73.8375685667
 10
21.1922065456
 20
73.8379470459
 10
21.1930418533
 20
73.8382381902
 10
21.1938650595
 20
73.8385620101
 10
21.1946731513
 20
73.8389215792
 10
21.195463116
 20
73.8393199714
 10
21.1961591371
 20
73.8397164697
 10
21.1968327143
 20
73.8401500414
 10
21.1974787043
 20
73.8406234723
 10
21.1980919639
 20
73.8411395483
 10
21.1986342851
 20
73.8416657957
 10
21.1991374474
 20
73.8422298999
 10
21.1995958239
 20
73.8428294951
 10
21.2000037875
 20
73.8434622156
  0
LWPOLYLINE
  5
340
100
AcDbEntity
  8
0
100
AcDbPolyline
 62
7
  6
CONTINUOUS
 90
42
 70
0
 10
70.890504373
 20
78.2167107053
 10
70.8859398054
 20
78.218127823
 10
70.8813612285
 20
78.2195020971
 10
70.8767683407
 20
78.2208290093
 10
70.8721608404
 20
78.2221040412
 10
70.8675384261
 20
78.2233226744
 10
70.8629007962
 20
78.2244803906
 10
70.8582476491
 20
78.2255726714
 10
70.8547572113
 20
78.2263436214
 10
70.8512574879
 20
78.2270706377
 10
70.8477480415
 20
78.227748915
 10
70.8442284347
 20
78.2283736478
 10
70.8411064939
 20
78.2288772305
 10
70.8379765913
 20
78.2293286021
 10
70.834839057
 20
78.2297212046
 10
70.8316942212
 20
78.2300484804
 10
70.8295126562
 20
78.2302328968
 10
70.8273280905
 20
78.2303778739
 10
70.825140866
 20
78.2304784356
 10
70.8229513241
 20
78.2305296058
 10
70.8207598067
 20
78.2305264085
 10
70.8192263287
 20
78.2304886443
 10
70.8176939151
 20
78.2304168088
 10
70.8161644293
 20
78.2303058604
 10
70.814639735
 20
78.2301507575
 10
70.8131216958
 20
78.2299464585
 10
70.8116121753
 20
78.2296879218
 10
70.8103261014
 20
78.229418447
 10
70.8090518123
 20
78.2290980999
 10
70.8077934543
 20
78.2287196207
 10
70.8069581466
 20
78.2284284764
 10
70.8061349405
 20
78.2281046565
 10
70.8053268486
 20
78.2277450874
 10
70.8045368839
 20
78.2273466952
 10
70.8038408629
 20
78.2269501969
 10
70.8031672857
 20
78.2265166252
 10
70.8025212956
 20
78.2260431943
 10
70.8019080361
 20
78.2255271183
 10
70.8013657149
 20
78.2250008709
 10
70.8008625526
 20
78.2244367667
 10
70.8004041761
 20
78.2238371715
 10
70.7999962125
 20
78.223204451
  0
LINE
  5
341
100
AcDbEntity
  8
0
100
AcDbLine
 62
7
  6
CONTINUOUS
 10
18.6569226192
 20
74.6232492603
 11
21.1094956269
 21
73.8499559613
  0
LINE
  5
342
100
AcDbEntity
  8
0
100
AcDbLine
 62
7
  6
CONTINUOUS
 10
73.3430773807
 20
77.4434174064
 11
70.890504373
 21
78.2167107053
  0
LINE
  5
343
100
AcDbEntity
  8
0
100
AcDbLine
 62
7
  6
CONTINUOUS
 10
49.4190722216
 20
64.2435305103
 11
49.0973531356
 21
64.347838659
  0
LINE
  5
344
100
AcDbEntity
  8
0
100
AcDbLine
 62
7
  6
CONTINUOUS
 10
42.807348816
 20
87.8231361564
 11
43.1290679021
 21
87.7188280077
  0
LINE
  5
345
100
AcDbEntity
  8
0
100
AcDbLine
 62
7
  6
CONTINUOUS
 10
51.8124862715
 20
61.2113182982
 11
51.7513740104
 21
61.2320035427
  0
LINE
  5
346
100
AcDbEntity
  8
0
100
AcDbLine
 62
7
  6
CONTINUOUS
 10
40.4139347661
 20
90.8553483685
 11
40.4750470272
 21
90.834663124
  0
LINE
  5
347
100
AcDbEntity
  8
0
100
AcDbLine
 62
7
  6
CONTINUOUS
 10
48.8249854121
 20
62.8832501812
 11
49.1168182292
 21
62.7811521299
  0
LINE
  5
348
100
AcDbEntity
  8
0
100
AcDbLine
 62
7
  6
CONTINUOUS
 10
43.4014356256
 20
89.1834164855
 11
43.1096028084
 21
89.2855145367
  0
LINE
  5
349
100
AcDbEntity
  8
0
100
AcDbLine
 62
7
  6
CONTINUOUS
 10
49.7373130199
 20
64.1285420201
 11
49.4190722216
 21
64.2435305103
  0
LINE
  5
34A
100
AcDbEntity
  8
0
100
AcDbLine
 62
7
  6
CONTINUOUS
 10
42.4891080177
 20
87.9381246466
 11
42.807348816
 21
87.8231361564
  0
LINE
  5
34B
100
AcDbEntity
  8
0
100
AcDbLine
 62
7
  6
CONTINUOUS
 10
49.1168182292
 20
62.7811521299
 11
49.4052702506
 21
62.6685198854
  0
LINE
  5
34C
100
AcDbEntity
  8
0
100
AcDbLine
 62
7
  6
CONTINUOUS
 10
43.1096028084
 20
89.2855145367
 11
42.8211507871
 21
89.3981467813
  0
LINE
  5
34D
100
AcDbEntity
  8
0
100
AcDbLine
 62
7
  6
CONTINUOUS
 10
50.0517249855
 20
64.0029787682
 11
49.7373130199
 21
64.1285420201
  0
LINE
  5
34E
100
AcDbEntity
  8
0
100
AcDbLine
 62
7
  6
CONTINUOUS
 10
42.1746960521
 20
88.0636878984
 11
42.4891080177
 21
87.9381246466
  0
LINE
  5
34F
100
AcDbEntity
  8
0
100
AcDbLine
 62
7
  6
CONTINUOUS
 10
49.4052702506
 20
62.6685198854
 11
49.6899952023
 21
62.5454319269
  0
LINE
  5
350
100
AcDbEntity
  8
0
100
AcDbLine
 62
7
  6
CONTINUOUS
 10
42.8211507871
 20
89.3981467813
 11
42.5364258353
 21
89.5212347398
  0
LINE
  5
351
100
AcDbEntity
  8
0
100
AcDbLine
 62
7
  6
CONTINUOUS
 10
50.3619576007
 20
63.8669589507
 11
50.0517249855
 21
64.0029787682
  0
LINE
  5
352
100
AcDbEntity
  8
0
100
AcDbLine
 62
7
  6
CONTINUOUS
 10
41.864463437
 20
88.199707716
 11
42.1746960521
 21
88.0636878984
  0
LWPOLYLINE
  5
353
100
AcDbEntity
  8
0
100
AcDbPolyline
 62
7
  6
CONTINUOUS
 90
28
 70
0
 10
17.6749583356
 20
74.8693169279
 10
17.707046816
 20
74.8544160364
 10
17.7394457212
 20
74.8401870942
 10
17.7721378296
 20
74.8266377648
 10
17.8051059198
 20
74.8137757116
 10
17.8363503748
 20
74.8023092556
 10
17.8678077784
 20
74.7914455808
 10
17.8994621687
 20
74.7811726958
 10
17.9312975841
 20
74.7714786091
 10
17.9618972555
 20
74.7627354476
 10
17.9926330699
 20
74.7544834391
 10
18.0234902086
 20
74.7466953527
 10
18.0544538528
 20
74.7393439576
 10
18.0946824985
 20
74.7304243783
 10
18.1350384414
 20
74.7221026497
 10
18.1754952505
 20
74.714290094
 10
18.2232991985
 20
74.7056048204
 10
18.2711749288
 20
74.6973236375
 10
18.3190907131
 20
74.68926589
 10
18.3670148231
 20
74.6812509223
 10
18.4149155303
 20
74.673098079
 10
18.4550548485
 20
74.6660220687
 10
18.4951349627
 20
74.6586216636
 10
18.5351354614
 20
74.6507966016
 10
18.5657046808
 20
74.6444555768
 10
18.5962014575
 20
74.6377730588
 10
18.6266120256
 20
74.6307154769
 10
18.6569226192
 20
74.6232492603
  0
LWPOLYLINE
  5
354
100
AcDbEntity
  8
0
100
AcDbPolyline
 62
7
  6
CONTINUOUS
 90
28
 70
0
 10
74.3250416643
 20
77.1973497388
 10
74.2929531839
 20
77.2122506303
 10
74.2605542787
 20
77.2264795724
 10
74.2278621703
 20
77.2400289018
 10
74.1948940801
 20
77.2528909551
 10
74.1636496251
 20
77.2643574111
 10
74.1321922215
 20
77.2752210859
 10
74.1005378312
 20
77.2854939709
 10
74.0687024158
 20
77.2951880575
 10
74.0381027444
 20
77.303931219
 10
74.00736693
 20
77.3121832275
 10
73.9765097913
 20
77.3199713139
 10
73.9455461471
 20
77.327322709
 10
73.9053175014
 20
77.3362422883
 10
73.8649615585
 20
77.3445640169
 10
73.8245047494
 20
77.3523765726
 10
73.7767008014
 20
77.3610618462
 10
73.7288250711
 20
77.3693430291
 10
73.6809092868
 20
77.3774007766
 10
73.6329851769
 20
77.3854157443
 10
73.5850844696
 20
77.3935685877
 10
73.5449451515
 20
77.400644598
 10
73.5048650373
 20
77.4080450031
 10
73.4648645385
 20
77.4158700651
 10
73.4342953192
 20
77.4222110899
 10
73.4037985424
 20
77.4288936079
 10
73.3733879743
 20
77.4359511898
 10
73.3430773807
 20
77.4434174064
  0
LINE
  5
355
100
AcDbEntity
  8
0
100
AcDbLine
 62
7
  6
CONTINUOUS
 10
49.6899952023
 20
62.5454319269
 11
49.9705782912
 21
62.4120112131
  0
LINE
  5
356
100
AcDbEntity
  8
0
100
AcDbLine
 62
7
  6
CONTINUOUS
 10
42.5364258353
 20
89.5212347398
 11
42.2558427465
 21
89.6546554535
  0
LINE
  5
357
100
AcDbEntity
  8
0
100
AcDbLine
 62
7
  6
CONTINUOUS
 10
50.667661857
 20
63.7206127612
 11
50.3619576007
 21
63.8669589507
  0
LINE
  5
358
100
AcDbEntity
  8
0
100
AcDbLine
 62
7
  6
CONTINUOUS
 10
41.5587591807
 20
88.3460539054
 11
41.864463437
 21
88.199707716
  0
LINE
  5
359
100
AcDbEntity
  8
0
100
AcDbLine
 62
7
  6
CONTINUOUS
 10
49.9705782912
 20
62.4120112131
 11
50.2467197379
 21
62.2683401485
  0
LINE
  5
35A
100
AcDbEntity
  8
0
100
AcDbLine
 62
7
  6
CONTINUOUS
 10
50.9684921901
 20
63.5640829877
 11
50.667661857
 21
63.7206127612
  0
LINE
  5
35B
100
AcDbEntity
  8
0
100
AcDbLine
 62
7
  6
CONTINUOUS
 10
41.2579288475
 20
88.5025836789
 11
41.5587591807
 21
88.3460539054
  0
LINE
  5
35C
100
AcDbEntity
  8
0
100
AcDbLine
 62
7
  6
CONTINUOUS
 10
42.2558427465
 20
89.6546554535
 11
41.9797012997
 21
89.7983265182
  0
LINE
  5
35D
100
AcDbEntity
  8
0
100
AcDbLine
 62
7
  6
CONTINUOUS
 10
51.2641054664
 20
63.3975251727
 11
50.9684921901
 21
63.5640829877
  0
LINE
  5
35E
100
AcDbEntity
  8
0
100
AcDbLine
 62
7
  6
CONTINUOUS
 10
40.9623155712
 20
88.669141494
 11
41.2579288475
 21
88.5025836789
  0
LINE
  5
35F
100
AcDbEntity
  8
0
100
AcDbLine
 62
7
  6
CONTINUOUS
 10
50.2467197379
 20
62.2683401485
 11
50.5179137281
 21
62.1146224714
  0
LINE
  5
360
100
AcDbEntity
  8
0
100
AcDbLine
 62
7
  6
CONTINUOUS
 10
41.9797012997
 20
89.7983265182
 11
41.7085073096
 21
89.9520441953
  0
LINE
  5
361
100
AcDbEntity
  8
0
100
AcDbLine
 62
7
  6
CONTINUOUS
 10
51.5541598311
 20
63.221108023
 11
51.2641054664
 21
63.3975251727
  0
LINE
  5
362
100
AcDbEntity
  8
0
100
AcDbLine
 62
7
  6
CONTINUOUS
 10
40.6722612066
 20
88.8455586437
 11
40.9623155712
 21
88.669141494
  0
LINE
  5
363
100
AcDbEntity
  8
0
100
AcDbLine
 62
7
  6
CONTINUOUS
 10
50.5179137281
 20
62.1146224714
 11
50.7837631325
 21
61.9510342212
  0
LINE
  5
364
100
AcDbEntity
  8
0
100
AcDbLine
 62
7
  6
CONTINUOUS
 10
41.7085073096
 20
89.9520441953
 11
41.4426579051
 21
90.1156324455
  0
LINE
  5
365
100
AcDbEntity
  8
0
100
AcDbLine
 62
7
  6
CONTINUOUS
 10
51.8383205517
 20
63.0350138152
 11
51.5541598311
 21
63.221108023
  0
LINE
  5
366
100
AcDbEntity
  8
0
100
AcDbLine
 62
7
  6
CONTINUOUS
 10
40.3881004859
 20
89.0316528514
 11
40.6722612066
 21
88.8455586437
  0
LINE
  5
367
100
AcDbEntity
  8
0
100
AcDbLine
 62
7
  6
CONTINUOUS
 10
50.7837631325
 20
61.9510342212
 11
51.0439920326
 21
61.7776923093
  0
LINE
  5
368
100
AcDbEntity
  8
0
100
AcDbLine
 62
7
  6
CONTINUOUS
 10
41.4426579051
 20
90.1156324455
 11
41.182429005
 21
90.2889743574
  0
LINE
  5
369
100
AcDbEntity
  8
0
100
AcDbLine
 62
7
  6
CONTINUOUS
 10
52.1162501363
 20
62.8394405159
 11
51.8383205517
 21
63.0350138152
  0
LINE
  5
36A
100
AcDbEntity
  8
0
100
AcDbLine
 62
7
  6
CONTINUOUS
 10
40.1101709013
 20
89.2272261508
 11
40.3881004859
 21
89.0316528514
  0
LINE
  5
36B
100
AcDbEntity
  8
0
100
AcDbLine
 62
7
  6
CONTINUOUS
 10
51.0439920326
 20
61.7776923093
 11
51.2981899134
 21
61.5948104693
  0
LINE
  5
36C
100
AcDbEntity
  8
0
100
AcDbLine
 62
7
  6
CONTINUOUS
 10
41.182429005
 20
90.2889743574
 11
40.9282311242
 21
90.4718561974
  0
LINE
  5
36D
100
AcDbEntity
  8
0
100
AcDbLine
 62
7
  6
CONTINUOUS
 10
52.3876144359
 20
62.6346047666
 11
52.1162501363
 21
62.8394405159
  0
LINE
  5
36E
100
AcDbEntity
  8
0
100
AcDbLine
 62
7
  6
CONTINUOUS
 10
39.8388066017
 20
89.4320619001
 11
40.1101709013
 21
89.2272261508
  0
LINE
  5
36F
100
AcDbEntity
  8
0
100
AcDbLine
 62
7
  6
CONTINUOUS
 10
51.2981899134
 20
61.5948104693
 11
51.5459360463
 21
61.4026411544
  0
LINE
  5
370
100
AcDbEntity
  8
0
100
AcDbLine
 62
7
  6
CONTINUOUS
 10
40.9282311242
 20
90.4718561974
 11
40.6804849913
 21
90.6640255122
  0
LWPOLYLINE
  5
371
100
AcDbEntity
  8
0
100
AcDbPolyline
 62
7
  6
CONTINUOUS
 90
37
 70
0
 10
20.7131160439
 20
74.265597704
 10
20.7031002041
 20
74.2734252984
 10
20.6932945358
 20
74.2815304011
 10
20.683706108
 20
74.2899045975
 10
20.67434199
 20
74.298539473
 10
20.6652092507
 20
74.3074266131
 10
20.6563149593
 20
74.3165576031
 10
20.6476661849
 20
74.3259240285
 10
20.6392699967
 20
74.3355174747
 10
20.6311334636
 20
74.3453295271
 10
20.6231691912
 20
74.355474659
 10
20.6154813101
 20
74.3658269651
 10
20.6080729791
 20
74.3763782988
 10
20.6009473568
 20
74.3871205141
 10
20.5941076022
 20
74.3980454645
 10
20.5875568739
 20
74.4091450037
 10
20.5812983309
 20
74.4204109855
 10
20.5753351317
 20
74.4318352636
 10
20.5696704353
 20
74.4434096916
 10
20.5642471135
 20
74.455261976
 10
20.5591341886
 20
74.4672513526
 10
20.5543334033
 20
74.4793696184
 10
20.5498465003
 20
74.4916085702
 10
20.5456752223
 20
74.5039600049
 10
20.5418213119
 20
74.5164157194
 10
20.538286512
 20
74.5289675107
 10
20.5350725652
 20
74.5416071755
 10
20.5321812142
 20
74.5543265108
 10
20.5295935609
 20
74.5672256719
 10
20.5273358067
 20
74.5801876088
 10
20.525407995
 20
74.5932024142
 10
20.5238101695
 20
74.6062601809
 10
20.5225423736
 20
74.6193510016
 10
20.521604651
 20
74.6324649692
 10
20.5209970453
 20
74.6455921764
 10
20.5207196
 20
74.6587227159
 10
20.5207723587
 20
74.6718466806
  0
LWPOLYLINE
  5
372
100
AcDbEntity
  8
0
100
AcDbPolyline
 62
7
  6
CONTINUOUS
 90
37
 70
0
 10
71.2868839561
 20
77.8010689626
 10
71.2968997959
 20
77.7932413682
 10
71.3067054642
 20
77.7851362655
 10
71.3162938919
 20
77.7767620692
 10
71.32565801
 20
77.7681271936
 10
71.3347907492
 20
77.7592400536
 10
71.3436850406
 20
77.7501090635
 10
71.352333815
 20
77.7407426381
 10
71.3607300033
 20
77.731149192
 10
71.3688665364
 20
77.7213371396
 10
71.3768308087
 20
77.7111920076
 10
71.3845186898
 20
77.7008397016
 10
71.3919270209
 20
77.6902883679
 10
71.3990526431
 20
77.6795461526
 10
71.4058923978
 20
77.6686212022
 10
71.412443126
 20
77.657521663
 10
71.4187016691
 20
77.6462556811
 10
71.4246648682
 20
77.6348314031
 10
71.4303295646
 20
77.623256975
 10
71.4357528864
 20
77.6114046907
 10
71.4408658113
 20
77.5994153141
 10
71.4456665966
 20
77.5872970483
 10
71.4501534996
 20
77.5750580965
 10
71.4543247776
 20
77.5627066618
 10
71.458178688
 20
77.5502509472
 10
71.4617134879
 20
77.537699156
 10
71.4649274347
 20
77.5250594911
 10
71.4678187858
 20
77.5123401558
 10
71.470406439
 20
77.4994409947
 10
71.4726641933
 20
77.4864790579
 10
71.474592005
 20
77.4734642525
 10
71.4761898305
 20
77.4604064858
 10
71.4774576264
 20
77.447315665
 10
71.4783953489
 20
77.4342016975
 10
71.4790029547
 20
77.4210744903
 10
71.4792804
 20
77.4079439508
 10
71.4792276413
 20
77.3948199861
  0
LINE
  5
373
100
AcDbEntity
  8
0
100
AcDbLine
 62
7
  6
CONTINUOUS
 10
52.6520876197
 20
62.4207346386
 11
52.3876144359
 21
62.6346047666
  0
LINE
  5
374
100
AcDbEntity
  8
0
100
AcDbLine
 62
7
  6
CONTINUOUS
 10
39.574333418
 20
89.645932028
 11
39.8388066017
 21
89.4320619001
  0
LINE
  5
375
100
AcDbEntity
  8
0
100
AcDbLine
 62
7
  6
CONTINUOUS
 10
51.5459360463
 20
61.4026411544
 11
51.7513740104
 21
61.2320035427
  0
LINE
  5
376
100
AcDbEntity
  8
0
100
AcDbLine
 62
7
  6
CONTINUOUS
 10
40.6804849913
 20
90.6640255122
 11
40.4750470272
 21
90.834663124
  0
LINE
  5
377
100
AcDbEntity
  8
0
100
AcDbLine
 62
7
  6
CONTINUOUS
 10
52.9093546213
 20
62.1980707015
 11
52.6520876197
 21
62.4207346386
  0
LINE
  5
378
100
AcDbEntity
  8
0
100
AcDbLine
 62
7
  6
CONTINUOUS
 10
39.3170664163
 20
89.8685959651
 11
39.574333418
 21
89.645932028
  0
LWPOLYLINE
  5
379
100
AcDbEntity
  8
0
100
AcDbPolyline
 62
7
  6
CONTINUOUS
 90
30
 70
0
 10
21.7751610289
 20
85.325281547
 10
21.7743063093
 20
85.3260476943
 10
21.7734035212
 20
85.3267588335
 10
21.7724594897
 20
85.3274188523
 10
21.7714810397
 20
85.3280316384
 10
21.7704749962
 20
85.3286010796
 10
21.7694481842
 20
85.3291310635
 10
21.7678475507
 20
85.329874382
 10
21.7662187858
 20
85.3305436564
 10
21.7645664647
 20
85.3311482772
 10
21.7628951628
 20
85.3316976347
 10
21.7612094554
 20
85.3322011193
 10
21.7585292672
 20
85.3329208398
 10
21.7558290182
 20
85.3335616085
 10
21.7531131196
 20
85.3341352966
 10
21.7503859828
 20
85.3346537751
 10
21.7470357001
 20
85.3352288188
 10
21.7436768532
 20
85.335747576
 10
21.74031112
 20
85.3362187799
 10
21.7369401787
 20
85.3366511637
 10
21.731585919
 20
85.3372752418
 10
21.7262247488
 20
85.3378371844
 10
21.7208586389
 20
85.338350553
 10
21.714624141
 20
85.3389017544
 10
21.7083865616
 20
85.3394158651
 10
21.7021468215
 20
85.3399029961
 10
21.6908525859
 20
85.3407417821
 10
21.6795557199
 20
85.3415447336
 10
21.6682576528
 20
85.3423312511
 10
21.656959814
 20
85.3431207355
  0
LINE
  5
37A
100
AcDbEntity
  8
0
100
AcDbLine
 62
7
  6
CONTINUOUS
 10
53.1591108758
 20
61.9668643003
 11
52.9093546213
 21
62.1980707015
  0
LINE
  5
37B
100
AcDbEntity
  8
0
100
AcDbLine
 62
7
  6
CONTINUOUS
 10
39.0673101618
 20
90.0998023664
 11
39.3170664163
 21
89.8685959651
  0
LINE
  5
37C
100
AcDbEntity
  8
0
100
AcDbLine
 62
7
  6
CONTINUOUS
 10
53.4010617871
 20
61.7273785
 11
53.1591108758
 21
61.9668643003
  0
LINE
  5
37D
100
AcDbEntity
  8
0
100
AcDbLine
 62
7
  6
CONTINUOUS
 10
38.8253592506
 20
90.3392881667
 11
39.0673101618
 21
90.0998023664
  0
LINE
  5
37E
100
AcDbEntity
  8
0
100
AcDbLine
 62
7
  6
CONTINUOUS
 10
53.6349237797
 20
61.4798869731
 11
53.4010617871
 21
61.7273785
  0
LINE
  5
37F
100
AcDbEntity
  8
0
100
AcDbLine
 62
7
  6
CONTINUOUS
 10
38.591497258
 20
90.5867796936
 11
38.8253592506
 21
90.3392881667
  0
LINE
  5
380
100
AcDbEntity
  8
0
100
AcDbLine
 62
7
  6
CONTINUOUS
 10
53.8532874729
 20
61.2330192339
 11
53.6349237797
 21
61.4798869731
  0
LINE
  5
381
100
AcDbEntity
  8
0
100
AcDbLine
 62
7
  6
CONTINUOUS
 10
38.3731335647
 20
90.8336474328
 11
38.591497258
 21
90.5867796936
  0
LWPOLYLINE
  5
382
100
AcDbEntity
  8
0
100
AcDbPolyline
 62
7
  6
CONTINUOUS
 90
28
 70
0
 10
55.2480507763
 20
63.7116123883
 10
55.2467786128
 20
63.7130696189
 10
55.2454786808
 20
63.7145031387
 10
55.2441518079
 20
63.7159125609
 10
55.2427988214
 20
63.7172974989
 10
55.2414205489
 20
63.7186575657
 10
55.2400178178
 20
63.7199923746
 10
55.2385914556
 20
63.7213015388
 10
55.2371422897
 20
63.7225846716
 10
55.2356330798
 20
63.7238739364
 10
55.2341028953
 20
63.7251376693
 10
55.2325538875
 20
63.7263781387
 10
55.2309882076
 20
63.727597613
 10
55.229408007
 20
63.7287983608
 10
55.2278154371
 20
63.7299826506
 10
55.2262126491
 20
63.7311527507
 10
55.2240298233
 20
63.7327193574
 10
55.2218384671
 20
63.7342734058
 10
55.2196448439
 20
63.7358241997
 10
55.2174552169
 20
63.7373810429
 10
55.2152758495
 20
63.7389532395
 10
55.2136694922
 20
63.7401345947
 10
55.2120744339
 20
63.741331573
 10
55.210492882
 20
63.7425462298
 10
55.2089270439
 20
63.7437806206
 10
55.2073791271
 20
63.745036801
 10
55.2058513388
 20
63.7463168264
 10
55.2043458865
 20
63.7476227523
  0
LWPOLYLINE
  5
383
100
AcDbEntity
  8
0
100
AcDbPolyline
 62
7
  6
CONTINUOUS
 90
39
 70
0
 10
53.853287254
 20
61.2330192318
 10
53.8534282527
 20
61.2328361683
 10
53.8535452106
 20
61.2326362508
 10
53.8536263481
 20
61.2324204667
 10
53.8536634566
 20
61.232120057
 10
53.8536207428
 20
61.2318206495
 10
53.8535360065
 20
61.2316051309
 10
53.8534156272
 20
61.2314056586
 10
53.8532704698
 20
61.2312219703
 10
53.8529431426
 20
61.2309025999
 10
53.8525803891
 20
61.2306265178
 10
53.8520205824
 20
61.2302748835
 10
53.8514332626
 20
61.2299687443
 10
53.850826325
 20
61.2296982076
 10
53.8502076645
 20
61.2294533811
 10
53.8490098779
 20
61.2290300563
 10
53.8477999327
 20
61.2286543381
 10
53.8465797112
 20
61.2283158102
 10
53.8454554469
 20
61.2280304491
 10
53.8443260392
 20
61.2277642343
 10
53.841798311
 20
61.2272257668
 10
53.8390111552
 20
61.2267015323
 10
53.835979466
 20
61.2261923298
 10
53.8326143086
 20
61.2256836442
 10
53.8292423187
 20
61.2252216908
 10
53.8254744264
 20
61.2247503034
 10
53.8217018933
 20
61.2243178772
 10
53.817585558
 20
61.2238837076
 10
53.8134658111
 20
61.2234830994
 10
53.8090490324
 20
61.2230860297
 10
53.8046297199
 20
61.2227181866
 10
53.7982541275
 20
61.2222325827
 10
53.7918750423
 20
61.2217942506
 10
53.7854931999
 20
61.2213975478
 10
53.7786179597
 20
61.2210110522
 10
53.7717406952
 20
61.2206631278
 10
53.7648617269
 20
61.2203506076
 10
53.7540215947
 20
61.2199233538
 10
53.7431788605
 20
61.2195693351
  0
LWPOLYLINE
  5
384
100
AcDbEntity
  8
0
100
AcDbPolyline
 62
7
  6
CONTINUOUS
 90
39
 70
0
 10
38.3731337836
 20
90.8336474348
 10
38.3729927849
 20
90.8338304983
 10
38.372875827
 20
90.8340304159
 10
38.3727946895
 20
90.8342462
 10
38.3727575811
 20
90.8345466097
 10
38.3728002948
 20
90.8348460172
 10
38.3728850312
 20
90.8350615358
 10
38.3730054104
 20
90.8352610081
 10
38.3731505679
 20
90.8354446964
 10
38.3734778951
 20
90.8357640668
 10
38.3738406486
 20
90.8360401489
 10
38.3744004553
 20
90.8363917831
 10
38.3749877751
 20
90.8366979224
 10
38.3755947127
 20
90.8369684591
 10
38.3762133732
 20
90.8372132855
 10
38.3774111598
 20
90.8376366104
 10
38.378621105
 20
90.8380123286
 10
38.3798413265
 20
90.8383508565
 10
38.3809655908
 20
90.8386362176
 10
38.3820949984
 20
90.8389024324
 10
38.3846227266
 20
90.8394408999
 10
38.3874098824
 20
90.8399651344
 10
38.3904415717
 20
90.8404743369
 10
38.393806729
 20
90.8409830225
 10
38.397178719
 20
90.8414449759
 10
38.4009466112
 20
90.8419163632
 10
38.4047191443
 20
90.8423487895
 10
38.4088354796
 20
90.8427829591
 10
38.4129552265
 20
90.8431835673
 10
38.4173720052
 20
90.843580637
 10
38.4217913177
 20
90.8439484801
 10
38.4281669102
 20
90.844434084
 10
38.4345459954
 20
90.8448724161
 10
38.4409278378
 20
90.8452691189
 10
38.447803078
 20
90.8456556145
 10
38.4546803424
 20
90.8460035389
 10
38.4615593107
 20
90.8463160591
 10
38.4723994429
 20
90.8467433128
 10
38.4832421771
 20
90.8470973315
  0
LWPOLYLINE
  5
385
100
AcDbEntity
  8
0
100
AcDbPolyline
 62
7
  6
CONTINUOUS
 90
29
 70
0
 10
38.5439414093
 20
88.4444933819
 10
38.5427512596
 20
88.446619946
 10
38.5415644337
 20
88.4487487915
 10
38.5403872158
 20
88.4508821159
 10
38.53922589
 20
88.4530221164
 10
38.5385308839
 20
88.4543266338
 10
38.5378460666
 20
88.4556362667
 10
38.5371734421
 20
88.4569528558
 10
38.5365150143
 20
88.4582782416
 10
38.5358727872
 20
88.4596142647
 10
38.5352487647
 20
88.4609627654
 10
38.5348959335
 20
88.4617515473
 10
38.5345508817
 20
88.4625450401
 10
38.5342145858
 20
88.4633431346
 10
38.533888022
 20
88.4641457216
 10
38.5335721669
 20
88.4649526917
 10
38.5332679967
 20
88.4657639358
 10
38.5329764878
 20
88.4665793445
 10
38.5326986166
 20
88.4673988088
 10
38.5324353594
 20
88.4682222192
 10
38.5321876927
 20
88.4690494666
 10
38.5319565928
 20
88.4698804417
 10
38.5317430361
 20
88.4707150353
 10
38.5315479989
 20
88.4715531381
 10
38.5313724577
 20
88.4723946409
 10
38.5312173887
 20
88.4732394344
 10
38.5310837684
 20
88.4740874094
 10
38.5309725732
 20
88.4749384566
 10
38.5308847793
 20
88.4757924668
  0
LWPOLYLINE
  5
386
100
AcDbEntity
  8
0
100
AcDbPolyline
 62
7
  6
CONTINUOUS
 90
29
 70
0
 10
53.4560585906
 20
63.6221732848
 10
53.4572487403
 20
63.6200467207
 10
53.4584355662
 20
63.6179178751
 10
53.4596127841
 20
63.6157845508
 10
53.46077411
 20
63.6136445503
 10
53.4614691161
 20
63.6123400329
 10
53.4621539334
 20
63.6110303999
 10
53.4628265579
 20
63.6097138108
 10
53.4634849857
 20
63.608388425
 10
53.4641272128
 20
63.607052402
 10
53.4647512353
 20
63.6057039012
 10
53.4651040665
 20
63.6049151193
 10
53.4654491183
 20
63.6041216265
 10
53.4657854142
 20
63.603323532
 10
53.4661119779
 20
63.6025209451
 10
53.4664278331
 20
63.601713975
 10
53.4667320033
 20
63.6009027309
 10
53.4670235122
 20
63.6000873221
 10
53.4673013834
 20
63.5992678579
 10
53.4675646405
 20
63.5984444475
 10
53.4678123072
 20
63.5976172001
 10
53.4680434071
 20
63.596786225
 10
53.4682569638
 20
63.5959516314
 10
53.468452001
 20
63.5951135286
 10
53.4686275422
 20
63.5942720258
 10
53.4687826112
 20
63.5934272323
 10
53.4689162315
 20
63.5925792573
 10
53.4690274267
 20
63.5917282101
 10
53.4691152206
 20
63.5908741999
  0
LWPOLYLINE
  5
387
100
AcDbEntity
  8
0
100
AcDbPolyline
 62
7
  6
CONTINUOUS
 90
40
 70
0
 10
38.5432684709
 20
63.8140167477
 10
38.5514956057
 20
63.7922130121
 10
38.5535296908
 20
63.7865531222
 10
38.5554703155
 20
63.7808598306
 10
38.5573112603
 20
63.7751332914
 10
38.559046306
 20
63.7693736588
 10
38.5606692332
 20
63.763581087
 10
38.561950261
 20
63.7586532011
 10
38.5631410263
 20
63.7537027337
 10
38.5642360278
 20
63.7487305863
 10
38.5652297643
 20
63.7437376603
 10
38.5661167346
 20
63.738724857
 10
38.5668914374
 20
63.7336930779
 10
38.5674588638
 20
63.729390239
 10
38.5679365635
 20
63.7250762195
 10
38.5683203661
 20
63.7207529695
 10
38.5686061011
 20
63.716422439
 10
38.5687895981
 20
63.712086578
 10
38.5688666865
 20
63.7077473368
 10
38.568829974
 20
63.7032480318
 10
38.5686707314
 20
63.6987512118
 10
38.5683852539
 20
63.6942608989
 10
38.5679698367
 20
63.6897811149
 10
38.5674207749
 20
63.685315882
 10
38.5668251054
 20
63.6814053177
 10
38.5661232038
 20
63.6775123154
 10
38.5653150093
 20
63.6736400803
 10
38.5644004607
 20
63.6697918174
 10
38.5633794972
 20
63.6659707318
 10
38.5621133366
 20
63.6617360117
 10
38.5607193579
 20
63.6575416767
 10
38.5592027365
 20
63.6533901623
 10
38.5575686481
 20
63.6492839045
 10
38.5559970601
 20
63.6456160356
 10
38.5543420149
 20
63.641985223
 10
38.5526116298
 20
63.6383896297
 10
38.550814022
 20
63.6348274185
 10
38.5485752459
 20
63.6305811589
 10
38.5462760061
 20
63.6263674804
 10
38.5439414134
 20
63.6221732922
  0
LWPOLYLINE
  5
388
100
AcDbEntity
  8
0
100
AcDbPolyline
 62
7
  6
CONTINUOUS
 90
40
 70
0
 10
53.456731529
 20
88.2526499189
 10
53.4485043943
 20
88.2744536546
 10
53.4464703091
 20
88.2801135445
 10
53.4445296845
 20
88.2858068361
 10
53.4426887397
 20
88.2915333753
 10
53.440953694
 20
88.2972930079
 10
53.4393307668
 20
88.3030855796
 10
53.4380497389
 20
88.3080134656
 10
53.4368589737
 20
88.3129639329
 10
53.4357639722
 20
88.3179360803
 10
53.4347702357
 20
88.3229290063
 10
53.4338832654
 20
88.3279418096
 10
53.4331085626
 20
88.3329735888
 10
53.4325411362
 20
88.3372764276
 10
53.4320634364
 20
88.3415904471
 10
53.4316796338
 20
88.3459136972
 10
53.4313938988
 20
88.3502442277
 10
53.4312104019
 20
88.3545800886
 10
53.4311333135
 20
88.3589193299
 10
53.4311700259
 20
88.3634186349
 10
53.4313292685
 20
88.3679154549
 10
53.431614746
 20
88.3724057678
 10
53.4320301632
 20
88.3768855518
 10
53.432579225
 20
88.3813507847
 10
53.4331748945
 20
88.385261349
 10
53.4338767961
 20
88.3891543513
 10
53.4346849906
 20
88.3930265864
 10
53.4355995392
 20
88.3968748493
 10
53.4366205027
 20
88.4006959349
 10
53.4378866633
 20
88.404930655
 10
53.439280642
 20
88.40912499
 10
53.4407972634
 20
88.4132765043
 10
53.4424313518
 20
88.4173827622
 10
53.4440029398
 20
88.4210506311
 10
53.445657985
 20
88.4246814436
 10
53.4473883702
 20
88.4282770369
 10
53.449185978
 20
88.4318392481
 10
53.4514247541
 20
88.4360855078
 10
53.4537239939
 20
88.4402991863
 10
53.4560585865
 20
88.4444933745
  0
ARC
  5
389
100
AcDbEntity
  8
0
100
AcDbCircle
 62
7
  6
CONTINUOUS
 10
45.6351740283
 20
-10468.4938374662
 40
10560.4798853933
100
AcDbArc
 50
89.8357689632
 51
89.9545842382
  0
ARC
  5
38A
100
AcDbEntity
  8
0
100
AcDbCircle
 62
7
  6
CONTINUOUS
 10
40.9539836971
 20
-2661.319593996
 40
2717.8882208347
100
AcDbArc
 50
89.9990299307
 51
90.6402667896
  0
ARC
  5
38B
100
AcDbEntity
  8
0
100
AcDbCircle
 62
7
  6
CONTINUOUS
 10
24.0120183206
 20
-840.5696059219
 40
908.4735394876
100
AcDbArc
 50
86.9281464069
 51
87.0731856522
  0
ARC
  5
38C
100
AcDbEntity
  8
0
100
AcDbCircle
 62
7
  6
CONTINUOUS
 10
41.704784854
 20
-316.9237111635
 40
407.9484712447
100
AcDbArc
 50
88.3089792853
 51
88.5042731677
  0
ARC
  5
38D
100
AcDbEntity
  8
0
100
AcDbCircle
 62
7
  6
CONTINUOUS
 10
45.9999408528
 20
-77.6521924309
 40
167.8004859654
100
AcDbArc
 50
89.9999800411
 51
90.2607918832
  0
ARC
  5
38E
100
AcDbEntity
  8
0
100
AcDbCircle
 62
7
  6
CONTINUOUS
 10
40.5284710532
 20
-56.196158309
 40
146.3339160363
100
AcDbArc
 50
90.5841009897
 51
90.9793947871
  0
ARC
  5
38F
100
AcDbEntity
  8
0
100
AcDbCircle
 62
7
  6
CONTINUOUS
 10
45.9999927737
 20
2.5871246324
 40
87.0742113528
100
AcDbArc
 50
89.999995245
 51
92.3672109241
  0
ARC
  5
390
100
AcDbEntity
  8
0
100
AcDbCircle
 62
7
  6
CONTINUOUS
 10
45.9996037328
 20
2.5903309794
 40
87.0709858672
100
AcDbArc
 50
94.0633955733
 51
107.8538898595
  0
ARC
  5
391
100
AcDbEntity
  8
0
100
AcDbCircle
 62
7
  6
CONTINUOUS
 10
45.922231472
 20
4.9734579292
 40
83.8288248706
100
AcDbArc
 50
95.0584464881
 51
95.2143596914
  0
ARC
  5
392
100
AcDbEntity
  8
0
100
AcDbCircle
 62
7
  6
CONTINUOUS
 10
40.3600533714
 20
61.4711222256
 40
0.2653324055
100
AcDbArc
 50
281.7166176286
 51
295.6831894638
  0
ARC
  5
393
100
AcDbEntity
  8
0
100
AcDbCircle
 62
7
  6
CONTINUOUS
 10
45.6351740283
 20
10620.560504152
 40
10560.4798854125
100
AcDbArc
 50
270.0454157618
 51
270.1642310368
  0
ARC
  5
394
100
AcDbEntity
  8
0
100
AcDbCircle
 62
7
  6
CONTINUOUS
 10
40.9539836971
 20
2813.3862606623
 40
2717.8882208344
100
AcDbArc
 50
269.3597332104
 51
270.0009700693
  0
ARC
  5
395
100
AcDbEntity
  8
0
100
AcDbCircle
 62
7
  6
CONTINUOUS
 10
24.0120183182
 20
992.6362726356
 40
908.4735395347
100
AcDbArc
 50
272.9268143478
 51
273.0718535931
  0
ARC
  5
396
100
AcDbEntity
  8
0
100
AcDbCircle
 62
7
  6
CONTINUOUS
 10
41.7047848544
 20
468.990377818
 40
407.9484712326
100
AcDbArc
 50
271.4957268323
 51
271.6910207147
  0
ARC
  5
397
100
AcDbEntity
  8
0
100
AcDbCircle
 62
7
  6
CONTINUOUS
 10
45.9999408528
 20
229.7188590976
 40
167.8004859654
100
AcDbArc
 50
269.7392081168
 51
270.0000199589
  0
ARC
  5
398
100
AcDbEntity
  8
0
100
AcDbCircle
 62
7
  6
CONTINUOUS
 10
40.5284710532
 20
208.2628249792
 40
146.3339160398
100
AcDbArc
 50
269.0206052129
 51
269.4158990105
  0
ARC
  5
399
100
AcDbEntity
  8
0
100
AcDbCircle
 62
7
  6
CONTINUOUS
 10
45.9999927737
 20
149.4795420342
 40
87.0742113527
100
AcDbArc
 50
267.6327890759
 51
270.000004755
  0
ARC
  5
39A
100
AcDbEntity
  8
0
100
AcDbCircle
 62
7
  6
CONTINUOUS
 10
45.9996037328
 20
149.4763356873
 40
87.0709858672
100
AcDbArc
 50
252.1461101405
 51
265.9366044277
  0
ARC
  5
39B
100
AcDbEntity
  8
0
100
AcDbCircle
 62
7
  6
CONTINUOUS
 10
45.9222314705
 20
147.0932087202
 40
83.8288248532
100
AcDbArc
 50
264.7856403086
 51
264.9415535119
  0
ARC
  5
39C
100
AcDbEntity
  8
0
100
AcDbCircle
 62
7
  6
CONTINUOUS
 10
45.9159866978
 20
147.0226605681
 40
83.7580008531
100
AcDbArc
 50
264.9415535709
 51
265.097598601
  0
ARC
  5
39D
100
AcDbEntity
  8
0
100
AcDbCircle
 62
7
  6
CONTINUOUS
 10
46.3648259716
 20
-10468.4938374661
 40
10560.4798853933
100
AcDbArc
 50
90.0454157618
 51
90.1642310368
  0
ARC
  5
39E
100
AcDbEntity
  8
0
100
AcDbCircle
 62
7
  6
CONTINUOUS
 10
51.0460163028
 20
-2661.3195939957
 40
2717.8882208344
100
AcDbArc
 50
89.3597332104
 51
90.0009700693
  0
ARC
  5
39F
100
AcDbEntity
  8
0
100
AcDbCircle
 62
7
  6
CONTINUOUS
 10
46.0051462331
 20
-1715.9067949494
 40
1806.0535139679
100
AcDbArc
 50
90.0243952355
 51
90.1459432632
  0
ARC
  5
3A0
100
AcDbEntity
  8
0
100
AcDbCircle
 62
7
  6
CONTINUOUS
 10
46.0008530773
 20
-1711.1745784105
 40
1801.3212953079
100
AcDbArc
 50
89.8466903648
 51
89.9757315002
  0
ARC
  5
3A1
100
AcDbEntity
  8
0
100
AcDbCircle
 62
7
  6
CONTINUOUS
 10
67.98798168
 20
-840.5696059348
 40
908.4735395005
100
AcDbArc
 50
92.9268143478
 51
93.0718535931
  0
ARC
  5
3A2
100
AcDbEntity
  8
0
100
AcDbCircle
 62
7
  6
CONTINUOUS
 10
50.5216361831
 20
-316.9237111444
 40
407.9484712256
100
AcDbArc
 50
91.4957268323
 51
91.6910207147
  0
ARC
  5
3A3
100
AcDbEntity
  8
0
100
AcDbCircle
 62
7
  6
CONTINUOUS
 10
46.0000591035
 20
-77.6522795562
 40
167.8005730901
100
AcDbArc
 50
89.7392082374
 51
90.000020418
  0
ARC
  5
3A4
100
AcDbEntity
  8
0
100
AcDbCircle
 62
7
  6
CONTINUOUS
 10
51.4761919192
 20
-55.9422823598
 40
146.0799974736
100
AcDbArc
 50
89.0207318348
 51
89.328873629
  0
ARC
  5
3A5
100
AcDbEntity
  8
0
100
AcDbCircle
 62
7
  6
CONTINUOUS
 10
46.0000059064
 20
2.5870663807
 40
87.0742696045
100
AcDbArc
 50
87.4935200407
 51
90.0000038865
  0
ARC
  5
3A6
100
AcDbEntity
  8
0
100
AcDbCircle
 62
7
  6
CONTINUOUS
 10
46.0004073096
 20
2.59038126
 40
87.0709346225
100
AcDbArc
 50
72.1461069129
 51
85.8007675374
  0
ARC
  5
3A7
100
AcDbEntity
  8
0
100
AcDbCircle
 62
7
  6
CONTINUOUS
 10
46.0777685279
 20
4.9734579292
 40
83.8288248706
100
AcDbArc
 50
84.7856403086
 51
84.9415535119
  0
ARC
  5
3A8
100
AcDbEntity
  8
0
100
AcDbCircle
 62
7
  6
CONTINUOUS
 10
46.3648259716
 20
10620.5605041424
 40
10560.4798854029
100
AcDbArc
 50
269.8357689632
 51
269.9545842382
  0
ARC
  5
3A9
100
AcDbEntity
  8
0
100
AcDbCircle
 62
7
  6
CONTINUOUS
 10
51.0460163028
 20
2813.3862606623
 40
2717.8882208344
100
AcDbArc
 50
269.9990299307
 51
270.6402667896
  0
ARC
  5
3AA
100
AcDbEntity
  8
0
100
AcDbCircle
 62
7
  6
CONTINUOUS
 10
46.005146233
 20
1867.973461555
 40
1806.0535139068
100
AcDbArc
 50
269.8540567368
 51
269.9756047645
  0
ARC
  5
3AB
100
AcDbEntity
  8
0
100
AcDbCircle
 62
7
  6
CONTINUOUS
 10
46.0008530773
 20
1863.2412450447
 40
1801.3212952754
100
AcDbArc
 50
270.0242684998
 51
270.1533096352
  0
ARC
  5
3AC
100
AcDbEntity
  8
0
100
AcDbCircle
 62
7
  6
CONTINUOUS
 10
67.9879816804
 20
992.6362726101
 40
908.4735395091
100
AcDbArc
 50
266.9281464069
 51
267.0731856522
  0
ARC
  5
3AD
100
AcDbEntity
  8
0
100
AcDbCircle
 62
7
  6
CONTINUOUS
 10
50.5216361833
 20
468.9903778183
 40
407.9484712329
100
AcDbArc
 50
268.3089792853
 51
268.5042731677
  0
ARC
  5
3AE
100
AcDbEntity
  8
0
100
AcDbCircle
 62
7
  6
CONTINUOUS
 10
46.0000591035
 20
229.7189462288
 40
167.800573096
100
AcDbArc
 50
269.999979582
 51
270.2607917626
  0
ARC
  5
3AF
100
AcDbEntity
  8
0
100
AcDbCircle
 62
7
  6
CONTINUOUS
 10
51.4761919192
 20
208.008949029
 40
146.079997476
100
AcDbArc
 50
270.6711263713
 51
270.9792681652
  0
ARC
  5
3B0
100
AcDbEntity
  8
0
100
AcDbCircle
 62
7
  6
CONTINUOUS
 10
46.0000059064
 20
149.479600286
 40
87.0742696045
100
AcDbArc
 50
269.9999961135
 51
272.5064799593
  0
ARC
  5
3B1
100
AcDbEntity
  8
0
100
AcDbCircle
 62
7
  6
CONTINUOUS
 10
46.0004073096
 20
149.4762854067
 40
87.0709346225
100
AcDbArc
 50
274.1992324616
 51
287.8538930871
  0
ARC
  5
3B2
100
AcDbEntity
  8
0
100
AcDbCircle
 62
7
  6
CONTINUOUS
 10
46.077768529
 20
147.0932087259
 40
83.828824859
100
AcDbArc
 50
275.0584464881
 51
275.2143596914
  0
ARC
  5
3B3
100
AcDbEntity
  8
0
100
AcDbCircle
 62
7
  6
CONTINUOUS
 10
46.0840133022
 20
147.0226605673
 40
83.7580008523
100
AcDbArc
 50
274.902401399
 51
275.0584464291
  0
CIRCLE
  5
3B4
100
AcDbEntity
  8
0
100
AcDbCircle
 62
7
  6
CONTINUOUS
 10
46.0
 20
76.0333333333
 40
1.4482233047
  0
ELLIPSE
  5
3B5
100
AcDbEntity
  8
0
100
AcDbEllipse
 62
7
  6
CONTINUOUS
 10
81.4980900812
 20
95.5314234146
 30
0.0
 11
0.3562493039
 21
0.3562493039
 31
0.0
 40
0.9924325091
 41
-0.7816000651
 42
0.7816000651
  0
ELLIPSE
  5
3B6
100
AcDbEntity
  8
0
100
AcDbEllipse
 62
7
  6
CONTINUOUS
 10
81.4980900812
 20
56.5352432521
 30
0.0
 11
-0.3562493039
 21
0.3562493039
 31
0.0
 40
0.9924325091
 41
2.3599925885
 42
3.9231927187
  0
ELLIPSE
  5
3B7
100
AcDbEntity
  8
0
100
AcDbEllipse
 62
7
  6
CONTINUOUS
 10
10.5019099187
 20
56.5352432521
 30
0.0
 11
0.3562493039
 21
0.3562493039
 31
0.0
 40
0.9924325091
 41
-3.9231927187
 42
-2.3599925885
  0
ELLIPSE
  5
3B8
100
AcDbEntity
  8
0
100
AcDbEllipse
 62
7
  6
CONTINUOUS
 10
10.5019099187
 20
95.5314234146
 30
0.0
 11
0.3562493039
 21
-0.3562493039
 31
0.0
 40
0.9924325091
 41
2.3599925885
 42
3.9231927187
  0
ENDSEC
  0
SECTION
  2
OBJECTS
  0
DICTIONARY
  5
3B9
100
AcDbDictionary
  3
ACAD_GROUP
350
3BA
  3
ACAD_MLINESTYLE
350
3BB
  0
DICTIONARY
  5
3BA
102
{ACAD_REACTORS
330
3B9
102
}
100
AcDbDictionary
  0
DICTIONARY
  5
3BB
102
{ACAD_REACTORS
330
3B9
102
}
100
AcDbDictionary
  3
STANDARD
350
3BC
  0
MLINESTYLE
  5
3BC
102
{ACAD_REACTORS
330
3BB
102
}
100
AcDbMlineStyle
  2
STANDARD
 70
0
  3

 62
256
 51
90.0
 52
90.0
 71
2
 49
0.5
 62
256
  6
BYLAYER
 49
-0.5
 62
256
  6
BYLAYER
  0
ENDSEC
  0
EOF
