  0
SECTION
  2
HEADER
  9
$ACADVER
  1
AC1015
  9
$DWGCODEPAGE
  3
ANSI_1252
  9
$EXTMAX
 10
17.0
 20
11.0
 30
0.0
  9
$EXTMIN
 10
0.0
 20
0.0
 30
0.0
  9
$LIMMIN
 10
0.0
 20
0.0
  9
$LIMMAX
 10
17.0
 20
11.0
  9
$VIEWCTR
 10
8.5
 20
5.5
  9
$VIEWSIZE
 40
11.0
  9
$CLAYER
  8
0
  9
$LTSCALE
 40
0.935
  9
$CELTYPE
  6
BYLAYER
  9
$DIMSCALE
 40
1.0
  9
$DIMASZ
 40
0.1875
  9
$DIMEXO
 40
0.10625
  9
$DIMDLI
 40
0.646
  9
$DIMEXE
 40
0.306
  9
$DIMCEN
 40
0.153
  9
$DIMLFAC
 40
1.0
  9
$DIMBLK
  1
_FILLED
  9
$DIMTXT
 40
0.125
  9
$DIMTOL
 70
0
  9
$DIMLIM
 70
0
  9
$DIMTFAC
 40
1.0
  9
$PDMODE
 70
3
  9
$PDSIZE
 40
0.03125
  9
$HANDSEED
  5
49E
  9
$TILEMODE
 70
1
  9
$MEASUREMENT
 70
0
  9
$INSUNITS
 70
1
  0
ENDSEC
  0
SECTION
  2
CLASSES
  0
CLASS
  1
ACDBDICTIONARYWDFLT
  2
AcDbDictionaryWithDefault
  3
AutoCAD 2000
 90
0
280
0
281
0
  0
CLASS
  1
ACDBPLACEHOLDER
  2
AcDbPlaceHolder
  3
AutoCAD 2000
 90
0
280
0
281
0
  0
CLASS
  1
LAYOUT
  2
AcDbLayout
  3
AutoCAD 2000
 90
0
280
0
281
0
  0
ENDSEC
  0
SECTION
  2
TABLES
  0
TABLE
  2
VPORT
  5
8
100
AcDbSymbolTable
 70
2
  0
VPORT
  5
1F4
100
AcDbSymbolTableRecord
100
AcDbViewportTableRecord
  2
*ACTIVE
 70
0
 10
0.0
 20
0.0
 11
1.0
 21
1.0
 12
8.5
 22
5.5
 13
0.0
 23
0.0
 14
1.0
 24
1.0
 15
0.0
 25
0.0
 16
0.0
 26
0.0
 36
1.0
 17
0.0
 27
0.0
 37
0.0
 40
11.0
 41
1.5454545455
 42
50.0
 43
0.0
 44
0.0
 50
0.0
 51
0.0
 71
0
 72
100
 73
1
 74
1
 75
0
 76
0
 77
0
 78
0
  0
ENDTAB
  0
TABLE
  2
LTYPE
  5
5
100
AcDbSymbolTable
 70
6
  0
LTYPE
  5
14
100
AcDbSymbolTableRecord
100
AcDbLinetypeTableRecord
  2
BYBLOCK
 70
0
  3

 72
65
 73
0
 40
0.0
  0
LTYPE
  5
15
100
AcDbSymbolTableRecord
100
AcDbLinetypeTableRecord
  2
BYLAYER
 70
0
  3

 72
65
 73
0
 40
0.0
  0
LTYPE
  5
16
100
AcDbSymbolTableRecord
100
AcDbLinetypeTableRecord
  2
CONTINUOUS
 70
64
  3
Solid line
 72
65
 73
0
 40
0.0
  0
LTYPE
  5
1F5
100
AcDbSymbolTableRecord
100
AcDbLinetypeTableRecord
  2
CENTER
 70
64
  3
____ _ ____ _ ____ _ ____ _ ____ _ ____ _ ____
 72
65
 73
4
 40
0.6
 49
0.375
 74
0
 49
-0.075
 74
0
 49
0.075
 74
0
 49
-0.075
 74
0
  0
LTYPE
  5
1F6
100
AcDbSymbolTableRecord
100
AcDbLinetypeTableRecord
  2
HIDDEN
 70
64
  3
- - - - - - - - - - - - - - - - - - - -
 72
65
 73
2
 40
0.2
 49
0.1
 74
0
 49
-0.1
 74
0
  0
LTYPE
  5
1F7
100
AcDbSymbolTableRecord
100
AcDbLinetypeTableRecord
  2
PHANTOM
 70
64
  3
_____ _ _ _____ _ _ _____ _ _ _____
 72
65
 73
6
 40
0.8
 49
0.45
 74
0
 49
-0.05
 74
0
 49
0.1
 74
0
 49
-0.05
 74
0
 49
0.1
 74
0
 49
-0.05
 74
0
  0
LTYPE
  5
1F8
100
AcDbSymbolTableRecord
100
AcDbLinetypeTableRecord
  2
DOT
 70
64
  3
. . . . . . . . . . . . . . . . . . . .
 72
65
 73
2
 40
0.2
 49
0.1
 74
0
 49
-0.1
 74
0
  0
LTYPE
  5
1F9
100
AcDbSymbolTableRecord
100
AcDbLinetypeTableRecord
  2
DASHED
 70
64
  3
- - - - - - - - - - - - - - - - - - - -
 72
65
 73
2
 40
0.2
 49
0.1
 74
0
 49
-0.1
 74
0
  0
ENDTAB
  0
TABLE
  2
LAYER
  5
2
100
AcDbSymbolTable
 70
36
  0
LAYER
  5
10
100
AcDbSymbolTableRecord
100
AcDbLayerTableRecord
  2
0
 70
0
 62
7
  6
CONTINUOUS
370
-3
390
F
  0
LAYER
  5
1FA
100
AcDbSymbolTableRecord
100
AcDbLayerTableRecord
  2
DEFAULT_1
 70
0
 62
7
  6
CENTER
370
-3
390
F
  0
LAYER
  5
1FB
100
AcDbSymbolTableRecord
100
AcDbLayerTableRecord
  2
DEFAULT_2
 70
0
 62
8
  6
HIDDEN
370
-3
390
F
  0
LAYER
  5
1FC
100
AcDbSymbolTableRecord
100
AcDbLayerTableRecord
  2
DEFAULT_3
 70
0
 62
7
  6
PHANTOM
370
-3
390
F
  0
LAYER
  5
1FD
100
AcDbSymbolTableRecord
100
AcDbLayerTableRecord
  2
1_CURVES
 70
0
 62
7
  6
CONTINUOUS
370
-3
390
F
  0
LAYER
  5
1FE
100
AcDbSymbolTableRecord
100
AcDbLayerTableRecord
  2
1_CURVES-DEGAGEMENT-COIL
 70
0
 62
7
  6
CONTINUOUS
370
-3
390
F
  0
LAYER
  5
1FF
100
AcDbSymbolTableRecord
100
AcDbLayerTableRecord
  2
1_CURVES-JETS
 70
0
 62
7
  6
CONTINUOUS
370
-3
390
F
  0
LAYER
  5
200
100
AcDbSymbolTableRecord
100
AcDbLayerTableRecord
  2
1_CURVES-TRAJECTOIRE-COIL
 70
0
 62
7
  6
CONTINUOUS
370
-3
390
F
  0
LAYER
  5
201
100
AcDbSymbolTableRecord
100
AcDbLayerTableRecord
  2
1_CURVES_CONTROLES
 70
0
 62
7
  6
CONTINUOUS
370
-3
390
F
  0
LAYER
  5
202
100
AcDbSymbolTableRecord
100
AcDbLayerTableRecord
  2
1_CURVES_IMPORT
 70
0
 62
7
  6
CONTINUOUS
370
-3
390
F
  0
LAYER
  5
203
100
AcDbSymbolTableRecord
100
AcDbLayerTableRecord
  2
1_CURVES_JETS
 70
0
 62
7
  6
CONTINUOUS
370
-3
390
F
  0
LAYER
  5
204
100
AcDbSymbolTableRecord
100
AcDbLayerTableRecord
  2
2_PLANES
 70
0
 62
7
  6
CONTINUOUS
370
-3
390
F
  0
LAYER
  5
205
100
AcDbSymbolTableRecord
100
AcDbLayerTableRecord
  2
2_PLANES-JETS
 70
0
 62
7
  6
CONTINUOUS
370
-3
390
F
  0
LAYER
  5
206
100
AcDbSymbolTableRecord
100
AcDbLayerTableRecord
  2
3_POINTS
 70
0
 62
7
  6
CONTINUOUS
370
-3
390
F
  0
LAYER
  5
207
100
AcDbSymbolTableRecord
100
AcDbLayerTableRecord
  2
3_POINTS-JETS
 70
0
 62
7
  6
CONTINUOUS
370
-3
390
F
  0
LAYER
  5
208
100
AcDbSymbolTableRecord
100
AcDbLayerTableRecord
  2
4_CSYS
 70
0
 62
7
  6
CONTINUOUS
370
-3
390
F
  0
LAYER
  5
209
100
AcDbSymbolTableRecord
100
AcDbLayerTableRecord
  2
5_AXIS
 70
0
 62
7
  6
CONTINUOUS
370
-3
390
F
  0
LAYER
  5
20A
100
AcDbSymbolTableRecord
100
AcDbLayerTableRecord
  2
6_SURFACES
 70
0
 62
7
  6
CONTINUOUS
370
-3
390
F
  0
LAYER
  5
20B
100
AcDbSymbolTableRecord
100
AcDbLayerTableRecord
  2
6_SURFACES-OFFSET-FIBRE-ACRYLIQ
 70
0
 62
7
  6
CONTINUOUS
370
-3
390
F
  0
LAYER
  5
20C
100
AcDbSymbolTableRecord
100
AcDbLayerTableRecord
  2
6_SURFACES-POUR-CADRES
 70
0
 62
7
  6
CONTINUOUS
370
-3
390
F
  0
LAYER
  5
20D
100
AcDbSymbolTableRecord
100
AcDbLayerTableRecord
  2
6_SURFACES-TOOLING
 70
0
 62
7
  6
CONTINUOUS
370
-3
390
F
  0
LAYER
  5
20E
100
AcDbSymbolTableRecord
100
AcDbLayerTableRecord
  2
6_SURFACES_AIRE
 70
0
 62
7
  6
CONTINUOUS
370
-3
390
F
  0
LAYER
  5
20F
100
AcDbSymbolTableRecord
100
AcDbLayerTableRecord
  2
6_SURFACES_OFFSET_CONDUIT
 70
0
 62
7
  6
CONTINUOUS
370
-3
390
F
  0
LAYER
  5
210
100
AcDbSymbolTableRecord
100
AcDbLayerTableRecord
  2
6_SURFACES_OFFSET_CONDUIT-PREPA
 70
0
 62
7
  6
CONTINUOUS
370
-3
390
F
  0
LAYER
  5
211
100
AcDbSymbolTableRecord
100
AcDbLayerTableRecord
  2
6_SURFACES_OFFSET_FIBRE
 70
0
 62
7
  6
CONTINUOUS
370
-3
390
F
  0
LAYER
  5
212
100
AcDbSymbolTableRecord
100
AcDbLayerTableRecord
  2
6_SURFACES_TOOLING
 70
0
 62
7
  6
CONTINUOUS
370
-3
390
F
  0
LAYER
  5
213
100
AcDbSymbolTableRecord
100
AcDbLayerTableRecord
  2
7_NOTES
 70
0
 62
7
  6
CONTINUOUS
370
-3
390
F
  0
LAYER
  5
214
100
AcDbSymbolTableRecord
100
AcDbLayerTableRecord
  2
8_ZONE-ROBINETERIE
 70
0
 62
7
  6
CONTINUOUS
370
-3
390
F
  0
LAYER
  5
215
100
AcDbSymbolTableRecord
100
AcDbLayerTableRecord
  2
XSEC_DATUMS
 70
0
 62
7
  6
CONTINUOUS
370
-3
390
F
  0
ENDTAB
  0
TABLE
  2
STYLE
  5
3
100
AcDbSymbolTable
 70
1
  0
STYLE
  5
11
100
AcDbSymbolTableRecord
100
AcDbTextStyleTableRecord
  2
STANDARD
 70
0
 40
0.0
 41
0.8
 50
0.0
 71
0
 42
0.2
  3
txt
  4

  0
STYLE
  5
216
100
AcDbSymbolTableRecord
100
AcDbTextStyleTableRecord
  2
TEXTSTYLE_1
 70
0
 40
0.0
 41
0.8
 50
0.0
 71
0
 42
0.2
  3
gdt
  4

  0
ENDTAB
  0
TABLE
  2
VIEW
  5
6
100
AcDbSymbolTable
 70
0
  0
ENDTAB
  0
TABLE
  2
UCS
  5
7
100
AcDbSymbolTable
 70
0
  0
ENDTAB
  0
TABLE
  2
APPID
  5
9
100
AcDbSymbolTable
 70
1
  0
APPID
  5
217
100
AcDbSymbolTableRecord
100
AcDbRegAppTableRecord
  2
ACAD
 70
0
  0
ENDTAB
  0
TABLE
  2
BLOCK_RECORD
  5
1
100
AcDbSymbolTable
 70
0
  0
BLOCK_RECORD
  5
218
100
AcDbSymbolTableRecord
100
AcDbBlockTableRecord
  2
*Model_Space
  0
BLOCK_RECORD
  5
219
100
AcDbSymbolTableRecord
100
AcDbBlockTableRecord
  2
*Paper_Space
  0
ENDTAB
  0
TABLE
  2
DIMSTYLE
  5
A
100
AcDbSymbolTable
 70
1
100
AcDbDimStyleTable
 71
0
  0
DIMSTYLE
105
21A
100
AcDbSymbolTableRecord
100
AcDbDimStyleTableRecord
  2
STANDARD
 70
0
  3

  4

 40
1.0
 41
0.1875
 42
0.0625
 43
0.38
 44
0.18
 45
0.0
 46
0.0
 47
0.00001
 48
0.00001
140
0.125
141
0.09
142
0.0
143
25.4
144
1.0
145
0.0
146
1.0
147
0.09
 71
0.0
 72
0.0
 73
1
 74
1
 75
0
 76
0
 77
0
 78
4
170
0
171
2
172
0
173
0
174
0
175
0
176
0
177
0
178
0
270
2
271
5
272
5
273
2
274
2
275
0
280
0
281
0
282
0
283
1
284
4
285
0
286
0
287
3
288
0
340
11
  0
ENDTAB
  0
ENDSEC
  0
SECTION
  2
BLOCKS
  0
BLOCK
  5
20
100
AcDbEntity
  8
0
100
AcDbBlockBegin
  2
*Model_Space
 70
0
 10
0.0
 20
0.0
 30
0.0
  3
*Model_Space
  1

  0
ENDBLK
  5
21
100
AcDbEntity
  8
0
100
AcDbBlockEnd
  0
BLOCK
  5
1C
100
AcDbEntity
  8
0
100
AcDbBlockBegin
  2
*Paper_Space
 70
0
 10
0.0
 20
0.0
 30
0.0
  3
*Paper_Space
  1

  0
ENDBLK
  5
1D
100
AcDbEntity
  8
0
100
AcDbBlockEnd
  0
ENDSEC
  0
SECTION
  2
ENTITIES
  0
LINE
  5
21B
100
AcDbEntity
  8
0
100
AcDbLine
 62
7
  6
CONTINUOUS
 10
20.939131021
 20
36.529401781
 11
20.9527972056
 21
36.545462209
  0
LINE
  5
21C
100
AcDbEntity
  8
0
100
AcDbLine
 62
7
  6
CONTINUOUS
 10
20.9527972056
 20
36.545462209
 11
20.967335634
 21
36.5607201663
  0
LINE
  5
21D
100
AcDbEntity
  8
0
100
AcDbLine
 62
7
  6
CONTINUOUS
 10
20.967335634
 20
36.5607201663
 11
20.9832985916
 21
36.5756594012
  0
LINE
  5
21E
100
AcDbEntity
  8
0
100
AcDbLine
 62
7
  6
CONTINUOUS
 10
20.9832985916
 20
36.5756594012
 11
21.0001421677
 21
36.5896720804
  0
LINE
  5
21F
100
AcDbEntity
  8
0
100
AcDbLine
 62
7
  6
CONTINUOUS
 10
21.0001421677
 20
36.5896720804
 11
21.0171887191
 21
36.602269545
  0
LINE
  5
220
100
AcDbEntity
  8
0
100
AcDbLine
 62
7
  6
CONTINUOUS
 10
21.0171887191
 20
36.602269545
 11
21.0349390002
 21
36.613895554
  0
LINE
  5
221
100
AcDbEntity
  8
0
100
AcDbLine
 62
7
  6
CONTINUOUS
 10
21.0349390002
 20
36.613895554
 11
21.0539718708
 21
36.6248508686
  0
LINE
  5
222
100
AcDbEntity
  8
0
100
AcDbLine
 62
7
  6
CONTINUOUS
 10
21.0539718708
 20
36.6248508686
 11
21.0737095047
 21
36.6347178586
  0
LINE
  5
223
100
AcDbEntity
  8
0
100
AcDbLine
 62
7
  6
CONTINUOUS
 10
21.0737095047
 20
36.6347178586
 11
21.0935127074
 21
36.6432170939
  0
LINE
  5
224
100
AcDbEntity
  8
0
100
AcDbLine
 62
7
  6
CONTINUOUS
 10
21.0935127074
 20
36.6432170939
 11
21.1138650868
 21
36.6505956785
  0
LINE
  5
225
100
AcDbEntity
  8
0
100
AcDbLine
 62
7
  6
CONTINUOUS
 10
21.1138650868
 20
36.6505956785
 11
21.1352841571
 21
36.65696723
  0
LINE
  5
226
100
AcDbEntity
  8
0
100
AcDbLine
 62
7
  6
CONTINUOUS
 10
20.9259690701
 20
36.5120096197
 11
20.939131021
 21
36.529401781
  0
LINE
  5
227
100
AcDbEntity
  8
0
100
AcDbLine
 62
7
  6
CONTINUOUS
 10
20.9137552637
 20
36.4937457626
 11
20.9259690701
 21
36.5120096197
  0
LINE
  5
228
100
AcDbEntity
  8
0
100
AcDbLine
 62
7
  6
CONTINUOUS
 10
73.2982986143
 20
17.7425316126
 11
73.3117240036
 21
17.7463154496
  0
LINE
  5
229
100
AcDbEntity
  8
0
100
AcDbLine
 62
7
  6
CONTINUOUS
 10
73.2850124707
 20
17.7388604273
 11
73.299302659
 21
17.7428120084
  0
LINE
  5
22A
100
AcDbEntity
  8
0
100
AcDbLine
 62
7
  6
CONTINUOUS
 10
69.4876575012
 20
16.3087904655
 11
69.5280455836
 21
16.319698573
  0
LINE
  5
22B
100
AcDbEntity
  8
0
100
AcDbLine
 62
7
  6
CONTINUOUS
 10
20.9027099201
 20
36.4749398898
 11
20.9137552637
 21
36.4937457626
  0
LINE
  5
22C
100
AcDbEntity
  8
0
100
AcDbLine
 62
7
  6
CONTINUOUS
 10
73.2722812313
 20
17.7354106187
 11
73.2861611276
 21
17.7391749493
  0
LINE
  5
22D
100
AcDbEntity
  8
0
100
AcDbLine
 62
7
  6
CONTINUOUS
 10
73.2610717752
 20
17.7330904561
 11
73.3287523665
 21
17.751445544
  0
LINE
  5
22E
100
AcDbEntity
  8
0
100
AcDbLine
 62
7
  6
CONTINUOUS
 10
73.2597048206
 20
17.7320678267
 11
73.2745652305
 21
17.7360246351
  0
LINE
  5
22F
100
AcDbEntity
  8
0
100
AcDbLine
 62
7
  6
CONTINUOUS
 10
73.2477902635
 20
17.7289604394
 11
73.2611795937
 21
17.7324564783
  0
LINE
  5
230
100
AcDbEntity
  8
0
100
AcDbLine
 62
7
  6
CONTINUOUS
 10
73.2352394991
 20
17.7257495215
 11
73.2494270112
 21
17.7293838903
  0
LINE
  5
231
100
AcDbEntity
  8
0
100
AcDbLine
 62
7
  6
CONTINUOUS
 10
73.2220665648
 20
17.7224480365
 11
73.2370443447
 21
17.7262073305
  0
LINE
  5
232
100
AcDbEntity
  8
0
100
AcDbLine
 62
7
  6
CONTINUOUS
 10
73.2084368718
 20
17.7191056874
 11
73.2240429637
 21
17.7229389046
  0
LINE
  5
233
100
AcDbEntity
  8
0
100
AcDbLine
 62
7
  6
CONTINUOUS
 10
20.8927874536
 20
36.4555466898
 11
20.9027099201
 21
36.4749398898
  0
LINE
  5
234
100
AcDbEntity
  8
0
100
AcDbLine
 62
7
  6
CONTINUOUS
 10
73.1944682676
 20
17.7157573655
 11
73.2105549404
 21
17.7196201985
  0
LINE
  5
235
100
AcDbEntity
  8
0
100
AcDbLine
 62
7
  6
CONTINUOUS
 10
73.1928787841
 20
17.7167415214
 11
73.2610717752
 21
17.7330904561
  0
LINE
  5
236
100
AcDbEntity
  8
0
100
AcDbLine
 62
7
  6
CONTINUOUS
 10
73.1825637276
 20
17.7129650006
 11
73.196730817
 21
17.7162944306
  0
LINE
  5
237
100
AcDbEntity
  8
0
100
AcDbLine
 62
7
  6
CONTINUOUS
 10
69.4477543975
 20
16.2997766219
 11
69.4876575012
 21
16.3087904655
  0
LINE
  5
238
100
AcDbEntity
  8
0
100
AcDbLine
 62
7
  6
CONTINUOUS
 10
70.6444178507
 20
17.4966052593
 11
70.6578531491
 21
17.499815172
  0
LINE
  5
239
100
AcDbEntity
  8
0
100
AcDbLine
 62
7
  6
CONTINUOUS
 10
73.1704046311
 20
17.7101706698
 11
73.1849623616
 21
17.7135231202
  0
LINE
  5
23A
100
AcDbEntity
  8
0
100
AcDbLine
 62
7
  6
CONTINUOUS
 10
73.1581627019
 20
17.7074158875
 11
73.1729231481
 21
17.7107446867
  0
LINE
  5
23B
100
AcDbEntity
  8
0
100
AcDbLine
 62
7
  6
CONTINUOUS
 10
73.1453875283
 20
17.7046033742
 11
73.1604955579
 21
17.7079363297
  0
LINE
  5
23C
100
AcDbEntity
  8
0
100
AcDbLine
 62
7
  6
CONTINUOUS
 10
73.132949939
 20
17.7019258199
 11
73.1481569218
 21
17.7052076943
  0
LINE
  5
23D
100
AcDbEntity
  8
0
100
AcDbLine
 62
7
  6
CONTINUOUS
 10
20.8840056706
 20
36.4356047337
 11
20.8927874536
 21
36.4555466898
  0
LINE
  5
23E
100
AcDbEntity
  8
0
100
AcDbLine
 62
7
  6
CONTINUOUS
 10
73.1196519411
 20
17.6991287091
 11
73.1351801987
 21
17.7024015667
  0
LINE
  5
23F
100
AcDbEntity
  8
0
100
AcDbLine
 62
7
  6
CONTINUOUS
 10
73.1242328449
 20
17.7024129931
 11
73.1928787841
 21
17.7167415214
  0
LINE
  5
240
100
AcDbEntity
  8
0
100
AcDbLine
 62
7
  6
CONTINUOUS
 10
73.1070224952
 20
17.6965345877
 11
73.1226699491
 21
17.6997575921
  0
LINE
  5
241
100
AcDbEntity
  8
0
100
AcDbLine
 62
7
  6
CONTINUOUS
 10
73.0931438238
 20
17.693753411
 11
73.1091464251
 21
17.6969666184
  0
LINE
  5
242
100
AcDbEntity
  8
0
100
AcDbLine
 62
7
  6
CONTINUOUS
 10
70.6578531491
 20
17.499815172
 11
70.6649263766
 21
17.501215443
  0
LINE
  5
243
100
AcDbEntity
  8
0
100
AcDbLine
 62
7
  6
CONTINUOUS
 10
73.0802585838
 20
17.6912360259
 11
73.0964323914
 21
17.6944058601
  0
LINE
  5
244
100
AcDbEntity
  8
0
100
AcDbLine
 62
7
  6
CONTINUOUS
 10
73.0656373177
 20
17.6884544428
 11
73.0822816146
 21
17.6916271579
  0
LINE
  5
245
100
AcDbEntity
  8
0
100
AcDbLine
 62
7
  6
CONTINUOUS
 10
69.4085121146
 20
16.2925789282
 11
69.4477543975
 21
16.2997766219
  0
LINE
  5
246
100
AcDbEntity
  8
0
100
AcDbLine
 62
7
  6
CONTINUOUS
 10
73.0523788329
 20
17.6860005919
 11
73.0692480345
 21
17.6891339705
  0
LINE
  5
247
100
AcDbEntity
  8
0
100
AcDbLine
 62
7
  6
CONTINUOUS
 10
73.0369343263
 20
17.6832237431
 11
73.0543025561
 21
17.6863526069
  0
LINE
  5
248
100
AcDbEntity
  8
0
100
AcDbLine
 62
7
  6
CONTINUOUS
 10
20.8763705572
 20
36.4151086112
 11
20.8840056706
 21
36.4356047337
  0
LINE
  5
249
100
AcDbEntity
  8
0
100
AcDbLine
 62
7
  6
CONTINUOUS
 10
73.055193804
 20
17.690117363
 11
73.1242328449
 21
17.7024129931
  0
LINE
  5
24A
100
AcDbEntity
  8
0
100
AcDbLine
 62
7
  6
CONTINUOUS
 10
73.023294228
 20
17.6808438793
 11
73.0408923949
 21
17.6839270482
  0
LINE
  5
24B
100
AcDbEntity
  8
0
100
AcDbLine
 62
7
  6
CONTINUOUS
 10
70.6649263766
 20
17.501215443
 11
70.6661124239
 21
17.5014203338
  0
LINE
  5
24C
100
AcDbEntity
  8
0
100
AcDbLine
 62
7
  6
CONTINUOUS
 10
73.0070006893
 20
17.6780896771
 11
73.0251066462
 21
17.6811561966
  0
LINE
  5
24D
100
AcDbEntity
  8
0
100
AcDbLine
 62
7
  6
CONTINUOUS
 10
72.993009164
 20
17.6758010982
 11
73.0113211224
 21
17.6788106241
  0
LINE
  5
24E
100
AcDbEntity
  8
0
100
AcDbLine
 62
7
  6
CONTINUOUS
 10
72.9805605382
 20
17.6738239453
 11
72.9946921816
 21
17.6760726624
  0
LINE
  5
24F
100
AcDbEntity
  8
0
100
AcDbLine
 62
7
  6
CONTINUOUS
 10
72.967912443
 20
17.6718717523
 11
72.9821887034
 21
17.6740793865
  0
LINE
  5
250
100
AcDbEntity
  8
0
100
AcDbLine
 62
7
  6
CONTINUOUS
 10
69.3705892278
 20
16.2871865501
 11
69.4085121146
 21
16.2925789282
  0
LINE
  5
251
100
AcDbEntity
  8
0
100
AcDbLine
 62
7
  6
CONTINUOUS
 10
20.869893417
 20
36.3940209164
 11
20.8763705572
 21
36.4151086112
  0
LINE
  5
252
100
AcDbEntity
  8
0
100
AcDbLine
 62
7
  6
CONTINUOUS
 10
72.9550597948
 20
17.6699461662
 11
72.9694851121
 21
17.6721113864
  0
LINE
  5
253
100
AcDbEntity
  8
0
100
AcDbLine
 62
7
  6
CONTINUOUS
 10
72.9858218504
 20
17.6798653507
 11
73.055193804
 21
17.690117363
  0
LINE
  5
254
100
AcDbEntity
  8
0
100
AcDbLine
 62
7
  6
CONTINUOUS
 10
70.8265754932
 20
17.5081473857
 11
70.7835560333
 21
17.5018184513
  0
LINE
  5
255
100
AcDbEntity
  8
0
100
AcDbLine
 62
7
  6
CONTINUOUS
 10
72.9421961877
 20
17.6680772984
 11
72.9565659722
 21
17.6701687908
  0
LINE
  5
256
100
AcDbEntity
  8
0
100
AcDbLine
 62
7
  6
CONTINUOUS
 10
72.9245241562
 20
17.6656037573
 11
72.9436019873
 21
17.6682787072
  0
LINE
  5
257
100
AcDbEntity
  8
0
100
AcDbLine
 62
7
  6
CONTINUOUS
 10
72.9109410444
 20
17.6637751637
 11
72.9295375546
 21
17.6662945338
  0
LINE
  5
258
100
AcDbEntity
  8
0
100
AcDbLine
 62
7
  6
CONTINUOUS
 10
72.8927015161
 20
17.6614170536
 11
72.9120715199
 21
17.6639250014
  0
LINE
  5
259
100
AcDbEntity
  8
0
100
AcDbLine
 62
7
  6
CONTINUOUS
 10
72.8796297692
 20
17.6597950079
 11
72.8937400136
 21
17.6615484288
  0
LINE
  5
25A
100
AcDbEntity
  8
0
100
AcDbLine
 62
7
  6
CONTINUOUS
 10
20.8646186551
 20
36.3723592049
 11
20.869893417
 21
36.3940209164
  0
LINE
  5
25B
100
AcDbEntity
  8
0
100
AcDbLine
 62
7
  6
CONTINUOUS
 10
20.8650097496
 20
36.3741797234
 11
20.8709189188
 21
36.397674408
  0
LINE
  5
25C
100
AcDbEntity
  8
0
100
AcDbLine
 62
7
  6
CONTINUOUS
 10
72.8648368894
 20
17.6580293483
 11
72.8807368245
 21
17.6599302018
  0
LINE
  5
25D
100
AcDbEntity
  8
0
100
AcDbLine
 62
7
  6
CONTINUOUS
 10
72.9161774637
 20
17.6716658941
 11
72.9858218504
 21
17.6798653507
  0
LINE
  5
25E
100
AcDbEntity
  8
0
100
AcDbLine
 62
7
  6
CONTINUOUS
 10
72.8483712436
 20
17.6561531283
 11
72.8659980283
 21
17.6581651897
  0
LINE
  5
25F
100
AcDbEntity
  8
0
100
AcDbLine
 62
7
  6
CONTINUOUS
 10
69.3332773733
 20
16.2833846742
 11
69.3705892278
 21
16.2871865501
  0
LINE
  5
260
100
AcDbEntity
  8
0
100
AcDbLine
 62
7
  6
CONTINUOUS
 10
72.8304776817
 20
17.6542221355
 11
72.8495226567
 21
17.6562811317
  0
LINE
  5
261
100
AcDbEntity
  8
0
100
AcDbLine
 62
7
  6
CONTINUOUS
 10
70.6244142703
 20
17.4907604128
 11
70.6444178507
 21
17.4966052593
  0
LINE
  5
262
100
AcDbEntity
  8
0
100
AcDbLine
 62
7
  6
CONTINUOUS
 10
70.8488808101
 20
17.5146571803
 11
70.8265754932
 21
17.5081473857
  0
LINE
  5
263
100
AcDbEntity
  8
0
100
AcDbLine
 62
7
  6
CONTINUOUS
 10
73.3108564145
 20
17.746068663
 11
73.3147147683
 21
17.7471685792
  0
LINE
  5
264
100
AcDbEntity
  8
0
100
AcDbLine
 62
7
  6
CONTINUOUS
 10
72.8123367271
 20
17.6523795647
 11
72.83149226
 21
17.6543284419
  0
LINE
  5
265
100
AcDbEntity
  8
0
100
AcDbLine
 62
7
  6
CONTINUOUS
 10
70.7835560333
 20
17.5018184513
 11
70.7221408247
 21
17.4958452516
  0
LINE
  5
266
100
AcDbEntity
  8
0
100
AcDbLine
 62
7
  6
CONTINUOUS
 10
72.7948026544
 20
17.6507070031
 11
72.8131234292
 21
17.6524570497
  0
LINE
  5
267
100
AcDbEntity
  8
0
100
AcDbLine
 62
7
  6
CONTINUOUS
 10
20.8605919986
 20
36.3500997777
 11
20.8650097496
 21
36.3741797234
  0
LINE
  5
268
100
AcDbEntity
  8
0
100
AcDbLine
 62
7
  6
CONTINUOUS
 10
73.3290223433
 20
17.751301605
 11
73.3424472367
 21
17.755257979
  0
LINE
  5
269
100
AcDbEntity
  8
0
100
AcDbLine
 62
7
  6
CONTINUOUS
 10
73.3176574181
 20
17.7480116254
 11
73.3311157508
 21
17.7519135309
  0
LINE
  5
26A
100
AcDbEntity
  8
0
100
AcDbLine
 62
7
  6
CONTINUOUS
 10
73.3138799401
 20
17.7469300653
 11
73.319784242
 21
17.7486231953
  0
LINE
  5
26B
100
AcDbEntity
  8
0
100
AcDbLine
 62
7
  6
CONTINUOUS
 10
72.777600041
 20
17.6491676959
 11
72.7954579866
 21
17.6507677858
  0
LINE
  5
26C
100
AcDbEntity
  8
0
100
AcDbLine
 62
7
  6
CONTINUOUS
 10
72.8463213606
 20
17.6655261416
 11
72.9161774637
 21
17.6716658941
  0
LINE
  5
26D
100
AcDbEntity
  8
0
100
AcDbLine
 62
7
  6
CONTINUOUS
 10
73.3287523665
 20
17.751445544
 11
73.3958615533
 21
17.771790783
  0
LINE
  5
26E
100
AcDbEntity
  8
0
100
AcDbLine
 62
7
  6
CONTINUOUS
 10
73.3418884354
 20
17.7550917754
 11
73.3549537073
 21
17.7590125755
  0
LINE
  5
26F
100
AcDbEntity
  8
0
100
AcDbLine
 62
7
  6
CONTINUOUS
 10
36.7953486958
 20
17.9662203879
 11
36.798987099
 21
17.9669260074
  0
LINE
  5
270
100
AcDbEntity
  8
0
100
AcDbLine
 62
7
  6
CONTINUOUS
 10
72.7604961953
 20
17.6477354695
 11
72.7782956406
 21
17.6492282453
  0
LINE
  5
271
100
AcDbEntity
  8
0
100
AcDbLine
 62
7
  6
CONTINUOUS
 10
72.7435787833
 20
17.6464140385
 11
72.7612238801
 21
17.6477944116
  0
LINE
  5
272
100
AcDbEntity
  8
0
100
AcDbLine
 62
7
  6
CONTINUOUS
 10
69.2984127739
 20
16.2811565891
 11
69.3332773733
 21
16.2833846742
  0
LINE
  5
273
100
AcDbEntity
  8
0
100
AcDbLine
 62
7
  6
CONTINUOUS
 10
73.3638959498
 20
17.7617382152
 11
73.3769264191
 21
17.765771749
  0
LINE
  5
274
100
AcDbEntity
  8
0
100
AcDbLine
 62
7
  6
CONTINUOUS
 10
73.3545156215
 20
17.7588799271
 11
73.3664681231
 21
17.7625286025
  0
LINE
  5
275
100
AcDbEntity
  8
0
100
AcDbLine
 62
7
  6
CONTINUOUS
 10
72.7120720868
 20
17.6441446558
 11
72.7440438247
 21
17.6464487793
  0
LINE
  5
276
100
AcDbEntity
  8
0
100
AcDbLine
 62
7
  6
CONTINUOUS
 10
70.7221408247
 20
17.4958452516
 11
70.6432976358
 21
17.4903352361
  0
LINE
  5
277
100
AcDbEntity
  8
0
100
AcDbLine
 62
7
  6
CONTINUOUS
 10
72.6533414668
 20
17.6400406025
 11
72.7120720868
 21
17.6441446558
  0
LINE
  5
278
100
AcDbEntity
  8
0
100
AcDbLine
 62
7
  6
CONTINUOUS
 10
80.6539751996
 20
36.3258836902
 11
80.7558681114
 21
35.1612423796
  0
LINE
  5
279
100
AcDbEntity
  8
0
100
AcDbLine
 62
7
  6
CONTINUOUS
 10
80.6539672355
 20
36.3259745931
 11
80.6539751996
 21
36.3258836901
  0
LINE
  5
27A
100
AcDbEntity
  8
0
100
AcDbLine
 62
7
  6
CONTINUOUS
 10
75.0035665173
 20
19.6928521688
 11
75.0035494172
 21
19.6936555205
  0
LINE
  5
27B
100
AcDbEntity
  8
0
100
AcDbLine
 62
7
  6
CONTINUOUS
 10
70.8524916732
 20
17.5184881871
 11
70.8523223693
 21
17.5497170799
  0
LINE
  5
27C
100
AcDbEntity
  8
DEFAULT_1
100
AcDbLine
 62
7
  6
CENTER
 10
69.7558681114
 20
18.9412423796
 11
69.7558681114
 21
15.8812423796
  0
LINE
  5
27D
100
AcDbEntity
  8
0
100
AcDbLine
 62
7
  6
CONTINUOUS
 10
36.7954731923
 20
17.9974720727
 11
36.7949693629
 21
17.9662265001
  0
LINE
  5
27E
100
AcDbEntity
  8
0
100
AcDbLine
 62
7
  6
CONTINUOUS
 10
35.1880106745
 20
18.0083734635
 11
35.1874788386
 21
17.9771279894
  0
LINE
  5
27F
100
AcDbEntity
  8
0
100
AcDbLine
 62
7
  6
CONTINUOUS
 10
75.0035494172
 20
19.6936555205
 11
75.0035774395
 21
19.6947734203
  0
LINE
  5
280
100
AcDbEntity
  8
0
100
AcDbLine
 62
7
  6
CONTINUOUS
 10
75.0035774395
 20
19.6947734203
 11
75.0036500202
 21
19.696199969
  0
LINE
  5
281
100
AcDbEntity
  8
0
100
AcDbLine
 62
7
  6
CONTINUOUS
 10
75.0036500202
 20
19.696199969
 11
75.003767185
 21
19.6979309161
  0
LINE
  5
282
100
AcDbEntity
  8
0
100
AcDbLine
 62
7
  6
CONTINUOUS
 10
20.8578753422
 20
36.3271903638
 11
20.7558681114
 21
35.1612423796
  0
LINE
  5
283
100
AcDbEntity
  8
0
100
AcDbLine
 62
7
  6
CONTINUOUS
 10
20.8578753422
 20
36.3271903637
 11
20.8605919986
 21
36.3500997777
  0
LINE
  5
284
100
AcDbEntity
  8
0
100
AcDbLine
 62
7
  6
CONTINUOUS
 10
76.7488420476
 20
31.9679024104
 11
76.7663261382
 21
32.111938457
  0
LINE
  5
285
100
AcDbEntity
  8
0
100
AcDbLine
 62
7
  6
CONTINUOUS
 10
76.7663261382
 20
32.111938457
 11
76.7832561036
 21
32.2486521971
  0
LINE
  5
286
100
AcDbEntity
  8
0
100
AcDbLine
 62
7
  6
CONTINUOUS
 10
76.7832561036
 20
32.2486521971
 11
76.800435911
 21
32.384774486
  0
LINE
  5
287
100
AcDbEntity
  8
0
100
AcDbLine
 62
7
  6
CONTINUOUS
 10
76.800435911
 20
32.384774486
 11
76.8205819348
 21
32.5412447188
  0
LINE
  5
288
100
AcDbEntity
  8
0
100
AcDbLine
 62
7
  6
CONTINUOUS
 10
76.8205819348
 20
32.5412447188
 11
76.8374752318
 21
32.6699720466
  0
LINE
  5
289
100
AcDbEntity
  8
0
100
AcDbLine
 62
7
  6
CONTINUOUS
 10
76.8374752318
 20
32.6699720466
 11
76.8557445972
 21
32.8067770904
  0
LINE
  5
28A
100
AcDbEntity
  8
0
100
AcDbLine
 62
7
  6
CONTINUOUS
 10
76.8557445972
 20
32.8067770904
 11
76.8751855774
 21
32.9497544039
  0
LINE
  5
28B
100
AcDbEntity
  8
0
100
AcDbLine
 62
7
  6
CONTINUOUS
 10
76.8751855774
 20
32.9497544039
 11
76.8954825476
 21
33.0963158492
  0
LINE
  5
28C
100
AcDbEntity
  8
0
100
AcDbLine
 62
7
  6
CONTINUOUS
 10
75.0250417717
 20
19.702428542
 11
76.7488420476
 21
31.9679024104
  0
LINE
  5
28D
100
AcDbEntity
  8
0
100
AcDbLine
 62
7
  6
CONTINUOUS
 10
77.0793781624
 20
34.3197890736
 11
77.1976367124
 21
35.1612423796
  0
LINE
  5
28E
100
AcDbEntity
  8
0
100
AcDbLine
 62
7
  6
CONTINUOUS
 10
76.8954825476
 20
33.0963158492
 11
76.9160429866
 21
33.2421161124
  0
LINE
  5
28F
100
AcDbEntity
  8
0
100
AcDbLine
 62
7
  6
CONTINUOUS
 10
76.9160429866
 20
33.2421161124
 11
76.9367051185
 21
33.3860753414
  0
LINE
  5
290
100
AcDbEntity
  8
0
100
AcDbLine
 62
7
  6
CONTINUOUS
 10
76.9367051185
 20
33.3860753414
 11
76.9572179396
 21
33.5265897603
  0
LINE
  5
291
100
AcDbEntity
  8
0
100
AcDbLine
 62
7
  6
CONTINUOUS
 10
75.0208197091
 20
19.6737674855
 11
75.0250417717
 21
19.702428542
  0
LINE
  5
292
100
AcDbEntity
  8
0
100
AcDbLine
 62
7
  6
CONTINUOUS
 10
76.9572179396
 20
33.5265897603
 11
76.977183046
 21
33.6611644048
  0
LINE
  5
293
100
AcDbEntity
  8
0
100
AcDbLine
 62
7
  6
CONTINUOUS
 10
76.977183046
 20
33.6611644048
 11
77.002347107
 21
33.8278711082
  0
LINE
  5
294
100
AcDbEntity
  8
0
100
AcDbLine
 62
7
  6
CONTINUOUS
 10
77.002347107
 20
33.8278711082
 11
77.0250946164
 21
33.9759205451
  0
LINE
  5
295
100
AcDbEntity
  8
0
100
AcDbLine
 62
7
  6
CONTINUOUS
 10
75.0144345025
 20
19.6343902588
 11
75.0250248766
 21
19.702308812
  0
LINE
  5
296
100
AcDbEntity
  8
0
100
AcDbLine
 62
7
  6
CONTINUOUS
 10
77.0250946164
 20
33.9759205451
 11
77.0489567765
 21
34.1286647325
  0
LINE
  5
297
100
AcDbEntity
  8
0
100
AcDbLine
 62
7
  6
CONTINUOUS
 10
77.0489567765
 20
34.1286647325
 11
77.073614281
 21
34.2838798027
  0
LINE
  5
298
100
AcDbEntity
  8
0
100
AcDbLine
 62
7
  6
CONTINUOUS
 10
75.0156658678
 20
19.6416683907
 11
75.0209298171
 21
19.6745149426
  0
LINE
  5
299
100
AcDbEntity
  8
0
100
AcDbLine
 62
7
  6
CONTINUOUS
 10
77.073614281
 20
34.2838798027
 11
77.0793781624
 21
34.3197890736
  0
LINE
  5
29A
100
AcDbEntity
  8
0
100
AcDbLine
 62
7
  6
CONTINUOUS
 10
75.0101109108
 20
19.6098508327
 11
75.0159339085
 21
19.6432711479
  0
LINE
  5
29B
100
AcDbEntity
  8
0
100
AcDbLine
 62
7
  6
CONTINUOUS
 10
75.0016097892
 20
19.5654475404
 11
75.0144345025
 21
19.6343902588
  0
LINE
  5
29C
100
AcDbEntity
  8
0
100
AcDbLine
 62
7
  6
CONTINUOUS
 10
75.0041645077
 20
19.5783199647
 11
75.0104351331
 21
19.6116400611
  0
LINE
  5
29D
100
AcDbEntity
  8
0
100
AcDbLine
 62
7
  6
CONTINUOUS
 10
74.9978363503
 20
19.5470806987
 11
75.0045493596
 21
19.5802919946
  0
LINE
  5
29E
100
AcDbEntity
  8
0
100
AcDbLine
 62
7
  6
CONTINUOUS
 10
75.0054078459
 20
19.6983179507
 11
75.0050122571
 21
19.6964269472
  0
LINE
  5
29F
100
AcDbEntity
  8
0
100
AcDbLine
 62
7
  6
CONTINUOUS
 10
74.9911361467
 20
19.5161377069
 11
74.9982860998
 21
19.5492317562
  0
LINE
  5
2A0
100
AcDbEntity
  8
0
100
AcDbLine
 62
7
  6
CONTINUOUS
 10
74.986755252
 20
19.496913502
 11
75.0016097892
 21
19.5654475404
  0
LINE
  5
2A1
100
AcDbEntity
  8
0
100
AcDbLine
 62
7
  6
CONTINUOUS
 10
75.0050122571
 20
19.6964269472
 11
75.0046628704
 21
19.6948858677
  0
LINE
  5
2A2
100
AcDbEntity
  8
0
100
AcDbLine
 62
7
  6
CONTINUOUS
 10
74.9840736161
 20
19.4854954254
 11
74.9916548808
 21
19.5184639203
  0
LINE
  5
2A3
100
AcDbEntity
  8
0
100
AcDbLine
 62
7
  6
CONTINUOUS
 10
74.9766584836
 20
19.455158056
 11
74.9846652392
 21
19.4879928306
  0
LINE
  5
2A4
100
AcDbEntity
  8
0
100
AcDbLine
 62
7
  6
CONTINUOUS
 10
74.9698838414
 20
19.4288478925
 11
74.986755252
 21
19.496913502
  0
LINE
  5
2A5
100
AcDbEntity
  8
0
100
AcDbLine
 62
7
  6
CONTINUOUS
 10
75.0046628704
 20
19.6948858677
 11
75.00436074
 21
19.6936968089
  0
LINE
  5
2A6
100
AcDbEntity
  8
0
100
AcDbLine
 62
7
  6
CONTINUOUS
 10
74.9689004744
 20
19.4251295693
 11
74.9773267161
 21
19.4578226026
  0
LINE
  5
2A7
100
AcDbEntity
  8
0
100
AcDbLine
 62
7
  6
CONTINUOUS
 10
70.115159856
 20
16.8052502863
 11
70.113239292
 21
16.7979163942
  0
LINE
  5
2A8
100
AcDbEntity
  8
0
100
AcDbLine
 62
7
  6
CONTINUOUS
 10
74.9608093096
 20
19.3954137078
 11
74.9696488526
 21
19.4279571264
  0
LINE
  5
2A9
100
AcDbEntity
  8
0
100
AcDbLine
 62
7
  6
CONTINUOUS
 10
74.951010266
 20
19.3613100524
 11
74.9698838414
 21
19.4288478925
  0
LINE
  5
2AA
100
AcDbEntity
  8
0
100
AcDbLine
 62
7
  6
CONTINUOUS
 10
74.9523947007
 20
19.3660139886
 11
74.9616411841
 21
19.3984000695
  0
LINE
  5
2AB
100
AcDbEntity
  8
0
100
AcDbLine
 62
7
  6
CONTINUOUS
 10
74.943666345
 20
19.3369337064
 11
74.9533132363
 21
19.3691548797
  0
LINE
  5
2AC
100
AcDbEntity
  8
0
100
AcDbLine
 62
7
  6
CONTINUOUS
 10
75.00436074
 20
19.6936968089
 11
75.0041050285
 21
19.6928509841
  0
LINE
  5
2AD
100
AcDbEntity
  8
0
100
AcDbLine
 62
7
  6
CONTINUOUS
 10
74.9301509801
 20
19.294358862
 11
74.951010266
 21
19.3613100524
  0
LINE
  5
2AE
100
AcDbEntity
  8
0
100
AcDbLine
 62
7
  6
CONTINUOUS
 10
74.9346339206
 20
19.3081759368
 11
74.9446745198
 21
19.340224788
  0
LINE
  5
2AF
100
AcDbEntity
  8
0
100
AcDbLine
 62
7
  6
CONTINUOUS
 10
74.9253070825
 20
19.2797435398
 11
74.9357345265
 21
19.3116128119
  0
LINE
  5
2B0
100
AcDbEntity
  8
0
100
AcDbLine
 62
7
  6
CONTINUOUS
 10
74.9156954577
 20
19.2516391628
 11
74.9265027245
 21
19.2833217585
  0
LINE
  5
2B1
100
AcDbEntity
  8
0
100
AcDbLine
 62
7
  6
CONTINUOUS
 10
74.9073241691
 20
19.2280526904
 11
74.9301509801
 21
19.294358862
  0
LINE
  5
2B2
100
AcDbEntity
  8
0
100
AcDbLine
 62
7
  6
CONTINUOUS
 10
74.9058086413
 20
19.2238652439
 11
74.9169885542
 21
19.2553542275
  0
LINE
  5
2B3
100
AcDbEntity
  8
0
100
AcDbLine
 62
7
  6
CONTINUOUS
 10
74.8956561918
 20
19.1964240159
 11
74.9072014239
 21
19.2277126152
  0
LINE
  5
2B4
100
AcDbEntity
  8
0
100
AcDbLine
 62
7
  6
CONTINUOUS
 10
74.8825497337
 20
19.1624493441
 11
74.9073241691
 21
19.2280526904
  0
LINE
  5
2B5
100
AcDbEntity
  8
0
100
AcDbLine
 62
7
  6
CONTINUOUS
 10
74.8852476278
 20
19.1693175089
 11
74.8971507065
 21
19.2003991169
  0
LINE
  5
2B6
100
AcDbEntity
  8
0
100
AcDbLine
 62
7
  6
CONTINUOUS
 10
74.8745924235
 20
19.1425475549
 11
74.8868457345
 21
19.1734157309
  0
LINE
  5
2B7
100
AcDbEntity
  8
0
100
AcDbLine
 62
7
  6
CONTINUOUS
 10
74.8637000052
 20
19.1161157904
 11
74.8762957974
 21
19.146764262
  0
LINE
  5
2B8
100
AcDbEntity
  8
0
100
AcDbLine
 62
7
  6
CONTINUOUS
 10
74.8558492726
 20
19.097606017
 11
74.8825497337
 21
19.1624493441
  0
LINE
  5
2B9
100
AcDbEntity
  8
0
100
AcDbLine
 62
7
  6
CONTINUOUS
 10
75.0041050285
 20
19.6928509841
 11
75.0038958916
 21
19.692347038
  0
LINE
  5
2BA
100
AcDbEntity
  8
0
100
AcDbLine
 62
7
  6
CONTINUOUS
 10
74.8525797479
 20
19.0900236611
 11
74.8655101374
 21
19.1204463248
  0
LINE
  5
2BB
100
AcDbEntity
  8
0
100
AcDbLine
 62
7
  6
CONTINUOUS
 10
74.8412409716
 20
19.064272425
 11
74.8544979459
 21
19.0944633472
  0
LINE
  5
2BC
100
AcDbEntity
  8
0
100
AcDbLine
 62
7
  6
CONTINUOUS
 10
74.8272460635
 20
19.0335792404
 11
74.8558492726
 21
19.097606017
  0
LINE
  5
2BD
100
AcDbEntity
  8
0
100
AcDbLine
 62
7
  6
CONTINUOUS
 10
74.8296929377
 20
19.0388631562
 11
74.8432683608
 21
19.0688165746
  0
LINE
  5
2BE
100
AcDbEntity
  8
0
100
AcDbLine
 62
7
  6
CONTINUOUS
 10
74.8179448464
 20
19.0137967491
 11
74.8318304624
 21
19.0435070729
  0
LINE
  5
2BF
100
AcDbEntity
  8
0
100
AcDbLine
 62
7
  6
CONTINUOUS
 10
74.806005833
 20
18.9890739219
 11
74.8201932708
 21
19.0185357325
  0
LINE
  5
2C0
100
AcDbEntity
  8
0
100
AcDbLine
 62
7
  6
CONTINUOUS
 10
74.7967650433
 20
18.9704248336
 11
74.8272460635
 21
19.0335792404
  0
LINE
  5
2C1
100
AcDbEntity
  8
0
100
AcDbLine
 62
7
  6
CONTINUOUS
 10
74.7938849652
 20
18.9646952207
 11
74.8083657428
 21
18.9939032723
  0
LINE
  5
2C2
100
AcDbEntity
  8
0
100
AcDbLine
 62
7
  6
CONTINUOUS
 10
74.7815912403
 20
18.9406610234
 11
74.7963567692
 21
18.969610243
  0
LINE
  5
2C3
100
AcDbEntity
  8
0
100
AcDbLine
 62
7
  6
CONTINUOUS
 10
74.7644327855
 20
18.9081978555
 11
74.7967650433
 21
18.9704248336
  0
LINE
  5
2C4
100
AcDbEntity
  8
0
100
AcDbLine
 62
7
  6
CONTINUOUS
 10
74.7691335824
 20
18.9169715436
 11
74.7841751718
 21
18.9456570312
  0
LINE
  5
2C5
100
AcDbEntity
  8
0
100
AcDbLine
 62
7
  6
CONTINUOUS
 10
70.1132275335
 20
16.7978853325
 11
70.1896466222
 21
16.9426674672
  0
LINE
  5
2C6
100
AcDbEntity
  8
0
100
AcDbLine
 62
7
  6
CONTINUOUS
 10
70.1896466222
 20
16.9426674672
 11
70.2541020398
 21
17.0642797013
  0
LINE
  5
2C7
100
AcDbEntity
  8
0
100
AcDbLine
 62
7
  6
CONTINUOUS
 10
70.2541020398
 20
17.0642797013
 11
70.3639757907
 21
17.2706167472
  0
LINE
  5
2C8
100
AcDbEntity
  8
0
100
AcDbLine
 62
7
  6
CONTINUOUS
 10
74.7565208398
 20
18.8936268345
 11
74.7718297007
 21
18.9220438633
  0
LINE
  5
2C9
100
AcDbEntity
  8
0
100
AcDbLine
 62
7
  6
CONTINUOUS
 10
70.3640544317
 20
17.2705602347
 11
70.3677594088
 21
17.2773625258
  0
LINE
  5
2CA
100
AcDbEntity
  8
0
100
AcDbLine
 62
7
  6
CONTINUOUS
 10
74.7437617827
 20
18.8706267933
 11
74.7593290323
 21
18.898770809
  0
LINE
  5
2CB
100
AcDbEntity
  8
0
100
AcDbLine
 62
7
  6
CONTINUOUS
 10
74.730277478
 20
18.8469525564
 11
74.7644327855
 21
18.9081978555
  0
LINE
  5
2CC
100
AcDbEntity
  8
0
100
AcDbLine
 62
7
  6
CONTINUOUS
 10
70.0875429951
 20
16.7522282507
 11
70.113239292
 21
16.7979163942
  0
LINE
  5
2CD
100
AcDbEntity
  8
0
100
AcDbLine
 62
7
  6
CONTINUOUS
 10
74.7308652504
 20
18.8479714249
 11
74.7466817662
 21
18.8758377857
  0
LINE
  5
2CE
100
AcDbEntity
  8
0
100
AcDbLine
 62
7
  6
CONTINUOUS
 10
74.7178393995
 20
18.825659545
 11
74.7338965153
 21
18.8532447215
  0
LINE
  5
2CF
100
AcDbEntity
  8
0
100
AcDbLine
 62
7
  6
CONTINUOUS
 10
74.7046933498
 20
18.803691631
 11
74.7209814452
 21
18.8309907615
  0
LINE
  5
2D0
100
AcDbEntity
  8
0
100
AcDbLine
 62
7
  6
CONTINUOUS
 10
74.6943288977
 20
18.7867423307
 11
74.730277478
 21
18.8469525564
  0
LINE
  5
2D1
100
AcDbEntity
  8
0
100
AcDbLine
 62
7
  6
CONTINUOUS
 10
74.691432407
 20
18.7820619164
 11
74.7079455477
 21
18.8090764647
  0
LINE
  5
2D2
100
AcDbEntity
  8
0
100
AcDbLine
 62
7
  6
CONTINUOUS
 10
74.6780628856
 20
18.7607666978
 11
74.6947943795
 21
18.7874967198
  0
LINE
  5
2D3
100
AcDbEntity
  8
0
100
AcDbLine
 62
7
  6
CONTINUOUS
 10
70.3677594088
 20
17.2773625258
 11
70.3958585724
 21
17.3218268312
  0
LINE
  5
2D4
100
AcDbEntity
  8
0
100
AcDbLine
 62
7
  6
CONTINUOUS
 10
70.0590913098
 20
16.7075898251
 11
70.0875429951
 21
16.7522282507
  0
LINE
  5
2D5
100
AcDbEntity
  8
0
100
AcDbLine
 62
7
  6
CONTINUOUS
 10
74.6566183851
 20
18.7276196707
 11
74.6943288977
 21
18.7867423307
  0
LINE
  5
2D6
100
AcDbEntity
  8
0
100
AcDbLine
 62
7
  6
CONTINUOUS
 10
74.6645894538
 20
18.7398000118
 11
74.681534535
 21
18.7662484763
  0
LINE
  5
2D7
100
AcDbEntity
  8
0
100
AcDbLine
 62
7
  6
CONTINUOUS
 10
74.6510168463
 20
18.7191564589
 11
74.668170604
 21
18.7453257969
  0
LINE
  5
2D8
100
AcDbEntity
  8
0
100
AcDbLine
 62
7
  6
CONTINUOUS
 10
74.6373495266
 20
18.6988306419
 11
74.6547073467
 21
18.7247234659
  0
LINE
  5
2D9
100
AcDbEntity
  8
0
100
AcDbLine
 62
7
  6
CONTINUOUS
 10
74.6171788168
 20
18.66963612
 11
74.6566183851
 21
18.7276196707
  0
LINE
  5
2DA
100
AcDbEntity
  8
0
100
AcDbLine
 62
7
  6
CONTINUOUS
 10
74.6235916951
 20
18.6788171753
 11
74.641149247
 21
18.7044362456
  0
LINE
  5
2DB
100
AcDbEntity
  8
0
100
AcDbLine
 62
7
  6
CONTINUOUS
 10
74.6097472947
 20
18.6591106903
 11
74.6275005367
 21
18.6844589123
  0
LINE
  5
2DC
100
AcDbEntity
  8
0
100
AcDbLine
 62
7
  6
CONTINUOUS
 10
74.5958200164
 20
18.6397058392
 11
74.6137651973
 21
18.6647862551
  0
LINE
  5
2DD
100
AcDbEntity
  8
0
100
AcDbLine
 62
7
  6
CONTINUOUS
 10
70.0285583216
 20
16.6650001693
 11
70.0590913098
 21
16.7075898251
  0
LINE
  5
2DE
100
AcDbEntity
  8
0
100
AcDbLine
 62
7
  6
CONTINUOUS
 10
74.5760445766
 20
18.6128422297
 11
74.6171788168
 21
18.66963612
  0
LINE
  5
2DF
100
AcDbEntity
  8
0
100
AcDbLine
 62
7
  6
CONTINUOUS
 10
74.5818133051
 20
18.6205973008
 11
74.5999469658
 21
18.6454130807
  0
LINE
  5
2E0
100
AcDbEntity
  8
0
100
AcDbLine
 62
7
  6
CONTINUOUS
 10
74.5677303185
 20
18.601779723
 11
74.5860493396
 21
18.6263342186
  0
LINE
  5
2E1
100
AcDbEntity
  8
0
100
AcDbLine
 62
7
  6
CONTINUOUS
 10
74.5535741655
 20
18.5832480352
 11
74.5720755624
 21
18.6075444983
  0
LINE
  5
2E2
100
AcDbEntity
  8
0
100
AcDbLine
 62
7
  6
CONTINUOUS
 10
74.533251526
 20
18.5572875133
 11
74.5760445766
 21
18.6128422297
  0
LINE
  5
2E3
100
AcDbEntity
  8
0
100
AcDbLine
 62
7
  6
CONTINUOUS
 10
74.5393473376
 20
18.5649966984
 11
74.5580287294
 21
18.5890388874
  0
LINE
  5
2E4
100
AcDbEntity
  8
0
100
AcDbLine
 62
7
  6
CONTINUOUS
 10
74.5250534963
 20
18.5470219782
 11
74.5439114131
 21
18.5708119996
  0
LINE
  5
2E5
100
AcDbEntity
  8
0
100
AcDbLine
 62
7
  6
CONTINUOUS
 10
70.3958585724
 20
17.3218268312
 11
70.4269507753
 21
17.3607685921
  0
LINE
  5
2E6
100
AcDbEntity
  8
0
100
AcDbLine
 62
7
  6
CONTINUOUS
 10
69.9961340448
 20
16.624536779
 11
70.0285583216
 21
16.6650001693
  0
LINE
  5
2E7
100
AcDbEntity
  8
0
100
AcDbLine
 62
7
  6
CONTINUOUS
 10
74.5106956261
 20
18.5293195162
 11
74.5297270974
 21
18.5528599277
  0
LINE
  5
2E8
100
AcDbEntity
  8
0
100
AcDbLine
 62
7
  6
CONTINUOUS
 10
74.4888369724
 20
18.5030204042
 11
74.533251526
 21
18.5572875133
  0
LINE
  5
2E9
100
AcDbEntity
  8
0
100
AcDbLine
 62
7
  6
CONTINUOUS
 10
74.4962771633
 20
18.511885741
 11
74.5154785982
 21
18.5351781605
  0
LINE
  5
2EA
100
AcDbEntity
  8
0
100
AcDbLine
 62
7
  6
CONTINUOUS
 10
74.4868025757
 20
18.500611444
 11
74.5011693886
 21
18.5177632383
  0
LINE
  5
2EB
100
AcDbEntity
  8
0
100
AcDbLine
 62
7
  6
CONTINUOUS
 10
74.4818012307
 20
18.4947168955
 11
74.4962771633
 21
18.511885741
  0
LINE
  5
2EC
100
AcDbEntity
  8
0
100
AcDbLine
 62
7
  6
CONTINUOUS
 10
74.467270798
 20
18.4778092385
 11
74.4868025757
 21
18.500611444
  0
LINE
  5
2ED
100
AcDbEntity
  8
0
100
AcDbLine
 62
7
  6
CONTINUOUS
 10
74.4428396372
 20
18.4500882132
 11
74.4888369724
 21
18.5030204042
  0
LINE
  5
2EE
100
AcDbEntity
  8
0
100
AcDbLine
 62
7
  6
CONTINUOUS
 10
74.4526886813
 20
18.461159044
 11
74.4723811314
 21
18.483719095
  0
LINE
  5
2EF
100
AcDbEntity
  8
0
100
AcDbLine
 62
7
  6
CONTINUOUS
 10
74.438057547
 20
18.4447626037
 11
74.4579078726
 21
18.4670825174
  0
LINE
  5
2F0
100
AcDbEntity
  8
0
100
AcDbLine
 62
7
  6
CONTINUOUS
 10
69.9620058168
 20
16.5862721624
 11
69.9961340448
 21
16.624536779
  0
LINE
  5
2F1
100
AcDbEntity
  8
0
100
AcDbLine
 62
7
  6
CONTINUOUS
 10
74.423379915
 20
18.4286162302
 11
74.4433854688
 21
18.4506980545
  0
LINE
  5
2F2
100
AcDbEntity
  8
0
100
AcDbLine
 62
7
  6
CONTINUOUS
 10
70.8523919476
 20
17.5184876509
 11
70.8488808101
 21
17.5146571803
  0
LINE
  5
2F3
100
AcDbEntity
  8
0
100
AcDbLine
 62
7
  6
CONTINUOUS
 10
74.3952996213
 20
18.3985370872
 11
74.4428396372
 21
18.4500882132
  0
LINE
  5
2F4
100
AcDbEntity
  8
0
100
AcDbLine
 62
7
  6
CONTINUOUS
 10
74.4086581615
 20
18.4127162589
 11
74.4288164449
 21
18.4345620686
  0
LINE
  5
2F5
100
AcDbEntity
  8
0
100
AcDbLine
 62
7
  6
CONTINUOUS
 10
74.3938945221
 20
18.3970590504
 11
74.4142031842
 21
18.4186709441
  0
LINE
  5
2F6
100
AcDbEntity
  8
0
100
AcDbLine
 62
7
  6
CONTINUOUS
 10
74.3790910949
 20
18.3816409929
 11
74.3995479317
 21
18.4030210891
  0
LINE
  5
2F7
100
AcDbEntity
  8
0
100
AcDbLine
 62
7
  6
CONTINUOUS
 10
74.3642498436
 20
18.366458504
 11
74.3848527967
 21
18.3876089381
  0
LINE
  5
2F8
100
AcDbEntity
  8
0
100
AcDbLine
 62
7
  6
CONTINUOUS
 10
74.3462583708
 20
18.3484119693
 11
74.3952996213
 21
18.3985370872
  0
LINE
  5
2F9
100
AcDbEntity
  8
0
100
AcDbLine
 62
7
  6
CONTINUOUS
 10
70.4269507753
 20
17.3607685921
 11
70.4601808828
 21
17.394456955
  0
LINE
  5
2FA
100
AcDbEntity
  8
0
100
AcDbLine
 62
7
  6
CONTINUOUS
 10
74.3493725999
 20
18.3515080327
 11
74.3701197558
 21
18.3724309535
  0
LINE
  5
2FB
100
AcDbEntity
  8
0
100
AcDbLine
 62
7
  6
CONTINUOUS
 10
69.9232062862
 20
16.5472632888
 11
69.9620058168
 21
16.5862721624
  0
LINE
  5
2FC
100
AcDbEntity
  8
0
100
AcDbLine
 62
7
  6
CONTINUOUS
 10
71.2924797637
 20
17.1460773367
 11
71.7050836615
 21
17.5586812345
  0
LINE
  5
2FD
100
AcDbEntity
  8
0
100
AcDbLine
 62
7
  6
CONTINUOUS
 10
74.334461067
 20
18.3367860614
 11
74.3553506557
 21
18.357483628
  0
LINE
  5
2FE
100
AcDbEntity
  8
0
100
AcDbLine
 62
7
  6
CONTINUOUS
 10
74.319516822
 20
18.3222891077
 11
74.340547216
 21
18.3427634863
  0
LINE
  5
2FF
100
AcDbEntity
  8
0
100
AcDbLine
 62
7
  6
CONTINUOUS
 10
74.2957586406
 20
18.2997565591
 11
74.3462583708
 21
18.3484119693
  0
LINE
  5
300
100
AcDbEntity
  8
0
100
AcDbLine
 62
7
  6
CONTINUOUS
 10
74.3045413189
 20
18.3080137261
 11
74.3257110322
 21
18.3282670866
  0
LINE
  5
301
100
AcDbEntity
  8
0
100
AcDbLine
 62
7
  6
CONTINUOUS
 10
69.9233783777
 20
16.5474270303
 11
69.9232080664
 21
16.5472649806
  0
LINE
  5
302
100
AcDbEntity
  8
0
100
AcDbLine
 62
7
  6
CONTINUOUS
 10
74.2895358916
 20
18.2939565093
 11
74.3108435784
 21
18.313991023
  0
LINE
  5
303
100
AcDbEntity
  8
0
100
AcDbLine
 62
7
  6
CONTINUOUS
 10
71.7050836574
 20
17.5586812354
 11
71.7117539656
 21
17.5648823267
  0
LINE
  5
304
100
AcDbEntity
  8
0
100
AcDbLine
 62
7
  6
CONTINUOUS
 10
74.2745017562
 20
18.2801140905
 11
74.2959462097
 21
18.2999319263
  0
LINE
  5
305
100
AcDbEntity
  8
0
100
AcDbLine
 62
7
  6
CONTINUOUS
 10
74.2594400141
 20
18.2664831444
 11
74.2810201653
 21
18.2860864661
  0
LINE
  5
306
100
AcDbEntity
  8
0
100
AcDbLine
 62
7
  6
CONTINUOUS
 10
74.2438444568
 20
18.2526132752
 11
74.2957586406
 21
18.2997565591
  0
LINE
  5
307
100
AcDbEntity
  8
0
100
AcDbLine
 62
7
  6
CONTINUOUS
 10
69.9126424568
 20
16.5376892576
 11
69.9233563879
 21
16.547399953
  0
LINE
  5
308
100
AcDbEntity
  8
0
100
AcDbLine
 62
7
  6
CONTINUOUS
 10
74.2443516542
 20
18.2530603885
 11
74.266066571
 21
18.2724513523
  0
LINE
  5
309
100
AcDbEntity
  8
0
100
AcDbLine
 62
7
  6
CONTINUOUS
 10
74.2292375566
 20
18.2398425852
 11
74.2510864417
 21
18.259023336
  0
LINE
  5
30A
100
AcDbEntity
  8
0
100
AcDbLine
 62
7
  6
CONTINUOUS
 10
74.2140984936
 20
18.226826542
 11
74.2360806842
 21
18.2457992117
  0
LINE
  5
30B
100
AcDbEntity
  8
0
100
AcDbLine
 62
7
  6
CONTINUOUS
 10
74.1905610791
 20
18.2070232175
 11
74.2438444568
 21
18.2526132752
  0
LINE
  5
30C
100
AcDbEntity
  8
0
100
AcDbLine
 62
7
  6
CONTINUOUS
 10
74.198935134
 20
18.2140091141
 11
74.2210500995
 21
18.2327758177
  0
LINE
  5
30D
100
AcDbEntity
  8
0
100
AcDbLine
 62
7
  6
CONTINUOUS
 10
69.9003103384
 20
16.5273737341
 11
69.9126424568
 21
16.5376892576
  0
LINE
  5
30E
100
AcDbEntity
  8
0
100
AcDbLine
 62
7
  6
CONTINUOUS
 10
74.1837478342
 20
18.2013870313
 11
74.205995386
 21
18.2199500382
  0
LINE
  5
30F
100
AcDbEntity
  8
0
100
AcDbLine
 62
7
  6
CONTINUOUS
 10
70.4601808828
 20
17.394456955
 11
70.4947154469
 21
17.423102486
  0
LINE
  5
310
100
AcDbEntity
  8
0
100
AcDbLine
 62
7
  6
CONTINUOUS
 10
74.1685376919
 20
18.1889577656
 11
74.190917076
 21
18.20731875
  0
LINE
  5
311
100
AcDbEntity
  8
0
100
AcDbLine
 62
7
  6
CONTINUOUS
 10
74.1533031547
 20
18.1767167705
 11
74.1758158632
 21
18.194879093
  0
LINE
  5
312
100
AcDbEntity
  8
0
100
AcDbLine
 62
7
  6
CONTINUOUS
 10
74.1359549606
 20
18.1630261322
 11
74.1905610791
 21
18.2070232175
  0
LINE
  5
313
100
AcDbEntity
  8
0
100
AcDbLine
 62
7
  6
CONTINUOUS
 10
71.7117539656
 20
17.5648823267
 11
71.7188580803
 21
17.5705812826
  0
LINE
  5
314
100
AcDbEntity
  8
0
100
AcDbLine
 62
7
  6
CONTINUOUS
 10
74.1380520141
 20
18.1646670485
 11
74.1606904904
 21
18.1826267555
  0
LINE
  5
315
100
AcDbEntity
  8
0
100
AcDbLine
 62
7
  6
CONTINUOUS
 10
69.8862391453
 20
16.5163084807
 11
69.9003103384
 21
16.5273737341
  0
LINE
  5
316
100
AcDbEntity
  8
0
100
AcDbLine
 62
7
  6
CONTINUOUS
 10
74.1227882887
 20
18.1528084245
 11
74.1455467865
 21
18.1705632356
  0
LINE
  5
317
100
AcDbEntity
  8
0
100
AcDbLine
 62
7
  6
CONTINUOUS
 10
74.1075219738
 20
18.1411451838
 11
74.1303868187
 21
18.1586869399
  0
LINE
  5
318
100
AcDbEntity
  8
0
100
AcDbLine
 62
7
  6
CONTINUOUS
 10
74.0800737075
 20
18.1206603765
 11
74.1359549606
 21
18.1630261322
  0
LINE
  5
319
100
AcDbEntity
  8
0
100
AcDbLine
 62
7
  6
CONTINUOUS
 10
74.0922616814
 20
18.1296802153
 11
74.1152206369
 21
18.1470024042
  0
LINE
  5
31A
100
AcDbEntity
  8
0
100
AcDbLine
 62
7
  6
CONTINUOUS
 10
69.8700073588
 20
16.5041803462
 11
69.8862391453
 21
16.5163084807
  0
LINE
  5
31B
100
AcDbEntity
  8
0
100
AcDbLine
 62
7
  6
CONTINUOUS
 10
74.0770162098
 20
18.1184162618
 11
74.1000563175
 21
18.1355123059
  0
LINE
  5
31C
100
AcDbEntity
  8
0
100
AcDbLine
 62
7
  6
CONTINUOUS
 10
74.0617944306
 20
18.107355839
 11
74.0849024404
 21
18.1242194323
  0
LINE
  5
31D
100
AcDbEntity
  8
0
100
AcDbLine
 62
7
  6
CONTINUOUS
 10
74.0466053
 20
18.0965012507
 11
74.0697675771
 21
18.1131262889
  0
LINE
  5
31E
100
AcDbEntity
  8
0
100
AcDbLine
 62
7
  6
CONTINUOUS
 10
69.8515953179
 20
16.4910086465
 11
69.8700073588
 21
16.5041803462
  0
LINE
  5
31F
100
AcDbEntity
  8
0
100
AcDbLine
 62
7
  6
CONTINUOUS
 10
74.022966038
 20
18.0799628855
 11
74.0800737075
 21
18.1206603765
  0
LINE
  5
320
100
AcDbEntity
  8
0
100
AcDbLine
 62
7
  6
CONTINUOUS
 10
74.0314578578
 20
18.0858545942
 11
74.054660383
 21
18.1022351766
  0
LINE
  5
321
100
AcDbEntity
  8
0
100
AcDbLine
 62
7
  6
CONTINUOUS
 10
74.0163612173
 20
18.0754177603
 11
74.0395895954
 21
18.0915481971
  0
LINE
  5
322
100
AcDbEntity
  8
0
100
AcDbLine
 62
7
  6
CONTINUOUS
 10
69.8309100863
 20
16.4767513414
 11
69.8515953179
 21
16.4910086465
  0
LINE
  5
323
100
AcDbEntity
  8
0
100
AcDbLine
 62
7
  6
CONTINUOUS
 10
71.7188580803
 20
17.5705812826
 11
71.726358289
 21
17.5757478496
  0
LINE
  5
324
100
AcDbEntity
  8
0
100
AcDbLine
 62
7
  6
CONTINUOUS
 10
74.0013245623
 20
18.065192438
 11
74.0245640246
 21
18.0810672517
  0
LINE
  5
325
100
AcDbEntity
  8
0
100
AcDbLine
 62
7
  6
CONTINUOUS
 10
70.4947154469
 20
17.423102486
 11
70.5302817298
 21
17.447265563
  0
LINE
  5
326
100
AcDbEntity
  8
0
100
AcDbLine
 62
7
  6
CONTINUOUS
 10
73.9863571404
 20
18.0551801169
 11
74.0095925509
 21
18.0707940466
  0
LINE
  5
327
100
AcDbEntity
  8
0
100
AcDbLine
 62
7
  6
CONTINUOUS
 10
73.9646817393
 20
18.0409691396
 11
74.022966038
 21
18.0799628855
  0
LINE
  5
328
100
AcDbEntity
  8
0
100
AcDbLine
 62
7
  6
CONTINUOUS
 10
69.8083280115
 20
16.4617155985
 11
69.8309100863
 21
16.4767513414
  0
LINE
  5
329
100
AcDbEntity
  8
0
100
AcDbLine
 62
7
  6
CONTINUOUS
 10
73.9714682564
 20
18.0453820902
 11
73.9946841177
 21
18.0607300944
  0
LINE
  5
32A
100
AcDbEntity
  8
0
100
AcDbLine
 62
7
  6
CONTINUOUS
 10
73.9566672708
 20
18.0357994615
 11
73.9798477259
 21
18.0508767172
  0
LINE
  5
32B
100
AcDbEntity
  8
0
100
AcDbLine
 62
7
  6
CONTINUOUS
 10
69.7842382427
 20
16.4461865089
 11
69.8083280115
 21
16.4617155985
  0
LINE
  5
32C
100
AcDbEntity
  8
0
100
AcDbLine
 62
7
  6
CONTINUOUS
 10
73.9419638187
 20
18.0264332909
 11
73.9650924312
 21
18.0412350526
  0
LINE
  5
32D
100
AcDbEntity
  8
0
100
AcDbLine
 62
7
  6
CONTINUOUS
 10
73.9273666587
 20
18.0172838755
 11
73.9504273726
 21
18.0318060779
  0
LINE
  5
32E
100
AcDbEntity
  8
0
100
AcDbLine
 62
7
  6
CONTINUOUS
 10
73.9052716243
 20
18.0037131343
 11
73.9646817393
 21
18.0409691396
  0
LINE
  5
32F
100
AcDbEntity
  8
0
100
AcDbLine
 62
7
  6
CONTINUOUS
 10
69.7593057178
 20
16.4306023261
 11
69.7842382427
 21
16.4461865089
  0
LINE
  5
330
100
AcDbEntity
  8
0
100
AcDbLine
 62
7
  6
CONTINUOUS
 10
73.9128875008
 20
18.0083531455
 11
73.9358615827
 21
18.0225904981
  0
LINE
  5
331
100
AcDbEntity
  8
0
100
AcDbLine
 62
7
  6
CONTINUOUS
 10
73.8985272873
 20
17.9996362695
 11
73.9214059575
 21
18.0135899765
  0
LINE
  5
332
100
AcDbEntity
  8
0
100
AcDbLine
 62
7
  6
CONTINUOUS
 10
69.734265578
 20
16.4154385656
 11
69.7593057178
 21
16.4306023261
  0
LINE
  5
333
100
AcDbEntity
  8
0
100
AcDbLine
 62
7
  6
CONTINUOUS
 10
73.8842913114
 20
17.9911311394
 11
73.9070642543
 21
18.004801582
  0
LINE
  5
334
100
AcDbEntity
  8
0
100
AcDbLine
 62
7
  6
CONTINUOUS
 10
73.8701777874
 20
17.982831493
 11
73.8928444976
 21
17.9962249667
  0
LINE
  5
335
100
AcDbEntity
  8
0
100
AcDbLine
 62
7
  6
CONTINUOUS
 10
73.8447874876
 20
17.9682273497
 11
73.9052716243
 21
18.0037131343
  0
LINE
  5
336
100
AcDbEntity
  8
0
100
AcDbLine
 62
7
  6
CONTINUOUS
 10
71.726358289
 20
17.5757478496
 11
71.7342147761
 21
17.5803546006
  0
LINE
  5
337
100
AcDbEntity
  8
0
100
AcDbLine
 62
7
  6
CONTINUOUS
 10
69.7096265212
 20
16.4009964398
 11
69.734265578
 21
16.4154385656
  0
LINE
  5
338
100
AcDbEntity
  8
0
100
AcDbLine
 62
7
  6
CONTINUOUS
 10
73.856186571
 20
17.9747322458
 11
73.8787445634
 21
17.9878536747
  0
LINE
  5
339
100
AcDbEntity
  8
0
100
AcDbLine
 62
7
  6
CONTINUOUS
 10
73.8423172646
 20
17.9668283344
 11
73.8647649072
 21
17.9796829933
  0
LINE
  5
33A
100
AcDbEntity
  8
0
100
AcDbLine
 62
7
  6
CONTINUOUS
 10
69.6859697061
 20
16.3876201344
 11
69.7096265212
 21
16.4009964398
  0
LINE
  5
33B
100
AcDbEntity
  8
0
100
AcDbLine
 62
7
  6
CONTINUOUS
 10
73.8285693801
 20
17.9591148105
 11
73.8509050942
 21
17.9717078443
  0
LINE
  5
33C
100
AcDbEntity
  8
0
100
AcDbLine
 62
7
  6
CONTINUOUS
 10
73.8149423237
 20
17.9515868285
 11
73.8371647626
 21
17.9639233576
  0
LINE
  5
33D
100
AcDbEntity
  8
0
100
AcDbLine
 62
7
  6
CONTINUOUS
 10
70.5302817298
 20
17.447265563
 11
70.5649171192
 21
17.4664497047
  0
LINE
  5
33E
100
AcDbEntity
  8
0
100
AcDbLine
 62
7
  6
CONTINUOUS
 10
73.7832820601
 20
17.9345427229
 11
73.8447874876
 21
17.9682273497
  0
LINE
  5
33F
100
AcDbEntity
  8
0
100
AcDbLine
 62
7
  6
CONTINUOUS
 10
73.8014351708
 20
17.9442395209
 11
73.8235434371
 21
17.956324757
  0
LINE
  5
340
100
AcDbEntity
  8
0
100
AcDbLine
 62
7
  6
CONTINUOUS
 10
69.6635909505
 20
16.3754542097
 11
69.6859697061
 21
16.3876201344
  0
LINE
  5
341
100
AcDbEntity
  8
0
100
AcDbLine
 62
7
  6
CONTINUOUS
 10
73.7880477531
 20
17.9370685825
 11
73.8100405006
 21
17.9489073419
  0
LINE
  5
342
100
AcDbEntity
  8
0
100
AcDbLine
 62
7
  6
CONTINUOUS
 10
73.7747778983
 20
17.9300687873
 11
73.7966553528
 21
17.9416665714
  0
LINE
  5
343
100
AcDbEntity
  8
0
100
AcDbLine
 62
7
  6
CONTINUOUS
 10
73.7616301017
 20
17.9232385334
 11
73.7833860765
 21
17.9345973516
  0
LINE
  5
344
100
AcDbEntity
  8
0
100
AcDbLine
 62
7
  6
CONTINUOUS
 10
69.6427674606
 20
16.3646361394
 11
69.6635909505
 21
16.3754542097
  0
LINE
  5
345
100
AcDbEntity
  8
0
100
AcDbLine
 62
7
  6
CONTINUOUS
 10
73.7486065312
 20
17.9165750073
 11
73.7702353898
 21
17.9276971811
  0
LINE
  5
346
100
AcDbEntity
  8
0
100
AcDbLine
 62
7
  6
CONTINUOUS
 10
73.720808963
 20
17.9026886206
 11
73.7832820601
 21
17.9345427229
  0
LINE
  5
347
100
AcDbEntity
  8
0
100
AcDbLine
 62
7
  6
CONTINUOUS
 10
73.7357116995
 20
17.9100766119
 11
73.7572035521
 21
17.9209623228
  0
LINE
  5
348
100
AcDbEntity
  8
0
100
AcDbLine
 62
7
  6
CONTINUOUS
 10
73.722949566
 20
17.9037414492
 11
73.7442956302
 21
17.9143915689
  0
LINE
  5
349
100
AcDbEntity
  8
0
100
AcDbLine
 62
7
  6
CONTINUOUS
 10
71.7342147761
 20
17.5803546006
 11
71.7423858349
 21
17.5843770804
  0
LINE
  5
34A
100
AcDbEntity
  8
0
100
AcDbLine
 62
7
  6
CONTINUOUS
 10
69.6236728227
 20
16.3552335739
 11
69.6427674606
 21
16.3646361394
  0
LINE
  5
34B
100
AcDbEntity
  8
0
100
AcDbLine
 62
7
  6
CONTINUOUS
 10
73.7103237517
 20
17.8975674466
 11
73.7315154813
 21
17.9079830608
  0
LINE
  5
34C
100
AcDbEntity
  8
0
100
AcDbLine
 62
7
  6
CONTINUOUS
 10
73.6978379492
 20
17.8915525666
 11
73.7188667951
 21
17.9017348473
  0
LINE
  5
34D
100
AcDbEntity
  8
0
100
AcDbLine
 62
7
  6
CONTINUOUS
 10
73.6854956825
 20
17.8856946919
 11
73.7063533137
 21
17.8956449984
  0
LINE
  5
34E
100
AcDbEntity
  8
0
100
AcDbLine
 62
7
  6
CONTINUOUS
 10
73.6574226612
 20
17.8726928135
 11
73.720808963
 21
17.9026886206
  0
LINE
  5
34F
100
AcDbEntity
  8
0
100
AcDbLine
 62
7
  6
CONTINUOUS
 10
73.6733004004
 20
17.8799916752
 11
73.6939785298
 21
17.8897114602
  0
LINE
  5
350
100
AcDbEntity
  8
0
100
AcDbLine
 62
7
  6
CONTINUOUS
 10
73.6612557935
 20
17.8744414878
 11
73.6817459329
 21
17.8839321803
  0
LINE
  5
351
100
AcDbEntity
  8
0
100
AcDbLine
 62
7
  6
CONTINUOUS
 10
69.6063681114
 20
16.3472581786
 11
69.6236728227
 21
16.3552335739
  0
LINE
  5
352
100
AcDbEntity
  8
0
100
AcDbLine
 62
7
  6
CONTINUOUS
 10
73.6493650894
 20
17.8690418945
 11
73.6696590564
 21
17.8783051307
  0
LINE
  5
353
100
AcDbEntity
  8
0
100
AcDbLine
 62
7
  6
CONTINUOUS
 10
73.6376329026
 20
17.863791292
 11
73.6577212052
 21
17.8728281827
  0
LINE
  5
354
100
AcDbEntity
  8
0
100
AcDbLine
 62
7
  6
CONTINUOUS
 10
70.5649171192
 20
17.4664497047
 11
70.5969672666
 21
17.4808364209
  0
LINE
  5
355
100
AcDbEntity
  8
0
100
AcDbLine
 62
7
  6
CONTINUOUS
 10
73.626061289
 20
17.8586869367
 11
73.6459363355
 21
17.8674995103
  0
LINE
  5
356
100
AcDbEntity
  8
0
100
AcDbLine
 62
7
  6
CONTINUOUS
 10
73.5931784157
 20
17.8445814525
 11
73.6574226612
 21
17.8726928135
  0
LINE
  5
357
100
AcDbEntity
  8
0
100
AcDbLine
 62
7
  6
CONTINUOUS
 10
73.6146609661
 20
17.8537298716
 11
73.634306932
 21
17.8623166311
  0
LINE
  5
358
100
AcDbEntity
  8
0
100
AcDbLine
 62
7
  6
CONTINUOUS
 10
73.6034392379
 20
17.8489195218
 11
73.6228405111
 21
17.85727929
  0
LINE
  5
359
100
AcDbEntity
  8
0
100
AcDbLine
 62
7
  6
CONTINUOUS
 10
73.5924084359
 20
17.8442573498
 11
73.6115410969
 21
17.8523856397
  0
LINE
  5
35A
100
AcDbEntity
  8
0
100
AcDbLine
 62
7
  6
CONTINUOUS
 10
69.5907309468
 20
16.3406433111
 11
69.6063681114
 21
16.3472581786
  0
LINE
  5
35B
100
AcDbEntity
  8
0
100
AcDbLine
 62
7
  6
CONTINUOUS
 10
73.5815793233
 20
17.8397439861
 11
73.6004215796
 21
17.8476375908
  0
LINE
  5
35C
100
AcDbEntity
  8
0
100
AcDbLine
 62
7
  6
CONTINUOUS
 10
73.5709640228
 20
17.8353804825
 11
73.5894926517
 21
17.8430359284
  0
LINE
  5
35D
100
AcDbEntity
  8
0
100
AcDbLine
 62
7
  6
CONTINUOUS
 10
73.5605604919
 20
17.8311620343
 11
73.5787650564
 21
17.8385813156
  0
LINE
  5
35E
100
AcDbEntity
  8
0
100
AcDbLine
 62
7
  6
CONTINUOUS
 10
71.7423858349
 20
17.5843770804
 11
71.7472237619
 21
17.5863351469
  0
LINE
  5
35F
100
AcDbEntity
  8
0
100
AcDbLine
 62
7
  6
CONTINUOUS
 10
73.5281322356
 20
17.8183790454
 11
73.5931784157
 21
17.8445814525
  0
LINE
  5
360
100
AcDbEntity
  8
0
100
AcDbLine
 62
7
  6
CONTINUOUS
 10
73.5504220647
 20
17.8271060082
 11
73.5682435194
 21
17.8342718355
  0
LINE
  5
361
100
AcDbEntity
  8
0
100
AcDbLine
 62
7
  6
CONTINUOUS
 10
73.540580706
 20
17.8232204005
 11
73.5579568483
 21
17.8301152467
  0
LINE
  5
362
100
AcDbEntity
  8
0
100
AcDbLine
 62
7
  6
CONTINUOUS
 10
73.528820289
 20
17.8186433528
 11
73.5479116042
 21
17.8261100013
  0
LINE
  5
363
100
AcDbEntity
  8
0
100
AcDbLine
 62
7
  6
CONTINUOUS
 10
73.513441632
 20
17.8127662476
 11
73.5310996586
 21
17.8195248466
  0
LINE
  5
364
100
AcDbEntity
  8
0
100
AcDbLine
 62
7
  6
CONTINUOUS
 10
73.5034622384
 20
17.8090176584
 11
73.5198805339
 21
17.8152120787
  0
LINE
  5
365
100
AcDbEntity
  8
0
100
AcDbLine
 62
7
  6
CONTINUOUS
 10
69.5771477526
 20
16.3355248401
 11
69.5907309468
 21
16.3406433111
  0
LINE
  5
366
100
AcDbEntity
  8
0
100
AcDbLine
 62
7
  6
CONTINUOUS
 10
73.4891377967
 20
17.8037259156
 11
73.5053784854
 21
17.8097335035
  0
LINE
  5
367
100
AcDbEntity
  8
0
100
AcDbLine
 62
7
  6
CONTINUOUS
 10
73.4623408288
 20
17.7941084357
 11
73.5281322356
 21
17.8183790454
  0
LINE
  5
368
100
AcDbEntity
  8
0
100
AcDbLine
 62
7
  6
CONTINUOUS
 10
73.476421368
 20
17.7991155353
 11
73.4907557878
 21
17.8043184005
  0
LINE
  5
369
100
AcDbEntity
  8
0
100
AcDbLine
 62
7
  6
CONTINUOUS
 10
70.5969672666
 20
17.4808364209
 11
70.6244142703
 21
17.4907604128
  0
LINE
  5
36A
100
AcDbEntity
  8
0
100
AcDbLine
 62
7
  6
CONTINUOUS
 10
73.4648329498
 20
17.7949851578
 11
73.4777685734
 21
17.7996000967
  0
LINE
  5
36B
100
AcDbEntity
  8
0
100
AcDbLine
 62
7
  6
CONTINUOUS
 10
73.454616993
 20
17.7913997742
 11
73.4659440174
 21
17.7953782444
  0
LINE
  5
36C
100
AcDbEntity
  8
0
100
AcDbLine
 62
7
  6
CONTINUOUS
 10
69.5688805489
 20
16.3326302394
 11
69.5773346491
 21
16.3355551751
  0
LINE
  5
36D
100
AcDbEntity
  8
0
100
AcDbLine
 62
7
  6
CONTINUOUS
 10
73.4425744715
 20
17.78724002
 11
73.455482879
 21
17.7917016449
  0
LINE
  5
36E
100
AcDbEntity
  8
0
100
AcDbLine
 62
7
  6
CONTINUOUS
 10
73.4313285977
 20
17.7834199839
 11
73.4431145542
 21
17.7874250398
  0
LINE
  5
36F
100
AcDbEntity
  8
0
100
AcDbLine
 62
7
  6
CONTINUOUS
 10
73.3958615533
 20
17.771790783
 11
73.4623408288
 21
17.7941084357
  0
LINE
  5
370
100
AcDbEntity
  8
0
100
AcDbLine
 62
7
  6
CONTINUOUS
 10
73.4200494139
 20
17.7796502661
 11
73.4316302364
 21
17.7835216392
  0
LINE
  5
371
100
AcDbEntity
  8
0
100
AcDbLine
 62
7
  6
CONTINUOUS
 10
73.4109198497
 20
17.776642973
 11
73.4217787788
 21
17.7802243049
  0
LINE
  5
372
100
AcDbEntity
  8
0
100
AcDbLine
 62
7
  6
CONTINUOUS
 10
73.4000327367
 20
17.7731059103
 11
73.4108768639
 21
17.7766289039
  0
LINE
  5
373
100
AcDbEntity
  8
0
100
AcDbLine
 62
7
  6
CONTINUOUS
 10
73.387720156
 20
17.7691687529
 11
73.4000652502
 21
17.7731163953
  0
LINE
  5
374
100
AcDbEntity
  8
0
100
AcDbLine
 62
7
  6
CONTINUOUS
 10
69.5280455836
 20
16.319698573
 11
69.5688805489
 21
16.3326302394
  0
LINE
  5
375
100
AcDbEntity
  8
0
100
AcDbLine
 62
7
  6
CONTINUOUS
 10
73.3766962543
 20
17.7656998637
 11
73.3894905969
 21
17.7697307918
  0
LINE
  5
376
100
AcDbEntity
  8
0
100
AcDbLine
 62
7
  6
CONTINUOUS
 10
21.1352841571
 20
36.65696723
 11
21.1572020899
 21
36.6620834723
  0
LINE
  5
377
100
AcDbEntity
  8
0
100
AcDbLine
 62
7
  6
CONTINUOUS
 10
21.1572020899
 20
36.6620834723
 11
21.1790685073
 21
36.665830743
  0
LINE
  5
378
100
AcDbEntity
  8
0
100
AcDbLine
 62
7
  6
CONTINUOUS
 10
36.7949379958
 20
17.9974807068
 11
36.7994882509
 21
17.9981713527
  0
LINE
  5
379
100
AcDbEntity
  8
0
100
AcDbLine
 62
7
  6
CONTINUOUS
 10
21.1790685073
 20
36.665830743
 11
21.2012010877
 21
36.6682851068
  0
LINE
  5
37A
100
AcDbEntity
  8
0
100
AcDbLine
 62
7
  6
CONTINUOUS
 10
72.4498504239
 20
17.6263895145
 11
72.6533414668
 21
17.6400406025
  0
LINE
  5
37B
100
AcDbEntity
  8
0
100
AcDbLine
 62
7
  6
CONTINUOUS
 10
72.2435427726
 20
17.6134786047
 11
72.4498504239
 21
17.6263895145
  0
LINE
  5
37C
100
AcDbEntity
  8
0
100
AcDbLine
 62
7
  6
CONTINUOUS
 10
72.0244409637
 20
17.6008129014
 11
72.2435427726
 21
17.6134786047
  0
LINE
  5
37D
100
AcDbEntity
  8
0
100
AcDbLine
 62
7
  6
CONTINUOUS
 10
71.8077254341
 20
17.5893553952
 11
71.9433131251
 21
17.5967404238
  0
LINE
  5
37E
100
AcDbEntity
  8
0
100
AcDbLine
 62
7
  6
CONTINUOUS
 10
70.6432976358
 20
17.4903352361
 11
70.6197714072
 21
17.4890816964
  0
LINE
  5
37F
100
AcDbEntity
  8
0
100
AcDbLine
 62
7
  6
CONTINUOUS
 10
71.8515331598
 20
17.5915813186
 11
72.0244409637
 21
17.6008129014
  0
LINE
  5
380
100
AcDbEntity
  8
0
100
AcDbLine
 62
7
  6
CONTINUOUS
 10
71.8515331598
 20
17.5915813186
 11
71.8767885434
 21
17.5928877824
  0
LINE
  5
381
100
AcDbEntity
  8
0
100
AcDbLine
 62
7
  6
CONTINUOUS
 10
71.7220381415
 20
17.5849210653
 11
71.8238267363
 21
17.5901643855
  0
LINE
  5
382
100
AcDbEntity
  8
0
100
AcDbLine
 62
7
  6
CONTINUOUS
 10
71.7153144814
 20
17.5845809454
 11
71.7220381415
 21
17.5849210653
  0
LINE
  5
383
100
AcDbEntity
  8
0
100
AcDbLine
 62
7
  6
CONTINUOUS
 10
71.8049175174
 20
17.589207184
 11
71.8085625621
 21
17.5893910707
  0
LINE
  5
384
100
AcDbEntity
  8
0
100
AcDbLine
 62
7
  6
CONTINUOUS
 10
21.2012010877
 20
36.6682851068
 11
21.2238106392
 21
36.6694291714
  0
LINE
  5
385
100
AcDbEntity
  8
0
100
AcDbLine
 62
7
  6
CONTINUOUS
 10
71.6738571691
 20
17.5825091846
 11
71.7153144814
 21
17.5845809454
  0
LINE
  5
386
100
AcDbEntity
  8
0
100
AcDbLine
 62
7
  6
CONTINUOUS
 10
71.6691220918
 20
17.5822753433
 11
71.6738571691
 21
17.5825091846
  0
LINE
  5
387
100
AcDbEntity
  8
0
100
AcDbLine
 62
7
  6
CONTINUOUS
 10
71.6619672711
 20
17.5819230898
 11
71.6691220918
 21
17.5822753433
  0
LINE
  5
388
100
AcDbEntity
  8
0
100
AcDbLine
 62
7
  6
CONTINUOUS
 10
71.654748184
 20
17.5815689986
 11
71.6619672711
 21
17.5819230898
  0
LINE
  5
389
100
AcDbEntity
  8
0
100
AcDbLine
 62
7
  6
CONTINUOUS
 10
71.6474630322
 20
17.5812130188
 11
71.654748184
 21
17.5815689986
  0
LINE
  5
38A
100
AcDbEntity
  8
0
100
AcDbLine
 62
7
  6
CONTINUOUS
 10
71.6401088552
 20
17.5808550449
 11
71.6474630322
 21
17.5812130188
  0
LINE
  5
38B
100
AcDbEntity
  8
0
100
AcDbLine
 62
7
  6
CONTINUOUS
 10
71.6276838395
 20
17.5802533917
 11
71.6401088552
 21
17.5808550449
  0
LINE
  5
38C
100
AcDbEntity
  8
0
100
AcDbLine
 62
7
  6
CONTINUOUS
 10
71.6201186883
 20
17.5798890071
 11
71.6276838395
 21
17.5802533917
  0
LINE
  5
38D
100
AcDbEntity
  8
0
100
AcDbLine
 62
7
  6
CONTINUOUS
 10
71.6073047033
 20
17.579275161
 11
71.6201186883
 21
17.5798890071
  0
LINE
  5
38E
100
AcDbEntity
  8
0
100
AcDbLine
 62
7
  6
CONTINUOUS
 10
71.5994804876
 20
17.5789024231
 11
71.6073047033
 21
17.579275161
  0
LINE
  5
38F
100
AcDbEntity
  8
0
100
AcDbLine
 62
7
  6
CONTINUOUS
 10
71.586195504
 20
17.5782731484
 11
71.5994804876
 21
17.5789024231
  0
LINE
  5
390
100
AcDbEntity
  8
0
100
AcDbLine
 62
7
  6
CONTINUOUS
 10
71.5725849238
 20
17.5776331661
 11
71.586195504
 21
17.5782731484
  0
LINE
  5
391
100
AcDbEntity
  8
0
100
AcDbLine
 62
7
  6
CONTINUOUS
 10
71.5586441118
 20
17.576982608
 11
71.5725849238
 21
17.5776331661
  0
LINE
  5
392
100
AcDbEntity
  8
0
100
AcDbLine
 62
7
  6
CONTINUOUS
 10
71.5443770288
 20
17.5763220181
 11
71.5586441118
 21
17.576982608
  0
LINE
  5
393
100
AcDbEntity
  8
0
100
AcDbLine
 62
7
  6
CONTINUOUS
 10
71.5385797278
 20
17.5760550957
 11
71.5443770288
 21
17.5763220181
  0
LINE
  5
394
100
AcDbEntity
  8
0
100
AcDbLine
 62
7
  6
CONTINUOUS
 10
71.5238625137
 20
17.5753813807
 11
71.5385797278
 21
17.5760550957
  0
LINE
  5
395
100
AcDbEntity
  8
0
100
AcDbLine
 62
7
  6
CONTINUOUS
 10
71.5118604524
 20
17.5748361066
 11
71.5238625137
 21
17.5753813807
  0
LINE
  5
396
100
AcDbEntity
  8
0
100
AcDbLine
 62
7
  6
CONTINUOUS
 10
71.4965757882
 20
17.5741470984
 11
71.5118604524
 21
17.5748361066
  0
LINE
  5
397
100
AcDbEntity
  8
0
100
AcDbLine
 62
7
  6
CONTINUOUS
 10
71.4841248014
 20
17.5735903031
 11
71.4965757882
 21
17.5741470984
  0
LINE
  5
398
100
AcDbEntity
  8
0
100
AcDbLine
 62
7
  6
CONTINUOUS
 10
71.4714744695
 20
17.5730287118
 11
71.4841248014
 21
17.5735903031
  0
LINE
  5
399
100
AcDbEntity
  8
0
100
AcDbLine
 62
7
  6
CONTINUOUS
 10
71.4586145654
 20
17.5724620753
 11
71.4714744695
 21
17.5730287118
  0
LINE
  5
39A
100
AcDbEntity
  8
0
100
AcDbLine
 62
7
  6
CONTINUOUS
 10
71.4455331603
 20
17.5718900873
 11
71.4586145654
 21
17.5724620753
  0
LINE
  5
39B
100
AcDbEntity
  8
0
100
AcDbLine
 62
7
  6
CONTINUOUS
 10
71.4322183558
 20
17.5713124632
 11
71.4455331603
 21
17.5718900873
  0
LINE
  5
39C
100
AcDbEntity
  8
0
100
AcDbLine
 62
7
  6
CONTINUOUS
 10
71.4186582836
 20
17.5707289404
 11
71.4322183558
 21
17.5713124632
  0
LINE
  5
39D
100
AcDbEntity
  8
0
100
AcDbLine
 62
7
  6
CONTINUOUS
 10
71.4048411046
 20
17.5701392794
 11
71.4186582836
 21
17.5707289404
  0
LINE
  5
39E
100
AcDbEntity
  8
0
100
AcDbLine
 62
7
  6
CONTINUOUS
 10
71.3907550087
 20
17.569543264
 11
71.4048411046
 21
17.5701392794
  0
LINE
  5
39F
100
AcDbEntity
  8
0
100
AcDbLine
 62
7
  6
CONTINUOUS
 10
71.3763881021
 20
17.568940698
 11
71.3907550087
 21
17.569543264
  0
LINE
  5
3A0
100
AcDbEntity
  8
0
100
AcDbLine
 62
7
  6
CONTINUOUS
 10
71.3654209888
 20
17.5684843497
 11
71.3763881021
 21
17.568940698
  0
LINE
  5
3A1
100
AcDbEntity
  8
0
100
AcDbLine
 62
7
  6
CONTINUOUS
 10
71.3505317107
 20
17.5678698256
 11
71.3654209888
 21
17.5684843497
  0
LINE
  5
3A2
100
AcDbEntity
  8
0
100
AcDbLine
 62
7
  6
CONTINUOUS
 10
71.3429691817
 20
17.5675599167
 11
71.3505317107
 21
17.5678698256
  0
LINE
  5
3A3
100
AcDbEntity
  8
0
100
AcDbLine
 62
7
  6
CONTINUOUS
 10
71.3237058789
 20
17.5667772733
 11
71.3429691817
 21
17.5675599167
  0
LINE
  5
3A4
100
AcDbEntity
  8
0
100
AcDbLine
 62
7
  6
CONTINUOUS
 10
36.7994882509
 20
17.9981713527
 11
36.8188737887
 21
17.9989528151
  0
LINE
  5
3A5
100
AcDbEntity
  8
0
100
AcDbLine
 62
7
  6
CONTINUOUS
 10
71.3158534755
 20
17.5664610262
 11
71.3237058789
 21
17.5667772733
  0
LINE
  5
3A6
100
AcDbEntity
  8
0
100
AcDbLine
 62
7
  6
CONTINUOUS
 10
71.3039121837
 20
17.5659831983
 11
71.3158534755
 21
17.5664610262
  0
LINE
  5
3A7
100
AcDbEntity
  8
0
100
AcDbLine
 62
7
  6
CONTINUOUS
 10
71.2958404957
 20
17.5656623276
 11
71.3039121837
 21
17.5659831983
  0
LINE
  5
3A8
100
AcDbEntity
  8
0
100
AcDbLine
 62
7
  6
CONTINUOUS
 10
71.2835625425
 20
17.5651775215
 11
71.2958404957
 21
17.5656623276
  0
LINE
  5
3A9
100
AcDbEntity
  8
0
100
AcDbLine
 62
7
  6
CONTINUOUS
 10
71.2710733529
 20
17.5646884305
 11
71.2835625425
 21
17.5651775215
  0
LINE
  5
3AA
100
AcDbEntity
  8
0
100
AcDbLine
 62
7
  6
CONTINUOUS
 10
36.798987099
 20
17.9669260074
 11
36.820592339
 21
17.9677703438
  0
LINE
  5
3AB
100
AcDbEntity
  8
0
100
AcDbLine
 62
7
  6
CONTINUOUS
 10
71.2626254196
 20
17.5643599203
 11
71.2710733529
 21
17.5646884305
  0
LINE
  5
3AC
100
AcDbEntity
  8
0
100
AcDbLine
 62
7
  6
CONTINUOUS
 10
71.2497640957
 20
17.5638633864
 11
71.2626254196
 21
17.5643599203
  0
LINE
  5
3AD
100
AcDbEntity
  8
0
100
AcDbLine
 62
7
  6
CONTINUOUS
 10
71.2366674213
 20
17.5633622311
 11
71.2497640957
 21
17.5638633864
  0
LINE
  5
3AE
100
AcDbEntity
  8
0
100
AcDbLine
 62
7
  6
CONTINUOUS
 10
71.2233263662
 20
17.5628563592
 11
71.2366674213
 21
17.5633622311
  0
LINE
  5
3AF
100
AcDbEntity
  8
0
100
AcDbLine
 62
7
  6
CONTINUOUS
 10
71.2097319172
 20
17.5623456935
 11
71.2233263662
 21
17.5628563592
  0
LINE
  5
3B0
100
AcDbEntity
  8
0
100
AcDbLine
 62
7
  6
CONTINUOUS
 10
71.1911962987
 20
17.5616572519
 11
71.2097319172
 21
17.5623456935
  0
LINE
  5
3B1
100
AcDbEntity
  8
0
100
AcDbLine
 62
7
  6
CONTINUOUS
 10
71.1769745289
 20
17.5611351667
 11
71.1911962987
 21
17.5616572519
  0
LINE
  5
3B2
100
AcDbEntity
  8
0
100
AcDbLine
 62
7
  6
CONTINUOUS
 10
71.1575611503
 20
17.5604310987
 11
71.1769745289
 21
17.5611351667
  0
LINE
  5
3B3
100
AcDbEntity
  8
0
100
AcDbLine
 62
7
  6
CONTINUOUS
 10
71.137602956
 20
17.5597176318
 11
71.1575611503
 21
17.5604310987
  0
LINE
  5
3B4
100
AcDbEntity
  8
0
100
AcDbLine
 62
7
  6
CONTINUOUS
 10
71.1118404683
 20
17.558812215
 11
71.137602956
 21
17.5597176318
  0
LINE
  5
3B5
100
AcDbEntity
  8
0
100
AcDbLine
 62
7
  6
CONTINUOUS
 10
71.085114374
 20
17.55789146
 11
71.1118404683
 21
17.558812215
  0
LINE
  5
3B6
100
AcDbEntity
  8
0
100
AcDbLine
 62
7
  6
CONTINUOUS
 10
71.0516623302
 20
17.556765601
 11
71.085114374
 21
17.55789146
  0
LINE
  5
3B7
100
AcDbEntity
  8
0
100
AcDbLine
 62
7
  6
CONTINUOUS
 10
70.9859045802
 20
17.5546388428
 11
71.0516623302
 21
17.556765601
  0
LINE
  5
3B8
100
AcDbEntity
  8
0
100
AcDbLine
 62
7
  6
CONTINUOUS
 10
70.8517559027
 20
17.550656316
 11
70.9859045802
 21
17.5546388428
  0
LINE
  5
3B9
100
AcDbEntity
  8
0
100
AcDbLine
 62
7
  6
CONTINUOUS
 10
69.2658144688
 20
16.2801943527
 11
69.2984127739
 21
16.2811565891
  0
LINE
  5
3BA
100
AcDbEntity
  8
0
100
AcDbLine
 62
7
  6
CONTINUOUS
 10
80.2698950546
 20
36.6680531298
 11
80.2101864758
 21
36.6664633477
  0
LINE
  5
3BB
100
AcDbEntity
  8
0
100
AcDbLine
 62
7
  6
CONTINUOUS
 10
80.2101864758
 20
36.6664633477
 11
80.0716877472
 21
36.6631417704
  0
LINE
  5
3BC
100
AcDbEntity
  8
0
100
AcDbLine
 62
7
  6
CONTINUOUS
 10
80.0716877472
 20
36.6631417704
 11
79.9465961705
 21
36.6606194479
  0
LINE
  5
3BD
100
AcDbEntity
  8
0
100
AcDbLine
 62
7
  6
CONTINUOUS
 10
36.8188737887
 20
17.9989528151
 11
36.8513034305
 21
17.999533644
  0
LINE
  5
3BE
100
AcDbEntity
  8
0
100
AcDbLine
 62
7
  6
CONTINUOUS
 10
36.820592339
 20
17.9677703438
 11
36.8589727168
 21
17.9683758948
  0
LINE
  5
3BF
100
AcDbEntity
  8
0
100
AcDbLine
 62
7
  6
CONTINUOUS
 10
79.9465961705
 20
36.6606194479
 11
79.8273688002
 21
36.6587373021
  0
LINE
  5
3C0
100
AcDbEntity
  8
0
100
AcDbLine
 62
7
  6
CONTINUOUS
 10
79.8273688002
 20
36.6587373021
 11
79.7678323791
 21
36.6580506721
  0
LINE
  5
3C1
100
AcDbEntity
  8
0
100
AcDbLine
 62
7
  6
CONTINUOUS
 10
69.2558558692
 20
16.2801084078
 11
69.2658144688
 21
16.2801943527
  0
LINE
  5
3C2
100
AcDbEntity
  8
0
100
AcDbLine
 62
7
  6
CONTINUOUS
 10
36.8513034305
 20
17.999533644
 11
36.8976984916
 21
17.9998977554
  0
LINE
  5
3C3
100
AcDbEntity
  8
0
100
AcDbLine
 62
7
  6
CONTINUOUS
 10
79.7678323791
 20
36.6580506721
 11
79.7070563304
 21
36.6575975077
  0
LINE
  5
3C4
100
AcDbEntity
  8
0
100
AcDbLine
 62
7
  6
CONTINUOUS
 10
36.8589727168
 20
17.9683758948
 11
36.91521422
 21
17.9687285491
  0
LINE
  5
3C5
100
AcDbEntity
  8
0
100
AcDbLine
 62
7
  6
CONTINUOUS
 10
79.7070563304
 20
36.6575975077
 11
79.5788862691
 21
36.6572088087
  0
LINE
  5
3C6
100
AcDbEntity
  8
0
100
AcDbLine
 62
7
  6
CONTINUOUS
 10
79.5788862691
 20
36.6572088087
 11
79.0841472184
 21
36.6558080467
  0
LINE
  5
3C7
100
AcDbEntity
  8
0
100
AcDbLine
 62
7
  6
CONTINUOUS
 10
79.0841472184
 20
36.6558080467
 11
79.0084813307
 21
36.6555980591
  0
LINE
  5
3C8
100
AcDbEntity
  8
0
100
AcDbLine
 62
7
  6
CONTINUOUS
 10
79.0084813307
 20
36.6555980591
 11
78.8535777478
 21
36.6551739892
  0
LINE
  5
3C9
100
AcDbEntity
  8
0
100
AcDbLine
 62
7
  6
CONTINUOUS
 10
78.8535777478
 20
36.6551739892
 11
78.7741889804
 21
36.6549601393
  0
LINE
  5
3CA
100
AcDbEntity
  8
0
100
AcDbLine
 62
7
  6
CONTINUOUS
 10
78.7741889804
 20
36.6549601393
 11
78.6933477187
 21
36.654745179
  0
LINE
  5
3CB
100
AcDbEntity
  8
0
100
AcDbLine
 62
7
  6
CONTINUOUS
 10
78.6933477187
 20
36.654745179
 11
78.6109433584
 21
36.6545292814
  0
LINE
  5
3CC
100
AcDbEntity
  8
0
100
AcDbLine
 62
7
  6
CONTINUOUS
 10
78.6109433584
 20
36.6545292814
 11
78.4410016585
 21
36.6540956295
  0
LINE
  5
3CD
100
AcDbEntity
  8
0
100
AcDbLine
 62
7
  6
CONTINUOUS
 10
78.4410016585
 20
36.6540956295
 11
78.353282278
 21
36.6538786363
  0
LINE
  5
3CE
100
AcDbEntity
  8
0
100
AcDbLine
 62
7
  6
CONTINUOUS
 10
78.353282278
 20
36.6538786363
 11
78.1720065089
 21
36.6534470362
  0
LINE
  5
3CF
100
AcDbEntity
  8
0
100
AcDbLine
 62
7
  6
CONTINUOUS
 10
78.1720065089
 20
36.6534470362
 11
77.9825101675
 21
36.6530229383
  0
LINE
  5
3D0
100
AcDbEntity
  8
0
100
AcDbLine
 62
7
  6
CONTINUOUS
 10
77.9825101675
 20
36.6530229383
 11
77.7841986527
 21
36.6526130059
  0
LINE
  5
3D1
100
AcDbEntity
  8
0
100
AcDbLine
 62
7
  6
CONTINUOUS
 10
77.7841986527
 20
36.6526130059
 11
77.3574225216
 21
36.6518773756
  0
LINE
  5
3D2
100
AcDbEntity
  8
0
100
AcDbLine
 62
7
  6
CONTINUOUS
 10
36.91521422
 20
17.9687285491
 11
36.9878757253
 21
17.9688440039
  0
LINE
  5
3D3
100
AcDbEntity
  8
0
100
AcDbLine
 62
7
  6
CONTINUOUS
 10
36.8976984916
 20
17.9998977554
 11
37.0258070448
 21
18.0000671009
  0
LINE
  5
3D4
100
AcDbEntity
  8
0
100
AcDbLine
 62
7
  6
CONTINUOUS
 10
77.3574225216
 20
36.6518773756
 11
76.8826281109
 21
36.6513678465
  0
LINE
  5
3D5
100
AcDbEntity
  8
0
100
AcDbLine
 62
7
  6
CONTINUOUS
 10
76.8826281109
 20
36.6513678465
 11
76.4878600497
 21
36.6511889069
  0
LINE
  5
3D6
100
AcDbEntity
  8
0
100
AcDbLine
 62
7
  6
CONTINUOUS
 10
69.2558691634
 20
16.2799923796
 11
38.6308671248
 21
16.2799923796
  0
LINE
  5
3D7
100
AcDbEntity
  8
0
100
AcDbLine
 62
7
  6
CONTINUOUS
 10
70.2392420441
 20
17.0362423796
 11
71.0273147208
 21
17.0362423796
  0
LINE
  5
3D8
100
AcDbEntity
  8
0
100
AcDbLine
 62
7
  6
CONTINUOUS
 10
20.7558681114
 20
35.1612423796
 11
80.7558681114
 21
35.1612423796
  0
LINE
  5
3D9
100
AcDbEntity
  8
0
100
AcDbLine
 62
7
  6
CONTINUOUS
 10
76.4878600497
 20
36.6511889069
 11
76.2025638685
 21
36.651154844
  0
LINE
  5
3DA
100
AcDbEntity
  8
0
100
AcDbLine
 62
7
  6
CONTINUOUS
 10
76.2025638685
 20
36.651154844
 11
25.1001169867
 21
36.651244905
  0
LINE
  5
3DB
100
AcDbEntity
  8
0
100
AcDbLine
 62
7
  6
CONTINUOUS
 10
25.1001169867
 20
36.651244905
 11
24.5857845396
 21
36.6516963463
  0
LINE
  5
3DC
100
AcDbEntity
  8
0
100
AcDbLine
 62
7
  6
CONTINUOUS
 10
24.5857845396
 20
36.6516963463
 11
23.9153395823
 21
36.6528075792
  0
LINE
  5
3DD
100
AcDbEntity
  8
0
100
AcDbLine
 62
7
  6
CONTINUOUS
 10
36.9878757253
 20
17.9688440039
 11
37.1785684586
 21
17.9683951665
  0
LINE
  5
3DE
100
AcDbEntity
  8
0
100
AcDbLine
 62
7
  6
CONTINUOUS
 10
23.9153395823
 20
36.6528075792
 11
23.1608653376
 21
36.6545735891
  0
LINE
  5
3DF
100
AcDbEntity
  8
0
100
AcDbLine
 62
7
  6
CONTINUOUS
 10
21.2238106392
 20
36.6694291714
 11
21.2409652142
 21
36.6693861796
  0
LINE
  5
3E0
100
AcDbEntity
  8
0
100
AcDbLine
 62
7
  6
CONTINUOUS
 10
37.0258070448
 20
18.0000671009
 11
37.1955609756
 21
17.9995732871
  0
LINE
  5
3E1
100
AcDbEntity
  8
0
100
AcDbLine
 62
7
  6
CONTINUOUS
 10
23.1608653376
 20
36.6545735891
 11
21.8384322114
 21
36.6584241419
  0
LINE
  5
3E2
100
AcDbEntity
  8
0
100
AcDbLine
 62
7
  6
CONTINUOUS
 10
37.1955609756
 20
17.9995732871
 11
37.4013971387
 21
17.9984864722
  0
LINE
  5
3E3
100
AcDbEntity
  8
0
100
AcDbLine
 62
7
  6
CONTINUOUS
 10
37.1785684586
 20
17.9683951665
 11
37.4244555711
 21
17.9670943639
  0
LINE
  5
3E4
100
AcDbEntity
  8
0
100
AcDbLine
 62
7
  6
CONTINUOUS
 10
38.1421254817
 20
17.9614732092
 11
38.434269285
 21
17.9597820911
  0
LINE
  5
3E5
100
AcDbEntity
  8
0
100
AcDbLine
 62
7
  6
CONTINUOUS
 10
38.0468162383
 20
17.9934351286
 11
38.3373192752
 21
17.9916334934
  0
LINE
  5
3E6
100
AcDbEntity
  8
0
100
AcDbLine
 62
7
  6
CONTINUOUS
 10
37.4013971387
 20
17.9984864722
 11
37.6390234546
 21
17.9968495189
  0
LINE
  5
3E7
100
AcDbEntity
  8
0
100
AcDbLine
 62
7
  6
CONTINUOUS
 10
38.3373192752
 20
17.9916334934
 11
38.4843120978
 21
17.9906023593
  0
LINE
  5
3E8
100
AcDbEntity
  8
0
100
AcDbLine
 62
7
  6
CONTINUOUS
 10
37.4244555711
 20
17.9670943639
 11
37.7172806049
 21
17.964997021
  0
LINE
  5
3E9
100
AcDbEntity
  8
0
100
AcDbLine
 62
7
  6
CONTINUOUS
 10
80.2969141047
 20
36.6678365857
 11
80.2698792875
 21
36.6680526156
  0
LINE
  5
3EA
100
AcDbEntity
  8
0
100
AcDbLine
 62
7
  6
CONTINUOUS
 10
37.6390234546
 20
17.9968495189
 11
37.9047228769
 21
17.9946984201
  0
LINE
  5
3EB
100
AcDbEntity
  8
0
100
AcDbLine
 62
7
  6
CONTINUOUS
 10
37.7172806049
 20
17.964997021
 11
38.1421254817
 21
17.9614732092
  0
LINE
  5
3EC
100
AcDbEntity
  8
0
100
AcDbLine
 62
7
  6
CONTINUOUS
 10
38.434269285
 20
17.9597820911
 11
38.5329250472
 21
17.9589430894
  0
LINE
  5
3ED
100
AcDbEntity
  8
0
100
AcDbLine
 62
7
  6
CONTINUOUS
 10
38.6209217281
 20
16.280194353
 11
38.6308806674
 21
16.2801084066
  0
LINE
  5
3EE
100
AcDbEntity
  8
0
100
AcDbLine
 62
7
  6
CONTINUOUS
 10
37.9047228769
 20
17.9946984201
 11
38.0468162702
 21
17.993435894
  0
LINE
  5
3EF
100
AcDbEntity
  8
0
100
AcDbLine
 62
7
  6
CONTINUOUS
 10
38.4843120978
 20
17.9906023593
 11
38.632695742
 21
17.9890545997
  0
LINE
  5
3F0
100
AcDbEntity
  8
0
100
AcDbLine
 62
7
  6
CONTINUOUS
 10
68.3448959684
 20
17.6000497644
 11
69.257317499
 21
17.5901715984
  0
LINE
  5
3F1
100
AcDbEntity
  8
0
100
AcDbLine
 62
7
  6
CONTINUOUS
 10
67.521220259
 20
17.6403669977
 11
69.2576456532
 21
17.6213828389
  0
LINE
  5
3F2
100
AcDbEntity
  8
0
100
AcDbLine
 62
7
  6
CONTINUOUS
 10
66.5314311134
 20
17.6202674151
 11
68.3448959684
 21
17.6000497644
  0
LINE
  5
3F3
100
AcDbEntity
  8
0
100
AcDbLine
 62
7
  6
CONTINUOUS
 10
66.6038416432
 20
17.6506674301
 11
67.521220259
 21
17.6403669977
  0
LINE
  5
3F4
100
AcDbEntity
  8
0
100
AcDbLine
 62
7
  6
CONTINUOUS
 10
64.7242065995
 20
17.6409450731
 11
66.5314311134
 21
17.6202674151
  0
LINE
  5
3F5
100
AcDbEntity
  8
0
100
AcDbLine
 62
7
  6
CONTINUOUS
 10
64.6598935297
 20
17.6729105735
 11
66.6038416432
 21
17.6506674301
  0
LINE
  5
3F6
100
AcDbEntity
  8
0
100
AcDbLine
 62
7
  6
CONTINUOUS
 10
63.8176384523
 20
17.6514621047
 11
64.7242065995
 21
17.6409450731
  0
LINE
  5
3F7
100
AcDbEntity
  8
0
100
AcDbLine
 62
7
  6
CONTINUOUS
 10
61.9901087746
 20
17.6728867272
 11
63.8176384523
 21
17.6514621047
  0
LINE
  5
3F8
100
AcDbEntity
  8
0
100
AcDbLine
 62
7
  6
CONTINUOUS
 10
63.6293371852
 20
17.6848805488
 11
64.6598935297
 21
17.6729105735
  0
LINE
  5
3F9
100
AcDbEntity
  8
0
100
AcDbLine
 62
7
  6
CONTINUOUS
 10
21.8384322114
 20
36.6584241419
 11
21.6997328649
 21
36.6600502164
  0
LINE
  5
3FA
100
AcDbEntity
  8
0
100
AcDbLine
 62
7
  6
CONTINUOUS
 10
61.0624860871
 20
17.6838544052
 11
61.9901087746
 21
17.6728867272
  0
LINE
  5
3FB
100
AcDbEntity
  8
0
100
AcDbLine
 62
7
  6
CONTINUOUS
 10
61.4419880132
 20
17.710588054
 11
63.6293371852
 21
17.6848805488
  0
LINE
  5
3FC
100
AcDbEntity
  8
0
100
AcDbLine
 62
7
  6
CONTINUOUS
 10
56.0339924384
 20
17.7440555707
 11
61.0624860871
 21
17.6838544052
  0
LINE
  5
3FD
100
AcDbEntity
  8
0
100
AcDbLine
 62
7
  6
CONTINUOUS
 10
57.8160640017
 20
17.7538353153
 11
61.4419880132
 21
17.710588054
  0
LINE
  5
3FE
100
AcDbEntity
  8
0
100
AcDbLine
 62
7
  6
CONTINUOUS
 10
48.7110545911
 20
17.8331939153
 11
56.0339924384
 21
17.7440555707
  0
LINE
  5
3FF
100
AcDbEntity
  8
0
100
AcDbLine
 62
7
  6
CONTINUOUS
 10
52.4742391636
 20
17.8184183909
 11
57.8160640017
 21
17.7538353153
  0
LINE
  5
400
100
AcDbEntity
  8
0
100
AcDbLine
 62
7
  6
CONTINUOUS
 10
48.4256857602
 20
17.8679295019
 11
52.4742391636
 21
17.8184183909
  0
LINE
  5
401
100
AcDbEntity
  8
0
100
AcDbLine
 62
7
  6
CONTINUOUS
 10
45.5052185522
 20
17.8726678107
 11
48.7110545911
 21
17.8331939153
  0
LINE
  5
402
100
AcDbEntity
  8
0
100
AcDbLine
 62
7
  6
CONTINUOUS
 10
38.5329250472
 20
17.9589430894
 11
45.5052185522
 21
17.8726678107
  0
LINE
  5
403
100
AcDbEntity
  8
0
100
AcDbLine
 62
7
  6
CONTINUOUS
 10
45.4384608989
 20
17.9047183253
 11
48.4256857602
 21
17.8679295019
  0
LINE
  5
404
100
AcDbEntity
  8
0
100
AcDbLine
 62
7
  6
CONTINUOUS
 10
38.632695742
 20
17.9890545997
 11
45.4384608989
 21
17.9047183253
  0
LINE
  5
405
100
AcDbEntity
  8
0
100
AcDbLine
 62
7
  6
CONTINUOUS
 10
69.257317499
 20
17.5901715984
 11
69.4190533974
 21
17.5879994254
  0
LINE
  5
406
100
AcDbEntity
  8
0
100
AcDbLine
 62
7
  6
CONTINUOUS
 10
69.2576456532
 20
17.6213828389
 11
69.4093268043
 21
17.6193538709
  0
LINE
  5
407
100
AcDbEntity
  8
0
100
AcDbLine
 62
7
  6
CONTINUOUS
 10
35.1880106745
 20
18.0083734635
 11
35.6413168061
 21
18.0011661518
  0
LINE
  5
408
100
AcDbEntity
  8
0
100
AcDbLine
 62
7
  6
CONTINUOUS
 10
35.1874788386
 20
17.9771279894
 11
35.7133069713
 21
17.968738024
  0
LINE
  5
409
100
AcDbEntity
  8
0
100
AcDbLine
 62
7
  6
CONTINUOUS
 10
69.4093268043
 20
17.6193538709
 11
69.5589977687
 21
17.6168846114
  0
LINE
  5
40A
100
AcDbEntity
  8
0
100
AcDbLine
 62
7
  6
CONTINUOUS
 10
35.7133069713
 20
17.968738024
 11
36.3934894604
 21
17.9573148843
  0
LINE
  5
40B
100
AcDbEntity
  8
0
100
AcDbLine
 62
7
  6
CONTINUOUS
 10
35.6413168061
 20
18.0011661518
 11
36.2535730353
 21
17.9909648728
  0
LINE
  5
40C
100
AcDbEntity
  8
DEFAULT_1
100
AcDbLine
 62
7
  6
CENTER
 10
51.50813059
 20
17.9661649233
 11
65.5187949803
 21
17.7320445333
  0
LINE
  5
40D
100
AcDbEntity
  8
0
100
AcDbLine
 62
7
  6
CONTINUOUS
 10
21.6997328649
 20
36.6600502164
 11
21.5526110278
 21
36.6625167136
  0
LINE
  5
40E
100
AcDbEntity
  8
0
100
AcDbLine
 62
7
  6
CONTINUOUS
 10
69.4190533974
 20
17.5879994254
 11
69.581388941
 21
17.5852489243
  0
LINE
  5
40F
100
AcDbEntity
  8
0
100
AcDbLine
 62
7
  6
CONTINUOUS
 10
36.3526677854
 20
17.3946431506
 11
37.4665209237
 21
17.3756939711
  0
LINE
  5
410
100
AcDbEntity
  8
0
100
AcDbLine
 62
7
  6
CONTINUOUS
 10
33.7854093016
 20
18.1371691734
 11
36.7616977015
 21
18.0865045762
  0
LINE
  5
411
100
AcDbEntity
  8
0
100
AcDbLine
 62
7
  6
CONTINUOUS
 10
36.3934894604
 20
17.9573148843
 11
36.9982512814
 21
17.946904558
  0
LINE
  5
412
100
AcDbEntity
  8
0
100
AcDbLine
 62
7
  6
CONTINUOUS
 10
36.2535730353
 20
17.9909648728
 11
36.7992027768
 21
17.9815861266
  0
LINE
  5
413
100
AcDbEntity
  8
0
100
AcDbLine
 62
7
  6
CONTINUOUS
 10
36.7616977015
 20
18.0865045762
 11
39.5701711292
 21
18.0381657315
  0
LINE
  5
414
100
AcDbEntity
  8
0
100
AcDbLine
 62
7
  6
CONTINUOUS
 10
39.5701711292
 20
18.0381657315
 11
44.6836623447
 21
17.9494668352
  0
LINE
  5
415
100
AcDbEntity
  8
0
100
AcDbLine
 62
7
  6
CONTINUOUS
 10
44.6836623447
 20
17.9494668352
 11
51.613169514
 21
17.8289145605
  0
LINE
  5
416
100
AcDbEntity
  8
0
100
AcDbLine
 62
7
  6
CONTINUOUS
 10
69.5589977687
 20
17.6168846114
 11
69.7067211978
 21
17.613956704
  0
LINE
  5
417
100
AcDbEntity
  8
0
100
AcDbLine
 62
7
  6
CONTINUOUS
 10
69.581388941
 20
17.5852489243
 11
69.7449183915
 21
17.5819010189
  0
LINE
  5
418
100
AcDbEntity
  8
0
100
AcDbLine
 62
7
  6
CONTINUOUS
 10
21.5526110278
 20
36.6625167136
 11
21.3934444433
 21
36.6657785995
  0
LINE
  5
419
100
AcDbEntity
  8
0
100
AcDbLine
 62
7
  6
CONTINUOUS
 10
69.7067211978
 20
17.613956704
 11
69.8503450063
 21
17.6106513256
  0
LINE
  5
41A
100
AcDbEntity
  8
0
100
AcDbLine
 62
7
  6
CONTINUOUS
 10
21.3934444433
 20
36.6657785995
 11
21.2409513512
 21
36.6693865323
  0
LINE
  5
41B
100
AcDbEntity
  8
0
100
AcDbLine
 62
7
  6
CONTINUOUS
 10
69.7449183915
 20
17.5819010189
 11
69.9051135996
 21
17.5780532662
  0
LINE
  5
41C
100
AcDbEntity
  8
0
100
AcDbLine
 62
7
  6
CONTINUOUS
 10
69.8503450063
 20
17.6106513256
 11
69.9883244012
 21
17.6070393922
  0
LINE
  5
41D
100
AcDbEntity
  8
0
100
AcDbLine
 62
7
  6
CONTINUOUS
 10
69.9051135996
 20
17.5780532662
 11
70.0582997922
 21
17.5738015891
  0
LINE
  5
41E
100
AcDbEntity
  8
0
100
AcDbLine
 62
7
  6
CONTINUOUS
 10
38.5883234232
 20
16.2811565903
 11
38.6209217281
 21
16.280194353
  0
LINE
  5
41F
100
AcDbEntity
  8
0
100
AcDbLine
 62
7
  6
CONTINUOUS
 10
69.9883244012
 20
17.6070393922
 11
70.1196624769
 21
17.6031247056
  0
LINE
  5
420
100
AcDbEntity
  8
0
100
AcDbLine
 62
7
  6
CONTINUOUS
 10
36.938062024
 20
17.9598401784
 11
36.8689573991
 21
17.9620311252
  0
LINE
  5
421
100
AcDbEntity
  8
0
100
AcDbLine
 62
7
  6
CONTINUOUS
 10
70.0582997922
 20
17.5738015891
 11
70.2034152414
 21
17.5691254668
  0
LINE
  5
422
100
AcDbEntity
  8
0
100
AcDbLine
 62
7
  6
CONTINUOUS
 10
70.1196624769
 20
17.6031247056
 11
70.2433958419
 21
17.5989309778
  0
LINE
  5
423
100
AcDbEntity
  8
0
100
AcDbLine
 62
7
  6
CONTINUOUS
 10
70.2034152414
 20
17.5691254668
 11
70.339415526
 21
17.564013851
  0
LINE
  5
424
100
AcDbEntity
  8
0
100
AcDbLine
 62
7
  6
CONTINUOUS
 10
70.2433958419
 20
17.5989309778
 11
70.3581669375
 21
17.5944773678
  0
LINE
  5
425
100
AcDbEntity
  8
0
100
AcDbLine
 62
7
  6
CONTINUOUS
 10
70.339415526
 20
17.564013851
 11
70.4629520427
 21
17.5585525607
  0
LINE
  5
426
100
AcDbEntity
  8
0
100
AcDbLine
 62
7
  6
CONTINUOUS
 10
70.3581669375
 20
17.5944773678
 11
70.4627209206
 21
17.5897827438
  0
LINE
  5
427
100
AcDbEntity
  8
0
100
AcDbLine
 62
7
  6
CONTINUOUS
 10
70.4627209206
 20
17.5897827438
 11
70.5563045237
 21
17.58487797
  0
LINE
  5
428
100
AcDbEntity
  8
0
100
AcDbLine
 62
7
  6
CONTINUOUS
 10
70.4629520427
 20
17.5585525607
 11
70.5709294865
 21
17.5528212758
  0
LINE
  5
429
100
AcDbEntity
  8
0
100
AcDbLine
 62
7
  6
CONTINUOUS
 10
70.5563045237
 20
17.58487797
 11
70.6381540852
 21
17.5797931276
  0
LINE
  5
42A
100
AcDbEntity
  8
0
100
AcDbLine
 62
7
  6
CONTINUOUS
 10
36.9159727589
 20
17.9625146034
 11
36.9148222954
 21
17.9625879897
  0
LINE
  5
42B
100
AcDbEntity
  8
0
100
AcDbLine
 62
7
  6
CONTINUOUS
 10
38.5534588246
 20
16.2833846763
 11
38.5883234232
 21
16.2811565903
  0
LINE
  5
42C
100
AcDbEntity
  8
0
100
AcDbLine
 62
7
  6
CONTINUOUS
 10
70.5709294865
 20
17.5528212758
 11
70.6628773011
 21
17.5468337514
  0
LINE
  5
42D
100
AcDbEntity
  8
0
100
AcDbLine
 62
7
  6
CONTINUOUS
 10
70.6381540852
 20
17.5797931276
 11
70.7075987348
 21
17.5745519288
  0
LINE
  5
42E
100
AcDbEntity
  8
0
100
AcDbLine
 62
7
  6
CONTINUOUS
 10
36.9148222954
 20
17.9625879897
 11
36.9155682672
 21
17.9625311983
  0
LINE
  5
42F
100
AcDbEntity
  8
0
100
AcDbLine
 62
7
  6
CONTINUOUS
 10
80.320867403
 20
36.666010649
 11
80.2969141047
 21
36.6678365857
  0
LINE
  5
430
100
AcDbEntity
  8
0
100
AcDbLine
 62
7
  6
CONTINUOUS
 10
70.6628773011
 20
17.5468337514
 11
70.7380487907
 21
17.5405937189
  0
LINE
  5
431
100
AcDbEntity
  8
0
100
AcDbLine
 62
7
  6
CONTINUOUS
 10
36.9155682672
 20
17.9625311983
 11
36.9182931397
 21
17.9622978175
  0
LINE
  5
432
100
AcDbEntity
  8
0
100
AcDbLine
 62
7
  6
CONTINUOUS
 10
70.7075987348
 20
17.5745519288
 11
70.7640594539
 21
17.5691742305
  0
LINE
  5
433
100
AcDbEntity
  8
0
100
AcDbLine
 62
7
  6
CONTINUOUS
 10
36.9182931397
 20
17.9622978175
 11
36.9232907222
 21
17.9618034245
  0
LINE
  5
434
100
AcDbEntity
  8
0
100
AcDbLine
 62
7
  6
CONTINUOUS
 10
38.5161469709
 20
16.287186553
 11
38.5534588246
 21
16.2833846763
  0
LINE
  5
435
100
AcDbEntity
  8
0
100
AcDbLine
 62
7
  6
CONTINUOUS
 10
70.7380487907
 20
17.5405937189
 11
70.7950315834
 21
17.5342179696
  0
LINE
  5
436
100
AcDbEntity
  8
0
100
AcDbLine
 62
7
  6
CONTINUOUS
 10
36.9232907222
 20
17.9618034245
 11
36.9318620689
 21
17.9607962928
  0
LINE
  5
437
100
AcDbEntity
  8
0
100
AcDbLine
 62
7
  6
CONTINUOUS
 10
70.7640594539
 20
17.5691742305
 11
70.8069787056
 21
17.5637025663
  0
LINE
  5
438
100
AcDbEntity
  8
DEFAULT_1
100
AcDbLine
 62
7
  6
CENTER
 10
79.6676371235
 20
32.7568627565
 11
74.0379631527
 21
33.5480618354
  0
LINE
  5
439
100
AcDbEntity
  8
0
100
AcDbLine
 62
7
  6
CONTINUOUS
 10
80.344202169
 20
36.6627331842
 11
80.320867403
 21
36.666010649
  0
LINE
  5
43A
100
AcDbEntity
  8
0
100
AcDbLine
 62
7
  6
CONTINUOUS
 10
38.4782240852
 20
16.292578932
 11
38.5161469709
 21
16.287186553
  0
LINE
  5
43B
100
AcDbEntity
  8
0
100
AcDbLine
 62
7
  6
CONTINUOUS
 10
36.9318620689
 20
17.9607962928
 11
36.9455830096
 21
17.9588096727
  0
LINE
  5
43C
100
AcDbEntity
  8
0
100
AcDbLine
 62
7
  6
CONTINUOUS
 10
70.7950315834
 20
17.5342179696
 11
70.8320879443
 21
17.5278224202
  0
LINE
  5
43D
100
AcDbEntity
  8
0
100
AcDbLine
 62
7
  6
CONTINUOUS
 10
36.9455830096
 20
17.9588096727
 11
36.9636005304
 21
17.9555319084
  0
LINE
  5
43E
100
AcDbEntity
  8
0
100
AcDbLine
 62
7
  6
CONTINUOUS
 10
38.4389818039
 20
16.2997766263
 11
38.4782240852
 21
16.292578932
  0
LINE
  5
43F
100
AcDbEntity
  8
0
100
AcDbLine
 62
7
  6
CONTINUOUS
 10
70.8069787056
 20
17.5637025663
 11
70.8355011528
 21
17.5581841651
  0
LINE
  5
440
100
AcDbEntity
  8
0
100
AcDbLine
 62
7
  6
CONTINUOUS
 10
80.367013841
 20
36.6580611115
 11
80.344202169
 21
36.6627331842
  0
LINE
  5
441
100
AcDbEntity
  8
0
100
AcDbLine
 62
7
  6
CONTINUOUS
 10
38.3990787019
 20
16.3087904703
 11
38.4389818039
 21
16.2997766263
  0
LINE
  5
442
100
AcDbEntity
  8
0
100
AcDbLine
 62
7
  6
CONTINUOUS
 10
36.9636005304
 20
17.9555319084
 11
36.9860011177
 21
17.9504029103
  0
LINE
  5
443
100
AcDbEntity
  8
0
100
AcDbLine
 62
7
  6
CONTINUOUS
 10
80.3891914414
 20
36.6520733816
 11
80.367013841
 21
36.6580611115
  0
LINE
  5
444
100
AcDbEntity
  8
0
100
AcDbLine
 62
7
  6
CONTINUOUS
 10
38.358690621
 20
16.3196985783
 11
38.3990787019
 21
16.3087904703
  0
LINE
  5
445
100
AcDbEntity
  8
0
100
AcDbLine
 62
7
  6
CONTINUOUS
 10
36.9860011177
 20
17.9504029103
 11
37.0111832499
 21
17.9432114988
  0
LINE
  5
446
100
AcDbEntity
  8
0
100
AcDbLine
 62
7
  6
CONTINUOUS
 10
38.3178556572
 20
16.3326302451
 11
38.358690621
 21
16.3196985783
  0
LINE
  5
447
100
AcDbEntity
  8
0
100
AcDbLine
 62
7
  6
CONTINUOUS
 10
80.4106639896
 20
36.6448490645
 11
80.3891914414
 21
36.6520733816
  0
LINE
  5
448
100
AcDbEntity
  8
0
100
AcDbLine
 62
7
  6
CONTINUOUS
 10
38.3094015838
 20
16.3355551715
 11
38.3178556572
 21
16.3326302451
  0
LINE
  5
449
100
AcDbEntity
  8
0
100
AcDbLine
 62
7
  6
CONTINUOUS
 10
70.8320879443
 20
17.5278224202
 11
70.8505222327
 21
17.5213919832
  0
LINE
  5
44A
100
AcDbEntity
  8
0
100
AcDbLine
 62
7
  6
CONTINUOUS
 10
37.0111832499
 20
17.9432114988
 11
37.0377336017
 21
17.9339245707
  0
LINE
  5
44B
100
AcDbEntity
  8
0
100
AcDbLine
 62
7
  6
CONTINUOUS
 10
38.3050894431
 20
16.3371429402
 11
38.3098968184
 21
16.3354172912
  0
LINE
  5
44C
100
AcDbEntity
  8
0
100
AcDbLine
 62
7
  6
CONTINUOUS
 10
70.8355011528
 20
17.5581841651
 11
70.8503539342
 21
17.5526201596
  0
LINE
  5
44D
100
AcDbEntity
  8
0
100
AcDbLine
 62
7
  6
CONTINUOUS
 10
38.2897046712
 20
16.3432290303
 11
38.3050894431
 21
16.3371429402
  0
LINE
  5
44E
100
AcDbEntity
  8
0
100
AcDbLine
 62
7
  6
CONTINUOUS
 10
80.4314567136
 20
36.6364313024
 11
80.4106639896
 21
36.6448490645
  0
LINE
  5
44F
100
AcDbEntity
  8
0
100
AcDbLine
 62
7
  6
CONTINUOUS
 10
37.0377336017
 20
17.9339245707
 11
37.0653674836
 21
17.9222833413
  0
LINE
  5
450
100
AcDbEntity
  8
0
100
AcDbLine
 62
7
  6
CONTINUOUS
 10
38.2724924976
 20
16.3508138171
 11
38.2897046712
 21
16.3432290303
  0
LINE
  5
451
100
AcDbEntity
  8
0
100
AcDbLine
 62
7
  6
CONTINUOUS
 10
80.4514731909
 20
36.6269063126
 11
80.4314567136
 21
36.6364313024
  0
LINE
  5
452
100
AcDbEntity
  8
0
100
AcDbLine
 62
7
  6
CONTINUOUS
 10
38.2532130158
 20
16.3600154409
 11
38.2724924976
 21
16.3508138171
  0
LINE
  5
453
100
AcDbEntity
  8
0
100
AcDbLine
 62
7
  6
CONTINUOUS
 10
37.0653674836
 20
17.9222833413
 11
37.0935860529
 21
17.9081435753
  0
LINE
  5
454
100
AcDbEntity
  8
0
100
AcDbLine
 62
7
  6
CONTINUOUS
 10
38.2314759947
 20
16.3710623436
 11
38.2532130158
 21
16.3600154409
  0
LINE
  5
455
100
AcDbEntity
  8
0
100
AcDbLine
 62
7
  6
CONTINUOUS
 10
38.2075848115
 20
16.3838605674
 11
38.2314759947
 21
16.3710623436
  0
LINE
  5
456
100
AcDbEntity
  8
0
100
AcDbLine
 62
7
  6
CONTINUOUS
 10
80.4710090182
 20
36.6161461585
 11
80.4514731909
 21
36.6269063126
  0
LINE
  5
457
100
AcDbEntity
  8
0
100
AcDbLine
 62
7
  6
CONTINUOUS
 10
38.1818186553
 20
16.3982937608
 11
38.2075848115
 21
16.3838605674
  0
LINE
  5
458
100
AcDbEntity
  8
0
100
AcDbLine
 62
7
  6
CONTINUOUS
 10
36.0885081176
 20
17.4461126575
 11
36.1028030594
 21
17.437815279
  0
LINE
  5
459
100
AcDbEntity
  8
0
100
AcDbLine
 62
7
  6
CONTINUOUS
 10
38.1550110505
 20
16.4139272417
 11
38.1818186553
 21
16.3982937608
  0
LINE
  5
45A
100
AcDbEntity
  8
0
100
AcDbLine
 62
7
  6
CONTINUOUS
 10
36.071412854
 20
17.4561693226
 11
36.0885081176
 21
17.4461126575
  0
LINE
  5
45B
100
AcDbEntity
  8
0
100
AcDbLine
 62
7
  6
CONTINUOUS
 10
37.0935860529
 20
17.9081435753
 11
37.1216390642
 21
17.8915924098
  0
LINE
  5
45C
100
AcDbEntity
  8
0
100
AcDbLine
 62
7
  6
CONTINUOUS
 10
36.0485648701
 20
17.4697734825
 11
36.071412854
 21
17.4561693226
  0
LINE
  5
45D
100
AcDbEntity
  8
0
100
AcDbLine
 62
7
  6
CONTINUOUS
 10
38.1280682114
 20
16.4302101067
 11
38.1550110505
 21
16.4139272417
  0
LINE
  5
45E
100
AcDbEntity
  8
0
100
AcDbLine
 62
7
  6
CONTINUOUS
 10
35.9895477395
 20
17.505481442
 11
36.0485648701
 21
17.4697734825
  0
LINE
  5
45F
100
AcDbEntity
  8
0
100
AcDbLine
 62
7
  6
CONTINUOUS
 10
35.9556086535
 20
17.5262629065
 11
36.020988148
 21
17.4863726376
  0
LINE
  5
460
100
AcDbEntity
  8
0
100
AcDbLine
 62
7
  6
CONTINUOUS
 10
35.8516692192
 20
17.5906257387
 11
35.9556086535
 21
17.5262629065
  0
LINE
  5
461
100
AcDbEntity
  8
0
100
AcDbLine
 62
7
  6
CONTINUOUS
 10
38.1016400862
 20
16.4467311474
 11
38.1280682114
 21
16.4302101067
  0
LINE
  5
462
100
AcDbEntity
  8
0
100
AcDbLine
 62
7
  6
CONTINUOUS
 10
35.7416155607
 20
17.6595543128
 11
35.8516692192
 21
17.5906257387
  0
LINE
  5
463
100
AcDbEntity
  8
0
100
AcDbLine
 62
7
  6
CONTINUOUS
 10
80.4905986022
 20
36.6037521609
 11
80.4710090182
 21
36.6161461585
  0
LINE
  5
464
100
AcDbEntity
  8
0
100
AcDbLine
 62
7
  6
CONTINUOUS
 10
38.076485904
 20
16.4629761157
 11
38.1016400862
 21
16.4467311474
  0
LINE
  5
465
100
AcDbEntity
  8
0
100
AcDbLine
 62
7
  6
CONTINUOUS
 10
38.0529528268
 20
16.4787023642
 11
38.076485904
 21
16.4629761157
  0
LINE
  5
466
100
AcDbEntity
  8
0
100
AcDbLine
 62
7
  6
CONTINUOUS
 10
37.1216390642
 20
17.8915924098
 11
37.148702169
 21
17.872962067
  0
LINE
  5
467
100
AcDbEntity
  8
0
100
AcDbLine
 62
7
  6
CONTINUOUS
 10
38.0313783963
 20
16.493659328
 11
38.0529528268
 21
16.4787023642
  0
LINE
  5
468
100
AcDbEntity
  8
0
100
AcDbLine
 62
7
  6
CONTINUOUS
 10
38.0119853395
 20
16.5076663071
 11
38.0313783963
 21
16.493659328
  0
LINE
  5
469
100
AcDbEntity
  8
0
100
AcDbLine
 62
7
  6
CONTINUOUS
 10
80.5091956684
 20
36.5903173397
 11
80.4905986022
 21
36.6037521609
  0
LINE
  5
46A
100
AcDbEntity
  8
0
100
AcDbLine
 62
7
  6
CONTINUOUS
 10
37.9948829377
 20
16.5206511026
 11
38.0119853395
 21
16.5076663071
  0
LINE
  5
46B
100
AcDbEntity
  8
0
100
AcDbLine
 62
7
  6
CONTINUOUS
 10
37.148702169
 20
17.872962067
 11
37.1747680748
 21
17.8521588504
  0
LINE
  5
46C
100
AcDbEntity
  8
0
100
AcDbLine
 62
7
  6
CONTINUOUS
 10
37.9800705718
 20
16.5326001126
 11
37.9948829377
 21
16.5206511026
  0
LINE
  5
46D
100
AcDbEntity
  8
0
100
AcDbLine
 62
7
  6
CONTINUOUS
 10
80.5260429209
 20
36.5765474769
 11
80.5091956684
 21
36.5903173397
  0
LINE
  5
46E
100
AcDbEntity
  8
0
100
AcDbLine
 62
7
  6
CONTINUOUS
 10
37.9675331302
 20
16.5435274507
 11
37.9800705718
 21
16.5326001126
  0
LINE
  5
46F
100
AcDbEntity
  8
0
100
AcDbLine
 62
7
  6
CONTINUOUS
 10
80.5414951799
 20
36.562375786
 11
80.5260429209
 21
36.5765474769
  0
LINE
  5
470
100
AcDbEntity
  8
0
100
AcDbLine
 62
7
  6
CONTINUOUS
 10
37.1747680748
 20
17.8521588504
 11
37.1996316982
 21
17.8292136123
  0
LINE
  5
471
100
AcDbEntity
  8
0
100
AcDbLine
 62
7
  6
CONTINUOUS
 10
37.963253961
 20
16.5475200905
 11
37.9675331302
 21
16.5435274507
  0
LINE
  5
472
100
AcDbEntity
  8
0
100
AcDbLine
 62
7
  6
CONTINUOUS
 10
37.963528471
 20
16.5472646816
 11
37.9632299064
 21
16.5475490316
  0
LINE
  5
473
100
AcDbEntity
  8
0
100
AcDbLine
 62
7
  6
CONTINUOUS
 10
37.9247304014
 20
16.5862721672
 11
37.9635301957
 21
16.5472630425
  0
LINE
  5
474
100
AcDbEntity
  8
0
100
AcDbLine
 62
7
  6
CONTINUOUS
 10
80.5552913834
 20
36.5482707213
 11
80.5414951799
 21
36.562375786
  0
LINE
  5
475
100
AcDbEntity
  8
0
100
AcDbLine
 62
7
  6
CONTINUOUS
 10
37.1996316982
 20
17.8292136123
 11
37.2230555278
 21
17.8042119884
  0
LINE
  5
476
100
AcDbEntity
  8
0
100
AcDbLine
 62
7
  6
CONTINUOUS
 10
37.8906021743
 20
16.6245367833
 11
37.9247304014
 21
16.5862721672
  0
LINE
  5
477
100
AcDbEntity
  8
0
100
AcDbLine
 62
7
  6
CONTINUOUS
 10
80.5685466457
 20
36.5331956436
 11
80.5552913834
 21
36.5482707213
  0
LINE
  5
478
100
AcDbEntity
  8
0
100
AcDbLine
 62
7
  6
CONTINUOUS
 10
37.2230555278
 20
17.8042119884
 11
37.2448295397
 21
17.7772461411
  0
LINE
  5
479
100
AcDbEntity
  8
0
100
AcDbLine
 62
7
  6
CONTINUOUS
 10
37.8581778984
 20
16.665000173
 11
37.8906021743
 21
16.6245367833
  0
LINE
  5
47A
100
AcDbEntity
  8
0
100
AcDbLine
 62
7
  6
CONTINUOUS
 10
80.5823288086
 20
36.5156082749
 11
80.5685466457
 21
36.5331956436
  0
LINE
  5
47B
100
AcDbEntity
  8
0
100
AcDbLine
 62
7
  6
CONTINUOUS
 10
37.8276449109
 20
16.7075898281
 11
37.8581778984
 21
16.665000173
  0
LINE
  5
47C
100
AcDbEntity
  8
0
100
AcDbLine
 62
7
  6
CONTINUOUS
 10
70.8503539342
 20
17.5526201596
 11
70.8524260121
 21
17.549717643
  0
LINE
  5
47D
100
AcDbEntity
  8
0
100
AcDbLine
 62
7
  6
CONTINUOUS
 10
37.2448295397
 20
17.7772461411
 11
37.2647151294
 21
17.7484877817
  0
LINE
  5
47E
100
AcDbEntity
  8
0
100
AcDbLine
 62
7
  6
CONTINUOUS
 10
80.5953091139
 20
36.4968142053
 11
80.5823288086
 21
36.5156082749
  0
LINE
  5
47F
100
AcDbEntity
  8
0
100
AcDbLine
 62
7
  6
CONTINUOUS
 10
70.8505222327
 20
17.5213919832
 11
70.8523919476
 21
17.5184876509
  0
LINE
  5
480
100
AcDbEntity
  8
0
100
AcDbLine
 62
7
  6
CONTINUOUS
 10
37.7991932263
 20
16.7522282529
 11
37.8276449109
 21
16.7075898281
  0
LINE
  5
481
100
AcDbEntity
  8
0
100
AcDbLine
 62
7
  6
CONTINUOUS
 10
75.0037349121
 20
19.6921912218
 11
75.0036286853
 21
19.692364961
  0
LINE
  5
482
100
AcDbEntity
  8
0
100
AcDbLine
 62
7
  6
CONTINUOUS
 10
80.6068142798
 20
36.4778083746
 11
80.5953091139
 21
36.4968142053
  0
LINE
  5
483
100
AcDbEntity
  8
0
100
AcDbLine
 62
7
  6
CONTINUOUS
 10
37.2647151294
 20
17.7484877817
 11
37.2820938754
 21
17.7188984137
  0
LINE
  5
484
100
AcDbEntity
  8
0
100
AcDbLine
 62
7
  6
CONTINUOUS
 10
37.7734969307
 20
16.7979163943
 11
37.7991932263
 21
16.7522282529
  0
LINE
  5
485
100
AcDbEntity
  8
0
100
AcDbLine
 62
7
  6
CONTINUOUS
 10
37.2823330811
 20
17.7187075957
 11
37.4209745552
 21
17.4608111451
  0
LINE
  5
486
100
AcDbEntity
  8
0
100
AcDbLine
 62
7
  6
CONTINUOUS
 10
37.4209745552
 20
17.4608111451
 11
37.5282424642
 21
17.2603485927
  0
LINE
  5
487
100
AcDbEntity
  8
0
100
AcDbLine
 62
7
  6
CONTINUOUS
 10
37.5282424642
 20
17.2603485927
 11
37.6302913863
 21
17.0686917224
  0
LINE
  5
488
100
AcDbEntity
  8
0
100
AcDbLine
 62
7
  6
CONTINUOUS
 10
37.6302913863
 20
17.0686917224
 11
37.773506811
 21
16.7978889005
  0
LINE
  5
489
100
AcDbEntity
  8
0
100
AcDbLine
 62
7
  6
CONTINUOUS
 10
80.617041374
 20
36.4584245534
 11
80.6068142798
 21
36.4778083746
  0
LINE
  5
48A
100
AcDbEntity
  8
0
100
AcDbLine
 62
7
  6
CONTINUOUS
 10
37.2821187883
 20
17.7191161332
 11
37.2821834912
 21
17.7189852756
  0
LINE
  5
48B
100
AcDbEntity
  8
0
100
AcDbLine
 62
7
  6
CONTINUOUS
 10
80.6258371128
 20
36.439144484
 11
80.617041374
 21
36.4584245534
  0
LINE
  5
48C
100
AcDbEntity
  8
0
100
AcDbLine
 62
7
  6
CONTINUOUS
 10
24.703401226
 20
35.1612423796
 11
31.1245285675
 21
20.7395123041
  0
LINE
  5
48D
100
AcDbEntity
  8
0
100
AcDbLine
 62
7
  6
CONTINUOUS
 10
31.1245285675
 20
20.7395123041
 11
31.6558301985
 21
19.5458312394
  0
LINE
  5
48E
100
AcDbEntity
  8
0
100
AcDbLine
 62
7
  6
CONTINUOUS
 10
80.633694087
 20
36.418937449
 11
80.6258371128
 21
36.439144484
  0
LINE
  5
48F
100
AcDbEntity
  8
0
100
AcDbLine
 62
7
  6
CONTINUOUS
 10
80.6409316231
 20
36.3963677343
 11
80.633694087
 21
36.418937449
  0
LINE
  5
490
100
AcDbEntity
  8
0
100
AcDbLine
 62
7
  6
CONTINUOUS
 10
37.7715763667
 20
16.8052502863
 11
37.7734969307
 21
16.7979163943
  0
LINE
  5
491
100
AcDbEntity
  8
0
100
AcDbLine
 62
7
  6
CONTINUOUS
 10
80.6468407923
 20
36.3728730498
 11
80.6409316231
 21
36.3963677343
  0
LINE
  5
492
100
AcDbEntity
  8
0
100
AcDbLine
 62
7
  6
CONTINUOUS
 10
80.6511488427
 20
36.3495200672
 11
80.6468407923
 21
36.3728730498
  0
LINE
  5
493
100
AcDbEntity
  8
0
100
AcDbLine
 62
7
  6
CONTINUOUS
 10
75.0036286853
 20
19.692364961
 11
75.0035665173
 21
19.6928521688
  0
LINE
  5
494
100
AcDbEntity
  8
0
100
AcDbLine
 62
7
  6
CONTINUOUS
 10
80.6539751996
 20
36.3258836901
 11
80.6511488427
 21
36.3495200672
  0
ARC
  5
495
100
AcDbEntity
  8
0
100
AcDbCircle
 62
7
  6
CONTINUOUS
 10
33.8255006604
 20
20.5118307667
 40
2.375
100
AcDbArc
 50
203.9999999999
 51
269.0327685219
  0
ARC
  5
496
100
AcDbEntity
  8
0
100
AcDbCircle
 62
7
  6
CONTINUOUS
 10
36.3676576866
 20
18.2757656537
 40
0.88125
100
AcDbArc
 50
208.2717588633
 51
222.9753754308
  0
ARC
  5
497
100
AcDbEntity
  8
0
100
AcDbCircle
 62
7
  6
CONTINUOUS
 10
36.3676576866
 20
18.2757656537
 40
0.88125
100
AcDbArc
 50
253.9228653306
 51
269.0253622743
  0
ARC
  5
498
100
AcDbEntity
  8
0
100
AcDbCircle
 62
7
  6
CONTINUOUS
 10
71.0273147208
 20
17.4112423796
 40
0.375
100
AcDbArc
 50
270.0
 51
315.0
  0
ARC
  5
499
100
AcDbEntity
  8
0
100
AcDbCircle
 62
7
  6
CONTINUOUS
 10
35.3988795645
 20
17.7547460166
 40
0.2187492963
100
AcDbArc
 50
28.2721932906
 51
68.773839652
  0
ARC
  5
49A
100
AcDbEntity
  8
0
100
AcDbCircle
 62
7
  6
CONTINUOUS
 10
35.7914858459
 20
17.7389395565
 40
0.0937499994
100
AcDbArc
 50
222.9753685723
 51
237.7724195966
  0
ARC
  5
49B
100
AcDbEntity
  8
0
100
AcDbCircle
 62
7
  6
CONTINUOUS
 10
36.1495741503
 20
17.5190649581
 40
0.0937499308
100
AcDbArc
 50
240.0732694195
 51
253.9231038158
  0
ENDSEC
  0
SECTION
  2
OBJECTS
  0
DICTIONARY
  5
C
100
AcDbDictionary
280
0
281
1
  3
ACAD_GROUP
350
D
  3
ACAD_MLINESTYLE
350
17
  3
ACAD_LAYOUT
350
1A
  3
ACAD_PLOTSETTINGS
350
19
  3
ACAD_PLOTSTYLENAME
350
E
  0
DICTIONARY
  5
D
102
{ACAD_REACTORS
330
C
102
}
100
AcDbDictionary
280
0
281
1
  0
ACDBDICTIONARYWDFLT
  5
E
102
{ACAD_REACTORS
330
C
102
}
100
AcDbDictionary
281
1
  3
Normal
350
F
100
AcDbDictionaryWithDefault
340
F
  0
DICTIONARY
  5
17
102
{ACAD_REACTORS
330
C
102
}
100
AcDbDictionary
280
0
281
1
  3
Standard
350
18
  0
DICTIONARY
  5
19
102
{ACAD_REACTORS
330
C
102
}
100
AcDbDictionary
281
1
  0
DICTIONARY
  5
1A
102
{ACAD_REACTORS
330
C
102
}
100
AcDbDictionary
281
1
  3
Model
350
49C
  3
Layout1
350
49D
  0
ACDBPLACEHOLDER
  5
F
102
{ACAD_REACTORS
330
E
102
}
  0
MLINESTYLE
  5
18
102
{ACAD_REACTORS
330
17
102
}
100
AcDbMlineStyle
  2
STANDARD
 70
0
  3

 62
256
 51
90.0
 52
90.0
 71
2
 49
0.5
 62
256
  6
BYLAYER
 49
-0.5
 62
256
  6
BYLAYER
  0
LAYOUT
  5
49C
102
{ACAD_REACTORS
330
1A
102
}
100
AcDbPlotSettings
  1

  2
none_device
  4
ANSI_B_(17.00_x_11.00_Inches)
  6

 40
0.0
 41
0.0
 42
0.0
 43
0.0
 44
431.8
 45
279.4
 46
0.0
 47
0.0
 48
0.0
 49
0.0
140
0.0
141
0.0
142
1.0
143
1.0
 70
1024
 72
0
 73
0
 74
0
  7

 75
0
147
1.0
148
0.0
149
0.0
100
AcDbLayout
  1
Model
 70
0
 71
0
 10
0.0
 20
0.0
 11
17.0
 21
11.0
 12
0.0
 22
0.0
 32
0.0
 14
0.0
 24
0.0
 34
0.0
 15
0.0
 25
0.0
 35
0.0
146
0.0
 13
0.0
 23
0.0
 33
0.0
 16
1.0
 26
0.0
 36
0.0
 17
0.0
 27
1.0
 37
0.0
 76
0
330
218
345
0
346
0
  0
LAYOUT
  5
49D
102
{ACAD_REACTORS
330
1A
102
}
100
AcDbPlotSettings
  1

  2
none_device
  4
ANSI_B_(17.00_x_11.00_Inches)
  6

 40
0.0
 41
0.0
 42
0.0
 43
0.0
 44
431.8
 45
279.4
 46
0.0
 47
0.0
 48
0.0
 49
0.0
140
0.0
141
0.0
142
1.0
143
1.0
 70
0
 72
0
 73
0
 74
0
  7

 75
0
147
1.0
148
0.0
149
0.0
100
AcDbLayout
  1
Layout1
 70
0
 71
1
 10
0.0
 20
0.0
 11
17.0
 21
11.0
 12
0.0
 22
0.0
 32
0.0
 14
0.0
 24
0.0
 34
0.0
 15
0.0
 25
0.0
 35
0.0
146
0.0
 13
0.0
 23
0.0
 33
0.0
 16
1.0
 26
0.0
 36
0.0
 17
0.0
 27
1.0
 37
0.0
 76
0
330
219
345
0
346
0
  0
ENDSEC
  0
EOF
