  0
SECTION
  2
HEADER
  9
$ACADVER
  1
AC1015
  9
$DWGCODEPAGE
  3
ANSI_1252
  9
$EXTMAX
 10
17.0
 20
11.0
 30
0.0
  9
$EXTMIN
 10
0.0
 20
0.0
 30
0.0
  9
$LIMMIN
 10
0.0
 20
0.0
  9
$LIMMAX
 10
17.0
 20
11.0
  9
$VIEWCTR
 10
8.5
 20
5.5
  9
$VIEWSIZE
 40
11.0
  9
$CLAYER
  8
0
  9
$LTSCALE
 40
0.935
  9
$CELTYPE
  6
BYLAYER
  9
$DIMSCALE
 40
1.0
  9
$DIMASZ
 40
0.1875
  9
$DIMEXO
 40
0.10625
  9
$DIMDLI
 40
0.646
  9
$DIMEXE
 40
0.306
  9
$DIMCEN
 40
0.153
  9
$DIMLFAC
 40
1.0
  9
$DIMBLK
  1
_FILLED
  9
$DIMTXT
 40
0.125
  9
$DIMTOL
 70
0
  9
$DIMLIM
 70
0
  9
$DIMTFAC
 40
1.0
  9
$PDMODE
 70
3
  9
$PDSIZE
 40
0.03125
  9
$HANDSEED
  5
499
  9
$TILEMODE
 70
1
  9
$MEASUREMENT
 70
0
  9
$INSUNITS
 70
1
  0
ENDSEC
  0
SECTION
  2
CLASSES
  0
CLASS
  1
ACDBDICTIONARYWDFLT
  2
AcDbDictionaryWithDefault
  3
AutoCAD 2000
 90
0
280
0
281
0
  0
CLASS
  1
ACDBPLACEHOLDER
  2
AcDbPlaceHolder
  3
AutoCAD 2000
 90
0
280
0
281
0
  0
CLASS
  1
LAYOUT
  2
AcDbLayout
  3
AutoCAD 2000
 90
0
280
0
281
0
  0
ENDSEC
  0
SECTION
  2
TABLES
  0
TABLE
  2
VPORT
  5
8
100
AcDbSymbolTable
 70
2
  0
VPORT
  5
1F4
100
AcDbSymbolTableRecord
100
AcDbViewportTableRecord
  2
*ACTIVE
 70
0
 10
0.0
 20
0.0
 11
1.0
 21
1.0
 12
8.5
 22
5.5
 13
0.0
 23
0.0
 14
1.0
 24
1.0
 15
0.0
 25
0.0
 16
0.0
 26
0.0
 36
1.0
 17
0.0
 27
0.0
 37
0.0
 40
11.0
 41
1.5454545455
 42
50.0
 43
0.0
 44
0.0
 50
0.0
 51
0.0
 71
0
 72
100
 73
1
 74
1
 75
0
 76
0
 77
0
 78
0
  0
ENDTAB
  0
TABLE
  2
LTYPE
  5
5
100
AcDbSymbolTable
 70
6
  0
LTYPE
  5
14
100
AcDbSymbolTableRecord
100
AcDbLinetypeTableRecord
  2
BYBLOCK
 70
0
  3

 72
65
 73
0
 40
0.0
  0
LTYPE
  5
15
100
AcDbSymbolTableRecord
100
AcDbLinetypeTableRecord
  2
BYLAYER
 70
0
  3

 72
65
 73
0
 40
0.0
  0
LTYPE
  5
16
100
AcDbSymbolTableRecord
100
AcDbLinetypeTableRecord
  2
CONTINUOUS
 70
64
  3
Solid line
 72
65
 73
0
 40
0.0
  0
LTYPE
  5
1F5
100
AcDbSymbolTableRecord
100
AcDbLinetypeTableRecord
  2
CENTER
 70
64
  3
____ _ ____ _ ____ _ ____ _ ____ _ ____ _ ____
 72
65
 73
4
 40
0.6
 49
0.375
 74
0
 49
-0.075
 74
0
 49
0.075
 74
0
 49
-0.075
 74
0
  0
LTYPE
  5
1F6
100
AcDbSymbolTableRecord
100
AcDbLinetypeTableRecord
  2
HIDDEN
 70
64
  3
- - - - - - - - - - - - - - - - - - - -
 72
65
 73
2
 40
0.2
 49
0.1
 74
0
 49
-0.1
 74
0
  0
LTYPE
  5
1F7
100
AcDbSymbolTableRecord
100
AcDbLinetypeTableRecord
  2
PHANTOM
 70
64
  3
_____ _ _ _____ _ _ _____ _ _ _____
 72
65
 73
6
 40
0.8
 49
0.45
 74
0
 49
-0.05
 74
0
 49
0.1
 74
0
 49
-0.05
 74
0
 49
0.1
 74
0
 49
-0.05
 74
0
  0
LTYPE
  5
1F8
100
AcDbSymbolTableRecord
100
AcDbLinetypeTableRecord
  2
DOT
 70
64
  3
. . . . . . . . . . . . . . . . . . . .
 72
65
 73
2
 40
0.2
 49
0.1
 74
0
 49
-0.1
 74
0
  0
LTYPE
  5
1F9
100
AcDbSymbolTableRecord
100
AcDbLinetypeTableRecord
  2
DASHED
 70
64
  3
- - - - - - - - - - - - - - - - - - - -
 72
65
 73
2
 40
0.2
 49
0.1
 74
0
 49
-0.1
 74
0
  0
ENDTAB
  0
TABLE
  2
LAYER
  5
2
100
AcDbSymbolTable
 70
36
  0
LAYER
  5
10
100
AcDbSymbolTableRecord
100
AcDbLayerTableRecord
  2
0
 70
0
 62
7
  6
CONTINUOUS
370
-3
390
F
  0
LAYER
  5
1FA
100
AcDbSymbolTableRecord
100
AcDbLayerTableRecord
  2
DEFAULT_1
 70
0
 62
7
  6
CENTER
370
-3
390
F
  0
LAYER
  5
1FB
100
AcDbSymbolTableRecord
100
AcDbLayerTableRecord
  2
DEFAULT_2
 70
0
 62
8
  6
HIDDEN
370
-3
390
F
  0
LAYER
  5
1FC
100
AcDbSymbolTableRecord
100
AcDbLayerTableRecord
  2
DEFAULT_3
 70
0
 62
7
  6
PHANTOM
370
-3
390
F
  0
LAYER
  5
1FD
100
AcDbSymbolTableRecord
100
AcDbLayerTableRecord
  2
1_CURVES
 70
0
 62
7
  6
CONTINUOUS
370
-3
390
F
  0
LAYER
  5
1FE
100
AcDbSymbolTableRecord
100
AcDbLayerTableRecord
  2
1_CURVES-DEGAGEMENT-COIL
 70
0
 62
7
  6
CONTINUOUS
370
-3
390
F
  0
LAYER
  5
1FF
100
AcDbSymbolTableRecord
100
AcDbLayerTableRecord
  2
1_CURVES-JETS
 70
0
 62
7
  6
CONTINUOUS
370
-3
390
F
  0
LAYER
  5
200
100
AcDbSymbolTableRecord
100
AcDbLayerTableRecord
  2
1_CURVES-TRAJECTOIRE-COIL
 70
0
 62
7
  6
CONTINUOUS
370
-3
390
F
  0
LAYER
  5
201
100
AcDbSymbolTableRecord
100
AcDbLayerTableRecord
  2
1_CURVES_CONTROLES
 70
0
 62
7
  6
CONTINUOUS
370
-3
390
F
  0
LAYER
  5
202
100
AcDbSymbolTableRecord
100
AcDbLayerTableRecord
  2
1_CURVES_IMPORT
 70
0
 62
7
  6
CONTINUOUS
370
-3
390
F
  0
LAYER
  5
203
100
AcDbSymbolTableRecord
100
AcDbLayerTableRecord
  2
1_CURVES_JETS
 70
0
 62
7
  6
CONTINUOUS
370
-3
390
F
  0
LAYER
  5
204
100
AcDbSymbolTableRecord
100
AcDbLayerTableRecord
  2
2_PLANES
 70
0
 62
7
  6
CONTINUOUS
370
-3
390
F
  0
LAYER
  5
205
100
AcDbSymbolTableRecord
100
AcDbLayerTableRecord
  2
2_PLANES-JETS
 70
0
 62
7
  6
CONTINUOUS
370
-3
390
F
  0
LAYER
  5
206
100
AcDbSymbolTableRecord
100
AcDbLayerTableRecord
  2
3_POINTS
 70
0
 62
7
  6
CONTINUOUS
370
-3
390
F
  0
LAYER
  5
207
100
AcDbSymbolTableRecord
100
AcDbLayerTableRecord
  2
3_POINTS-JETS
 70
0
 62
7
  6
CONTINUOUS
370
-3
390
F
  0
LAYER
  5
208
100
AcDbSymbolTableRecord
100
AcDbLayerTableRecord
  2
4_CSYS
 70
0
 62
7
  6
CONTINUOUS
370
-3
390
F
  0
LAYER
  5
209
100
AcDbSymbolTableRecord
100
AcDbLayerTableRecord
  2
5_AXIS
 70
0
 62
7
  6
CONTINUOUS
370
-3
390
F
  0
LAYER
  5
20A
100
AcDbSymbolTableRecord
100
AcDbLayerTableRecord
  2
6_SURFACES
 70
0
 62
7
  6
CONTINUOUS
370
-3
390
F
  0
LAYER
  5
20B
100
AcDbSymbolTableRecord
100
AcDbLayerTableRecord
  2
6_SURFACES-OFFSET-FIBRE-ACRYLIQ
 70
0
 62
7
  6
CONTINUOUS
370
-3
390
F
  0
LAYER
  5
20C
100
AcDbSymbolTableRecord
100
AcDbLayerTableRecord
  2
6_SURFACES-POUR-CADRES
 70
0
 62
7
  6
CONTINUOUS
370
-3
390
F
  0
LAYER
  5
20D
100
AcDbSymbolTableRecord
100
AcDbLayerTableRecord
  2
6_SURFACES-TOOLING
 70
0
 62
7
  6
CONTINUOUS
370
-3
390
F
  0
LAYER
  5
20E
100
AcDbSymbolTableRecord
100
AcDbLayerTableRecord
  2
6_SURFACES_AIRE
 70
0
 62
7
  6
CONTINUOUS
370
-3
390
F
  0
LAYER
  5
20F
100
AcDbSymbolTableRecord
100
AcDbLayerTableRecord
  2
6_SURFACES_OFFSET_CONDUIT
 70
0
 62
7
  6
CONTINUOUS
370
-3
390
F
  0
LAYER
  5
210
100
AcDbSymbolTableRecord
100
AcDbLayerTableRecord
  2
6_SURFACES_OFFSET_CONDUIT-PREPA
 70
0
 62
7
  6
CONTINUOUS
370
-3
390
F
  0
LAYER
  5
211
100
AcDbSymbolTableRecord
100
AcDbLayerTableRecord
  2
6_SURFACES_OFFSET_FIBRE
 70
0
 62
7
  6
CONTINUOUS
370
-3
390
F
  0
LAYER
  5
212
100
AcDbSymbolTableRecord
100
AcDbLayerTableRecord
  2
6_SURFACES_TOOLING
 70
0
 62
7
  6
CONTINUOUS
370
-3
390
F
  0
LAYER
  5
213
100
AcDbSymbolTableRecord
100
AcDbLayerTableRecord
  2
7_NOTES
 70
0
 62
7
  6
CONTINUOUS
370
-3
390
F
  0
LAYER
  5
214
100
AcDbSymbolTableRecord
100
AcDbLayerTableRecord
  2
8_ZONE-ROBINETERIE
 70
0
 62
7
  6
CONTINUOUS
370
-3
390
F
  0
LAYER
  5
215
100
AcDbSymbolTableRecord
100
AcDbLayerTableRecord
  2
XSEC_DATUMS
 70
0
 62
7
  6
CONTINUOUS
370
-3
390
F
  0
ENDTAB
  0
TABLE
  2
STYLE
  5
3
100
AcDbSymbolTable
 70
1
  0
STYLE
  5
11
100
AcDbSymbolTableRecord
100
AcDbTextStyleTableRecord
  2
STANDARD
 70
0
 40
0.0
 41
0.8
 50
0.0
 71
0
 42
0.2
  3
txt
  4

  0
STYLE
  5
216
100
AcDbSymbolTableRecord
100
AcDbTextStyleTableRecord
  2
TEXTSTYLE_1
 70
0
 40
0.0
 41
0.8
 50
0.0
 71
0
 42
0.2
  3
gdt
  4

  0
ENDTAB
  0
TABLE
  2
VIEW
  5
6
100
AcDbSymbolTable
 70
0
  0
ENDTAB
  0
TABLE
  2
UCS
  5
7
100
AcDbSymbolTable
 70
0
  0
ENDTAB
  0
TABLE
  2
APPID
  5
9
100
AcDbSymbolTable
 70
1
  0
APPID
  5
217
100
AcDbSymbolTableRecord
100
AcDbRegAppTableRecord
  2
ACAD
 70
0
  0
ENDTAB
  0
TABLE
  2
BLOCK_RECORD
  5
1
100
AcDbSymbolTable
 70
0
  0
BLOCK_RECORD
  5
218
100
AcDbSymbolTableRecord
100
AcDbBlockTableRecord
  2
*Model_Space
  0
BLOCK_RECORD
  5
219
100
AcDbSymbolTableRecord
100
AcDbBlockTableRecord
  2
*Paper_Space
  0
ENDTAB
  0
TABLE
  2
DIMSTYLE
  5
A
100
AcDbSymbolTable
 70
1
100
AcDbDimStyleTable
 71
0
  0
DIMSTYLE
105
21A
100
AcDbSymbolTableRecord
100
AcDbDimStyleTableRecord
  2
STANDARD
 70
0
  3

  4

 40
1.0
 41
0.1875
 42
0.0625
 43
0.38
 44
0.18
 45
0.0
 46
0.0
 47
0.00001
 48
0.00001
140
0.125
141
0.09
142
0.0
143
25.4
144
1.0
145
0.0
146
1.0
147
0.09
 71
0.0
 72
0.0
 73
1
 74
1
 75
0
 76
0
 77
0
 78
4
170
0
171
2
172
0
173
0
174
0
175
0
176
0
177
0
178
0
270
2
271
5
272
5
273
2
274
2
275
0
280
0
281
0
282
0
283
1
284
4
285
0
286
0
287
3
288
0
340
11
  0
ENDTAB
  0
ENDSEC
  0
SECTION
  2
BLOCKS
  0
BLOCK
  5
20
100
AcDbEntity
  8
0
100
AcDbBlockBegin
  2
*Model_Space
 70
0
 10
0.0
 20
0.0
 30
0.0
  3
*Model_Space
  1

  0
ENDBLK
  5
21
100
AcDbEntity
  8
0
100
AcDbBlockEnd
  0
BLOCK
  5
1C
100
AcDbEntity
  8
0
100
AcDbBlockBegin
  2
*Paper_Space
 70
0
 10
0.0
 20
0.0
 30
0.0
  3
*Paper_Space
  1

  0
ENDBLK
  5
1D
100
AcDbEntity
  8
0
100
AcDbBlockEnd
  0
ENDSEC
  0
SECTION
  2
ENTITIES
  0
LINE
  5
21B
100
AcDbEntity
  8
0
100
AcDbLine
 62
7
  6
CONTINUOUS
 10
20.9351926054
 20
36.525281612
 11
20.9501564971
 21
36.5433788711
  0
LINE
  5
21C
100
AcDbEntity
  8
0
100
AcDbLine
 62
7
  6
CONTINUOUS
 10
20.9501564971
 20
36.5433788711
 11
20.9661160064
 21
36.5603961663
  0
LINE
  5
21D
100
AcDbEntity
  8
0
100
AcDbLine
 62
7
  6
CONTINUOUS
 10
20.9661160064
 20
36.5603961663
 11
20.9830225605
 21
36.5763171033
  0
LINE
  5
21E
100
AcDbEntity
  8
0
100
AcDbLine
 62
7
  6
CONTINUOUS
 10
20.9830225605
 20
36.5763171033
 11
21.0006747888
 21
36.5909991291
  0
LINE
  5
21F
100
AcDbEntity
  8
0
100
AcDbLine
 62
7
  6
CONTINUOUS
 10
21.0006747888
 20
36.5909991291
 11
21.0193113226
 21
36.6046549905
  0
LINE
  5
220
100
AcDbEntity
  8
0
100
AcDbLine
 62
7
  6
CONTINUOUS
 10
21.0193113226
 20
36.6046549905
 11
21.0394022492
 21
36.6175252312
  0
LINE
  5
221
100
AcDbEntity
  8
0
100
AcDbLine
 62
7
  6
CONTINUOUS
 10
21.0394022492
 20
36.6175252312
 11
21.0603030633
 21
36.6291082324
  0
LINE
  5
222
100
AcDbEntity
  8
0
100
AcDbLine
 62
7
  6
CONTINUOUS
 10
21.0603030633
 20
36.6291082324
 11
21.0811578243
 21
36.6390129869
  0
LINE
  5
223
100
AcDbEntity
  8
0
100
AcDbLine
 62
7
  6
CONTINUOUS
 10
21.0811578243
 20
36.6390129869
 11
21.1026581736
 21
36.6476433064
  0
LINE
  5
224
100
AcDbEntity
  8
0
100
AcDbLine
 62
7
  6
CONTINUOUS
 10
21.1026581736
 20
36.6476433064
 11
21.1255757508
 21
36.6552033362
  0
LINE
  5
225
100
AcDbEntity
  8
0
100
AcDbLine
 62
7
  6
CONTINUOUS
 10
20.9213919113
 20
36.5062849659
 11
20.9351926054
 21
36.525281612
  0
LINE
  5
226
100
AcDbEntity
  8
0
100
AcDbLine
 62
7
  6
CONTINUOUS
 10
20.9088894644
 20
36.4866008837
 11
20.9213919113
 21
36.5062849659
  0
LINE
  5
227
100
AcDbEntity
  8
0
100
AcDbLine
 62
7
  6
CONTINUOUS
 10
73.2982986143
 20
17.7425315785
 11
73.3117240036
 21
17.7463154155
  0
LINE
  5
228
100
AcDbEntity
  8
0
100
AcDbLine
 62
7
  6
CONTINUOUS
 10
73.2850124707
 20
17.7388603931
 11
73.299302659
 21
17.7428119742
  0
LINE
  5
229
100
AcDbEntity
  8
0
100
AcDbLine
 62
7
  6
CONTINUOUS
 10
69.4876575012
 20
16.3087904313
 11
69.5280455836
 21
16.3196985389
  0
LINE
  5
22A
100
AcDbEntity
  8
0
100
AcDbLine
 62
7
  6
CONTINUOUS
 10
73.2722812313
 20
17.7354105846
 11
73.2861611276
 21
17.7391749152
  0
LINE
  5
22B
100
AcDbEntity
  8
0
100
AcDbLine
 62
7
  6
CONTINUOUS
 10
73.2610717752
 20
17.733090422
 11
73.3287523665
 21
17.7514455099
  0
LINE
  5
22C
100
AcDbEntity
  8
0
100
AcDbLine
 62
7
  6
CONTINUOUS
 10
73.2597048206
 20
17.7320677926
 11
73.2745652305
 21
17.736024601
  0
LINE
  5
22D
100
AcDbEntity
  8
0
100
AcDbLine
 62
7
  6
CONTINUOUS
 10
20.8976315854
 20
36.4661718251
 11
20.9088894644
 21
36.4866008837
  0
LINE
  5
22E
100
AcDbEntity
  8
0
100
AcDbLine
 62
7
  6
CONTINUOUS
 10
73.2477902635
 20
17.7289604053
 11
73.2611795937
 21
17.7324564442
  0
LINE
  5
22F
100
AcDbEntity
  8
0
100
AcDbLine
 62
7
  6
CONTINUOUS
 10
73.2352394991
 20
17.7257494873
 11
73.2494270112
 21
17.7293838561
  0
LINE
  5
230
100
AcDbEntity
  8
0
100
AcDbLine
 62
7
  6
CONTINUOUS
 10
73.2220665648
 20
17.7224480024
 11
73.2370443447
 21
17.7262072964
  0
LINE
  5
231
100
AcDbEntity
  8
0
100
AcDbLine
 62
7
  6
CONTINUOUS
 10
73.2084368718
 20
17.7191056533
 11
73.2240429637
 21
17.7229388704
  0
LINE
  5
232
100
AcDbEntity
  8
0
100
AcDbLine
 62
7
  6
CONTINUOUS
 10
73.1944682676
 20
17.7157573313
 11
73.2105549404
 21
17.7196201644
  0
LINE
  5
233
100
AcDbEntity
  8
0
100
AcDbLine
 62
7
  6
CONTINUOUS
 10
73.1928787841
 20
17.7167414873
 11
73.2610717752
 21
17.733090422
  0
LINE
  5
234
100
AcDbEntity
  8
0
100
AcDbLine
 62
7
  6
CONTINUOUS
 10
73.1825637276
 20
17.7129649665
 11
73.196730817
 21
17.7162943965
  0
LINE
  5
235
100
AcDbEntity
  8
0
100
AcDbLine
 62
7
  6
CONTINUOUS
 10
69.4477543975
 20
16.2997765878
 11
69.4876575012
 21
16.3087904313
  0
LINE
  5
236
100
AcDbEntity
  8
0
100
AcDbLine
 62
7
  6
CONTINUOUS
 10
70.6444178507
 20
17.4966052251
 11
70.6578531491
 21
17.4998151379
  0
LINE
  5
237
100
AcDbEntity
  8
0
100
AcDbLine
 62
7
  6
CONTINUOUS
 10
73.1704046311
 20
17.7101706357
 11
73.1849623616
 21
17.7135230861
  0
LINE
  5
238
100
AcDbEntity
  8
0
100
AcDbLine
 62
7
  6
CONTINUOUS
 10
73.1581627019
 20
17.7074158534
 11
73.1729231481
 21
17.7107446526
  0
LINE
  5
239
100
AcDbEntity
  8
0
100
AcDbLine
 62
7
  6
CONTINUOUS
 10
20.8876062264
 20
36.4449458297
 11
20.8976315854
 21
36.4661718251
  0
LINE
  5
23A
100
AcDbEntity
  8
0
100
AcDbLine
 62
7
  6
CONTINUOUS
 10
73.1453875283
 20
17.7046033401
 11
73.1604955579
 21
17.7079362955
  0
LINE
  5
23B
100
AcDbEntity
  8
0
100
AcDbLine
 62
7
  6
CONTINUOUS
 10
73.132949939
 20
17.7019257858
 11
73.1481569218
 21
17.7052076601
  0
LINE
  5
23C
100
AcDbEntity
  8
0
100
AcDbLine
 62
7
  6
CONTINUOUS
 10
73.1196519411
 20
17.699128675
 11
73.1351801987
 21
17.7024015326
  0
LINE
  5
23D
100
AcDbEntity
  8
0
100
AcDbLine
 62
7
  6
CONTINUOUS
 10
73.1242328449
 20
17.702412959
 11
73.1928787841
 21
17.7167414873
  0
LINE
  5
23E
100
AcDbEntity
  8
0
100
AcDbLine
 62
7
  6
CONTINUOUS
 10
73.1070224952
 20
17.6965345536
 11
73.1226699491
 21
17.699757558
  0
LINE
  5
23F
100
AcDbEntity
  8
0
100
AcDbLine
 62
7
  6
CONTINUOUS
 10
73.0931438238
 20
17.6937533769
 11
73.1091464251
 21
17.6969665842
  0
LINE
  5
240
100
AcDbEntity
  8
0
100
AcDbLine
 62
7
  6
CONTINUOUS
 10
20.8788791907
 20
36.4229976571
 11
20.8876062264
 21
36.4449458297
  0
LINE
  5
241
100
AcDbEntity
  8
0
100
AcDbLine
 62
7
  6
CONTINUOUS
 10
70.6578531491
 20
17.4998151379
 11
70.6649263766
 21
17.5012154089
  0
LINE
  5
242
100
AcDbEntity
  8
0
100
AcDbLine
 62
7
  6
CONTINUOUS
 10
73.0802585838
 20
17.6912359918
 11
73.0964323914
 21
17.6944058259
  0
LINE
  5
243
100
AcDbEntity
  8
0
100
AcDbLine
 62
7
  6
CONTINUOUS
 10
73.0656373177
 20
17.6884544087
 11
73.0822816146
 21
17.6916271238
  0
LINE
  5
244
100
AcDbEntity
  8
0
100
AcDbLine
 62
7
  6
CONTINUOUS
 10
69.4085121146
 20
16.2925788941
 11
69.4477543975
 21
16.2997765878
  0
LINE
  5
245
100
AcDbEntity
  8
0
100
AcDbLine
 62
7
  6
CONTINUOUS
 10
73.0523788329
 20
17.6860005577
 11
73.0692480345
 21
17.6891339364
  0
LINE
  5
246
100
AcDbEntity
  8
0
100
AcDbLine
 62
7
  6
CONTINUOUS
 10
73.0369343263
 20
17.683223709
 11
73.0543025561
 21
17.6863525728
  0
LINE
  5
247
100
AcDbEntity
  8
0
100
AcDbLine
 62
7
  6
CONTINUOUS
 10
73.055193804
 20
17.6901173289
 11
73.1242328449
 21
17.702412959
  0
LINE
  5
248
100
AcDbEntity
  8
0
100
AcDbLine
 62
7
  6
CONTINUOUS
 10
73.023294228
 20
17.6808438452
 11
73.0408923949
 21
17.6839270141
  0
LINE
  5
249
100
AcDbEntity
  8
0
100
AcDbLine
 62
7
  6
CONTINUOUS
 10
70.6649263766
 20
17.5012154089
 11
70.6661124239
 21
17.5014202996
  0
LINE
  5
24A
100
AcDbEntity
  8
0
100
AcDbLine
 62
7
  6
CONTINUOUS
 10
73.0070006893
 20
17.6780896429
 11
73.0251066462
 21
17.6811561624
  0
LINE
  5
24B
100
AcDbEntity
  8
0
100
AcDbLine
 62
7
  6
CONTINUOUS
 10
72.993009164
 20
17.6758010641
 11
73.0113211224
 21
17.6788105899
  0
LINE
  5
24C
100
AcDbEntity
  8
0
100
AcDbLine
 62
7
  6
CONTINUOUS
 10
20.8714868726
 20
36.400322962
 11
20.8788791907
 21
36.4229976571
  0
LINE
  5
24D
100
AcDbEntity
  8
0
100
AcDbLine
 62
7
  6
CONTINUOUS
 10
72.9805605382
 20
17.6738239112
 11
72.9946921816
 21
17.6760726282
  0
LINE
  5
24E
100
AcDbEntity
  8
0
100
AcDbLine
 62
7
  6
CONTINUOUS
 10
72.967912443
 20
17.6718717182
 11
72.9821887034
 21
17.6740793524
  0
LINE
  5
24F
100
AcDbEntity
  8
0
100
AcDbLine
 62
7
  6
CONTINUOUS
 10
69.3705892278
 20
16.287186516
 11
69.4085121146
 21
16.2925788941
  0
LINE
  5
250
100
AcDbEntity
  8
0
100
AcDbLine
 62
7
  6
CONTINUOUS
 10
72.9550597948
 20
17.6699461321
 11
72.9694851121
 21
17.6721113523
  0
LINE
  5
251
100
AcDbEntity
  8
0
100
AcDbLine
 62
7
  6
CONTINUOUS
 10
72.9858218504
 20
17.6798653166
 11
73.055193804
 21
17.6901173289
  0
LINE
  5
252
100
AcDbEntity
  8
0
100
AcDbLine
 62
7
  6
CONTINUOUS
 10
70.8265754932
 20
17.5081473516
 11
70.7835560333
 21
17.5018184172
  0
LINE
  5
253
100
AcDbEntity
  8
0
100
AcDbLine
 62
7
  6
CONTINUOUS
 10
72.9421961877
 20
17.6680772642
 11
72.9565659722
 21
17.6701687566
  0
LINE
  5
254
100
AcDbEntity
  8
0
100
AcDbLine
 62
7
  6
CONTINUOUS
 10
72.9245241562
 20
17.6656037232
 11
72.9436019873
 21
17.668278673
  0
LINE
  5
255
100
AcDbEntity
  8
0
100
AcDbLine
 62
7
  6
CONTINUOUS
 10
72.9109410444
 20
17.6637751295
 11
72.9295375546
 21
17.6662944997
  0
LINE
  5
256
100
AcDbEntity
  8
0
100
AcDbLine
 62
7
  6
CONTINUOUS
 10
72.8927015161
 20
17.6614170195
 11
72.9120715199
 21
17.6639249672
  0
LINE
  5
257
100
AcDbEntity
  8
0
100
AcDbLine
 62
7
  6
CONTINUOUS
 10
72.8796297692
 20
17.6597949738
 11
72.8937400136
 21
17.6615483946
  0
LINE
  5
258
100
AcDbEntity
  8
0
100
AcDbLine
 62
7
  6
CONTINUOUS
 10
20.8654937175
 20
36.3769680323
 11
20.8714868726
 21
36.400322962
  0
LINE
  5
259
100
AcDbEntity
  8
0
100
AcDbLine
 62
7
  6
CONTINUOUS
 10
72.8648368894
 20
17.6580293141
 11
72.8807368245
 21
17.6599301677
  0
LINE
  5
25A
100
AcDbEntity
  8
0
100
AcDbLine
 62
7
  6
CONTINUOUS
 10
72.9161774637
 20
17.67166586
 11
72.9858218504
 21
17.6798653166
  0
LINE
  5
25B
100
AcDbEntity
  8
0
100
AcDbLine
 62
7
  6
CONTINUOUS
 10
72.8483712436
 20
17.6561530942
 11
72.8659980283
 21
17.6581651555
  0
LINE
  5
25C
100
AcDbEntity
  8
0
100
AcDbLine
 62
7
  6
CONTINUOUS
 10
69.3332773733
 20
16.2833846401
 11
69.3705892278
 21
16.287186516
  0
LINE
  5
25D
100
AcDbEntity
  8
0
100
AcDbLine
 62
7
  6
CONTINUOUS
 10
72.8304776817
 20
17.6542221014
 11
72.8495226567
 21
17.6562810976
  0
LINE
  5
25E
100
AcDbEntity
  8
0
100
AcDbLine
 62
7
  6
CONTINUOUS
 10
70.6244142703
 20
17.4907603787
 11
70.6444178507
 21
17.4966052251
  0
LINE
  5
25F
100
AcDbEntity
  8
0
100
AcDbLine
 62
7
  6
CONTINUOUS
 10
70.8488808101
 20
17.5146571461
 11
70.8265754932
 21
17.5081473516
  0
LINE
  5
260
100
AcDbEntity
  8
0
100
AcDbLine
 62
7
  6
CONTINUOUS
 10
73.3108564145
 20
17.7460686289
 11
73.3147147683
 21
17.7471685451
  0
LINE
  5
261
100
AcDbEntity
  8
0
100
AcDbLine
 62
7
  6
CONTINUOUS
 10
72.8123367271
 20
17.6523795305
 11
72.83149226
 21
17.6543284078
  0
LINE
  5
262
100
AcDbEntity
  8
0
100
AcDbLine
 62
7
  6
CONTINUOUS
 10
70.7835560333
 20
17.5018184172
 11
70.7221408247
 21
17.4958452175
  0
LINE
  5
263
100
AcDbEntity
  8
0
100
AcDbLine
 62
7
  6
CONTINUOUS
 10
72.7948026544
 20
17.650706969
 11
72.8131234292
 21
17.6524570156
  0
LINE
  5
264
100
AcDbEntity
  8
0
100
AcDbLine
 62
7
  6
CONTINUOUS
 10
20.8609617021
 20
36.3529409214
 11
20.8654937175
 21
36.3769680323
  0
LINE
  5
265
100
AcDbEntity
  8
0
100
AcDbLine
 62
7
  6
CONTINUOUS
 10
73.3290223433
 20
17.7513015708
 11
73.3424472367
 21
17.7552579449
  0
LINE
  5
266
100
AcDbEntity
  8
0
100
AcDbLine
 62
7
  6
CONTINUOUS
 10
73.3176574181
 20
17.7480115912
 11
73.3311157508
 21
17.7519134968
  0
LINE
  5
267
100
AcDbEntity
  8
0
100
AcDbLine
 62
7
  6
CONTINUOUS
 10
73.3138799401
 20
17.7469300312
 11
73.319784242
 21
17.7486231612
  0
LINE
  5
268
100
AcDbEntity
  8
0
100
AcDbLine
 62
7
  6
CONTINUOUS
 10
72.777600041
 20
17.6491676618
 11
72.7954579866
 21
17.6507677517
  0
LINE
  5
269
100
AcDbEntity
  8
0
100
AcDbLine
 62
7
  6
CONTINUOUS
 10
72.8463213606
 20
17.6655261075
 11
72.9161774637
 21
17.67166586
  0
LINE
  5
26A
100
AcDbEntity
  8
0
100
AcDbLine
 62
7
  6
CONTINUOUS
 10
73.3287523665
 20
17.7514455099
 11
73.3958615533
 21
17.7717907489
  0
LINE
  5
26B
100
AcDbEntity
  8
0
100
AcDbLine
 62
7
  6
CONTINUOUS
 10
73.3418884354
 20
17.7550917413
 11
73.3549537073
 21
17.7590125414
  0
LINE
  5
26C
100
AcDbEntity
  8
0
100
AcDbLine
 62
7
  6
CONTINUOUS
 10
36.7953486958
 20
17.9662203538
 11
36.798987099
 21
17.9669259733
  0
LINE
  5
26D
100
AcDbEntity
  8
0
100
AcDbLine
 62
7
  6
CONTINUOUS
 10
72.7604961953
 20
17.6477354353
 11
72.7782956406
 21
17.6492282112
  0
LINE
  5
26E
100
AcDbEntity
  8
0
100
AcDbLine
 62
7
  6
CONTINUOUS
 10
72.7435787833
 20
17.6464140043
 11
72.7612238801
 21
17.6477943775
  0
LINE
  5
26F
100
AcDbEntity
  8
0
100
AcDbLine
 62
7
  6
CONTINUOUS
 10
69.2984127739
 20
16.281156555
 11
69.3332773733
 21
16.2833846401
  0
LINE
  5
270
100
AcDbEntity
  8
0
100
AcDbLine
 62
7
  6
CONTINUOUS
 10
73.3638959498
 20
17.7617381811
 11
73.3769264191
 21
17.7657717149
  0
LINE
  5
271
100
AcDbEntity
  8
0
100
AcDbLine
 62
7
  6
CONTINUOUS
 10
73.3545156215
 20
17.758879893
 11
73.3664681231
 21
17.7625285684
  0
LINE
  5
272
100
AcDbEntity
  8
0
100
AcDbLine
 62
7
  6
CONTINUOUS
 10
72.7120720868
 20
17.6441446216
 11
72.7440438247
 21
17.6464487452
  0
LINE
  5
273
100
AcDbEntity
  8
0
100
AcDbLine
 62
7
  6
CONTINUOUS
 10
70.7221408247
 20
17.4958452175
 11
70.6432976358
 21
17.490335202
  0
LINE
  5
274
100
AcDbEntity
  8
0
100
AcDbLine
 62
7
  6
CONTINUOUS
 10
72.6533414668
 20
17.6400405684
 11
72.7120720868
 21
17.6441446216
  0
LINE
  5
275
100
AcDbEntity
  8
0
100
AcDbLine
 62
7
  6
CONTINUOUS
 10
80.6538540197
 20
36.3272686008
 11
80.7558681114
 21
35.1612423455
  0
LINE
  5
276
100
AcDbEntity
  8
0
100
AcDbLine
 62
7
  6
CONTINUOUS
 10
75.0035665173
 20
19.6928521347
 11
75.0035494172
 21
19.6936554864
  0
LINE
  5
277
100
AcDbEntity
  8
0
100
AcDbLine
 62
7
  6
CONTINUOUS
 10
70.8524916732
 20
17.518488153
 11
70.8523223693
 21
17.5497170457
  0
LINE
  5
278
100
AcDbEntity
  8
DEFAULT_1
100
AcDbLine
 62
7
  6
CENTER
 10
69.7558681114
 20
18.9412423455
 11
69.7558681114
 21
15.8812423455
  0
LINE
  5
279
100
AcDbEntity
  8
0
100
AcDbLine
 62
7
  6
CONTINUOUS
 10
36.7954731923
 20
17.9974720386
 11
36.7949693629
 21
17.966226466
  0
LINE
  5
27A
100
AcDbEntity
  8
0
100
AcDbLine
 62
7
  6
CONTINUOUS
 10
35.1880106745
 20
18.0083734293
 11
35.1874788386
 21
17.9771279552
  0
LINE
  5
27B
100
AcDbEntity
  8
0
100
AcDbLine
 62
7
  6
CONTINUOUS
 10
75.0035494172
 20
19.6936554864
 11
75.0035774395
 21
19.6947733862
  0
LINE
  5
27C
100
AcDbEntity
  8
0
100
AcDbLine
 62
7
  6
CONTINUOUS
 10
75.0035774395
 20
19.6947733862
 11
75.0036500202
 21
19.6961999349
  0
LINE
  5
27D
100
AcDbEntity
  8
0
100
AcDbLine
 62
7
  6
CONTINUOUS
 10
75.0036500202
 20
19.6961999349
 11
75.003767185
 21
19.697930882
  0
LINE
  5
27E
100
AcDbEntity
  8
0
100
AcDbLine
 62
7
  6
CONTINUOUS
 10
20.8579608397
 20
36.3281675703
 11
20.7558681114
 21
35.1612423455
  0
LINE
  5
27F
100
AcDbEntity
  8
0
100
AcDbLine
 62
7
  6
CONTINUOUS
 10
20.8579608397
 20
36.3281675703
 11
20.8609617021
 21
36.3529409214
  0
LINE
  5
280
100
AcDbEntity
  8
0
100
AcDbLine
 62
7
  6
CONTINUOUS
 10
76.7488420476
 20
31.9679023763
 11
76.7663261382
 21
32.1119384229
  0
LINE
  5
281
100
AcDbEntity
  8
0
100
AcDbLine
 62
7
  6
CONTINUOUS
 10
76.7663261382
 20
32.1119384229
 11
76.7832561036
 21
32.2486521629
  0
LINE
  5
282
100
AcDbEntity
  8
0
100
AcDbLine
 62
7
  6
CONTINUOUS
 10
76.7832561036
 20
32.2486521629
 11
76.800435911
 21
32.3847744519
  0
LINE
  5
283
100
AcDbEntity
  8
0
100
AcDbLine
 62
7
  6
CONTINUOUS
 10
76.800435911
 20
32.3847744519
 11
76.8205819348
 21
32.5412446847
  0
LINE
  5
284
100
AcDbEntity
  8
0
100
AcDbLine
 62
7
  6
CONTINUOUS
 10
76.8205819348
 20
32.5412446847
 11
76.8374752318
 21
32.6699720125
  0
LINE
  5
285
100
AcDbEntity
  8
0
100
AcDbLine
 62
7
  6
CONTINUOUS
 10
76.8374752318
 20
32.6699720125
 11
76.8557445972
 21
32.8067770562
  0
LINE
  5
286
100
AcDbEntity
  8
0
100
AcDbLine
 62
7
  6
CONTINUOUS
 10
76.8557445972
 20
32.8067770562
 11
76.8751855774
 21
32.9497543698
  0
LINE
  5
287
100
AcDbEntity
  8
0
100
AcDbLine
 62
7
  6
CONTINUOUS
 10
76.8751855774
 20
32.9497543698
 11
76.8954825476
 21
33.0963158151
  0
LINE
  5
288
100
AcDbEntity
  8
0
100
AcDbLine
 62
7
  6
CONTINUOUS
 10
75.0250417717
 20
19.7024285078
 11
76.7488420476
 21
31.9679023763
  0
LINE
  5
289
100
AcDbEntity
  8
0
100
AcDbLine
 62
7
  6
CONTINUOUS
 10
77.0793781624
 20
34.3197890395
 11
77.1976367124
 21
35.1612423455
  0
LINE
  5
28A
100
AcDbEntity
  8
0
100
AcDbLine
 62
7
  6
CONTINUOUS
 10
76.8954825476
 20
33.0963158151
 11
76.9160429866
 21
33.2421160783
  0
LINE
  5
28B
100
AcDbEntity
  8
0
100
AcDbLine
 62
7
  6
CONTINUOUS
 10
76.9160429866
 20
33.2421160783
 11
76.9367051185
 21
33.3860753073
  0
LINE
  5
28C
100
AcDbEntity
  8
0
100
AcDbLine
 62
7
  6
CONTINUOUS
 10
76.9367051185
 20
33.3860753073
 11
76.9572179396
 21
33.5265897262
  0
LINE
  5
28D
100
AcDbEntity
  8
0
100
AcDbLine
 62
7
  6
CONTINUOUS
 10
75.0208197091
 20
19.6737674513
 11
75.0250417717
 21
19.7024285078
  0
LINE
  5
28E
100
AcDbEntity
  8
0
100
AcDbLine
 62
7
  6
CONTINUOUS
 10
76.9572179396
 20
33.5265897262
 11
76.977183046
 21
33.6611643707
  0
LINE
  5
28F
100
AcDbEntity
  8
0
100
AcDbLine
 62
7
  6
CONTINUOUS
 10
76.977183046
 20
33.6611643707
 11
77.002347107
 21
33.8278710741
  0
LINE
  5
290
100
AcDbEntity
  8
0
100
AcDbLine
 62
7
  6
CONTINUOUS
 10
77.002347107
 20
33.8278710741
 11
77.0250946164
 21
33.9759205109
  0
LINE
  5
291
100
AcDbEntity
  8
0
100
AcDbLine
 62
7
  6
CONTINUOUS
 10
75.0144345025
 20
19.6343902247
 11
75.0250248766
 21
19.7023087779
  0
LINE
  5
292
100
AcDbEntity
  8
0
100
AcDbLine
 62
7
  6
CONTINUOUS
 10
77.0250946164
 20
33.9759205109
 11
77.0489567765
 21
34.1286646984
  0
LINE
  5
293
100
AcDbEntity
  8
0
100
AcDbLine
 62
7
  6
CONTINUOUS
 10
77.0489567765
 20
34.1286646984
 11
77.073614281
 21
34.2838797686
  0
LINE
  5
294
100
AcDbEntity
  8
0
100
AcDbLine
 62
7
  6
CONTINUOUS
 10
75.0156658678
 20
19.6416683566
 11
75.0209298171
 21
19.6745149085
  0
LINE
  5
295
100
AcDbEntity
  8
0
100
AcDbLine
 62
7
  6
CONTINUOUS
 10
77.073614281
 20
34.2838797686
 11
77.0793781624
 21
34.3197890395
  0
LINE
  5
296
100
AcDbEntity
  8
0
100
AcDbLine
 62
7
  6
CONTINUOUS
 10
75.0101109108
 20
19.6098507985
 11
75.0159339085
 21
19.6432711137
  0
LINE
  5
297
100
AcDbEntity
  8
0
100
AcDbLine
 62
7
  6
CONTINUOUS
 10
75.0016097892
 20
19.5654475063
 11
75.0144345025
 21
19.6343902247
  0
LINE
  5
298
100
AcDbEntity
  8
0
100
AcDbLine
 62
7
  6
CONTINUOUS
 10
75.0041645077
 20
19.5783199306
 11
75.0104351331
 21
19.611640027
  0
LINE
  5
299
100
AcDbEntity
  8
0
100
AcDbLine
 62
7
  6
CONTINUOUS
 10
74.9978363503
 20
19.5470806645
 11
75.0045493596
 21
19.5802919605
  0
LINE
  5
29A
100
AcDbEntity
  8
0
100
AcDbLine
 62
7
  6
CONTINUOUS
 10
75.0054078459
 20
19.6983179165
 11
75.0050122571
 21
19.6964269131
  0
LINE
  5
29B
100
AcDbEntity
  8
0
100
AcDbLine
 62
7
  6
CONTINUOUS
 10
74.9911361467
 20
19.5161376728
 11
74.9982860998
 21
19.5492317221
  0
LINE
  5
29C
100
AcDbEntity
  8
0
100
AcDbLine
 62
7
  6
CONTINUOUS
 10
74.986755252
 20
19.4969134679
 11
75.0016097892
 21
19.5654475063
  0
LINE
  5
29D
100
AcDbEntity
  8
0
100
AcDbLine
 62
7
  6
CONTINUOUS
 10
75.0050122571
 20
19.6964269131
 11
75.0046628704
 21
19.6948858335
  0
LINE
  5
29E
100
AcDbEntity
  8
0
100
AcDbLine
 62
7
  6
CONTINUOUS
 10
74.9840736161
 20
19.4854953913
 11
74.9916548808
 21
19.5184638862
  0
LINE
  5
29F
100
AcDbEntity
  8
0
100
AcDbLine
 62
7
  6
CONTINUOUS
 10
74.9766584836
 20
19.4551580218
 11
74.9846652392
 21
19.4879927964
  0
LINE
  5
2A0
100
AcDbEntity
  8
0
100
AcDbLine
 62
7
  6
CONTINUOUS
 10
74.9698838414
 20
19.4288478584
 11
74.986755252
 21
19.4969134679
  0
LINE
  5
2A1
100
AcDbEntity
  8
0
100
AcDbLine
 62
7
  6
CONTINUOUS
 10
75.0046628704
 20
19.6948858335
 11
75.00436074
 21
19.6936967748
  0
LINE
  5
2A2
100
AcDbEntity
  8
0
100
AcDbLine
 62
7
  6
CONTINUOUS
 10
74.9689004744
 20
19.4251295352
 11
74.9773267161
 21
19.4578225685
  0
LINE
  5
2A3
100
AcDbEntity
  8
0
100
AcDbLine
 62
7
  6
CONTINUOUS
 10
70.115159856
 20
16.8052502522
 11
70.113239292
 21
16.79791636
  0
LINE
  5
2A4
100
AcDbEntity
  8
0
100
AcDbLine
 62
7
  6
CONTINUOUS
 10
74.9608093096
 20
19.3954136737
 11
74.9696488526
 21
19.4279570923
  0
LINE
  5
2A5
100
AcDbEntity
  8
0
100
AcDbLine
 62
7
  6
CONTINUOUS
 10
74.951010266
 20
19.3613100182
 11
74.9698838414
 21
19.4288478584
  0
LINE
  5
2A6
100
AcDbEntity
  8
0
100
AcDbLine
 62
7
  6
CONTINUOUS
 10
74.9523947007
 20
19.3660139544
 11
74.9616411841
 21
19.3984000354
  0
LINE
  5
2A7
100
AcDbEntity
  8
0
100
AcDbLine
 62
7
  6
CONTINUOUS
 10
74.943666345
 20
19.3369336722
 11
74.9533132363
 21
19.3691548456
  0
LINE
  5
2A8
100
AcDbEntity
  8
0
100
AcDbLine
 62
7
  6
CONTINUOUS
 10
75.00436074
 20
19.6936967748
 11
75.0041050285
 21
19.69285095
  0
LINE
  5
2A9
100
AcDbEntity
  8
0
100
AcDbLine
 62
7
  6
CONTINUOUS
 10
74.9301509801
 20
19.2943588279
 11
74.951010266
 21
19.3613100182
  0
LINE
  5
2AA
100
AcDbEntity
  8
0
100
AcDbLine
 62
7
  6
CONTINUOUS
 10
74.9346339206
 20
19.3081759027
 11
74.9446745198
 21
19.3402247539
  0
LINE
  5
2AB
100
AcDbEntity
  8
0
100
AcDbLine
 62
7
  6
CONTINUOUS
 10
74.9253070825
 20
19.2797435057
 11
74.9357345265
 21
19.3116127778
  0
LINE
  5
2AC
100
AcDbEntity
  8
0
100
AcDbLine
 62
7
  6
CONTINUOUS
 10
74.9156954577
 20
19.2516391286
 11
74.9265027245
 21
19.2833217243
  0
LINE
  5
2AD
100
AcDbEntity
  8
0
100
AcDbLine
 62
7
  6
CONTINUOUS
 10
74.9073241691
 20
19.2280526563
 11
74.9301509801
 21
19.2943588279
  0
LINE
  5
2AE
100
AcDbEntity
  8
0
100
AcDbLine
 62
7
  6
CONTINUOUS
 10
74.9058086413
 20
19.2238652098
 11
74.9169885542
 21
19.2553541934
  0
LINE
  5
2AF
100
AcDbEntity
  8
0
100
AcDbLine
 62
7
  6
CONTINUOUS
 10
74.8956561918
 20
19.1964239818
 11
74.9072014239
 21
19.2277125811
  0
LINE
  5
2B0
100
AcDbEntity
  8
0
100
AcDbLine
 62
7
  6
CONTINUOUS
 10
74.8825497337
 20
19.16244931
 11
74.9073241691
 21
19.2280526563
  0
LINE
  5
2B1
100
AcDbEntity
  8
0
100
AcDbLine
 62
7
  6
CONTINUOUS
 10
74.8852476278
 20
19.1693174748
 11
74.8971507065
 21
19.2003990827
  0
LINE
  5
2B2
100
AcDbEntity
  8
0
100
AcDbLine
 62
7
  6
CONTINUOUS
 10
74.8745924235
 20
19.1425475207
 11
74.8868457345
 21
19.1734156968
  0
LINE
  5
2B3
100
AcDbEntity
  8
0
100
AcDbLine
 62
7
  6
CONTINUOUS
 10
74.8637000052
 20
19.1161157563
 11
74.8762957974
 21
19.1467642279
  0
LINE
  5
2B4
100
AcDbEntity
  8
0
100
AcDbLine
 62
7
  6
CONTINUOUS
 10
74.8558492726
 20
19.0976059829
 11
74.8825497337
 21
19.16244931
  0
LINE
  5
2B5
100
AcDbEntity
  8
0
100
AcDbLine
 62
7
  6
CONTINUOUS
 10
75.0041050285
 20
19.69285095
 11
75.0038958916
 21
19.6923470039
  0
LINE
  5
2B6
100
AcDbEntity
  8
0
100
AcDbLine
 62
7
  6
CONTINUOUS
 10
74.8525797479
 20
19.090023627
 11
74.8655101374
 21
19.1204462906
  0
LINE
  5
2B7
100
AcDbEntity
  8
0
100
AcDbLine
 62
7
  6
CONTINUOUS
 10
74.8412409716
 20
19.0642723909
 11
74.8544979459
 21
19.0944633131
  0
LINE
  5
2B8
100
AcDbEntity
  8
0
100
AcDbLine
 62
7
  6
CONTINUOUS
 10
74.8272460635
 20
19.0335792063
 11
74.8558492726
 21
19.0976059829
  0
LINE
  5
2B9
100
AcDbEntity
  8
0
100
AcDbLine
 62
7
  6
CONTINUOUS
 10
74.8296929377
 20
19.0388631221
 11
74.8432683608
 21
19.0688165405
  0
LINE
  5
2BA
100
AcDbEntity
  8
0
100
AcDbLine
 62
7
  6
CONTINUOUS
 10
74.8179448464
 20
19.013796715
 11
74.8318304624
 21
19.0435070388
  0
LINE
  5
2BB
100
AcDbEntity
  8
0
100
AcDbLine
 62
7
  6
CONTINUOUS
 10
74.806005833
 20
18.9890738878
 11
74.8201932708
 21
19.0185356984
  0
LINE
  5
2BC
100
AcDbEntity
  8
0
100
AcDbLine
 62
7
  6
CONTINUOUS
 10
74.7967650433
 20
18.9704247995
 11
74.8272460635
 21
19.0335792063
  0
LINE
  5
2BD
100
AcDbEntity
  8
0
100
AcDbLine
 62
7
  6
CONTINUOUS
 10
74.7938849652
 20
18.9646951866
 11
74.8083657428
 21
18.9939032382
  0
LINE
  5
2BE
100
AcDbEntity
  8
0
100
AcDbLine
 62
7
  6
CONTINUOUS
 10
74.7815912403
 20
18.9406609893
 11
74.7963567692
 21
18.9696102089
  0
LINE
  5
2BF
100
AcDbEntity
  8
0
100
AcDbLine
 62
7
  6
CONTINUOUS
 10
74.7644327855
 20
18.9081978213
 11
74.7967650433
 21
18.9704247995
  0
LINE
  5
2C0
100
AcDbEntity
  8
0
100
AcDbLine
 62
7
  6
CONTINUOUS
 10
74.7691335824
 20
18.9169715095
 11
74.7841751718
 21
18.9456569971
  0
LINE
  5
2C1
100
AcDbEntity
  8
0
100
AcDbLine
 62
7
  6
CONTINUOUS
 10
70.1132275335
 20
16.7978852984
 11
70.1896466222
 21
16.942667433
  0
LINE
  5
2C2
100
AcDbEntity
  8
0
100
AcDbLine
 62
7
  6
CONTINUOUS
 10
70.1896466222
 20
16.942667433
 11
70.2541020398
 21
17.0642796672
  0
LINE
  5
2C3
100
AcDbEntity
  8
0
100
AcDbLine
 62
7
  6
CONTINUOUS
 10
70.2541020398
 20
17.0642796672
 11
70.3639757907
 21
17.270616713
  0
LINE
  5
2C4
100
AcDbEntity
  8
0
100
AcDbLine
 62
7
  6
CONTINUOUS
 10
74.7565208398
 20
18.8936268004
 11
74.7718297007
 21
18.9220438291
  0
LINE
  5
2C5
100
AcDbEntity
  8
0
100
AcDbLine
 62
7
  6
CONTINUOUS
 10
70.3640544317
 20
17.2705602005
 11
70.3677594088
 21
17.2773624916
  0
LINE
  5
2C6
100
AcDbEntity
  8
0
100
AcDbLine
 62
7
  6
CONTINUOUS
 10
74.7437617827
 20
18.8706267592
 11
74.7593290323
 21
18.8987707749
  0
LINE
  5
2C7
100
AcDbEntity
  8
0
100
AcDbLine
 62
7
  6
CONTINUOUS
 10
74.730277478
 20
18.8469525222
 11
74.7644327855
 21
18.9081978213
  0
LINE
  5
2C8
100
AcDbEntity
  8
0
100
AcDbLine
 62
7
  6
CONTINUOUS
 10
70.0875429951
 20
16.7522282165
 11
70.113239292
 21
16.79791636
  0
LINE
  5
2C9
100
AcDbEntity
  8
0
100
AcDbLine
 62
7
  6
CONTINUOUS
 10
74.7308652504
 20
18.8479713908
 11
74.7466817662
 21
18.8758377516
  0
LINE
  5
2CA
100
AcDbEntity
  8
0
100
AcDbLine
 62
7
  6
CONTINUOUS
 10
74.7178393995
 20
18.8256595108
 11
74.7338965153
 21
18.8532446874
  0
LINE
  5
2CB
100
AcDbEntity
  8
0
100
AcDbLine
 62
7
  6
CONTINUOUS
 10
74.7046933498
 20
18.8036915969
 11
74.7209814452
 21
18.8309907273
  0
LINE
  5
2CC
100
AcDbEntity
  8
0
100
AcDbLine
 62
7
  6
CONTINUOUS
 10
74.6943288977
 20
18.7867422966
 11
74.730277478
 21
18.8469525222
  0
LINE
  5
2CD
100
AcDbEntity
  8
0
100
AcDbLine
 62
7
  6
CONTINUOUS
 10
74.691432407
 20
18.7820618823
 11
74.7079455477
 21
18.8090764305
  0
LINE
  5
2CE
100
AcDbEntity
  8
0
100
AcDbLine
 62
7
  6
CONTINUOUS
 10
74.6780628856
 20
18.7607666637
 11
74.6947943795
 21
18.7874966857
  0
LINE
  5
2CF
100
AcDbEntity
  8
0
100
AcDbLine
 62
7
  6
CONTINUOUS
 10
70.3677594088
 20
17.2773624916
 11
70.3958585724
 21
17.3218267971
  0
LINE
  5
2D0
100
AcDbEntity
  8
0
100
AcDbLine
 62
7
  6
CONTINUOUS
 10
70.0590913098
 20
16.707589791
 11
70.0875429951
 21
16.7522282165
  0
LINE
  5
2D1
100
AcDbEntity
  8
0
100
AcDbLine
 62
7
  6
CONTINUOUS
 10
74.6566183851
 20
18.7276196365
 11
74.6943288977
 21
18.7867422966
  0
LINE
  5
2D2
100
AcDbEntity
  8
0
100
AcDbLine
 62
7
  6
CONTINUOUS
 10
74.6645894538
 20
18.7397999776
 11
74.681534535
 21
18.7662484422
  0
LINE
  5
2D3
100
AcDbEntity
  8
0
100
AcDbLine
 62
7
  6
CONTINUOUS
 10
74.6510168463
 20
18.7191564248
 11
74.668170604
 21
18.7453257628
  0
LINE
  5
2D4
100
AcDbEntity
  8
0
100
AcDbLine
 62
7
  6
CONTINUOUS
 10
74.6373495266
 20
18.6988306078
 11
74.6547073467
 21
18.7247234317
  0
LINE
  5
2D5
100
AcDbEntity
  8
0
100
AcDbLine
 62
7
  6
CONTINUOUS
 10
74.6171788168
 20
18.6696360859
 11
74.6566183851
 21
18.7276196365
  0
LINE
  5
2D6
100
AcDbEntity
  8
0
100
AcDbLine
 62
7
  6
CONTINUOUS
 10
74.6235916951
 20
18.6788171412
 11
74.641149247
 21
18.7044362115
  0
LINE
  5
2D7
100
AcDbEntity
  8
0
100
AcDbLine
 62
7
  6
CONTINUOUS
 10
74.6097472947
 20
18.6591106561
 11
74.6275005367
 21
18.6844588782
  0
LINE
  5
2D8
100
AcDbEntity
  8
0
100
AcDbLine
 62
7
  6
CONTINUOUS
 10
74.5958200164
 20
18.6397058051
 11
74.6137651973
 21
18.6647862209
  0
LINE
  5
2D9
100
AcDbEntity
  8
0
100
AcDbLine
 62
7
  6
CONTINUOUS
 10
70.0285583216
 20
16.6650001352
 11
70.0590913098
 21
16.707589791
  0
LINE
  5
2DA
100
AcDbEntity
  8
0
100
AcDbLine
 62
7
  6
CONTINUOUS
 10
74.5760445766
 20
18.6128421956
 11
74.6171788168
 21
18.6696360859
  0
LINE
  5
2DB
100
AcDbEntity
  8
0
100
AcDbLine
 62
7
  6
CONTINUOUS
 10
74.5818133051
 20
18.6205972667
 11
74.5999469658
 21
18.6454130466
  0
LINE
  5
2DC
100
AcDbEntity
  8
0
100
AcDbLine
 62
7
  6
CONTINUOUS
 10
74.5677303185
 20
18.6017796889
 11
74.5860493396
 21
18.6263341845
  0
LINE
  5
2DD
100
AcDbEntity
  8
0
100
AcDbLine
 62
7
  6
CONTINUOUS
 10
74.5535741655
 20
18.583248001
 11
74.5720755624
 21
18.6075444642
  0
LINE
  5
2DE
100
AcDbEntity
  8
0
100
AcDbLine
 62
7
  6
CONTINUOUS
 10
74.533251526
 20
18.5572874792
 11
74.5760445766
 21
18.6128421956
  0
LINE
  5
2DF
100
AcDbEntity
  8
0
100
AcDbLine
 62
7
  6
CONTINUOUS
 10
74.5393473376
 20
18.5649966642
 11
74.5580287294
 21
18.5890388533
  0
LINE
  5
2E0
100
AcDbEntity
  8
0
100
AcDbLine
 62
7
  6
CONTINUOUS
 10
74.5250534963
 20
18.5470219441
 11
74.5439114131
 21
18.5708119655
  0
LINE
  5
2E1
100
AcDbEntity
  8
0
100
AcDbLine
 62
7
  6
CONTINUOUS
 10
70.3958585724
 20
17.3218267971
 11
70.4269507753
 21
17.3607685579
  0
LINE
  5
2E2
100
AcDbEntity
  8
0
100
AcDbLine
 62
7
  6
CONTINUOUS
 10
69.9961340448
 20
16.6245367449
 11
70.0285583216
 21
16.6650001352
  0
LINE
  5
2E3
100
AcDbEntity
  8
0
100
AcDbLine
 62
7
  6
CONTINUOUS
 10
74.5106956261
 20
18.5293194821
 11
74.5297270974
 21
18.5528598936
  0
LINE
  5
2E4
100
AcDbEntity
  8
0
100
AcDbLine
 62
7
  6
CONTINUOUS
 10
74.4888369724
 20
18.5030203701
 11
74.533251526
 21
18.5572874792
  0
LINE
  5
2E5
100
AcDbEntity
  8
0
100
AcDbLine
 62
7
  6
CONTINUOUS
 10
74.4962771633
 20
18.5118857069
 11
74.5154785982
 21
18.5351781264
  0
LINE
  5
2E6
100
AcDbEntity
  8
0
100
AcDbLine
 62
7
  6
CONTINUOUS
 10
74.4868025757
 20
18.5006114099
 11
74.5011693886
 21
18.5177632042
  0
LINE
  5
2E7
100
AcDbEntity
  8
0
100
AcDbLine
 62
7
  6
CONTINUOUS
 10
74.4818012307
 20
18.4947168613
 11
74.4962771633
 21
18.5118857069
  0
LINE
  5
2E8
100
AcDbEntity
  8
0
100
AcDbLine
 62
7
  6
CONTINUOUS
 10
74.467270798
 20
18.4778092044
 11
74.4868025757
 21
18.5006114099
  0
LINE
  5
2E9
100
AcDbEntity
  8
0
100
AcDbLine
 62
7
  6
CONTINUOUS
 10
74.4428396372
 20
18.4500881791
 11
74.4888369724
 21
18.5030203701
  0
LINE
  5
2EA
100
AcDbEntity
  8
0
100
AcDbLine
 62
7
  6
CONTINUOUS
 10
74.4526886813
 20
18.4611590099
 11
74.4723811314
 21
18.4837190608
  0
LINE
  5
2EB
100
AcDbEntity
  8
0
100
AcDbLine
 62
7
  6
CONTINUOUS
 10
74.438057547
 20
18.4447625696
 11
74.4579078726
 21
18.4670824833
  0
LINE
  5
2EC
100
AcDbEntity
  8
0
100
AcDbLine
 62
7
  6
CONTINUOUS
 10
69.9620058168
 20
16.5862721282
 11
69.9961340448
 21
16.6245367449
  0
LINE
  5
2ED
100
AcDbEntity
  8
0
100
AcDbLine
 62
7
  6
CONTINUOUS
 10
74.423379915
 20
18.4286161961
 11
74.4433854688
 21
18.4506980203
  0
LINE
  5
2EE
100
AcDbEntity
  8
0
100
AcDbLine
 62
7
  6
CONTINUOUS
 10
70.8523919476
 20
17.5184876167
 11
70.8488808101
 21
17.5146571461
  0
LINE
  5
2EF
100
AcDbEntity
  8
0
100
AcDbLine
 62
7
  6
CONTINUOUS
 10
74.3952996213
 20
18.3985370531
 11
74.4428396372
 21
18.4500881791
  0
LINE
  5
2F0
100
AcDbEntity
  8
0
100
AcDbLine
 62
7
  6
CONTINUOUS
 10
74.4086581615
 20
18.4127162247
 11
74.4288164449
 21
18.4345620345
  0
LINE
  5
2F1
100
AcDbEntity
  8
0
100
AcDbLine
 62
7
  6
CONTINUOUS
 10
74.3938945221
 20
18.3970590163
 11
74.4142031842
 21
18.4186709099
  0
LINE
  5
2F2
100
AcDbEntity
  8
0
100
AcDbLine
 62
7
  6
CONTINUOUS
 10
74.3790910949
 20
18.3816409587
 11
74.3995479317
 21
18.403021055
  0
LINE
  5
2F3
100
AcDbEntity
  8
0
100
AcDbLine
 62
7
  6
CONTINUOUS
 10
74.3642498436
 20
18.3664584698
 11
74.3848527967
 21
18.3876089039
  0
LINE
  5
2F4
100
AcDbEntity
  8
0
100
AcDbLine
 62
7
  6
CONTINUOUS
 10
74.3462583708
 20
18.3484119352
 11
74.3952996213
 21
18.3985370531
  0
LINE
  5
2F5
100
AcDbEntity
  8
0
100
AcDbLine
 62
7
  6
CONTINUOUS
 10
70.4269507753
 20
17.3607685579
 11
70.4601808828
 21
17.3944569208
  0
LINE
  5
2F6
100
AcDbEntity
  8
0
100
AcDbLine
 62
7
  6
CONTINUOUS
 10
74.3493725999
 20
18.3515079985
 11
74.3701197558
 21
18.3724309194
  0
LINE
  5
2F7
100
AcDbEntity
  8
0
100
AcDbLine
 62
7
  6
CONTINUOUS
 10
69.9232062862
 20
16.5472632547
 11
69.9620058168
 21
16.5862721282
  0
LINE
  5
2F8
100
AcDbEntity
  8
0
100
AcDbLine
 62
7
  6
CONTINUOUS
 10
71.2924797637
 20
17.1460773026
 11
71.7050836615
 21
17.5586812003
  0
LINE
  5
2F9
100
AcDbEntity
  8
0
100
AcDbLine
 62
7
  6
CONTINUOUS
 10
74.334461067
 20
18.3367860273
 11
74.3553506557
 21
18.3574835939
  0
LINE
  5
2FA
100
AcDbEntity
  8
0
100
AcDbLine
 62
7
  6
CONTINUOUS
 10
74.319516822
 20
18.3222890736
 11
74.340547216
 21
18.3427634521
  0
LINE
  5
2FB
100
AcDbEntity
  8
0
100
AcDbLine
 62
7
  6
CONTINUOUS
 10
74.2957586406
 20
18.299756525
 11
74.3462583708
 21
18.3484119352
  0
LINE
  5
2FC
100
AcDbEntity
  8
0
100
AcDbLine
 62
7
  6
CONTINUOUS
 10
74.3045413189
 20
18.3080136919
 11
74.3257110322
 21
18.3282670525
  0
LINE
  5
2FD
100
AcDbEntity
  8
0
100
AcDbLine
 62
7
  6
CONTINUOUS
 10
69.9233783777
 20
16.5474269962
 11
69.9232080664
 21
16.5472649465
  0
LINE
  5
2FE
100
AcDbEntity
  8
0
100
AcDbLine
 62
7
  6
CONTINUOUS
 10
74.2895358916
 20
18.2939564752
 11
74.3108435784
 21
18.3139909889
  0
LINE
  5
2FF
100
AcDbEntity
  8
0
100
AcDbLine
 62
7
  6
CONTINUOUS
 10
71.7050836574
 20
17.5586812012
 11
71.7117539656
 21
17.5648822926
  0
LINE
  5
300
100
AcDbEntity
  8
0
100
AcDbLine
 62
7
  6
CONTINUOUS
 10
74.2745017562
 20
18.2801140564
 11
74.2959462097
 21
18.2999318921
  0
LINE
  5
301
100
AcDbEntity
  8
0
100
AcDbLine
 62
7
  6
CONTINUOUS
 10
74.2594400141
 20
18.2664831103
 11
74.2810201653
 21
18.286086432
  0
LINE
  5
302
100
AcDbEntity
  8
0
100
AcDbLine
 62
7
  6
CONTINUOUS
 10
74.2438444568
 20
18.252613241
 11
74.2957586406
 21
18.299756525
  0
LINE
  5
303
100
AcDbEntity
  8
0
100
AcDbLine
 62
7
  6
CONTINUOUS
 10
69.9126424568
 20
16.5376892235
 11
69.9233563879
 21
16.5473999188
  0
LINE
  5
304
100
AcDbEntity
  8
0
100
AcDbLine
 62
7
  6
CONTINUOUS
 10
74.2443516542
 20
18.2530603544
 11
74.266066571
 21
18.2724513181
  0
LINE
  5
305
100
AcDbEntity
  8
0
100
AcDbLine
 62
7
  6
CONTINUOUS
 10
74.2292375566
 20
18.2398425511
 11
74.2510864417
 21
18.2590233018
  0
LINE
  5
306
100
AcDbEntity
  8
0
100
AcDbLine
 62
7
  6
CONTINUOUS
 10
74.2140984936
 20
18.2268265078
 11
74.2360806842
 21
18.2457991776
  0
LINE
  5
307
100
AcDbEntity
  8
0
100
AcDbLine
 62
7
  6
CONTINUOUS
 10
74.1905610791
 20
18.2070231834
 11
74.2438444568
 21
18.252613241
  0
LINE
  5
308
100
AcDbEntity
  8
0
100
AcDbLine
 62
7
  6
CONTINUOUS
 10
74.198935134
 20
18.21400908
 11
74.2210500995
 21
18.2327757835
  0
LINE
  5
309
100
AcDbEntity
  8
0
100
AcDbLine
 62
7
  6
CONTINUOUS
 10
69.9003103384
 20
16.5273737
 11
69.9126424568
 21
16.5376892235
  0
LINE
  5
30A
100
AcDbEntity
  8
0
100
AcDbLine
 62
7
  6
CONTINUOUS
 10
74.1837478342
 20
18.2013869971
 11
74.205995386
 21
18.2199500041
  0
LINE
  5
30B
100
AcDbEntity
  8
0
100
AcDbLine
 62
7
  6
CONTINUOUS
 10
70.4601808828
 20
17.3944569208
 11
70.4947154469
 21
17.4231024519
  0
LINE
  5
30C
100
AcDbEntity
  8
0
100
AcDbLine
 62
7
  6
CONTINUOUS
 10
74.1685376919
 20
18.1889577314
 11
74.190917076
 21
18.2073187158
  0
LINE
  5
30D
100
AcDbEntity
  8
0
100
AcDbLine
 62
7
  6
CONTINUOUS
 10
74.1533031547
 20
18.1767167364
 11
74.1758158632
 21
18.1948790589
  0
LINE
  5
30E
100
AcDbEntity
  8
0
100
AcDbLine
 62
7
  6
CONTINUOUS
 10
74.1359549606
 20
18.1630260981
 11
74.1905610791
 21
18.2070231834
  0
LINE
  5
30F
100
AcDbEntity
  8
0
100
AcDbLine
 62
7
  6
CONTINUOUS
 10
71.7117539656
 20
17.5648822926
 11
71.7188580803
 21
17.5705812485
  0
LINE
  5
310
100
AcDbEntity
  8
0
100
AcDbLine
 62
7
  6
CONTINUOUS
 10
74.1380520141
 20
18.1646670144
 11
74.1606904904
 21
18.1826267213
  0
LINE
  5
311
100
AcDbEntity
  8
0
100
AcDbLine
 62
7
  6
CONTINUOUS
 10
69.8862391453
 20
16.5163084466
 11
69.9003103384
 21
16.5273737
  0
LINE
  5
312
100
AcDbEntity
  8
0
100
AcDbLine
 62
7
  6
CONTINUOUS
 10
74.1227882887
 20
18.1528083903
 11
74.1455467865
 21
18.1705632015
  0
LINE
  5
313
100
AcDbEntity
  8
0
100
AcDbLine
 62
7
  6
CONTINUOUS
 10
74.1075219738
 20
18.1411451496
 11
74.1303868187
 21
18.1586869058
  0
LINE
  5
314
100
AcDbEntity
  8
0
100
AcDbLine
 62
7
  6
CONTINUOUS
 10
74.0800737075
 20
18.1206603424
 11
74.1359549606
 21
18.1630260981
  0
LINE
  5
315
100
AcDbEntity
  8
0
100
AcDbLine
 62
7
  6
CONTINUOUS
 10
74.0922616814
 20
18.1296801811
 11
74.1152206369
 21
18.1470023701
  0
LINE
  5
316
100
AcDbEntity
  8
0
100
AcDbLine
 62
7
  6
CONTINUOUS
 10
69.8700073588
 20
16.5041803121
 11
69.8862391453
 21
16.5163084466
  0
LINE
  5
317
100
AcDbEntity
  8
0
100
AcDbLine
 62
7
  6
CONTINUOUS
 10
74.0770162098
 20
18.1184162277
 11
74.1000563175
 21
18.1355122718
  0
LINE
  5
318
100
AcDbEntity
  8
0
100
AcDbLine
 62
7
  6
CONTINUOUS
 10
74.0617944306
 20
18.1073558049
 11
74.0849024404
 21
18.1242193981
  0
LINE
  5
319
100
AcDbEntity
  8
0
100
AcDbLine
 62
7
  6
CONTINUOUS
 10
74.0466053
 20
18.0965012166
 11
74.0697675771
 21
18.1131262547
  0
LINE
  5
31A
100
AcDbEntity
  8
0
100
AcDbLine
 62
7
  6
CONTINUOUS
 10
69.8515953179
 20
16.4910086124
 11
69.8700073588
 21
16.5041803121
  0
LINE
  5
31B
100
AcDbEntity
  8
0
100
AcDbLine
 62
7
  6
CONTINUOUS
 10
74.022966038
 20
18.0799628513
 11
74.0800737075
 21
18.1206603424
  0
LINE
  5
31C
100
AcDbEntity
  8
0
100
AcDbLine
 62
7
  6
CONTINUOUS
 10
74.0314578578
 20
18.0858545601
 11
74.054660383
 21
18.1022351425
  0
LINE
  5
31D
100
AcDbEntity
  8
0
100
AcDbLine
 62
7
  6
CONTINUOUS
 10
74.0163612173
 20
18.0754177262
 11
74.0395895954
 21
18.091548163
  0
LINE
  5
31E
100
AcDbEntity
  8
0
100
AcDbLine
 62
7
  6
CONTINUOUS
 10
69.8309100863
 20
16.4767513073
 11
69.8515953179
 21
16.4910086124
  0
LINE
  5
31F
100
AcDbEntity
  8
0
100
AcDbLine
 62
7
  6
CONTINUOUS
 10
71.7188580803
 20
17.5705812485
 11
71.726358289
 21
17.5757478155
  0
LINE
  5
320
100
AcDbEntity
  8
0
100
AcDbLine
 62
7
  6
CONTINUOUS
 10
74.0013245623
 20
18.0651924039
 11
74.0245640246
 21
18.0810672176
  0
LINE
  5
321
100
AcDbEntity
  8
0
100
AcDbLine
 62
7
  6
CONTINUOUS
 10
70.4947154469
 20
17.4231024519
 11
70.5302817298
 21
17.4472655288
  0
LINE
  5
322
100
AcDbEntity
  8
0
100
AcDbLine
 62
7
  6
CONTINUOUS
 10
73.9863571404
 20
18.0551800828
 11
74.0095925509
 21
18.0707940125
  0
LINE
  5
323
100
AcDbEntity
  8
0
100
AcDbLine
 62
7
  6
CONTINUOUS
 10
73.9646817393
 20
18.0409691055
 11
74.022966038
 21
18.0799628513
  0
LINE
  5
324
100
AcDbEntity
  8
0
100
AcDbLine
 62
7
  6
CONTINUOUS
 10
69.8083280115
 20
16.4617155644
 11
69.8309100863
 21
16.4767513073
  0
LINE
  5
325
100
AcDbEntity
  8
0
100
AcDbLine
 62
7
  6
CONTINUOUS
 10
73.9714682564
 20
18.045382056
 11
73.9946841177
 21
18.0607300602
  0
LINE
  5
326
100
AcDbEntity
  8
0
100
AcDbLine
 62
7
  6
CONTINUOUS
 10
73.9566672708
 20
18.0357994274
 11
73.9798477259
 21
18.0508766831
  0
LINE
  5
327
100
AcDbEntity
  8
0
100
AcDbLine
 62
7
  6
CONTINUOUS
 10
69.7842382427
 20
16.4461864747
 11
69.8083280115
 21
16.4617155644
  0
LINE
  5
328
100
AcDbEntity
  8
0
100
AcDbLine
 62
7
  6
CONTINUOUS
 10
73.9419638187
 20
18.0264332568
 11
73.9650924312
 21
18.0412350184
  0
LINE
  5
329
100
AcDbEntity
  8
0
100
AcDbLine
 62
7
  6
CONTINUOUS
 10
73.9273666587
 20
18.0172838414
 11
73.9504273726
 21
18.0318060438
  0
LINE
  5
32A
100
AcDbEntity
  8
0
100
AcDbLine
 62
7
  6
CONTINUOUS
 10
73.9052716243
 20
18.0037131002
 11
73.9646817393
 21
18.0409691055
  0
LINE
  5
32B
100
AcDbEntity
  8
0
100
AcDbLine
 62
7
  6
CONTINUOUS
 10
69.7593057178
 20
16.430602292
 11
69.7842382427
 21
16.4461864747
  0
LINE
  5
32C
100
AcDbEntity
  8
0
100
AcDbLine
 62
7
  6
CONTINUOUS
 10
73.9128875008
 20
18.0083531114
 11
73.9358615827
 21
18.0225904639
  0
LINE
  5
32D
100
AcDbEntity
  8
0
100
AcDbLine
 62
7
  6
CONTINUOUS
 10
73.8985272873
 20
17.9996362354
 11
73.9214059575
 21
18.0135899424
  0
LINE
  5
32E
100
AcDbEntity
  8
0
100
AcDbLine
 62
7
  6
CONTINUOUS
 10
69.734265578
 20
16.4154385315
 11
69.7593057178
 21
16.430602292
  0
LINE
  5
32F
100
AcDbEntity
  8
0
100
AcDbLine
 62
7
  6
CONTINUOUS
 10
73.8842913114
 20
17.9911311052
 11
73.9070642543
 21
18.0048015478
  0
LINE
  5
330
100
AcDbEntity
  8
0
100
AcDbLine
 62
7
  6
CONTINUOUS
 10
73.8701777874
 20
17.9828314589
 11
73.8928444976
 21
17.9962249326
  0
LINE
  5
331
100
AcDbEntity
  8
0
100
AcDbLine
 62
7
  6
CONTINUOUS
 10
73.8447874876
 20
17.9682273156
 11
73.9052716243
 21
18.0037131002
  0
LINE
  5
332
100
AcDbEntity
  8
0
100
AcDbLine
 62
7
  6
CONTINUOUS
 10
71.726358289
 20
17.5757478155
 11
71.7342147761
 21
17.5803545665
  0
LINE
  5
333
100
AcDbEntity
  8
0
100
AcDbLine
 62
7
  6
CONTINUOUS
 10
69.7096265212
 20
16.4009964057
 11
69.734265578
 21
16.4154385315
  0
LINE
  5
334
100
AcDbEntity
  8
0
100
AcDbLine
 62
7
  6
CONTINUOUS
 10
73.856186571
 20
17.9747322116
 11
73.8787445634
 21
17.9878536406
  0
LINE
  5
335
100
AcDbEntity
  8
0
100
AcDbLine
 62
7
  6
CONTINUOUS
 10
73.8423172646
 20
17.9668283002
 11
73.8647649072
 21
17.9796829592
  0
LINE
  5
336
100
AcDbEntity
  8
0
100
AcDbLine
 62
7
  6
CONTINUOUS
 10
69.6859697061
 20
16.3876201003
 11
69.7096265212
 21
16.4009964057
  0
LINE
  5
337
100
AcDbEntity
  8
0
100
AcDbLine
 62
7
  6
CONTINUOUS
 10
73.8285693801
 20
17.9591147763
 11
73.8509050942
 21
17.9717078101
  0
LINE
  5
338
100
AcDbEntity
  8
0
100
AcDbLine
 62
7
  6
CONTINUOUS
 10
73.8149423237
 20
17.9515867944
 11
73.8371647626
 21
17.9639233234
  0
LINE
  5
339
100
AcDbEntity
  8
0
100
AcDbLine
 62
7
  6
CONTINUOUS
 10
70.5302817298
 20
17.4472655288
 11
70.5649171192
 21
17.4664496706
  0
LINE
  5
33A
100
AcDbEntity
  8
0
100
AcDbLine
 62
7
  6
CONTINUOUS
 10
73.7832820601
 20
17.9345426888
 11
73.8447874876
 21
17.9682273156
  0
LINE
  5
33B
100
AcDbEntity
  8
0
100
AcDbLine
 62
7
  6
CONTINUOUS
 10
73.8014351708
 20
17.9442394868
 11
73.8235434371
 21
17.9563247228
  0
LINE
  5
33C
100
AcDbEntity
  8
0
100
AcDbLine
 62
7
  6
CONTINUOUS
 10
69.6635909505
 20
16.3754541756
 11
69.6859697061
 21
16.3876201003
  0
LINE
  5
33D
100
AcDbEntity
  8
0
100
AcDbLine
 62
7
  6
CONTINUOUS
 10
73.7880477531
 20
17.9370685484
 11
73.8100405006
 21
17.9489073078
  0
LINE
  5
33E
100
AcDbEntity
  8
0
100
AcDbLine
 62
7
  6
CONTINUOUS
 10
73.7747778983
 20
17.9300687532
 11
73.7966553528
 21
17.9416665373
  0
LINE
  5
33F
100
AcDbEntity
  8
0
100
AcDbLine
 62
7
  6
CONTINUOUS
 10
73.7616301017
 20
17.9232384992
 11
73.7833860765
 21
17.9345973175
  0
LINE
  5
340
100
AcDbEntity
  8
0
100
AcDbLine
 62
7
  6
CONTINUOUS
 10
69.6427674606
 20
16.3646361053
 11
69.6635909505
 21
16.3754541756
  0
LINE
  5
341
100
AcDbEntity
  8
0
100
AcDbLine
 62
7
  6
CONTINUOUS
 10
73.7486065312
 20
17.9165749732
 11
73.7702353898
 21
17.9276971469
  0
LINE
  5
342
100
AcDbEntity
  8
0
100
AcDbLine
 62
7
  6
CONTINUOUS
 10
73.720808963
 20
17.9026885864
 11
73.7832820601
 21
17.9345426888
  0
LINE
  5
343
100
AcDbEntity
  8
0
100
AcDbLine
 62
7
  6
CONTINUOUS
 10
73.7357116995
 20
17.9100765778
 11
73.7572035521
 21
17.9209622886
  0
LINE
  5
344
100
AcDbEntity
  8
0
100
AcDbLine
 62
7
  6
CONTINUOUS
 10
73.722949566
 20
17.9037414151
 11
73.7442956302
 21
17.9143915347
  0
LINE
  5
345
100
AcDbEntity
  8
0
100
AcDbLine
 62
7
  6
CONTINUOUS
 10
71.7342147761
 20
17.5803545665
 11
71.7423858349
 21
17.5843770462
  0
LINE
  5
346
100
AcDbEntity
  8
0
100
AcDbLine
 62
7
  6
CONTINUOUS
 10
69.6236728227
 20
16.3552335398
 11
69.6427674606
 21
16.3646361053
  0
LINE
  5
347
100
AcDbEntity
  8
0
100
AcDbLine
 62
7
  6
CONTINUOUS
 10
73.7103237517
 20
17.8975674125
 11
73.7315154813
 21
17.9079830266
  0
LINE
  5
348
100
AcDbEntity
  8
0
100
AcDbLine
 62
7
  6
CONTINUOUS
 10
73.6978379492
 20
17.8915525325
 11
73.7188667951
 21
17.9017348132
  0
LINE
  5
349
100
AcDbEntity
  8
0
100
AcDbLine
 62
7
  6
CONTINUOUS
 10
73.6854956825
 20
17.8856946578
 11
73.7063533137
 21
17.8956449643
  0
LINE
  5
34A
100
AcDbEntity
  8
0
100
AcDbLine
 62
7
  6
CONTINUOUS
 10
73.6574226612
 20
17.8726927794
 11
73.720808963
 21
17.9026885864
  0
LINE
  5
34B
100
AcDbEntity
  8
0
100
AcDbLine
 62
7
  6
CONTINUOUS
 10
73.6733004004
 20
17.8799916411
 11
73.6939785298
 21
17.8897114261
  0
LINE
  5
34C
100
AcDbEntity
  8
0
100
AcDbLine
 62
7
  6
CONTINUOUS
 10
73.6612557935
 20
17.8744414536
 11
73.6817459329
 21
17.8839321462
  0
LINE
  5
34D
100
AcDbEntity
  8
0
100
AcDbLine
 62
7
  6
CONTINUOUS
 10
69.6063681114
 20
16.3472581444
 11
69.6236728227
 21
16.3552335398
  0
LINE
  5
34E
100
AcDbEntity
  8
0
100
AcDbLine
 62
7
  6
CONTINUOUS
 10
73.6493650894
 20
17.8690418604
 11
73.6696590564
 21
17.8783050966
  0
LINE
  5
34F
100
AcDbEntity
  8
0
100
AcDbLine
 62
7
  6
CONTINUOUS
 10
73.6376329026
 20
17.8637912578
 11
73.6577212052
 21
17.8728281486
  0
LINE
  5
350
100
AcDbEntity
  8
0
100
AcDbLine
 62
7
  6
CONTINUOUS
 10
70.5649171192
 20
17.4664496706
 11
70.5969672666
 21
17.4808363868
  0
LINE
  5
351
100
AcDbEntity
  8
0
100
AcDbLine
 62
7
  6
CONTINUOUS
 10
73.626061289
 20
17.8586869025
 11
73.6459363355
 21
17.8674994762
  0
LINE
  5
352
100
AcDbEntity
  8
0
100
AcDbLine
 62
7
  6
CONTINUOUS
 10
73.5931784157
 20
17.8445814184
 11
73.6574226612
 21
17.8726927794
  0
LINE
  5
353
100
AcDbEntity
  8
0
100
AcDbLine
 62
7
  6
CONTINUOUS
 10
73.6146609661
 20
17.8537298374
 11
73.634306932
 21
17.8623165969
  0
LINE
  5
354
100
AcDbEntity
  8
0
100
AcDbLine
 62
7
  6
CONTINUOUS
 10
73.6034392379
 20
17.8489194877
 11
73.6228405111
 21
17.8572792559
  0
LINE
  5
355
100
AcDbEntity
  8
0
100
AcDbLine
 62
7
  6
CONTINUOUS
 10
73.5924084359
 20
17.8442573157
 11
73.6115410969
 21
17.8523856055
  0
LINE
  5
356
100
AcDbEntity
  8
0
100
AcDbLine
 62
7
  6
CONTINUOUS
 10
69.5907309468
 20
16.340643277
 11
69.6063681114
 21
16.3472581444
  0
LINE
  5
357
100
AcDbEntity
  8
0
100
AcDbLine
 62
7
  6
CONTINUOUS
 10
73.5815793233
 20
17.839743952
 11
73.6004215796
 21
17.8476375567
  0
LINE
  5
358
100
AcDbEntity
  8
0
100
AcDbLine
 62
7
  6
CONTINUOUS
 10
73.5709640228
 20
17.8353804483
 11
73.5894926517
 21
17.8430358943
  0
LINE
  5
359
100
AcDbEntity
  8
0
100
AcDbLine
 62
7
  6
CONTINUOUS
 10
73.5605604919
 20
17.8311620001
 11
73.5787650564
 21
17.8385812815
  0
LINE
  5
35A
100
AcDbEntity
  8
0
100
AcDbLine
 62
7
  6
CONTINUOUS
 10
71.7423858349
 20
17.5843770462
 11
71.7472237619
 21
17.5863351127
  0
LINE
  5
35B
100
AcDbEntity
  8
0
100
AcDbLine
 62
7
  6
CONTINUOUS
 10
73.5281322356
 20
17.8183790112
 11
73.5931784157
 21
17.8445814184
  0
LINE
  5
35C
100
AcDbEntity
  8
0
100
AcDbLine
 62
7
  6
CONTINUOUS
 10
73.5504220647
 20
17.8271059741
 11
73.5682435194
 21
17.8342718013
  0
LINE
  5
35D
100
AcDbEntity
  8
0
100
AcDbLine
 62
7
  6
CONTINUOUS
 10
73.540580706
 20
17.8232203664
 11
73.5579568483
 21
17.8301152126
  0
LINE
  5
35E
100
AcDbEntity
  8
0
100
AcDbLine
 62
7
  6
CONTINUOUS
 10
73.528820289
 20
17.8186433187
 11
73.5479116042
 21
17.8261099672
  0
LINE
  5
35F
100
AcDbEntity
  8
0
100
AcDbLine
 62
7
  6
CONTINUOUS
 10
73.513441632
 20
17.8127662135
 11
73.5310996586
 21
17.8195248125
  0
LINE
  5
360
100
AcDbEntity
  8
0
100
AcDbLine
 62
7
  6
CONTINUOUS
 10
73.5034622384
 20
17.8090176243
 11
73.5198805339
 21
17.8152120446
  0
LINE
  5
361
100
AcDbEntity
  8
0
100
AcDbLine
 62
7
  6
CONTINUOUS
 10
69.5771477526
 20
16.335524806
 11
69.5907309468
 21
16.340643277
  0
LINE
  5
362
100
AcDbEntity
  8
0
100
AcDbLine
 62
7
  6
CONTINUOUS
 10
73.4891377967
 20
17.8037258814
 11
73.5053784854
 21
17.8097334693
  0
LINE
  5
363
100
AcDbEntity
  8
0
100
AcDbLine
 62
7
  6
CONTINUOUS
 10
73.4623408288
 20
17.7941084016
 11
73.5281322356
 21
17.8183790112
  0
LINE
  5
364
100
AcDbEntity
  8
0
100
AcDbLine
 62
7
  6
CONTINUOUS
 10
73.476421368
 20
17.7991155011
 11
73.4907557878
 21
17.8043183664
  0
LINE
  5
365
100
AcDbEntity
  8
0
100
AcDbLine
 62
7
  6
CONTINUOUS
 10
70.5969672666
 20
17.4808363868
 11
70.6244142703
 21
17.4907603787
  0
LINE
  5
366
100
AcDbEntity
  8
0
100
AcDbLine
 62
7
  6
CONTINUOUS
 10
73.4648329498
 20
17.7949851237
 11
73.4777685734
 21
17.7996000626
  0
LINE
  5
367
100
AcDbEntity
  8
0
100
AcDbLine
 62
7
  6
CONTINUOUS
 10
73.454616993
 20
17.7913997401
 11
73.4659440174
 21
17.7953782103
  0
LINE
  5
368
100
AcDbEntity
  8
0
100
AcDbLine
 62
7
  6
CONTINUOUS
 10
69.5688805489
 20
16.3326302053
 11
69.5773346491
 21
16.335555141
  0
LINE
  5
369
100
AcDbEntity
  8
0
100
AcDbLine
 62
7
  6
CONTINUOUS
 10
73.4425744715
 20
17.7872399859
 11
73.455482879
 21
17.7917016108
  0
LINE
  5
36A
100
AcDbEntity
  8
0
100
AcDbLine
 62
7
  6
CONTINUOUS
 10
73.4313285977
 20
17.7834199498
 11
73.4431145542
 21
17.7874250057
  0
LINE
  5
36B
100
AcDbEntity
  8
0
100
AcDbLine
 62
7
  6
CONTINUOUS
 10
73.3958615533
 20
17.7717907489
 11
73.4623408288
 21
17.7941084016
  0
LINE
  5
36C
100
AcDbEntity
  8
0
100
AcDbLine
 62
7
  6
CONTINUOUS
 10
73.4200494139
 20
17.779650232
 11
73.4316302364
 21
17.783521605
  0
LINE
  5
36D
100
AcDbEntity
  8
0
100
AcDbLine
 62
7
  6
CONTINUOUS
 10
73.4109198497
 20
17.7766429389
 11
73.4217787788
 21
17.7802242708
  0
LINE
  5
36E
100
AcDbEntity
  8
0
100
AcDbLine
 62
7
  6
CONTINUOUS
 10
73.4000327367
 20
17.7731058762
 11
73.4108768639
 21
17.7766288698
  0
LINE
  5
36F
100
AcDbEntity
  8
0
100
AcDbLine
 62
7
  6
CONTINUOUS
 10
73.387720156
 20
17.7691687187
 11
73.4000652502
 21
17.7731163612
  0
LINE
  5
370
100
AcDbEntity
  8
0
100
AcDbLine
 62
7
  6
CONTINUOUS
 10
69.5280455836
 20
16.3196985389
 11
69.5688805489
 21
16.3326302053
  0
LINE
  5
371
100
AcDbEntity
  8
0
100
AcDbLine
 62
7
  6
CONTINUOUS
 10
73.3766962543
 20
17.7656998296
 11
73.3894905969
 21
17.7697307577
  0
LINE
  5
372
100
AcDbEntity
  8
0
100
AcDbLine
 62
7
  6
CONTINUOUS
 10
21.1255757508
 20
36.6552033362
 11
21.1491311991
 21
36.6613185595
  0
LINE
  5
373
100
AcDbEntity
  8
0
100
AcDbLine
 62
7
  6
CONTINUOUS
 10
21.1491311991
 20
36.6613185595
 11
21.1725803574
 21
36.6658211559
  0
LINE
  5
374
100
AcDbEntity
  8
0
100
AcDbLine
 62
7
  6
CONTINUOUS
 10
36.7949379958
 20
17.9974806727
 11
36.7994882509
 21
17.9981713186
  0
LINE
  5
375
100
AcDbEntity
  8
0
100
AcDbLine
 62
7
  6
CONTINUOUS
 10
21.1725803574
 20
36.6658211559
 11
21.19635246
 21
36.6688302123
  0
LINE
  5
376
100
AcDbEntity
  8
0
100
AcDbLine
 62
7
  6
CONTINUOUS
 10
72.4498504239
 20
17.6263894804
 11
72.6533414668
 21
17.6400405684
  0
LINE
  5
377
100
AcDbEntity
  8
0
100
AcDbLine
 62
7
  6
CONTINUOUS
 10
72.2435427726
 20
17.6134785705
 11
72.4498504239
 21
17.6263894804
  0
LINE
  5
378
100
AcDbEntity
  8
0
100
AcDbLine
 62
7
  6
CONTINUOUS
 10
21.19635246
 20
36.6688302123
 11
21.2207316303
 21
36.6703285487
  0
LINE
  5
379
100
AcDbEntity
  8
0
100
AcDbLine
 62
7
  6
CONTINUOUS
 10
72.0244409637
 20
17.6008128673
 11
72.2435427726
 21
17.6134785705
  0
LINE
  5
37A
100
AcDbEntity
  8
0
100
AcDbLine
 62
7
  6
CONTINUOUS
 10
71.8077254341
 20
17.5893553611
 11
71.9433131251
 21
17.5967403897
  0
LINE
  5
37B
100
AcDbEntity
  8
0
100
AcDbLine
 62
7
  6
CONTINUOUS
 10
70.6432976358
 20
17.490335202
 11
70.6197714072
 21
17.4890816623
  0
LINE
  5
37C
100
AcDbEntity
  8
0
100
AcDbLine
 62
7
  6
CONTINUOUS
 10
71.8515331598
 20
17.5915812845
 11
72.0244409637
 21
17.6008128673
  0
LINE
  5
37D
100
AcDbEntity
  8
0
100
AcDbLine
 62
7
  6
CONTINUOUS
 10
71.8515331598
 20
17.5915812845
 11
71.8767885434
 21
17.5928877482
  0
LINE
  5
37E
100
AcDbEntity
  8
0
100
AcDbLine
 62
7
  6
CONTINUOUS
 10
71.7220381415
 20
17.5849210312
 11
71.8238267363
 21
17.5901643514
  0
LINE
  5
37F
100
AcDbEntity
  8
0
100
AcDbLine
 62
7
  6
CONTINUOUS
 10
71.7153144814
 20
17.5845809113
 11
71.7220381415
 21
17.5849210312
  0
LINE
  5
380
100
AcDbEntity
  8
0
100
AcDbLine
 62
7
  6
CONTINUOUS
 10
71.8049175174
 20
17.5892071499
 11
71.8085625621
 21
17.5893910366
  0
LINE
  5
381
100
AcDbEntity
  8
0
100
AcDbLine
 62
7
  6
CONTINUOUS
 10
71.6738571691
 20
17.5825091504
 11
71.7153144814
 21
17.5845809113
  0
LINE
  5
382
100
AcDbEntity
  8
0
100
AcDbLine
 62
7
  6
CONTINUOUS
 10
71.6691220918
 20
17.5822753092
 11
71.6738571691
 21
17.5825091504
  0
LINE
  5
383
100
AcDbEntity
  8
0
100
AcDbLine
 62
7
  6
CONTINUOUS
 10
71.6619672711
 20
17.5819230557
 11
71.6691220918
 21
17.5822753092
  0
LINE
  5
384
100
AcDbEntity
  8
0
100
AcDbLine
 62
7
  6
CONTINUOUS
 10
71.654748184
 20
17.5815689645
 11
71.6619672711
 21
17.5819230557
  0
LINE
  5
385
100
AcDbEntity
  8
0
100
AcDbLine
 62
7
  6
CONTINUOUS
 10
71.6474630322
 20
17.5812129847
 11
71.654748184
 21
17.5815689645
  0
LINE
  5
386
100
AcDbEntity
  8
0
100
AcDbLine
 62
7
  6
CONTINUOUS
 10
71.6401088552
 20
17.5808550107
 11
71.6474630322
 21
17.5812129847
  0
LINE
  5
387
100
AcDbEntity
  8
0
100
AcDbLine
 62
7
  6
CONTINUOUS
 10
71.6276838395
 20
17.5802533576
 11
71.6401088552
 21
17.5808550107
  0
LINE
  5
388
100
AcDbEntity
  8
0
100
AcDbLine
 62
7
  6
CONTINUOUS
 10
71.6201186883
 20
17.5798889729
 11
71.6276838395
 21
17.5802533576
  0
LINE
  5
389
100
AcDbEntity
  8
0
100
AcDbLine
 62
7
  6
CONTINUOUS
 10
71.6073047033
 20
17.5792751269
 11
71.6201186883
 21
17.5798889729
  0
LINE
  5
38A
100
AcDbEntity
  8
0
100
AcDbLine
 62
7
  6
CONTINUOUS
 10
71.5994804876
 20
17.578902389
 11
71.6073047033
 21
17.5792751269
  0
LINE
  5
38B
100
AcDbEntity
  8
0
100
AcDbLine
 62
7
  6
CONTINUOUS
 10
71.586195504
 20
17.5782731143
 11
71.5994804876
 21
17.578902389
  0
LINE
  5
38C
100
AcDbEntity
  8
0
100
AcDbLine
 62
7
  6
CONTINUOUS
 10
71.5725849238
 20
17.577633132
 11
71.586195504
 21
17.5782731143
  0
LINE
  5
38D
100
AcDbEntity
  8
0
100
AcDbLine
 62
7
  6
CONTINUOUS
 10
71.5586441118
 20
17.5769825739
 11
71.5725849238
 21
17.577633132
  0
LINE
  5
38E
100
AcDbEntity
  8
0
100
AcDbLine
 62
7
  6
CONTINUOUS
 10
71.5443770288
 20
17.576321984
 11
71.5586441118
 21
17.5769825739
  0
LINE
  5
38F
100
AcDbEntity
  8
0
100
AcDbLine
 62
7
  6
CONTINUOUS
 10
71.5385797278
 20
17.5760550616
 11
71.5443770288
 21
17.576321984
  0
LINE
  5
390
100
AcDbEntity
  8
0
100
AcDbLine
 62
7
  6
CONTINUOUS
 10
71.5238625137
 20
17.5753813466
 11
71.5385797278
 21
17.5760550616
  0
LINE
  5
391
100
AcDbEntity
  8
0
100
AcDbLine
 62
7
  6
CONTINUOUS
 10
71.5118604524
 20
17.5748360724
 11
71.5238625137
 21
17.5753813466
  0
LINE
  5
392
100
AcDbEntity
  8
0
100
AcDbLine
 62
7
  6
CONTINUOUS
 10
71.4965757882
 20
17.5741470642
 11
71.5118604524
 21
17.5748360724
  0
LINE
  5
393
100
AcDbEntity
  8
0
100
AcDbLine
 62
7
  6
CONTINUOUS
 10
71.4841248014
 20
17.5735902689
 11
71.4965757882
 21
17.5741470642
  0
LINE
  5
394
100
AcDbEntity
  8
0
100
AcDbLine
 62
7
  6
CONTINUOUS
 10
71.4714744695
 20
17.5730286777
 11
71.4841248014
 21
17.5735902689
  0
LINE
  5
395
100
AcDbEntity
  8
0
100
AcDbLine
 62
7
  6
CONTINUOUS
 10
71.4586145654
 20
17.5724620412
 11
71.4714744695
 21
17.5730286777
  0
LINE
  5
396
100
AcDbEntity
  8
0
100
AcDbLine
 62
7
  6
CONTINUOUS
 10
71.4455331603
 20
17.5718900532
 11
71.4586145654
 21
17.5724620412
  0
LINE
  5
397
100
AcDbEntity
  8
0
100
AcDbLine
 62
7
  6
CONTINUOUS
 10
71.4322183558
 20
17.5713124291
 11
71.4455331603
 21
17.5718900532
  0
LINE
  5
398
100
AcDbEntity
  8
0
100
AcDbLine
 62
7
  6
CONTINUOUS
 10
71.4186582836
 20
17.5707289063
 11
71.4322183558
 21
17.5713124291
  0
LINE
  5
399
100
AcDbEntity
  8
0
100
AcDbLine
 62
7
  6
CONTINUOUS
 10
71.4048411046
 20
17.5701392452
 11
71.4186582836
 21
17.5707289063
  0
LINE
  5
39A
100
AcDbEntity
  8
0
100
AcDbLine
 62
7
  6
CONTINUOUS
 10
71.3907550087
 20
17.5695432299
 11
71.4048411046
 21
17.5701392452
  0
LINE
  5
39B
100
AcDbEntity
  8
0
100
AcDbLine
 62
7
  6
CONTINUOUS
 10
71.3763881021
 20
17.5689406639
 11
71.3907550087
 21
17.5695432299
  0
LINE
  5
39C
100
AcDbEntity
  8
0
100
AcDbLine
 62
7
  6
CONTINUOUS
 10
71.3654209888
 20
17.5684843156
 11
71.3763881021
 21
17.5689406639
  0
LINE
  5
39D
100
AcDbEntity
  8
0
100
AcDbLine
 62
7
  6
CONTINUOUS
 10
71.3505317107
 20
17.5678697915
 11
71.3654209888
 21
17.5684843156
  0
LINE
  5
39E
100
AcDbEntity
  8
0
100
AcDbLine
 62
7
  6
CONTINUOUS
 10
71.3429691817
 20
17.5675598826
 11
71.3505317107
 21
17.5678697915
  0
LINE
  5
39F
100
AcDbEntity
  8
0
100
AcDbLine
 62
7
  6
CONTINUOUS
 10
71.3237058789
 20
17.5667772392
 11
71.3429691817
 21
17.5675598826
  0
LINE
  5
3A0
100
AcDbEntity
  8
0
100
AcDbLine
 62
7
  6
CONTINUOUS
 10
36.7994882509
 20
17.9981713186
 11
36.8188737887
 21
17.998952781
  0
LINE
  5
3A1
100
AcDbEntity
  8
0
100
AcDbLine
 62
7
  6
CONTINUOUS
 10
71.3158534755
 20
17.5664609921
 11
71.3237058789
 21
17.5667772392
  0
LINE
  5
3A2
100
AcDbEntity
  8
0
100
AcDbLine
 62
7
  6
CONTINUOUS
 10
71.3039121837
 20
17.5659831642
 11
71.3158534755
 21
17.5664609921
  0
LINE
  5
3A3
100
AcDbEntity
  8
0
100
AcDbLine
 62
7
  6
CONTINUOUS
 10
71.2958404957
 20
17.5656622935
 11
71.3039121837
 21
17.5659831642
  0
LINE
  5
3A4
100
AcDbEntity
  8
0
100
AcDbLine
 62
7
  6
CONTINUOUS
 10
71.2835625425
 20
17.5651774874
 11
71.2958404957
 21
17.5656622935
  0
LINE
  5
3A5
100
AcDbEntity
  8
0
100
AcDbLine
 62
7
  6
CONTINUOUS
 10
71.2710733529
 20
17.5646883964
 11
71.2835625425
 21
17.5651774874
  0
LINE
  5
3A6
100
AcDbEntity
  8
0
100
AcDbLine
 62
7
  6
CONTINUOUS
 10
36.798987099
 20
17.9669259733
 11
36.820592339
 21
17.9677703096
  0
LINE
  5
3A7
100
AcDbEntity
  8
0
100
AcDbLine
 62
7
  6
CONTINUOUS
 10
71.2626254196
 20
17.5643598862
 11
71.2710733529
 21
17.5646883964
  0
LINE
  5
3A8
100
AcDbEntity
  8
0
100
AcDbLine
 62
7
  6
CONTINUOUS
 10
71.2497640957
 20
17.5638633523
 11
71.2626254196
 21
17.5643598862
  0
LINE
  5
3A9
100
AcDbEntity
  8
0
100
AcDbLine
 62
7
  6
CONTINUOUS
 10
71.2366674213
 20
17.563362197
 11
71.2497640957
 21
17.5638633523
  0
LINE
  5
3AA
100
AcDbEntity
  8
0
100
AcDbLine
 62
7
  6
CONTINUOUS
 10
71.2233263662
 20
17.562856325
 11
71.2366674213
 21
17.563362197
  0
LINE
  5
3AB
100
AcDbEntity
  8
0
100
AcDbLine
 62
7
  6
CONTINUOUS
 10
71.2097319172
 20
17.5623456594
 11
71.2233263662
 21
17.562856325
  0
LINE
  5
3AC
100
AcDbEntity
  8
0
100
AcDbLine
 62
7
  6
CONTINUOUS
 10
71.1911962987
 20
17.5616572178
 11
71.2097319172
 21
17.5623456594
  0
LINE
  5
3AD
100
AcDbEntity
  8
0
100
AcDbLine
 62
7
  6
CONTINUOUS
 10
71.1769745289
 20
17.5611351326
 11
71.1911962987
 21
17.5616572178
  0
LINE
  5
3AE
100
AcDbEntity
  8
0
100
AcDbLine
 62
7
  6
CONTINUOUS
 10
71.1575611503
 20
17.5604310646
 11
71.1769745289
 21
17.5611351326
  0
LINE
  5
3AF
100
AcDbEntity
  8
0
100
AcDbLine
 62
7
  6
CONTINUOUS
 10
71.137602956
 20
17.5597175977
 11
71.1575611503
 21
17.5604310646
  0
LINE
  5
3B0
100
AcDbEntity
  8
0
100
AcDbLine
 62
7
  6
CONTINUOUS
 10
71.1118404683
 20
17.5588121809
 11
71.137602956
 21
17.5597175977
  0
LINE
  5
3B1
100
AcDbEntity
  8
0
100
AcDbLine
 62
7
  6
CONTINUOUS
 10
71.085114374
 20
17.5578914259
 11
71.1118404683
 21
17.5588121809
  0
LINE
  5
3B2
100
AcDbEntity
  8
0
100
AcDbLine
 62
7
  6
CONTINUOUS
 10
71.0516623302
 20
17.5567655669
 11
71.085114374
 21
17.5578914259
  0
LINE
  5
3B3
100
AcDbEntity
  8
0
100
AcDbLine
 62
7
  6
CONTINUOUS
 10
70.9859045802
 20
17.5546388087
 11
71.0516623302
 21
17.5567655669
  0
LINE
  5
3B4
100
AcDbEntity
  8
0
100
AcDbLine
 62
7
  6
CONTINUOUS
 10
70.8517559027
 20
17.5506562819
 11
70.9859045802
 21
17.5546388087
  0
LINE
  5
3B5
100
AcDbEntity
  8
0
100
AcDbLine
 62
7
  6
CONTINUOUS
 10
69.2658144688
 20
16.2801943186
 11
69.2984127739
 21
16.281156555
  0
LINE
  5
3B6
100
AcDbEntity
  8
0
100
AcDbLine
 62
7
  6
CONTINUOUS
 10
80.271252613
 20
36.6693782522
 11
80.1122108649
 21
36.6659868207
  0
LINE
  5
3B7
100
AcDbEntity
  8
0
100
AcDbLine
 62
7
  6
CONTINUOUS
 10
36.8188737887
 20
17.998952781
 11
36.8513034305
 21
17.9995336099
  0
LINE
  5
3B8
100
AcDbEntity
  8
0
100
AcDbLine
 62
7
  6
CONTINUOUS
 10
80.1122108649
 20
36.6659868207
 11
79.9301529887
 21
36.6630480697
  0
LINE
  5
3B9
100
AcDbEntity
  8
0
100
AcDbLine
 62
7
  6
CONTINUOUS
 10
36.820592339
 20
17.9677703096
 11
36.8589727168
 21
17.9683758606
  0
LINE
  5
3BA
100
AcDbEntity
  8
0
100
AcDbLine
 62
7
  6
CONTINUOUS
 10
69.2558558692
 20
16.2801083736
 11
69.2658144688
 21
16.2801943186
  0
LINE
  5
3BB
100
AcDbEntity
  8
0
100
AcDbLine
 62
7
  6
CONTINUOUS
 10
36.8513034305
 20
17.9995336099
 11
36.8976984916
 21
17.9998977213
  0
LINE
  5
3BC
100
AcDbEntity
  8
0
100
AcDbLine
 62
7
  6
CONTINUOUS
 10
79.9301529887
 20
36.6630480697
 11
79.7428073124
 21
36.6615941496
  0
LINE
  5
3BD
100
AcDbEntity
  8
0
100
AcDbLine
 62
7
  6
CONTINUOUS
 10
36.8589727168
 20
17.9683758606
 11
36.91521422
 21
17.968728515
  0
LINE
  5
3BE
100
AcDbEntity
  8
0
100
AcDbLine
 62
7
  6
CONTINUOUS
 10
21.2207316303
 20
36.6703285487
 11
21.2398088862
 21
36.6703928536
  0
LINE
  5
3BF
100
AcDbEntity
  8
0
100
AcDbLine
 62
7
  6
CONTINUOUS
 10
36.91521422
 20
17.968728515
 11
36.9878757253
 21
17.9688439697
  0
LINE
  5
3C0
100
AcDbEntity
  8
0
100
AcDbLine
 62
7
  6
CONTINUOUS
 10
79.7428073124
 20
36.6615941496
 11
79.3370214858
 21
36.6610066878
  0
LINE
  5
3C1
100
AcDbEntity
  8
0
100
AcDbLine
 62
7
  6
CONTINUOUS
 10
36.8976984916
 20
17.9998977213
 11
37.0258070448
 21
18.0000670667
  0
LINE
  5
3C2
100
AcDbEntity
  8
0
100
AcDbLine
 62
7
  6
CONTINUOUS
 10
79.3370214858
 20
36.6610066878
 11
78.6489257833
 21
36.6601360507
  0
LINE
  5
3C3
100
AcDbEntity
  8
0
100
AcDbLine
 62
7
  6
CONTINUOUS
 10
78.6489257833
 20
36.6601360507
 11
77.8333684029
 21
36.6594534967
  0
LINE
  5
3C4
100
AcDbEntity
  8
0
100
AcDbLine
 62
7
  6
CONTINUOUS
 10
77.8333684029
 20
36.6594534967
 11
76.8309894732
 21
36.6592459174
  0
LINE
  5
3C5
100
AcDbEntity
  8
0
100
AcDbLine
 62
7
  6
CONTINUOUS
 10
69.2558691634
 20
16.2799923455
 11
38.6308671248
 21
16.2799923455
  0
LINE
  5
3C6
100
AcDbEntity
  8
0
100
AcDbLine
 62
7
  6
CONTINUOUS
 10
70.2392420441
 20
17.0362423455
 11
71.0273147208
 21
17.0362423455
  0
LINE
  5
3C7
100
AcDbEntity
  8
0
100
AcDbLine
 62
7
  6
CONTINUOUS
 10
20.7558681114
 20
35.1612423455
 11
80.7558681114
 21
35.1612423455
  0
LINE
  5
3C8
100
AcDbEntity
  8
0
100
AcDbLine
 62
7
  6
CONTINUOUS
 10
76.8309894732
 20
36.6592459174
 11
24.0400049601
 21
36.6594040851
  0
LINE
  5
3C9
100
AcDbEntity
  8
0
100
AcDbLine
 62
7
  6
CONTINUOUS
 10
24.0400049601
 20
36.6594040851
 11
23.3317750068
 21
36.6599167669
  0
LINE
  5
3CA
100
AcDbEntity
  8
0
100
AcDbLine
 62
7
  6
CONTINUOUS
 10
23.3317750068
 20
36.6599167669
 11
22.1933377141
 21
36.6613458602
  0
LINE
  5
3CB
100
AcDbEntity
  8
0
100
AcDbLine
 62
7
  6
CONTINUOUS
 10
22.1933377141
 20
36.6613458602
 11
21.7635740806
 21
36.6621790359
  0
LINE
  5
3CC
100
AcDbEntity
  8
0
100
AcDbLine
 62
7
  6
CONTINUOUS
 10
36.9878757253
 20
17.9688439697
 11
37.1785684586
 21
17.9683951323
  0
LINE
  5
3CD
100
AcDbEntity
  8
0
100
AcDbLine
 62
7
  6
CONTINUOUS
 10
37.0258070448
 20
18.0000670667
 11
37.1955609756
 21
17.999573253
  0
LINE
  5
3CE
100
AcDbEntity
  8
0
100
AcDbLine
 62
7
  6
CONTINUOUS
 10
37.1955609756
 20
17.999573253
 11
37.4013971387
 21
17.9984864381
  0
LINE
  5
3CF
100
AcDbEntity
  8
0
100
AcDbLine
 62
7
  6
CONTINUOUS
 10
37.1785684586
 20
17.9683951323
 11
37.4244555711
 21
17.9670943297
  0
LINE
  5
3D0
100
AcDbEntity
  8
0
100
AcDbLine
 62
7
  6
CONTINUOUS
 10
38.1421254817
 20
17.9614731751
 11
38.434269285
 21
17.959782057
  0
LINE
  5
3D1
100
AcDbEntity
  8
0
100
AcDbLine
 62
7
  6
CONTINUOUS
 10
38.0468162383
 20
17.9934350945
 11
38.3373192752
 21
17.9916334593
  0
LINE
  5
3D2
100
AcDbEntity
  8
0
100
AcDbLine
 62
7
  6
CONTINUOUS
 10
37.4013971387
 20
17.9984864381
 11
37.6390234546
 21
17.9968494848
  0
LINE
  5
3D3
100
AcDbEntity
  8
0
100
AcDbLine
 62
7
  6
CONTINUOUS
 10
38.3373192752
 20
17.9916334593
 11
38.4843120978
 21
17.9906023251
  0
LINE
  5
3D4
100
AcDbEntity
  8
0
100
AcDbLine
 62
7
  6
CONTINUOUS
 10
37.4244555711
 20
17.9670943297
 11
37.7172806049
 21
17.9649969869
  0
LINE
  5
3D5
100
AcDbEntity
  8
0
100
AcDbLine
 62
7
  6
CONTINUOUS
 10
37.6390234546
 20
17.9968494848
 11
37.9047228769
 21
17.994698386
  0
LINE
  5
3D6
100
AcDbEntity
  8
0
100
AcDbLine
 62
7
  6
CONTINUOUS
 10
37.7172806049
 20
17.9649969869
 11
38.1421254817
 21
17.9614731751
  0
LINE
  5
3D7
100
AcDbEntity
  8
0
100
AcDbLine
 62
7
  6
CONTINUOUS
 10
38.434269285
 20
17.959782057
 11
38.5329250472
 21
17.9589430553
  0
LINE
  5
3D8
100
AcDbEntity
  8
0
100
AcDbLine
 62
7
  6
CONTINUOUS
 10
38.6209217281
 20
16.2801943189
 11
38.6308806674
 21
16.2801083724
  0
LINE
  5
3D9
100
AcDbEntity
  8
0
100
AcDbLine
 62
7
  6
CONTINUOUS
 10
37.9047228769
 20
17.994698386
 11
38.0468162702
 21
17.9934358599
  0
LINE
  5
3DA
100
AcDbEntity
  8
0
100
AcDbLine
 62
7
  6
CONTINUOUS
 10
21.7635740806
 20
36.6621790359
 11
21.6390949365
 21
36.6633796032
  0
LINE
  5
3DB
100
AcDbEntity
  8
0
100
AcDbLine
 62
7
  6
CONTINUOUS
 10
38.4843120978
 20
17.9906023251
 11
38.632695742
 21
17.9890545655
  0
LINE
  5
3DC
100
AcDbEntity
  8
0
100
AcDbLine
 62
7
  6
CONTINUOUS
 10
80.2972850401
 20
36.669101773
 11
80.2712386276
 21
36.6693778546
  0
LINE
  5
3DD
100
AcDbEntity
  8
0
100
AcDbLine
 62
7
  6
CONTINUOUS
 10
68.3448959684
 20
17.6000497303
 11
69.257317499
 21
17.5901715643
  0
LINE
  5
3DE
100
AcDbEntity
  8
0
100
AcDbLine
 62
7
  6
CONTINUOUS
 10
67.521220259
 20
17.6403669635
 11
69.2576456532
 21
17.6213828048
  0
LINE
  5
3DF
100
AcDbEntity
  8
0
100
AcDbLine
 62
7
  6
CONTINUOUS
 10
66.5314311134
 20
17.6202673809
 11
68.3448959684
 21
17.6000497303
  0
LINE
  5
3E0
100
AcDbEntity
  8
0
100
AcDbLine
 62
7
  6
CONTINUOUS
 10
66.6038416432
 20
17.650667396
 11
67.521220259
 21
17.6403669635
  0
LINE
  5
3E1
100
AcDbEntity
  8
0
100
AcDbLine
 62
7
  6
CONTINUOUS
 10
64.7242065995
 20
17.640945039
 11
66.5314311134
 21
17.6202673809
  0
LINE
  5
3E2
100
AcDbEntity
  8
0
100
AcDbLine
 62
7
  6
CONTINUOUS
 10
64.6598935297
 20
17.6729105393
 11
66.6038416432
 21
17.650667396
  0
LINE
  5
3E3
100
AcDbEntity
  8
0
100
AcDbLine
 62
7
  6
CONTINUOUS
 10
63.8176384523
 20
17.6514620705
 11
64.7242065995
 21
17.640945039
  0
LINE
  5
3E4
100
AcDbEntity
  8
0
100
AcDbLine
 62
7
  6
CONTINUOUS
 10
61.9901087746
 20
17.6728866931
 11
63.8176384523
 21
17.6514620705
  0
LINE
  5
3E5
100
AcDbEntity
  8
0
100
AcDbLine
 62
7
  6
CONTINUOUS
 10
63.6293371852
 20
17.6848805147
 11
64.6598935297
 21
17.6729105393
  0
LINE
  5
3E6
100
AcDbEntity
  8
0
100
AcDbLine
 62
7
  6
CONTINUOUS
 10
61.0624860871
 20
17.683854371
 11
61.9901087746
 21
17.6728866931
  0
LINE
  5
3E7
100
AcDbEntity
  8
0
100
AcDbLine
 62
7
  6
CONTINUOUS
 10
61.4419880132
 20
17.7105880199
 11
63.6293371852
 21
17.6848805147
  0
LINE
  5
3E8
100
AcDbEntity
  8
0
100
AcDbLine
 62
7
  6
CONTINUOUS
 10
56.0339924384
 20
17.7440555366
 11
61.0624860871
 21
17.683854371
  0
LINE
  5
3E9
100
AcDbEntity
  8
0
100
AcDbLine
 62
7
  6
CONTINUOUS
 10
57.8160640017
 20
17.7538352812
 11
61.4419880132
 21
17.7105880199
  0
LINE
  5
3EA
100
AcDbEntity
  8
0
100
AcDbLine
 62
7
  6
CONTINUOUS
 10
48.7110545911
 20
17.8331938812
 11
56.0339924384
 21
17.7440555366
  0
LINE
  5
3EB
100
AcDbEntity
  8
0
100
AcDbLine
 62
7
  6
CONTINUOUS
 10
52.4742391636
 20
17.8184183567
 11
57.8160640017
 21
17.7538352812
  0
LINE
  5
3EC
100
AcDbEntity
  8
0
100
AcDbLine
 62
7
  6
CONTINUOUS
 10
48.4256857602
 20
17.8679294678
 11
52.4742391636
 21
17.8184183567
  0
LINE
  5
3ED
100
AcDbEntity
  8
0
100
AcDbLine
 62
7
  6
CONTINUOUS
 10
45.5052185522
 20
17.8726677766
 11
48.7110545911
 21
17.8331938812
  0
LINE
  5
3EE
100
AcDbEntity
  8
0
100
AcDbLine
 62
7
  6
CONTINUOUS
 10
38.5329250472
 20
17.9589430553
 11
45.5052185522
 21
17.8726677766
  0
LINE
  5
3EF
100
AcDbEntity
  8
0
100
AcDbLine
 62
7
  6
CONTINUOUS
 10
45.4384608989
 20
17.9047182912
 11
48.4256857602
 21
17.8679294678
  0
LINE
  5
3F0
100
AcDbEntity
  8
0
100
AcDbLine
 62
7
  6
CONTINUOUS
 10
38.632695742
 20
17.9890545655
 11
45.4384608989
 21
17.9047182912
  0
LINE
  5
3F1
100
AcDbEntity
  8
0
100
AcDbLine
 62
7
  6
CONTINUOUS
 10
69.257317499
 20
17.5901715643
 11
69.4190533974
 21
17.5879993912
  0
LINE
  5
3F2
100
AcDbEntity
  8
0
100
AcDbLine
 62
7
  6
CONTINUOUS
 10
69.2576456532
 20
17.6213828048
 11
69.4093268043
 21
17.6193538367
  0
LINE
  5
3F3
100
AcDbEntity
  8
0
100
AcDbLine
 62
7
  6
CONTINUOUS
 10
21.6390949365
 20
36.6633796032
 11
21.5132324681
 21
36.6651668247
  0
LINE
  5
3F4
100
AcDbEntity
  8
0
100
AcDbLine
 62
7
  6
CONTINUOUS
 10
35.1880106745
 20
18.0083734293
 11
35.6413168061
 21
18.0011661177
  0
LINE
  5
3F5
100
AcDbEntity
  8
0
100
AcDbLine
 62
7
  6
CONTINUOUS
 10
35.1874788386
 20
17.9771279552
 11
35.7133069713
 21
17.9687379899
  0
LINE
  5
3F6
100
AcDbEntity
  8
0
100
AcDbLine
 62
7
  6
CONTINUOUS
 10
69.4093268043
 20
17.6193538367
 11
69.5589977687
 21
17.6168845772
  0
LINE
  5
3F7
100
AcDbEntity
  8
0
100
AcDbLine
 62
7
  6
CONTINUOUS
 10
35.7133069713
 20
17.9687379899
 11
36.3934894604
 21
17.9573148502
  0
LINE
  5
3F8
100
AcDbEntity
  8
0
100
AcDbLine
 62
7
  6
CONTINUOUS
 10
35.6413168061
 20
18.0011661177
 11
36.2535730353
 21
17.9909648387
  0
LINE
  5
3F9
100
AcDbEntity
  8
DEFAULT_1
100
AcDbLine
 62
7
  6
CENTER
 10
51.50813059
 20
17.9661648892
 11
65.5187949803
 21
17.7320444992
  0
LINE
  5
3FA
100
AcDbEntity
  8
0
100
AcDbLine
 62
7
  6
CONTINUOUS
 10
69.4190533974
 20
17.5879993912
 11
69.581388941
 21
17.5852488902
  0
LINE
  5
3FB
100
AcDbEntity
  8
0
100
AcDbLine
 62
7
  6
CONTINUOUS
 10
36.3526677854
 20
17.3946431165
 11
37.4665209237
 21
17.375693937
  0
LINE
  5
3FC
100
AcDbEntity
  8
0
100
AcDbLine
 62
7
  6
CONTINUOUS
 10
33.7854093016
 20
18.1371691393
 11
36.7616977015
 21
18.0865045421
  0
LINE
  5
3FD
100
AcDbEntity
  8
0
100
AcDbLine
 62
7
  6
CONTINUOUS
 10
36.3934894604
 20
17.9573148502
 11
36.9982512814
 21
17.9469045239
  0
LINE
  5
3FE
100
AcDbEntity
  8
0
100
AcDbLine
 62
7
  6
CONTINUOUS
 10
36.2535730353
 20
17.9909648387
 11
36.7992027768
 21
17.9815860925
  0
LINE
  5
3FF
100
AcDbEntity
  8
0
100
AcDbLine
 62
7
  6
CONTINUOUS
 10
36.7616977015
 20
18.0865045421
 11
39.5701711292
 21
18.0381656974
  0
LINE
  5
400
100
AcDbEntity
  8
0
100
AcDbLine
 62
7
  6
CONTINUOUS
 10
39.5701711292
 20
18.0381656974
 11
44.6836623447
 21
17.9494668011
  0
LINE
  5
401
100
AcDbEntity
  8
0
100
AcDbLine
 62
7
  6
CONTINUOUS
 10
44.6836623447
 20
17.9494668011
 11
51.613169514
 21
17.8289145264
  0
LINE
  5
402
100
AcDbEntity
  8
0
100
AcDbLine
 62
7
  6
CONTINUOUS
 10
21.5132324681
 20
36.6651668247
 11
21.3773306944
 21
36.6675594008
  0
LINE
  5
403
100
AcDbEntity
  8
0
100
AcDbLine
 62
7
  6
CONTINUOUS
 10
69.5589977687
 20
17.6168845772
 11
69.7067211978
 21
17.6139566698
  0
LINE
  5
404
100
AcDbEntity
  8
0
100
AcDbLine
 62
7
  6
CONTINUOUS
 10
69.581388941
 20
17.5852488902
 11
69.7449183915
 21
17.5819009847
  0
LINE
  5
405
100
AcDbEntity
  8
0
100
AcDbLine
 62
7
  6
CONTINUOUS
 10
21.3773306944
 20
36.6675594008
 11
21.2397958805
 21
36.67039314
  0
LINE
  5
406
100
AcDbEntity
  8
0
100
AcDbLine
 62
7
  6
CONTINUOUS
 10
69.7067211978
 20
17.6139566698
 11
69.8503450063
 21
17.6106512915
  0
LINE
  5
407
100
AcDbEntity
  8
0
100
AcDbLine
 62
7
  6
CONTINUOUS
 10
69.7449183915
 20
17.5819009847
 11
69.9051135996
 21
17.5780532321
  0
LINE
  5
408
100
AcDbEntity
  8
0
100
AcDbLine
 62
7
  6
CONTINUOUS
 10
69.8503450063
 20
17.6106512915
 11
69.9883244012
 21
17.607039358
  0
LINE
  5
409
100
AcDbEntity
  8
0
100
AcDbLine
 62
7
  6
CONTINUOUS
 10
69.9051135996
 20
17.5780532321
 11
70.0582997922
 21
17.573801555
  0
LINE
  5
40A
100
AcDbEntity
  8
0
100
AcDbLine
 62
7
  6
CONTINUOUS
 10
38.5883234232
 20
16.2811565561
 11
38.6209217281
 21
16.2801943189
  0
LINE
  5
40B
100
AcDbEntity
  8
0
100
AcDbLine
 62
7
  6
CONTINUOUS
 10
69.9883244012
 20
17.607039358
 11
70.1196624769
 21
17.6031246715
  0
LINE
  5
40C
100
AcDbEntity
  8
0
100
AcDbLine
 62
7
  6
CONTINUOUS
 10
36.938062024
 20
17.9598401442
 11
36.8689573991
 21
17.962031091
  0
LINE
  5
40D
100
AcDbEntity
  8
0
100
AcDbLine
 62
7
  6
CONTINUOUS
 10
70.0582997922
 20
17.573801555
 11
70.2034152414
 21
17.5691254326
  0
LINE
  5
40E
100
AcDbEntity
  8
0
100
AcDbLine
 62
7
  6
CONTINUOUS
 10
70.1196624769
 20
17.6031246715
 11
70.2433958419
 21
17.5989309436
  0
LINE
  5
40F
100
AcDbEntity
  8
0
100
AcDbLine
 62
7
  6
CONTINUOUS
 10
70.2034152414
 20
17.5691254326
 11
70.339415526
 21
17.5640138169
  0
LINE
  5
410
100
AcDbEntity
  8
0
100
AcDbLine
 62
7
  6
CONTINUOUS
 10
70.2433958419
 20
17.5989309436
 11
70.3581669375
 21
17.5944773337
  0
LINE
  5
411
100
AcDbEntity
  8
0
100
AcDbLine
 62
7
  6
CONTINUOUS
 10
70.339415526
 20
17.5640138169
 11
70.4629520427
 21
17.5585525266
  0
LINE
  5
412
100
AcDbEntity
  8
0
100
AcDbLine
 62
7
  6
CONTINUOUS
 10
70.3581669375
 20
17.5944773337
 11
70.4627209206
 21
17.5897827097
  0
LINE
  5
413
100
AcDbEntity
  8
0
100
AcDbLine
 62
7
  6
CONTINUOUS
 10
70.4627209206
 20
17.5897827097
 11
70.5563045237
 21
17.5848779359
  0
LINE
  5
414
100
AcDbEntity
  8
0
100
AcDbLine
 62
7
  6
CONTINUOUS
 10
70.4629520427
 20
17.5585525266
 11
70.5709294865
 21
17.5528212417
  0
LINE
  5
415
100
AcDbEntity
  8
0
100
AcDbLine
 62
7
  6
CONTINUOUS
 10
80.3139555847
 20
36.6679728424
 11
80.2935571186
 21
36.6691412875
  0
LINE
  5
416
100
AcDbEntity
  8
0
100
AcDbLine
 62
7
  6
CONTINUOUS
 10
70.5563045237
 20
17.5848779359
 11
70.6381540852
 21
17.5797930935
  0
LINE
  5
417
100
AcDbEntity
  8
0
100
AcDbLine
 62
7
  6
CONTINUOUS
 10
36.9159727589
 20
17.9625145693
 11
36.9148222954
 21
17.9625879555
  0
LINE
  5
418
100
AcDbEntity
  8
0
100
AcDbLine
 62
7
  6
CONTINUOUS
 10
38.5534588246
 20
16.2833846421
 11
38.5883234232
 21
16.2811565561
  0
LINE
  5
419
100
AcDbEntity
  8
0
100
AcDbLine
 62
7
  6
CONTINUOUS
 10
70.5709294865
 20
17.5528212417
 11
70.6628773011
 21
17.5468337172
  0
LINE
  5
41A
100
AcDbEntity
  8
0
100
AcDbLine
 62
7
  6
CONTINUOUS
 10
70.6381540852
 20
17.5797930935
 11
70.7075987348
 21
17.5745518947
  0
LINE
  5
41B
100
AcDbEntity
  8
0
100
AcDbLine
 62
7
  6
CONTINUOUS
 10
36.9148222954
 20
17.9625879555
 11
36.9155682672
 21
17.9625311642
  0
LINE
  5
41C
100
AcDbEntity
  8
0
100
AcDbLine
 62
7
  6
CONTINUOUS
 10
80.3212169526
 20
36.6672470096
 11
80.2972850401
 21
36.669101773
  0
LINE
  5
41D
100
AcDbEntity
  8
0
100
AcDbLine
 62
7
  6
CONTINUOUS
 10
70.6628773011
 20
17.5468337172
 11
70.7380487907
 21
17.5405936848
  0
LINE
  5
41E
100
AcDbEntity
  8
0
100
AcDbLine
 62
7
  6
CONTINUOUS
 10
36.9155682672
 20
17.9625311642
 11
36.9182931397
 21
17.9622977834
  0
LINE
  5
41F
100
AcDbEntity
  8
0
100
AcDbLine
 62
7
  6
CONTINUOUS
 10
70.7075987348
 20
17.5745518947
 11
70.7640594539
 21
17.5691741964
  0
LINE
  5
420
100
AcDbEntity
  8
0
100
AcDbLine
 62
7
  6
CONTINUOUS
 10
36.9182931397
 20
17.9622977834
 11
36.9232907222
 21
17.9618033903
  0
LINE
  5
421
100
AcDbEntity
  8
0
100
AcDbLine
 62
7
  6
CONTINUOUS
 10
38.5161469709
 20
16.2871865189
 11
38.5534588246
 21
16.2833846421
  0
LINE
  5
422
100
AcDbEntity
  8
0
100
AcDbLine
 62
7
  6
CONTINUOUS
 10
70.7380487907
 20
17.5405936848
 11
70.7950315834
 21
17.5342179355
  0
LINE
  5
423
100
AcDbEntity
  8
0
100
AcDbLine
 62
7
  6
CONTINUOUS
 10
36.9232907222
 20
17.9618033903
 11
36.9318620689
 21
17.9607962587
  0
LINE
  5
424
100
AcDbEntity
  8
0
100
AcDbLine
 62
7
  6
CONTINUOUS
 10
80.3378245939
 20
36.6650471126
 11
80.3139555847
 21
36.6679728424
  0
LINE
  5
425
100
AcDbEntity
  8
0
100
AcDbLine
 62
7
  6
CONTINUOUS
 10
70.7640594539
 20
17.5691741964
 11
70.8069787056
 21
17.5637025321
  0
LINE
  5
426
100
AcDbEntity
  8
DEFAULT_1
100
AcDbLine
 62
7
  6
CENTER
 10
79.6676371235
 20
32.7568627223
 11
74.0379631527
 21
33.5480618013
  0
LINE
  5
427
100
AcDbEntity
  8
0
100
AcDbLine
 62
7
  6
CONTINUOUS
 10
80.3445582093
 20
36.6639387808
 11
80.3212169526
 21
36.6672470096
  0
LINE
  5
428
100
AcDbEntity
  8
0
100
AcDbLine
 62
7
  6
CONTINUOUS
 10
38.4782240852
 20
16.2925788978
 11
38.5161469709
 21
16.2871865189
  0
LINE
  5
429
100
AcDbEntity
  8
0
100
AcDbLine
 62
7
  6
CONTINUOUS
 10
36.9318620689
 20
17.9607962587
 11
36.9455830096
 21
17.9588096385
  0
LINE
  5
42A
100
AcDbEntity
  8
0
100
AcDbLine
 62
7
  6
CONTINUOUS
 10
70.7950315834
 20
17.5342179355
 11
70.8320879443
 21
17.5278223861
  0
LINE
  5
42B
100
AcDbEntity
  8
0
100
AcDbLine
 62
7
  6
CONTINUOUS
 10
36.9455830096
 20
17.9588096385
 11
36.9636005304
 21
17.9555318743
  0
LINE
  5
42C
100
AcDbEntity
  8
0
100
AcDbLine
 62
7
  6
CONTINUOUS
 10
38.4389818039
 20
16.2997765921
 11
38.4782240852
 21
16.2925788978
  0
LINE
  5
42D
100
AcDbEntity
  8
0
100
AcDbLine
 62
7
  6
CONTINUOUS
 10
80.3613733659
 20
36.6606160685
 11
80.3378245939
 21
36.6650471126
  0
LINE
  5
42E
100
AcDbEntity
  8
0
100
AcDbLine
 62
7
  6
CONTINUOUS
 10
70.8069787056
 20
17.5637025321
 11
70.8355011528
 21
17.558184131
  0
LINE
  5
42F
100
AcDbEntity
  8
0
100
AcDbLine
 62
7
  6
CONTINUOUS
 10
80.3671646209
 20
36.6592853038
 11
80.3445582093
 21
36.6639387808
  0
LINE
  5
430
100
AcDbEntity
  8
0
100
AcDbLine
 62
7
  6
CONTINUOUS
 10
38.3990787019
 20
16.3087904362
 11
38.4389818039
 21
16.2997765921
  0
LINE
  5
431
100
AcDbEntity
  8
0
100
AcDbLine
 62
7
  6
CONTINUOUS
 10
36.9636005304
 20
17.9555318743
 11
36.9860011177
 21
17.9504028761
  0
LINE
  5
432
100
AcDbEntity
  8
0
100
AcDbLine
 62
7
  6
CONTINUOUS
 10
80.3850211432
 20
36.6545652897
 11
80.3613733659
 21
36.6606160685
  0
LINE
  5
433
100
AcDbEntity
  8
0
100
AcDbLine
 62
7
  6
CONTINUOUS
 10
38.358690621
 20
16.3196985442
 11
38.3990787019
 21
16.3087904362
  0
LINE
  5
434
100
AcDbEntity
  8
0
100
AcDbLine
 62
7
  6
CONTINUOUS
 10
80.3889411065
 20
36.6534019215
 11
80.3671646209
 21
36.6592853038
  0
LINE
  5
435
100
AcDbEntity
  8
0
100
AcDbLine
 62
7
  6
CONTINUOUS
 10
36.9860011177
 20
17.9504028761
 11
37.0111832499
 21
17.9432114647
  0
LINE
  5
436
100
AcDbEntity
  8
0
100
AcDbLine
 62
7
  6
CONTINUOUS
 10
38.3178556572
 20
16.332630211
 11
38.358690621
 21
16.3196985442
  0
LINE
  5
437
100
AcDbEntity
  8
0
100
AcDbLine
 62
7
  6
CONTINUOUS
 10
80.4080308112
 20
36.6470593367
 11
80.3850211432
 21
36.6545652897
  0
LINE
  5
438
100
AcDbEntity
  8
0
100
AcDbLine
 62
7
  6
CONTINUOUS
 10
80.4096644426
 20
36.6464631634
 11
80.3889411065
 21
36.6534019215
  0
LINE
  5
439
100
AcDbEntity
  8
0
100
AcDbLine
 62
7
  6
CONTINUOUS
 10
38.3094015838
 20
16.3355551374
 11
38.3178556572
 21
16.332630211
  0
LINE
  5
43A
100
AcDbEntity
  8
0
100
AcDbLine
 62
7
  6
CONTINUOUS
 10
70.8320879443
 20
17.5278223861
 11
70.8505222327
 21
17.5213919491
  0
LINE
  5
43B
100
AcDbEntity
  8
0
100
AcDbLine
 62
7
  6
CONTINUOUS
 10
37.0111832499
 20
17.9432114647
 11
37.0377336017
 21
17.9339245366
  0
LINE
  5
43C
100
AcDbEntity
  8
0
100
AcDbLine
 62
7
  6
CONTINUOUS
 10
38.3050894431
 20
16.3371429061
 11
38.3098968184
 21
16.335417257
  0
LINE
  5
43D
100
AcDbEntity
  8
0
100
AcDbLine
 62
7
  6
CONTINUOUS
 10
70.8355011528
 20
17.558184131
 11
70.8503539342
 21
17.5526201255
  0
LINE
  5
43E
100
AcDbEntity
  8
0
100
AcDbLine
 62
7
  6
CONTINUOUS
 10
38.2897046712
 20
16.3432289962
 11
38.3050894431
 21
16.3371429061
  0
LINE
  5
43F
100
AcDbEntity
  8
0
100
AcDbLine
 62
7
  6
CONTINUOUS
 10
80.4296273609
 20
36.6384685417
 11
80.4080308112
 21
36.6470593367
  0
LINE
  5
440
100
AcDbEntity
  8
0
100
AcDbLine
 62
7
  6
CONTINUOUS
 10
37.0377336017
 20
17.9339245366
 11
37.0653674836
 21
17.9222833072
  0
LINE
  5
441
100
AcDbEntity
  8
0
100
AcDbLine
 62
7
  6
CONTINUOUS
 10
38.2724924976
 20
16.350813783
 11
38.2897046712
 21
16.3432289962
  0
LINE
  5
442
100
AcDbEntity
  8
0
100
AcDbLine
 62
7
  6
CONTINUOUS
 10
80.4505775457
 20
36.628593393
 11
80.4296273609
 21
36.6384685417
  0
LINE
  5
443
100
AcDbEntity
  8
0
100
AcDbLine
 62
7
  6
CONTINUOUS
 10
38.2532130158
 20
16.3600154068
 11
38.2724924976
 21
16.350813783
  0
LINE
  5
444
100
AcDbEntity
  8
0
100
AcDbLine
 62
7
  6
CONTINUOUS
 10
37.0653674836
 20
17.9222833072
 11
37.0935860529
 21
17.9081435411
  0
LINE
  5
445
100
AcDbEntity
  8
0
100
AcDbLine
 62
7
  6
CONTINUOUS
 10
38.2314759947
 20
16.3710623095
 11
38.2532130158
 21
16.3600154068
  0
LINE
  5
446
100
AcDbEntity
  8
0
100
AcDbLine
 62
7
  6
CONTINUOUS
 10
38.2075848115
 20
16.3838605332
 11
38.2314759947
 21
16.3710623095
  0
LINE
  5
447
100
AcDbEntity
  8
0
100
AcDbLine
 62
7
  6
CONTINUOUS
 10
80.4682733168
 20
36.6189668711
 11
80.4490776668
 21
36.6293536221
  0
LINE
  5
448
100
AcDbEntity
  8
0
100
AcDbLine
 62
7
  6
CONTINUOUS
 10
80.4715704196
 20
36.6170342245
 11
80.4505775457
 21
36.628593393
  0
LINE
  5
449
100
AcDbEntity
  8
0
100
AcDbLine
 62
7
  6
CONTINUOUS
 10
38.1818186553
 20
16.3982937267
 11
38.2075848115
 21
16.3838605332
  0
LINE
  5
44A
100
AcDbEntity
  8
0
100
AcDbLine
 62
7
  6
CONTINUOUS
 10
36.0885081176
 20
17.4461126233
 11
36.1028030594
 21
17.4378152448
  0
LINE
  5
44B
100
AcDbEntity
  8
0
100
AcDbLine
 62
7
  6
CONTINUOUS
 10
38.1550110505
 20
16.4139272076
 11
38.1818186553
 21
16.3982937267
  0
LINE
  5
44C
100
AcDbEntity
  8
0
100
AcDbLine
 62
7
  6
CONTINUOUS
 10
36.071412854
 20
17.4561692885
 11
36.0885081176
 21
17.4461126233
  0
LINE
  5
44D
100
AcDbEntity
  8
0
100
AcDbLine
 62
7
  6
CONTINUOUS
 10
37.0935860529
 20
17.9081435411
 11
37.1216390642
 21
17.8915923757
  0
LINE
  5
44E
100
AcDbEntity
  8
0
100
AcDbLine
 62
7
  6
CONTINUOUS
 10
36.0485648701
 20
17.4697734484
 11
36.071412854
 21
17.4561692885
  0
LINE
  5
44F
100
AcDbEntity
  8
0
100
AcDbLine
 62
7
  6
CONTINUOUS
 10
38.1280682114
 20
16.4302100726
 11
38.1550110505
 21
16.4139272076
  0
LINE
  5
450
100
AcDbEntity
  8
0
100
AcDbLine
 62
7
  6
CONTINUOUS
 10
35.9895477395
 20
17.5054814079
 11
36.0485648701
 21
17.4697734484
  0
LINE
  5
451
100
AcDbEntity
  8
0
100
AcDbLine
 62
7
  6
CONTINUOUS
 10
35.9556086535
 20
17.5262628724
 11
36.020988148
 21
17.4863726035
  0
LINE
  5
452
100
AcDbEntity
  8
0
100
AcDbLine
 62
7
  6
CONTINUOUS
 10
35.8516692192
 20
17.5906257046
 11
35.9556086535
 21
17.5262628724
  0
LINE
  5
453
100
AcDbEntity
  8
0
100
AcDbLine
 62
7
  6
CONTINUOUS
 10
80.4880393192
 20
36.6066810348
 11
80.4682733168
 21
36.6189668711
  0
LINE
  5
454
100
AcDbEntity
  8
0
100
AcDbLine
 62
7
  6
CONTINUOUS
 10
38.1016400862
 20
16.4467311133
 11
38.1280682114
 21
16.4302100726
  0
LINE
  5
455
100
AcDbEntity
  8
0
100
AcDbLine
 62
7
  6
CONTINUOUS
 10
35.7416155607
 20
17.6595542786
 11
35.8516692192
 21
17.5906257046
  0
LINE
  5
456
100
AcDbEntity
  8
0
100
AcDbLine
 62
7
  6
CONTINUOUS
 10
80.4917506374
 20
36.6041792529
 11
80.4715704196
 21
36.6170342245
  0
LINE
  5
457
100
AcDbEntity
  8
0
100
AcDbLine
 62
7
  6
CONTINUOUS
 10
38.076485904
 20
16.4629760816
 11
38.1016400862
 21
16.4467311133
  0
LINE
  5
458
100
AcDbEntity
  8
0
100
AcDbLine
 62
7
  6
CONTINUOUS
 10
38.0529528268
 20
16.4787023301
 11
38.076485904
 21
16.4629760816
  0
LINE
  5
459
100
AcDbEntity
  8
0
100
AcDbLine
 62
7
  6
CONTINUOUS
 10
37.1216390642
 20
17.8915923757
 11
37.148702169
 21
17.8729620328
  0
LINE
  5
45A
100
AcDbEntity
  8
0
100
AcDbLine
 62
7
  6
CONTINUOUS
 10
38.0313783963
 20
16.4936592938
 11
38.0529528268
 21
16.4787023301
  0
LINE
  5
45B
100
AcDbEntity
  8
0
100
AcDbLine
 62
7
  6
CONTINUOUS
 10
80.5069903614
 20
36.593203964
 11
80.4880393192
 21
36.6066810348
  0
LINE
  5
45C
100
AcDbEntity
  8
0
100
AcDbLine
 62
7
  6
CONTINUOUS
 10
38.0119853395
 20
16.507666273
 11
38.0313783963
 21
16.4936592938
  0
LINE
  5
45D
100
AcDbEntity
  8
0
100
AcDbLine
 62
7
  6
CONTINUOUS
 10
80.5104729664
 20
36.5905286811
 11
80.4917506374
 21
36.6041792529
  0
LINE
  5
45E
100
AcDbEntity
  8
0
100
AcDbLine
 62
7
  6
CONTINUOUS
 10
37.9948829377
 20
16.5206510684
 11
38.0119853395
 21
16.507666273
  0
LINE
  5
45F
100
AcDbEntity
  8
0
100
AcDbLine
 62
7
  6
CONTINUOUS
 10
37.148702169
 20
17.8729620328
 11
37.1747680748
 21
17.8521588162
  0
LINE
  5
460
100
AcDbEntity
  8
0
100
AcDbLine
 62
7
  6
CONTINUOUS
 10
80.5241462159
 20
36.5793712012
 11
80.5069903614
 21
36.593203964
  0
LINE
  5
461
100
AcDbEntity
  8
0
100
AcDbLine
 62
7
  6
CONTINUOUS
 10
37.9800705718
 20
16.5326000784
 11
37.9948829377
 21
16.5206510684
  0
LINE
  5
462
100
AcDbEntity
  8
0
100
AcDbLine
 62
7
  6
CONTINUOUS
 10
80.528207815
 20
36.5758437401
 11
80.5104729664
 21
36.5905286811
  0
LINE
  5
463
100
AcDbEntity
  8
0
100
AcDbLine
 62
7
  6
CONTINUOUS
 10
37.9675331302
 20
16.5435274166
 11
37.9800705718
 21
16.5326000784
  0
LINE
  5
464
100
AcDbEntity
  8
0
100
AcDbLine
 62
7
  6
CONTINUOUS
 10
80.5399024606
 20
36.5650904315
 11
80.5241462159
 21
36.5793712012
  0
LINE
  5
465
100
AcDbEntity
  8
0
100
AcDbLine
 62
7
  6
CONTINUOUS
 10
37.1747680748
 20
17.8521588162
 11
37.1996316982
 21
17.8292135782
  0
LINE
  5
466
100
AcDbEntity
  8
0
100
AcDbLine
 62
7
  6
CONTINUOUS
 10
37.963253961
 20
16.5475200564
 11
37.9675331302
 21
16.5435274166
  0
LINE
  5
467
100
AcDbEntity
  8
0
100
AcDbLine
 62
7
  6
CONTINUOUS
 10
80.5451942377
 20
36.5599122937
 11
80.528207815
 21
36.5758437401
  0
LINE
  5
468
100
AcDbEntity
  8
0
100
AcDbLine
 62
7
  6
CONTINUOUS
 10
37.963528471
 20
16.5472646475
 11
37.9632299064
 21
16.5475489975
  0
LINE
  5
469
100
AcDbEntity
  8
0
100
AcDbLine
 62
7
  6
CONTINUOUS
 10
37.9247304014
 20
16.5862721331
 11
37.9635301957
 21
16.5472630083
  0
LINE
  5
46A
100
AcDbEntity
  8
0
100
AcDbLine
 62
7
  6
CONTINUOUS
 10
80.553986871
 20
36.5508360833
 11
80.5399024606
 21
36.5650904315
  0
LINE
  5
46B
100
AcDbEntity
  8
0
100
AcDbLine
 62
7
  6
CONTINUOUS
 10
80.5612297562
 20
36.5428771749
 11
80.5451942377
 21
36.5599122937
  0
LINE
  5
46C
100
AcDbEntity
  8
0
100
AcDbLine
 62
7
  6
CONTINUOUS
 10
37.1996316982
 20
17.8292135782
 11
37.2230555278
 21
17.8042119543
  0
LINE
  5
46D
100
AcDbEntity
  8
0
100
AcDbLine
 62
7
  6
CONTINUOUS
 10
37.8906021743
 20
16.6245367492
 11
37.9247304014
 21
16.5862721331
  0
LINE
  5
46E
100
AcDbEntity
  8
0
100
AcDbLine
 62
7
  6
CONTINUOUS
 10
80.5674758506
 20
36.5356282583
 11
80.553986871
 21
36.5508360833
  0
LINE
  5
46F
100
AcDbEntity
  8
0
100
AcDbLine
 62
7
  6
CONTINUOUS
 10
80.5762653017
 20
36.5247551717
 11
80.5612297562
 21
36.5428771749
  0
LINE
  5
470
100
AcDbEntity
  8
0
100
AcDbLine
 62
7
  6
CONTINUOUS
 10
37.2230555278
 20
17.8042119543
 11
37.2448295397
 21
17.7772461069
  0
LINE
  5
471
100
AcDbEntity
  8
0
100
AcDbLine
 62
7
  6
CONTINUOUS
 10
37.8581778984
 20
16.6650001388
 11
37.8906021743
 21
16.6245367492
  0
LINE
  5
472
100
AcDbEntity
  8
0
100
AcDbLine
 62
7
  6
CONTINUOUS
 10
80.5813801669
 20
36.5180256191
 11
80.5674758506
 21
36.5356282583
  0
LINE
  5
473
100
AcDbEntity
  8
0
100
AcDbLine
 62
7
  6
CONTINUOUS
 10
80.5901322325
 20
36.505727589
 11
80.5762653017
 21
36.5247551717
  0
LINE
  5
474
100
AcDbEntity
  8
0
100
AcDbLine
 62
7
  6
CONTINUOUS
 10
37.8276449109
 20
16.7075897939
 11
37.8581778984
 21
16.6650001388
  0
LINE
  5
475
100
AcDbEntity
  8
0
100
AcDbLine
 62
7
  6
CONTINUOUS
 10
70.8503539342
 20
17.5526201255
 11
70.8524260121
 21
17.5497176089
  0
LINE
  5
476
100
AcDbEntity
  8
0
100
AcDbLine
 62
7
  6
CONTINUOUS
 10
80.5944690087
 20
36.4992218072
 11
80.5813801669
 21
36.5180256191
  0
LINE
  5
477
100
AcDbEntity
  8
0
100
AcDbLine
 62
7
  6
CONTINUOUS
 10
37.2448295397
 20
17.7772461069
 11
37.2647151294
 21
17.7484877476
  0
LINE
  5
478
100
AcDbEntity
  8
0
100
AcDbLine
 62
7
  6
CONTINUOUS
 10
70.8505222327
 20
17.5213919491
 11
70.8523919476
 21
17.5184876167
  0
LINE
  5
479
100
AcDbEntity
  8
0
100
AcDbLine
 62
7
  6
CONTINUOUS
 10
37.7991932263
 20
16.7522282187
 11
37.8276449109
 21
16.7075897939
  0
LINE
  5
47A
100
AcDbEntity
  8
0
100
AcDbLine
 62
7
  6
CONTINUOUS
 10
80.6026944775
 20
36.486007585
 11
80.5901322325
 21
36.505727589
  0
LINE
  5
47B
100
AcDbEntity
  8
0
100
AcDbLine
 62
7
  6
CONTINUOUS
 10
75.0037349121
 20
19.6921911877
 11
75.0036286853
 21
19.6923649268
  0
LINE
  5
47C
100
AcDbEntity
  8
0
100
AcDbLine
 62
7
  6
CONTINUOUS
 10
80.6061387771
 20
36.4800869788
 11
80.5944690087
 21
36.4992218072
  0
LINE
  5
47D
100
AcDbEntity
  8
0
100
AcDbLine
 62
7
  6
CONTINUOUS
 10
37.2647151294
 20
17.7484877476
 11
37.2820938754
 21
17.7188983795
  0
LINE
  5
47E
100
AcDbEntity
  8
0
100
AcDbLine
 62
7
  6
CONTINUOUS
 10
37.7734969307
 20
16.7979163601
 11
37.7991932263
 21
16.7522282187
  0
LINE
  5
47F
100
AcDbEntity
  8
0
100
AcDbLine
 62
7
  6
CONTINUOUS
 10
80.6140063575
 20
36.4655371723
 11
80.6026944775
 21
36.486007585
  0
LINE
  5
480
100
AcDbEntity
  8
0
100
AcDbLine
 62
7
  6
CONTINUOUS
 10
37.2823330811
 20
17.7187075616
 11
37.4209745552
 21
17.460811111
  0
LINE
  5
481
100
AcDbEntity
  8
0
100
AcDbLine
 62
7
  6
CONTINUOUS
 10
37.4209745552
 20
17.460811111
 11
37.5282424642
 21
17.2603485585
  0
LINE
  5
482
100
AcDbEntity
  8
0
100
AcDbLine
 62
7
  6
CONTINUOUS
 10
37.5282424642
 20
17.2603485585
 11
37.6302913863
 21
17.0686916883
  0
LINE
  5
483
100
AcDbEntity
  8
0
100
AcDbLine
 62
7
  6
CONTINUOUS
 10
80.6165124263
 20
36.4605570026
 11
80.6061387771
 21
36.4800869788
  0
LINE
  5
484
100
AcDbEntity
  8
0
100
AcDbLine
 62
7
  6
CONTINUOUS
 10
37.6302913863
 20
17.0686916883
 11
37.773506811
 21
16.7978888664
  0
LINE
  5
485
100
AcDbEntity
  8
0
100
AcDbLine
 62
7
  6
CONTINUOUS
 10
37.2821187883
 20
17.7191160991
 11
37.2821834912
 21
17.7189852415
  0
LINE
  5
486
100
AcDbEntity
  8
0
100
AcDbLine
 62
7
  6
CONTINUOUS
 10
80.6253957778
 20
36.4412069807
 11
80.6165124263
 21
36.4605570026
  0
LINE
  5
487
100
AcDbEntity
  8
0
100
AcDbLine
 62
7
  6
CONTINUOUS
 10
24.703401226
 20
35.1612423455
 11
31.1245285675
 21
20.73951227
  0
LINE
  5
488
100
AcDbEntity
  8
0
100
AcDbLine
 62
7
  6
CONTINUOUS
 10
31.1245285675
 20
20.73951227
 11
31.6558301985
 21
19.5458312053
  0
LINE
  5
489
100
AcDbEntity
  8
0
100
AcDbLine
 62
7
  6
CONTINUOUS
 10
80.6333306997
 20
36.4209267446
 11
80.6253957778
 21
36.4412069807
  0
LINE
  5
48A
100
AcDbEntity
  8
0
100
AcDbLine
 62
7
  6
CONTINUOUS
 10
80.6406583101
 20
36.3982145819
 11
80.6333306997
 21
36.4209267446
  0
LINE
  5
48B
100
AcDbEntity
  8
0
100
AcDbLine
 62
7
  6
CONTINUOUS
 10
37.7715763667
 20
16.8052502522
 11
37.7734969307
 21
16.7979163601
  0
LINE
  5
48C
100
AcDbEntity
  8
0
100
AcDbLine
 62
7
  6
CONTINUOUS
 10
80.6466437784
 20
36.3745471908
 11
80.6406583101
 21
36.3982145819
  0
LINE
  5
48D
100
AcDbEntity
  8
0
100
AcDbLine
 62
7
  6
CONTINUOUS
 10
80.6510053469
 20
36.3510099897
 11
80.6466437784
 21
36.3745471908
  0
LINE
  5
48E
100
AcDbEntity
  8
0
100
AcDbLine
 62
7
  6
CONTINUOUS
 10
75.0036286853
 20
19.6923649268
 11
75.0035665173
 21
19.6928521347
  0
LINE
  5
48F
100
AcDbEntity
  8
0
100
AcDbLine
 62
7
  6
CONTINUOUS
 10
80.6538626153
 20
36.327170501
 11
80.6510053469
 21
36.3510099897
  0
ARC
  5
490
100
AcDbEntity
  8
0
100
AcDbCircle
 62
7
  6
CONTINUOUS
 10
33.8255006604
 20
20.5118307326
 40
2.375
100
AcDbArc
 50
203.9999999999
 51
269.0327685219
  0
ARC
  5
491
100
AcDbEntity
  8
0
100
AcDbCircle
 62
7
  6
CONTINUOUS
 10
36.3676576866
 20
18.2757656195
 40
0.88125
100
AcDbArc
 50
208.2717588633
 51
222.9753754308
  0
ARC
  5
492
100
AcDbEntity
  8
0
100
AcDbCircle
 62
7
  6
CONTINUOUS
 10
36.3676576866
 20
18.2757656195
 40
0.88125
100
AcDbArc
 50
253.9228653306
 51
269.0253622743
  0
ARC
  5
493
100
AcDbEntity
  8
0
100
AcDbCircle
 62
7
  6
CONTINUOUS
 10
71.0273147208
 20
17.4112423455
 40
0.375
100
AcDbArc
 50
270.0
 51
315.0
  0
ARC
  5
494
100
AcDbEntity
  8
0
100
AcDbCircle
 62
7
  6
CONTINUOUS
 10
35.3988795645
 20
17.7547459825
 40
0.2187492963
100
AcDbArc
 50
28.2721932906
 51
68.773839652
  0
ARC
  5
495
100
AcDbEntity
  8
0
100
AcDbCircle
 62
7
  6
CONTINUOUS
 10
35.7914858459
 20
17.7389395224
 40
0.0937499994
100
AcDbArc
 50
222.9753685723
 51
237.7724195966
  0
ARC
  5
496
100
AcDbEntity
  8
0
100
AcDbCircle
 62
7
  6
CONTINUOUS
 10
36.1495741503
 20
17.519064924
 40
0.0937499308
100
AcDbArc
 50
240.0732694195
 51
253.9231038158
  0
ENDSEC
  0
SECTION
  2
OBJECTS
  0
DICTIONARY
  5
C
100
AcDbDictionary
280
0
281
1
  3
ACAD_GROUP
350
D
  3
ACAD_MLINESTYLE
350
17
  3
ACAD_LAYOUT
350
1A
  3
ACAD_PLOTSETTINGS
350
19
  3
ACAD_PLOTSTYLENAME
350
E
  0
DICTIONARY
  5
D
102
{ACAD_REACTORS
330
C
102
}
100
AcDbDictionary
280
0
281
1
  0
ACDBDICTIONARYWDFLT
  5
E
102
{ACAD_REACTORS
330
C
102
}
100
AcDbDictionary
281
1
  3
Normal
350
F
100
AcDbDictionaryWithDefault
340
F
  0
DICTIONARY
  5
17
102
{ACAD_REACTORS
330
C
102
}
100
AcDbDictionary
280
0
281
1
  3
Standard
350
18
  0
DICTIONARY
  5
19
102
{ACAD_REACTORS
330
C
102
}
100
AcDbDictionary
281
1
  0
DICTIONARY
  5
1A
102
{ACAD_REACTORS
330
C
102
}
100
AcDbDictionary
281
1
  3
Model
350
497
  3
Layout1
350
498
  0
ACDBPLACEHOLDER
  5
F
102
{ACAD_REACTORS
330
E
102
}
  0
MLINESTYLE
  5
18
102
{ACAD_REACTORS
330
17
102
}
100
AcDbMlineStyle
  2
STANDARD
 70
0
  3

 62
256
 51
90.0
 52
90.0
 71
2
 49
0.5
 62
256
  6
BYLAYER
 49
-0.5
 62
256
  6
BYLAYER
  0
LAYOUT
  5
497
102
{ACAD_REACTORS
330
1A
102
}
100
AcDbPlotSettings
  1

  2
none_device
  4
ANSI_B_(17.00_x_11.00_Inches)
  6

 40
0.0
 41
0.0
 42
0.0
 43
0.0
 44
431.8
 45
279.4
 46
0.0
 47
0.0
 48
0.0
 49
0.0
140
0.0
141
0.0
142
1.0
143
1.0
 70
1024
 72
0
 73
0
 74
0
  7

 75
0
147
1.0
148
0.0
149
0.0
100
AcDbLayout
  1
Model
 70
0
 71
0
 10
0.0
 20
0.0
 11
17.0
 21
11.0
 12
0.0
 22
0.0
 32
0.0
 14
0.0
 24
0.0
 34
0.0
 15
0.0
 25
0.0
 35
0.0
146
0.0
 13
0.0
 23
0.0
 33
0.0
 16
1.0
 26
0.0
 36
0.0
 17
0.0
 27
1.0
 37
0.0
 76
0
330
218
345
0
346
0
  0
LAYOUT
  5
498
102
{ACAD_REACTORS
330
1A
102
}
100
AcDbPlotSettings
  1

  2
none_device
  4
ANSI_B_(17.00_x_11.00_Inches)
  6

 40
0.0
 41
0.0
 42
0.0
 43
0.0
 44
431.8
 45
279.4
 46
0.0
 47
0.0
 48
0.0
 49
0.0
140
0.0
141
0.0
142
1.0
143
1.0
 70
0
 72
0
 73
0
 74
0
  7

 75
0
147
1.0
148
0.0
149
0.0
100
AcDbLayout
  1
Layout1
 70
0
 71
1
 10
0.0
 20
0.0
 11
17.0
 21
11.0
 12
0.0
 22
0.0
 32
0.0
 14
0.0
 24
0.0
 34
0.0
 15
0.0
 25
0.0
 35
0.0
146
0.0
 13
0.0
 23
0.0
 33
0.0
 16
1.0
 26
0.0
 36
0.0
 17
0.0
 27
1.0
 37
0.0
 76
0
330
219
345
0
346
0
  0
ENDSEC
  0
EOF
