  0
SECTION
  2
HEADER
  9
$ACADVER
  1
AC1015
  9
$ACADMAINTVER
 70
           6
  9
$DWGCODEPAGE
  3
ANSI_1252
  9
$INSBASE
 10
0.0
 20
0.0
 30
0.0
  9
$EXTMIN
 10
21.922316078
 20
77.675974282071
 30
0.0
  9
$EXTMAX
 10
84.6389834532
 20
119.675974282129
 30
0.0
  9
$LIMMIN
 10
0.0
 20
0.0
  9
$LIMMAX
 10
217.6
 20
140.8
  9
$ORTHOMODE
 70
           0
  9
$REGENMODE
 70
           1
  9
$FILLMODE
 70
           1
  9
$QTEXTMODE
 70
           0
  9
$MIRRTEXT
 70
           0
  9
$LTSCALE
 40
11.968
  9
$ATTMODE
 70
           1
  9
$TEXTSIZE
 40
0.2
  9
$TRACEWID
 40
0.05
  9
$TEXTSTYLE
  7
STANDARD
  9
$CLAYER
  8
0
  9
$CELTYPE
  6
ByLayer
  9
$CECOLOR
 62
         256
  9
$CELTSCALE
 40
1.0
  9
$DISPSILH
 70
           0
  9
$DIMSCALE
 40
1.0
  9
$DIMASZ
 40
2.4
  9
$DIMEXO
 40
1.36
  9
$DIMDLI
 40
8.2688
  9
$DIMRND
 40
0.0
  9
$DIMDLE
 40
0.0
  9
$DIMEXE
 40
3.9168
  9
$DIMTP
 40
0.0
  9
$DIMTM
 40
0.0
  9
$DIMTXT
 40
1.6
  9
$DIMCEN
 40
1.9584
  9
$DIMTSZ
 40
0.0
  9
$DIMTOL
 70
           0
  9
$DIMLIM
 70
           0
  9
$DIMTIH
 70
           1
  9
$DIMTOH
 70
           1
  9
$DIMSE1
 70
           0
  9
$DIMSE2
 70
           0
  9
$DIMTAD
 70
           0
  9
$DIMZIN
 70
           0
  9
$DIMBLK
  1
_FILLED
  9
$DIMASO
 70
           1
  9
$DIMSHO
 70
           1
  9
$DIMPOST
  1

  9
$DIMAPOST
  1

  9
$DIMALT
 70
           0
  9
$DIMALTD
 70
           2
  9
$DIMALTF
 40
25.4
  9
$DIMLFAC
 40
1.0
  9
$DIMTOFL
 70
           0
  9
$DIMTVP
 40
0.0
  9
$DIMTIX
 70
           0
  9
$DIMSOXD
 70
           0
  9
$DIMSAH
 70
           0
  9
$DIMBLK1
  1

  9
$DIMBLK2
  1

  9
$DIMSTYLE
  2
STANDARD
  9
$DIMCLRD
 70
           0
  9
$DIMCLRE
 70
           0
  9
$DIMCLRT
 70
           0
  9
$DIMTFAC
 40
1.0
  9
$DIMGAP
 40
0.09
  9
$DIMJUST
 70
           0
  9
$DIMSD1
 70
           0
  9
$DIMSD2
 70
           0
  9
$DIMTOLJ
 70
           1
  9
$DIMTZIN
 70
           0
  9
$DIMALTZ
 70
           0
  9
$DIMALTTZ
 70
           0
  9
$DIMUPT
 70
           0
  9
$DIMDEC
 70
           4
  9
$DIMTDEC
 70
           4
  9
$DIMALTU
 70
           2
  9
$DIMALTTD
 70
           2
  9
$DIMTXSTY
  7
STANDARD
  9
$DIMAUNIT
 70
           0
  9
$DIMADEC
 70
           0
  9
$DIMALTRND
 40
0.0
  9
$DIMAZIN
 70
           0
  9
$DIMDSEP
 70
           0
  9
$DIMATFIT
 70
           3
  9
$DIMFRAC
 70
           0
  9
$DIMLDRBLK
  1

  9
$DIMLUNIT
 70
           2
  9
$DIMLWD
 70
          -2
  9
$DIMLWE
 70
          -2
  9
$DIMTMOVE
 70
           0
  9
$LUNITS
 70
           2
  9
$LUPREC
 70
           4
  9
$SKETCHINC
 40
0.1
  9
$FILLETRAD
 40
0.0
  9
$AUNITS
 70
           0
  9
$AUPREC
 70
           0
  9
$MENU
  1
.
  9
$ELEVATION
 40
0.0
  9
$PELEVATION
 40
0.0
  9
$THICKNESS
 40
0.0
  9
$LIMCHECK
 70
           0
  9
$CHAMFERA
 40
0.0
  9
$CHAMFERB
 40
0.0
  9
$CHAMFERC
 40
0.0
  9
$CHAMFERD
 40
0.0
  9
$SKPOLY
 70
           0
  9
$TDCREATE
 40
2455183.577242419
  9
$TDUCREATE
 40
0.000000000
  9
$TDUPDATE
 40
2455183.373819155
  9
$TDUUPDATE
 40
0.000000000
  9
$TDINDWG
 40
0.0027661921
  9
$TDUSRTIMER
 40
0.0027661921
  9
$USRTIMER
 70
           1
  9
$ANGBASE
 50
0.0
  9
$ANGDIR
 70
           0
  9
$PDMODE
 70
           3
  9
$PDSIZE
 40
0.03125
  9
$PLINEWID
 40
0.0
  9
$SPLFRAME
 70
           0
  9
$SPLINETYPE
 70
           6
  9
$SPLINESEGS
 70
           8
  9
$HANDSEED
  5
18FA
  9
$SURFTAB1
 70
           6
  9
$SURFTAB2
 70
           6
  9
$SURFTYPE
 70
           6
  9
$SURFU
 70
           6
  9
$SURFV
 70
           6
  9
$UCSBASE
  2

  9
$UCSNAME
  2

  9
$UCSORG
 10
0.0
 20
0.0
 30
0.0
  9
$UCSXDIR
 10
1.0
 20
0.0
 30
0.0
  9
$UCSYDIR
 10
0.0
 20
1.0
 30
0.0
  9
$UCSORTHOREF
  2

  9
$UCSORTHOVIEW
 70
           0
  9
$UCSORGTOP
 10
0.0
 20
0.0
 30
0.0
  9
$UCSORGBOTTOM
 10
0.0
 20
0.0
 30
0.0
  9
$UCSORGLEFT
 10
0.0
 20
0.0
 30
0.0
  9
$UCSORGRIGHT
 10
0.0
 20
0.0
 30
0.0
  9
$UCSORGFRONT
 10
0.0
 20
0.0
 30
0.0
  9
$UCSORGBACK
 10
0.0
 20
0.0
 30
0.0
  9
$PUCSBASE
  2

  9
$PUCSNAME
  2

  9
$PUCSORG
 10
0.0
 20
0.0
 30
0.0
  9
$PUCSXDIR
 10
1.0
 20
0.0
 30
0.0
  9
$PUCSYDIR
 10
0.0
 20
1.0
 30
0.0
  9
$PUCSORTHOREF
  2

  9
$PUCSORTHOVIEW
 70
           0
  9
$PUCSORGTOP
 10
0.0
 20
0.0
 30
0.0
  9
$PUCSORGBOTTOM
 10
0.0
 20
0.0
 30
0.0
  9
$PUCSORGLEFT
 10
0.0
 20
0.0
 30
0.0
  9
$PUCSORGRIGHT
 10
0.0
 20
0.0
 30
0.0
  9
$PUCSORGFRONT
 10
0.0
 20
0.0
 30
0.0
  9
$PUCSORGBACK
 10
0.0
 20
0.0
 30
0.0
  9
$USERI1
 70
           0
  9
$USERI2
 70
           0
  9
$USERI3
 70
           0
  9
$USERI4
 70
           0
  9
$USERI5
 70
           0
  9
$USERR1
 40
0.0
  9
$USERR2
 40
0.0
  9
$USERR3
 40
0.0
  9
$USERR4
 40
0.0
  9
$USERR5
 40
0.0
  9
$WORLDVIEW
 70
           1
  9
$SHADEDGE
 70
           3
  9
$SHADEDIF
 70
          70
  9
$TILEMODE
 70
           1
  9
$MAXACTVP
 70
          16
  9
$PINSBASE
 10
0.0
 20
0.0
 30
0.0
  9
$PLIMCHECK
 70
           0
  9
$PEXTMIN
 10
1.000000000000E+20
 20
1.000000000000E+20
 30
1.000000000000E+20
  9
$PEXTMAX
 10
-1.000000000000E+20
 20
-1.000000000000E+20
 30
-1.000000000000E+20
  9
$PLIMMIN
 10
0.0
 20
0.0
  9
$PLIMMAX
 10
12.0
 20
9.0
  9
$UNITMODE
 70
           0
  9
$VISRETAIN
 70
           1
  9
$PLINEGEN
 70
           0
  9
$PSLTSCALE
 70
           1
  9
$TREEDEPTH
 70
        3020
  9
$CMLSTYLE
  2
Standard
  9
$CMLJUST
 70
           0
  9
$CMLSCALE
 40
1.0
  9
$PROXYGRAPHICS
 70
           1
  9
$MEASUREMENT
 70
           0
  9
$CELWEIGHT
370
          -1
  9
$ENDCAPS
280
           0
  9
$JOINSTYLE
280
           0
  9
$LWDISPLAY
290
           0
  9
$INSUNITS
 70
           1
  9
$HYPERLINKBASE
  1

  9
$XEDIT
290
           1
  9
$CEPSNTYPE
380
           0
  9
$PSTYLEMODE
290
           1
  9
$FINGERPRINTGUID
  2
{F33927E3-33E7-4C92-8E83-39E9A9F35415}
  9
$VERSIONGUID
  2
{92BFF4FB-7AA3-4F28-BC2F-469AA12B5C5D}
  9
$EXTNAMES
290
           1
  9
$PSVPSCALE
 40
0.0
  0
ENDSEC
  0
SECTION
  2
CLASSES
  0
CLASS
  1
ACDBDICTIONARYWDFLT
  2
AcDbDictionaryWithDefault
  3
ObjectDBX Classes
 90
        0
280
           0
281
           0
  0
CLASS
  1
ACDBPLACEHOLDER
  2
AcDbPlaceHolder
  3
ObjectDBX Classes
 90
        0
280
           0
281
           0
  0
CLASS
  1
LAYOUT
  2
AcDbLayout
  3
ObjectDBX Classes
 90
        0
280
           0
281
           0
  0
CLASS
  1
MATERIAL
  2
AcDbMaterial
  3
ObjectDBX Classes
 90
     1153
280
           0
281
           0
  0
CLASS
  1
VISUALSTYLE
  2
AcDbVisualStyle
  3
ObjectDBX Classes
 90
     4095
280
           0
281
           0
  0
CLASS
  1
TABLESTYLE
  2
AcDbTableStyle
  3
ObjectDBX Classes
 90
     4095
280
           0
281
           0
  0
CLASS
  1
SCALE
  2
AcDbScale
  3
ObjectDBX Classes
 90
     1153
280
           0
281
           0
  0
CLASS
  1
MLEADERSTYLE
  2
AcDbMLeaderStyle
  3
ACDB_MLEADERSTYLE_CLASS
 90
     4095
280
           0
281
           0
  0
CLASS
  1
CELLSTYLEMAP
  2
AcDbCellStyleMap
  3
ObjectDBX Classes
 90
     1152
280
           0
281
           0
  0
CLASS
  1
DICTIONARYVAR
  2
AcDbDictionaryVar
  3
ObjectDBX Classes
 90
        0
280
           0
281
           0
  0
CLASS
  1
LWPOLYLINE
  2
AcDbPolyline
  3
AutoCAD 2000
 90
        0
280
           0
281
           1
  0
CLASS
  1
IMAGE
  2
AcDbRasterImage
  3
ISM
 90
    32895
280
           0
281
           1
  0
CLASS
  1
OLE2FRAME
  2
AcDbOle2Frame
  3
AutoCAD 2000
 90
    32768
280
           0
281
           1
  0
CLASS
  1
HATCH
  2
AcDbHatch
  3
AutoCAD 2000
 90
    32768
280
           0
281
           1
  0
CLASS
  1
RASTERVARIABLES
  2
AcDbRasterVariables
  3
ISM
 90
    32768
280
           0
281
           0
  0
CLASS
  1
IMAGEDEF
  2
AcDbRasterImageDef
  3
ISM
 90
    32768
280
           0
281
           0
  0
CLASS
  1
IMAGEDEF_REACTOR
  2
AcDbRasterImageDefReactor
  3
ISM
 90
    32769
280
           0
281
           0
  0
CLASS
  1
IDBUFFER
  2
AcDbIdBuffer
  3
AutoCAD 2000
 90
    32768
280
           0
281
           0
  0
CLASS
  1
SPATIAL_FILTER
  2
AcDbSpatialFilter
  3
AutoCAD 2000
 90
    32768
280
           0
281
           0
  0
CLASS
  1
XRECORD
  2
AcDbXrecord
  3
AutoCAD 2000
 90
        0
280
           0
281
           0
  0
CLASS
  1
SORTENTSTABLE
  2
AcDbSortentsTable
  3
AutoCAD 2000
 90
    32768
280
           0
281
           0
  0
CLASS
  1
LAYER_INDEX
  2
AcDbLayerIndex
  3
AutoCAD 2000
 90
    32768
280
           0
281
           0
  0
CLASS
  1
SPATIAL_INDEX
  2
AcDbSpatialIndex
  3
AutoCAD 2000
 90
    32768
280
           0
281
           0
  0
CLASS
  1
OBJECT_PTR
  2
CAseDLPNTableRecord
  3
"ASE-LPNTableRecord"
 90
    32769
280
           0
281
           0
  0
CLASS
  1
PLOTSETTINGS
  2
AcDbPlotSettings
  3
AutoCAD 2000
 90
    32768
280
           0
281
           0
  0
CLASS
  1
VBA_PROJECT
  2
AcDbVbaProject
  3
acadvba
 90
    32768
280
           0
281
           0
  0
CLASS
  1
WIPEOUT
  2
AcDbWipeout
  3
WipeOut|AutoCAD Express Tool|expresstools@autodesk.com
 90
    32895
280
           0
281
           1
  0
CLASS
  1
WIPEOUTVARIABLES
  2
AcDbWipeoutVariables
  3
WipeOut|AutoCAD Express Tool|expresstools@autodesk.com
 90
        0
280
           0
281
           0
  0
CLASS
  1
RTEXT
  2
RText
  3
RText|AutoCAD Express Tool|expresstools@autodesk.com
 90
    32768
280
           0
281
           1
  0
CLASS
  1
ARCALIGNEDTEXT
  2
AcDbArcAlignedText
  3
ATEXT|AutoCAD Express Tool|expresstools@autodesk.com
 90
    32768
280
           0
281
           1
  0
ENDSEC
  0
SECTION
  2
TABLES
  0
TABLE
  2
VPORT
  5
8
100
AcDbSymbolTable
 70
           1
  0
VPORT
  5
1F4
100
AcDbSymbolTableRecord
100
AcDbViewportTableRecord
  2
*ACTIVE
 70
          64
 10
0.0
 20
0.0
 11
1.0
 21
1.0
 12
53.2806497656
 22
98.6759742821
 13
0.0
 23
0.0
 14
1.0
 24
1.0
 15
0.0
 25
0.0
 16
0.0
 26
0.0
 36
1.0
 17
0.0
 27
0.0
 37
0.0
 40
42.84000000006
 41
1.5454545455
 42
50.0
 43
0.0
 44
0.0
 50
0.0
 51
0.0
 71
           0
 72
         100
 73
           1
 74
           1
 75
           0
 76
           0
 77
           0
 78
           0
281
           0
 65
           0
110
0.0
120
0.0
130
0.0
111
1.0
121
0.0
131
0.0
112
0.0
122
1.0
132
0.0
345
0
346
0
 79
           0
146
0.0
  0
ENDTAB
  0
TABLE
  2
LTYPE
  5
5
100
AcDbSymbolTable
 70
           8
  0
LTYPE
  5
14
100
AcDbSymbolTableRecord
100
AcDbLinetypeTableRecord
  2
ByBlock
 70
          64
  3

 72
          65
 73
           0
 40
0.0
  0
LTYPE
  5
15
100
AcDbSymbolTableRecord
100
AcDbLinetypeTableRecord
  2
ByLayer
 70
          64
  3

 72
          65
 73
           0
 40
0.0
  0
LTYPE
  5
16
100
AcDbSymbolTableRecord
100
AcDbLinetypeTableRecord
  2
CONTINUOUS
 70
          64
  3
Solid line
 72
          65
 73
           0
 40
0.0
  0
LTYPE
  5
1F5
100
AcDbSymbolTableRecord
100
AcDbLinetypeTableRecord
  2
CENTER
 70
          64
  3
____ _ ____ _ ____ _ ____ _ ____ _ ____ _ ____
 72
          65
 73
           4
 40
0.6
 49
0.375
 74
           0
 49
-0.075
 74
           0
 49
0.075
 74
           0
 49
-0.075
 74
           0
  0
LTYPE
  5
1F6
100
AcDbSymbolTableRecord
100
AcDbLinetypeTableRecord
  2
HIDDEN
 70
          64
  3
- - - - - - - - - - - - - - - - - - - -
 72
          65
 73
           2
 40
0.2
 49
0.1
 74
           0
 49
-0.1
 74
           0
  0
LTYPE
  5
1F7
100
AcDbSymbolTableRecord
100
AcDbLinetypeTableRecord
  2
PHANTOM
 70
          64
  3
_____ _ _ _____ _ _ _____ _ _ _____
 72
          65
 73
           6
 40
0.8
 49
0.45
 74
           0
 49
-0.05
 74
           0
 49
0.1
 74
           0
 49
-0.05
 74
           0
 49
0.1
 74
           0
 49
-0.05
 74
           0
  0
LTYPE
  5
1F8
100
AcDbSymbolTableRecord
100
AcDbLinetypeTableRecord
  2
DOT
 70
          64
  3
. . . . . . . . . . . . . . . . . . . .
 72
          65
 73
           2
 40
0.2
 49
0.1
 74
           0
 49
-0.1
 74
           0
  0
LTYPE
  5
1F9
100
AcDbSymbolTableRecord
100
AcDbLinetypeTableRecord
  2
DASHED
 70
          64
  3
- - - - - - - - - - - - - - - - - - - -
 72
          65
 73
           2
 40
0.2
 49
0.1
 74
           0
 49
-0.1
 74
           0
  0
ENDTAB
  0
TABLE
  2
LAYER
  5
2
100
AcDbSymbolTable
 70
          27
  0
LAYER
  5
10
102
{ACAD_XDICTIONARY
360
18B3
102
}
100
AcDbSymbolTableRecord
100
AcDbLayerTableRecord
  2
0
 70
          64
 62
           7
  6
CONTINUOUS
290
           1
370
          -3
390
E
  0
LAYER
  5
1FA
102
{ACAD_XDICTIONARY
360
18B5
102
}
100
AcDbSymbolTableRecord
100
AcDbLayerTableRecord
  2
DEFAULT_1
 70
          64
 62
           7
  6
CENTER
290
           1
370
          -3
390
E
  0
LAYER
  5
1FB
102
{ACAD_XDICTIONARY
360
18B7
102
}
100
AcDbSymbolTableRecord
100
AcDbLayerTableRecord
  2
DEFAULT_2
 70
          64
 62
           8
  6
HIDDEN
290
           1
370
          -3
390
E
  0
LAYER
  5
1FC
102
{ACAD_XDICTIONARY
360
18B9
102
}
100
AcDbSymbolTableRecord
100
AcDbLayerTableRecord
  2
DEFAULT_3
 70
          64
 62
           7
  6
PHANTOM
290
           1
370
          -3
390
E
  0
LAYER
  5
1FD
102
{ACAD_XDICTIONARY
360
18BB
102
}
100
AcDbSymbolTableRecord
100
AcDbLayerTableRecord
  2
1_CURVES
 70
          64
 62
           7
  6
CONTINUOUS
290
           1
370
          -3
390
E
  0
LAYER
  5
1FE
102
{ACAD_XDICTIONARY
360
18BD
102
}
100
AcDbSymbolTableRecord
100
AcDbLayerTableRecord
  2
1_CURVES-DEGAGEMENT-COIL
 70
          64
 62
           7
  6
CONTINUOUS
290
           1
370
          -3
390
E
  0
LAYER
  5
1FF
102
{ACAD_XDICTIONARY
360
18BF
102
}
100
AcDbSymbolTableRecord
100
AcDbLayerTableRecord
  2
1_CURVES-JETS
 70
          64
 62
           7
  6
CONTINUOUS
290
           1
370
          -3
390
E
  0
LAYER
  5
200
102
{ACAD_XDICTIONARY
360
18C1
102
}
100
AcDbSymbolTableRecord
100
AcDbLayerTableRecord
  2
1_CURVES-TRAJECTOIRE-COIL
 70
          64
 62
           7
  6
CONTINUOUS
290
           1
370
          -3
390
E
  0
LAYER
  5
201
102
{ACAD_XDICTIONARY
360
18C3
102
}
100
AcDbSymbolTableRecord
100
AcDbLayerTableRecord
  2
1_CURVES_IMPORT
 70
          64
 62
           7
  6
CONTINUOUS
290
           1
370
          -3
390
E
  0
LAYER
  5
202
102
{ACAD_XDICTIONARY
360
18C5
102
}
100
AcDbSymbolTableRecord
100
AcDbLayerTableRecord
  2
1_CURVES_JETS
 70
          64
 62
           7
  6
CONTINUOUS
290
           1
370
          -3
390
E
  0
LAYER
  5
203
102
{ACAD_XDICTIONARY
360
18C7
102
}
100
AcDbSymbolTableRecord
100
AcDbLayerTableRecord
  2
2_PLANES
 70
          64
 62
           7
  6
CONTINUOUS
290
           1
370
          -3
390
E
  0
LAYER
  5
204
102
{ACAD_XDICTIONARY
360
18C9
102
}
100
AcDbSymbolTableRecord
100
AcDbLayerTableRecord
  2
2_PLANES-JETS
 70
          64
 62
           7
  6
CONTINUOUS
290
           1
370
          -3
390
E
  0
LAYER
  5
205
102
{ACAD_XDICTIONARY
360
18CB
102
}
100
AcDbSymbolTableRecord
100
AcDbLayerTableRecord
  2
3_POINTS
 70
          64
 62
           7
  6
CONTINUOUS
290
           1
370
          -3
390
E
  0
LAYER
  5
206
102
{ACAD_XDICTIONARY
360
18CD
102
}
100
AcDbSymbolTableRecord
100
AcDbLayerTableRecord
  2
3_POINTS-JETS
 70
          64
 62
           7
  6
CONTINUOUS
290
           1
370
          -3
390
E
  0
LAYER
  5
207
102
{ACAD_XDICTIONARY
360
18CF
102
}
100
AcDbSymbolTableRecord
100
AcDbLayerTableRecord
  2
4_CSYS
 70
          64
 62
           7
  6
CONTINUOUS
290
           1
370
          -3
390
E
  0
LAYER
  5
208
102
{ACAD_XDICTIONARY
360
18D1
102
}
100
AcDbSymbolTableRecord
100
AcDbLayerTableRecord
  2
5_AXIS
 70
          64
 62
           7
  6
CONTINUOUS
290
           1
370
          -3
390
E
  0
LAYER
  5
209
102
{ACAD_XDICTIONARY
360
18D3
102
}
100
AcDbSymbolTableRecord
100
AcDbLayerTableRecord
  2
6_SURFACES
 70
          64
 62
           7
  6
CONTINUOUS
290
           1
370
          -3
390
E
  0
LAYER
  5
20A
102
{ACAD_XDICTIONARY
360
18D5
102
}
100
AcDbSymbolTableRecord
100
AcDbLayerTableRecord
  2
6_SURFACES-OFFSET-FIBRE-ACRYLIQ
 70
          64
 62
           7
  6
CONTINUOUS
290
           1
370
          -3
390
E
  0
LAYER
  5
20B
102
{ACAD_XDICTIONARY
360
18D7
102
}
100
AcDbSymbolTableRecord
100
AcDbLayerTableRecord
  2
6_SURFACES-TOOLING
 70
          64
 62
           7
  6
CONTINUOUS
290
           1
370
          -3
390
E
  0
LAYER
  5
20C
102
{ACAD_XDICTIONARY
360
18D9
102
}
100
AcDbSymbolTableRecord
100
AcDbLayerTableRecord
  2
6_SURFACES_AIRE
 70
          64
 62
           7
  6
CONTINUOUS
290
           1
370
          -3
390
E
  0
LAYER
  5
20D
102
{ACAD_XDICTIONARY
360
18DB
102
}
100
AcDbSymbolTableRecord
100
AcDbLayerTableRecord
  2
6_SURFACES_OFFSET_CONDUIT
 70
          64
 62
           7
  6
CONTINUOUS
290
           1
370
          -3
390
E
  0
LAYER
  5
20E
102
{ACAD_XDICTIONARY
360
18DD
102
}
100
AcDbSymbolTableRecord
100
AcDbLayerTableRecord
  2
6_SURFACES_OFFSET_CONDUIT-PREPA
 70
          64
 62
           7
  6
CONTINUOUS
290
           1
370
          -3
390
E
  0
LAYER
  5
20F
102
{ACAD_XDICTIONARY
360
18DF
102
}
100
AcDbSymbolTableRecord
100
AcDbLayerTableRecord
  2
6_SURFACES_OFFSET_FIBRE
 70
          64
 62
           7
  6
CONTINUOUS
290
           1
370
          -3
390
E
  0
LAYER
  5
210
102
{ACAD_XDICTIONARY
360
18E1
102
}
100
AcDbSymbolTableRecord
100
AcDbLayerTableRecord
  2
6_SURFACES_TOOLING
 70
          64
 62
           7
  6
CONTINUOUS
290
           1
370
          -3
390
E
  0
LAYER
  5
211
102
{ACAD_XDICTIONARY
360
18E3
102
}
100
AcDbSymbolTableRecord
100
AcDbLayerTableRecord
  2
7_NOTES
 70
          64
 62
           7
  6
CONTINUOUS
290
           1
370
          -3
390
E
  0
LAYER
  5
212
102
{ACAD_XDICTIONARY
360
18E5
102
}
100
AcDbSymbolTableRecord
100
AcDbLayerTableRecord
  2
8_ZONE-ROBINETERIE
 70
          64
 62
           7
  6
CONTINUOUS
290
           1
370
          -3
390
E
  0
LAYER
  5
213
102
{ACAD_XDICTIONARY
360
18E7
102
}
100
AcDbSymbolTableRecord
100
AcDbLayerTableRecord
  2
XSEC_DATUMS
 70
          64
 62
           7
  6
CONTINUOUS
290
           1
370
          -3
390
E
  0
ENDTAB
  0
TABLE
  2
STYLE
  5
3
100
AcDbSymbolTable
 70
           8
  0
STYLE
  5
11
100
AcDbSymbolTableRecord
100
AcDbTextStyleTableRecord
  2
STANDARD
 70
          64
 40
0.0
 41
0.8
 50
0.0
 71
           0
 42
0.2
  3
txt
  4

  0
STYLE
  5
214
100
AcDbSymbolTableRecord
100
AcDbTextStyleTableRecord
  2
TEXTSTYLE_1
 70
          64
 40
0.0
 41
0.8
 50
0.0
 71
           0
 42
0.2
  3
gdt
  4

  0
STYLE
  5
215
100
AcDbSymbolTableRecord
100
AcDbTextStyleTableRecord
  2
TEXTSTYLE_2
 70
          64
 40
0.0
 41
1.0
 50
0.0
 71
           0
 42
0.2
  3
trium.ttf
  4

  0
STYLE
  5
216
100
AcDbSymbolTableRecord
100
AcDbTextStyleTableRecord
  2
TEXTSTYLE_3
 70
          64
 40
0.0
 41
1.0
 50
0.0
 71
           0
 42
0.2
  3
trium.ttf
  4

  0
STYLE
  5
217
100
AcDbSymbolTableRecord
100
AcDbTextStyleTableRecord
  2
TEXTSTYLE_4
 70
          64
 40
0.0
 41
1.0
 50
0.0
 71
           0
 42
0.2
  3
txt
  4

  0
STYLE
  5
218
100
AcDbSymbolTableRecord
100
AcDbTextStyleTableRecord
  2
TEXTSTYLE_5
 70
          64
 40
0.0
 41
1.0
 50
0.0
 71
           0
 42
0.2
  3
txt
  4

  0
STYLE
  5
219
100
AcDbSymbolTableRecord
100
AcDbTextStyleTableRecord
  2
TEXTSTYLE_6
 70
          64
 40
0.0
 41
1.0
 50
0.0
 71
           0
 42
0.2
  3
trium.ttf
  4

  0
STYLE
  5
21A
100
AcDbSymbolTableRecord
100
AcDbTextStyleTableRecord
  2
TEXTSTYLE_7
 70
          64
 40
0.0
 41
0.8
 50
0.0
 71
           0
 42
0.2
  3
txt
  4

  0
ENDTAB
  0
TABLE
  2
VIEW
  5
6
100
AcDbSymbolTable
 70
           0
  0
ENDTAB
  0
TABLE
  2
UCS
  5
7
100
AcDbSymbolTable
 70
           0
  0
ENDTAB
  0
TABLE
  2
APPID
  5
9
100
AcDbSymbolTable
 70
           2
  0
APPID
  5
21B
100
AcDbSymbolTableRecord
100
AcDbRegAppTableRecord
  2
ACAD
 70
          64
  0
APPID
  5
18AD
100
AcDbSymbolTableRecord
100
AcDbRegAppTableRecord
  2
ACAD_MLEADERVER
 70
          64
  0
ENDTAB
  0
TABLE
  2
DIMSTYLE
  5
A
100
AcDbSymbolTable
 70
           6
100
AcDbDimStyleTable
 71
           0
  0
DIMSTYLE
105
23C
100
AcDbSymbolTableRecord
100
AcDbDimStyleTableRecord
  2
STANDARD
 70
          64
  3

  4

 40
1.0
 41
0.1875
 42
0.0625
 43
0.38
 44
0.18
 45
0.0
 46
0.0
 47
0.00001
 48
0.00001
 71
           0
 72
           0
 73
           1
 74
           1
 75
           0
 76
           0
 77
           0
 78
           4
 79
           0
140
1.6
141
0.09
142
0.0
143
25.4
144
1.0
145
0.0
146
1.0
147
0.09
148
0.0
170
           0
171
           2
172
           0
173
           0
174
           0
175
           0
176
           0
177
           0
178
           0
179
           0
271
           5
272
           5
273
           2
274
           2
275
           0
276
           0
277
           2
278
          46
279
           0
280
           0
281
           0
282
           0
283
           1
284
           4
285
           0
286
           0
288
           0
340
11
341
21E
342
21E
343
21E
344
21E
371
          -2
372
          -2
  0
DIMSTYLE
105
23D
102
{ACAD_REACTORS
330
434
330
435
330
437
330
438
330
43B
330
442
330
443
330
446
102
}
100
AcDbSymbolTableRecord
100
AcDbDimStyleTableRecord
  2
DIMSTYLE_1
 70
          64
  3

  4

 40
1.0
 41
2.4
 42
0.0625
 43
0.38
 44
0.18
 45
0.0
 46
0.0
 47
0.0
 48
0.0
 71
           0
 72
           0
 73
           1
 74
           1
 75
           0
 76
           0
 77
           0
 78
           4
 79
           0
140
1.6
141
0.09
142
0.0
143
25.4
144
1.0
145
0.0
146
1.0
147
0.09
148
0.0
170
           0
171
           2
172
           0
173
           0
174
           0
175
           0
176
           0
177
           0
178
           0
179
           0
271
           6
272
           6
273
           2
274
           2
275
           0
276
           0
277
           2
278
          46
279
           0
280
           0
281
           0
282
           0
283
           1
284
           4
285
           0
286
           0
288
           0
340
11
341
21E
342
21E
343
21E
344
21E
371
          -2
372
          -2
  0
DIMSTYLE
105
23E
102
{ACAD_REACTORS
330
436
330
43A
330
43D
330
43E
330
440
330
441
330
444
330
445
102
}
100
AcDbSymbolTableRecord
100
AcDbDimStyleTableRecord
  2
DIMSTYLE_2
 70
          64
  3

  4

 40
1.0
 41
2.4
 42
0.0625
 43
0.38
 44
0.18
 45
0.0
 46
0.0
 47
0.0
 48
0.0
 71
           0
 72
           0
 73
           1
 74
           1
 75
           0
 76
           0
 77
           0
 78
           4
 79
           0
140
1.6
141
0.09
142
0.0
143
25.4
144
1.0
145
0.0
146
1.0
147
0.09
148
0.0
170
           0
171
           2
172
           0
173
           0
174
           0
175
           0
176
           0
177
           0
178
           0
179
           0
271
           3
272
           3
273
           2
274
           2
275
           0
276
           0
277
           2
278
          46
279
           0
280
           0
281
           0
282
           0
283
           1
284
           4
285
           0
286
           0
288
           0
340
11
341
21E
342
21E
343
21E
344
21E
371
          -2
372
          -2
  0
DIMSTYLE
105
23F
102
{ACAD_REACTORS
330
439
330
447
330
448
102
}
100
AcDbSymbolTableRecord
100
AcDbDimStyleTableRecord
  2
DIMSTYLE_3
 70
          64
  3

  4

 40
1.0
 41
2.4
 42
0.0625
 43
0.38
 44
0.18
 45
0.0
 46
0.0
 47
0.0
 48
0.0
 71
           0
 72
           0
 73
           1
 74
           1
 75
           0
 76
           0
 77
           0
 78
           4
 79
           0
140
1.6
141
0.09
142
0.0
143
25.4
144
1.0
145
0.0
146
1.0
147
0.09
148
0.0
170
           0
171
           2
172
           0
173
           0
174
           0
175
           0
176
           0
177
           0
178
           0
179
           0
271
           0
272
           0
273
           2
274
           2
275
           0
276
           0
277
           2
278
          46
279
           0
280
           0
281
           0
282
           0
283
           1
284
           4
285
           0
286
           0
288
           0
340
11
341
21E
342
21E
343
21E
344
21E
371
          -2
372
          -2
  0
DIMSTYLE
105
240
102
{ACAD_REACTORS
330
43C
102
}
100
AcDbSymbolTableRecord
100
AcDbDimStyleTableRecord
  2
DIMSTYLE_4
 70
          64
  3

  4

 40
1.0
 41
2.4
 42
0.0625
 43
0.38
 44
0.18
 45
0.0
 46
0.0
 47
0.0
 48
0.0
 71
           0
 72
           0
 73
           1
 74
           1
 75
           0
 76
           0
 77
           0
 78
           4
 79
           0
140
1.6
141
0.09
142
0.0
143
25.4
144
1.0
145
0.0
146
1.0
147
0.09
148
0.0
170
           0
171
           2
172
           0
173
           0
174
           0
175
           0
176
           0
177
           0
178
           0
179
           0
271
           4
272
           4
273
           2
274
           2
275
           0
276
           0
277
           2
278
          46
279
           0
280
           0
281
           0
282
           0
283
           1
284
           4
285
           0
286
           0
288
           0
340
11
341
21E
342
21E
343
21E
344
21E
371
          -2
372
          -2
  0
DIMSTYLE
105
241
102
{ACAD_REACTORS
330
43F
102
}
100
AcDbSymbolTableRecord
100
AcDbDimStyleTableRecord
  2
DIMSTYLE_5
 70
          64
  3

  4

 40
1.0
 41
2.4
 42
0.0625
 43
0.38
 44
0.18
 45
0.0
 46
0.0
 47
0.0
 48
0.0
 71
           0
 72
           0
 73
           1
 74
           1
 75
           0
 76
           0
 77
           0
 78
           4
 79
           0
140
1.6
141
0.09
142
0.0
143
25.4
144
1.0
145
0.0
146
1.0
147
0.09
148
0.0
170
           0
171
           2
172
           0
173
           0
174
           0
175
           0
176
           0
177
           0
178
           0
179
           0
271
           2
272
           2
273
           2
274
           2
275
           0
276
           0
277
           2
278
          46
279
           0
280
           0
281
           0
282
           0
283
           1
284
           4
285
           0
286
           0
288
           0
340
11
341
21E
342
21E
343
21E
344
21E
371
          -2
372
          -2
  0
ENDTAB
  0
TABLE
  2
BLOCK_RECORD
  5
1
100
AcDbSymbolTable
 70
           9
  0
BLOCK_RECORD
  5
21C
100
AcDbSymbolTableRecord
100
AcDbBlockTableRecord
  2
*MODEL_SPACE
340
1858
  0
BLOCK_RECORD
  5
21D
100
AcDbSymbolTableRecord
100
AcDbBlockTableRecord
  2
*PAPER_SPACE
340
1859
  0
BLOCK_RECORD
  5
21E
100
AcDbSymbolTableRecord
100
AcDbBlockTableRecord
  2
_FILLED
340
0
  0
BLOCK_RECORD
  5
234
100
AcDbSymbolTableRecord
100
AcDbBlockTableRecord
  2
L03-MOTEUR-CONTROLE-LED_BL7
340
0
  0
BLOCK_RECORD
  5
235
100
AcDbSymbolTableRecord
100
AcDbBlockTableRecord
  2
L03-MOTEUR-CONTROLE-LED_BL6
340
0
  0
BLOCK_RECORD
  5
236
100
AcDbSymbolTableRecord
100
AcDbBlockTableRecord
  2
L03-MOTEUR-CONTROLE-LED_BL5
340
0
  0
BLOCK_RECORD
  5
237
100
AcDbSymbolTableRecord
100
AcDbBlockTableRecord
  2
L03-MOTEUR-CONTROLE-LED_BL4
340
0
  0
BLOCK_RECORD
  5
238
100
AcDbSymbolTableRecord
100
AcDbBlockTableRecord
  2
L03-MOTEUR-CONTROLE-LED_BL3
340
0
  0
BLOCK_RECORD
  5
239
100
AcDbSymbolTableRecord
100
AcDbBlockTableRecord
  2
L03-TOLERANCES_GENERALES_BL2
340
0
  0
BLOCK_RECORD
  5
23A
100
AcDbSymbolTableRecord
100
AcDbBlockTableRecord
  2
L03-NOTE_SPECS_BAINS_BL1
340
0
  0
BLOCK_RECORD
  5
23B
100
AcDbSymbolTableRecord
100
AcDbBlockTableRecord
  2
L03-USAGE_INTERNE_SEULEM_BL0
340
0
  0
ENDTAB
  0
ENDSEC
  0
SECTION
  2
BLOCKS
  0
BLOCK
  5
20
100
AcDbEntity
  8
0
100
AcDbBlockBegin
  2
*MODEL_SPACE
 70
           0
 10
0.0
 20
0.0
 30
0.0
  3
*MODEL_SPACE
  1

  0
ENDBLK
  5
21
100
AcDbEntity
  8
0
100
AcDbBlockEnd
  0
BLOCK
  5
1C
100
AcDbEntity
 67
           1
  8
0
100
AcDbBlockBegin
  2
*PAPER_SPACE
 70
           0
 10
0.0
 20
0.0
 30
0.0
  3
*PAPER_SPACE
  1

  0
ENDBLK
  5
1D
100
AcDbEntity
 67
           1
  8
0
100
AcDbBlockEnd
  0
BLOCK
  5
32B
100
AcDbEntity
  8
0
100
AcDbBlockBegin
  2
_FILLED
 70
          64
 10
0.0
 20
0.0
 30
0.0
  3
_FILLED
  1

1001
ACAD
1000
RTMaterial
1005
185D
  0
SOLID
  5
32C
100
AcDbEntity
  8
0
  6
ByBlock
 62
           0
100
AcDbTrace
 10
0.0
 20
0.0
 30
0.0
 11
-1.0
 21
0.1666666667
 31
0.0
 12
-1.0
 22
-0.1666666667
 32
0.0
 13
-1.0
 23
-0.1666666667
 33
0.0
1001
ACAD
1000
RTMaterial
1005
185D
  0
ENDBLK
  5
32D
100
AcDbEntity
  8
0
  6
ByBlock
 62
           0
100
AcDbBlockEnd
1001
ACAD
1000
RTMaterial
1005
185D
  0
BLOCK
  5
242
100
AcDbEntity
  8
0
  6
CONTINUOUS
 62
           2
100
AcDbBlockBegin
  2
L03-MOTEUR-CONTROLE-LED_BL7
 70
          64
 10
40.8033495004
 20
117.4619512883
 30
0.0
  3
L03-MOTEUR-CONTROLE-LED_BL7
  1

1001
ACAD
1000
RTMaterial
1005
185D
  0
ELLIPSE
  5
243
100
AcDbEntity
  8
0
  6
CONTINUOUS
 62
           7
100
AcDbEllipse
 10
40.8033495004
 20
117.4619512883
 30
0.0
 11
-2.3314650814999998
 21
0.0
 31
0.0
210
0.0
220
0.0
230
1.0
 40
0.6606458385
 41
0.0
 42
6.2831853071795862
1001
ACAD
1000
RTMaterial
1005
185D
  0
MTEXT
  5
244
100
AcDbEntity
  8
0
  6
CONTINUOUS
 62
           2
100
AcDbMText
 10
40.1633492514
 20
118.2619515996
 30
0.0
 40
1.6000006225
 41
1.280000498
 71
           1
 72
           1
  1
C
  7
TEXTSTYLE_7
 73
           1
 44
1.0
1001
ACAD
1000
MTEXTBEGIN
1070
          73
1070
           1
1070
          44
1040
0.9
1070
          74
1070
           0
1000
MTEXTEND
  0
ENDBLK
  5
245
100
AcDbEntity
  8
0
  6
ByBlock
 62
           0
100
AcDbBlockEnd
1001
ACAD
1000
RTMaterial
1005
185D
  0
BLOCK
  5
246
100
AcDbEntity
  8
0
  6
CONTINUOUS
 62
           2
100
AcDbBlockBegin
  2
L03-MOTEUR-CONTROLE-LED_BL6
 70
          64
 10
67.3506596454
 20
110.4123573384
 30
0.0
  3
L03-MOTEUR-CONTROLE-LED_BL6
  1

1001
ACAD
1000
RTMaterial
1005
185D
  0
ELLIPSE
  5
247
100
AcDbEntity
  8
0
  6
CONTINUOUS
 62
           7
100
AcDbEllipse
 10
67.2986970491
 20
110.4049108415
 30
0.0
 11
-2.3314650814999998
 21
0.0
 31
0.0
210
0.0
220
0.0
230
1.0
 40
0.6606458385
 41
0.0
 42
6.2831853071795862
1001
ACAD
1000
RTMaterial
1005
185D
  0
MTEXT
  5
248
100
AcDbEntity
  8
0
  6
CONTINUOUS
 62
           2
100
AcDbMText
 10
66.7120301542
 20
111.2049111528
 30
0.0
 40
1.6000006225
 41
1.1733337898
 71
           1
 72
           1
  1
L
  7
TEXTSTYLE_7
 73
           1
 44
1.0
1001
ACAD
1000
MTEXTBEGIN
1070
          73
1070
           1
1070
          44
1040
0.9
1070
          74
1070
           0
1000
MTEXTEND
  0
MTEXT
  5
249
100
AcDbEntity
  8
0
  6
CONTINUOUS
 62
           2
100
AcDbMText
 10
62.003119101
 20
111.2198041464
 30
0.0
 40
1.6000006225
 41
1.7066673306
 71
           1
 72
           1
  1
13
  7
TEXTSTYLE_7
 73
           1
 44
1.0
1001
ACAD
1000
MTEXTBEGIN
1070
          73
1070
           1
1070
          44
1040
0.9
1070
          74
1070
           0
1000
MTEXTEND
  0
MTEXT
  5
24A
100
AcDbEntity
  8
0
  6
CONTINUOUS
 62
           2
100
AcDbMText
 10
70.884866151
 20
111.2198041464
 30
0.0
 40
1.6000006225
 41
1.8133340388
 71
           1
 72
           1
  1
14
  7
TEXTSTYLE_7
 73
           1
 44
1.0
1001
ACAD
1000
MTEXTBEGIN
1070
          73
1070
           1
1070
          44
1040
0.9
1070
          74
1070
           0
1000
MTEXTEND
  0
ENDBLK
  5
24B
100
AcDbEntity
  8
0
  6
ByBlock
 62
           0
100
AcDbBlockEnd
1001
ACAD
1000
RTMaterial
1005
185D
  0
BLOCK
  5
24C
100
AcDbEntity
  8
0
  6
CONTINUOUS
 62
           2
100
AcDbBlockBegin
  2
L03-MOTEUR-CONTROLE-LED_BL5
 70
          64
 10
48.668511569
 20
86.8829111107
 30
0.0
  3
L03-MOTEUR-CONTROLE-LED_BL5
  1

1001
ACAD
1000
RTMaterial
1005
185D
  0
ELLIPSE
  5
24D
100
AcDbEntity
  8
0
  6
CONTINUOUS
 62
           7
100
AcDbEllipse
 10
48.6165489726
 20
86.8754646139
 30
0.0
 11
-2.3314650814999998
 21
0.0
 31
0.0
210
0.0
220
0.0
230
1.0
 40
0.6606458385
 41
0.0
 42
6.2831853071795862
1001
ACAD
1000
RTMaterial
1005
185D
  0
MTEXT
  5
24E
100
AcDbEntity
  8
0
  6
CONTINUOUS
 62
           2
100
AcDbMText
 10
48.0298820777
 20
87.6754649251
 30
0.0
 40
1.6000006225
 41
1.1733337898
 71
           1
 72
           1
  1
L
  7
TEXTSTYLE_7
 73
           1
 44
1.0
1001
ACAD
1000
MTEXTBEGIN
1070
          73
1070
           1
1070
          44
1040
0.9
1070
          74
1070
           0
1000
MTEXTEND
  0
MTEXT
  5
24F
100
AcDbEntity
  8
0
  6
CONTINUOUS
 62
           2
100
AcDbMText
 10
43.0009709001
 20
87.6903579188
 30
0.0
 40
1.6000006225
 41
2.3466675796
 71
           1
 72
           1
  1
35
  7
TEXTSTYLE_7
 73
           1
 44
1.0
1001
ACAD
1000
MTEXTBEGIN
1070
          73
1070
           1
1070
          44
1040
0.9
1070
          74
1070
           0
1000
MTEXTEND
  0
MTEXT
  5
250
100
AcDbEntity
  8
0
  6
CONTINUOUS
 62
           2
100
AcDbMText
 10
51.8827179501
 20
87.6903579188
 30
0.0
 40
1.6000006225
 41
2.4533342878
 71
           1
 72
           1
  1
34
  7
TEXTSTYLE_7
 73
           1
 44
1.0
1001
ACAD
1000
MTEXTBEGIN
1070
          73
1070
           1
1070
          44
1040
0.9
1070
          74
1070
           0
1000
MTEXTEND
  0
ENDBLK
  5
251
100
AcDbEntity
  8
0
  6
ByBlock
 62
           0
100
AcDbBlockEnd
1001
ACAD
1000
RTMaterial
1005
185D
  0
BLOCK
  5
252
100
AcDbEntity
  8
0
  6
CONTINUOUS
 62
           2
100
AcDbBlockBegin
  2
L03-MOTEUR-CONTROLE-LED_BL4
 70
          64
 10
51.2266851445
 20
79.7753504513
 30
0.0
  3
L03-MOTEUR-CONTROLE-LED_BL4
  1

1001
ACAD
1000
RTMaterial
1005
185D
  0
ELLIPSE
  5
253
100
AcDbEntity
  8
0
  6
CONTINUOUS
 62
           7
100
AcDbEllipse
 10
51.2266851445
 20
79.7753504513
 30
0.0
 11
-2.3314650814999998
 21
0.0
 31
0.0
210
0.0
220
0.0
230
1.0
 40
0.6606458385
 41
0.0
 42
6.2831853071795862
1001
ACAD
1000
RTMaterial
1005
185D
  0
MTEXT
  5
254
100
AcDbEntity
  8
0
  6
CONTINUOUS
 62
           2
100
AcDbMText
 10
50.5866848956
 20
80.5753507625
 30
0.0
 40
1.6000006225
 41
1.280000498
 71
           1
 72
           1
  1
C
  7
TEXTSTYLE_7
 73
           1
 44
1.0
1001
ACAD
1000
MTEXTBEGIN
1070
          73
1070
           1
1070
          44
1040
0.9
1070
          74
1070
           0
1000
MTEXTEND
  0
ENDBLK
  5
255
100
AcDbEntity
  8
0
  6
ByBlock
 62
           0
100
AcDbBlockEnd
1001
ACAD
1000
RTMaterial
1005
185D
  0
BLOCK
  5
256
100
AcDbEntity
  8
0
  6
CONTINUOUS
 62
           2
100
AcDbBlockBegin
  2
L03-MOTEUR-CONTROLE-LED_BL3
 70
          64
 10
26.3789447453
 20
98.6098788784
 30
0.0
  3
L03-MOTEUR-CONTROLE-LED_BL3
  1

1001
ACAD
1000
RTMaterial
1005
185D
  0
ELLIPSE
  5
257
100
AcDbEntity
  8
0
  6
CONTINUOUS
 62
           7
100
AcDbEllipse
 10
26.3789447453
 20
98.6098788784
 30
0.0
 11
-2.3314650814999998
 21
0.0
 31
0.0
210
0.0
220
0.0
230
1.0
 40
0.6606458385
 41
0.0
 42
6.2831853071795862
1001
ACAD
1000
RTMaterial
1005
185D
  0
MTEXT
  5
258
100
AcDbEntity
  8
0
  6
CONTINUOUS
 62
           2
100
AcDbMText
 10
25.7656111733
 20
99.4098791897
 30
0.0
 40
1.6000006225
 41
1.2266671439
 71
           1
 72
           1
  1
T
  7
TEXTSTYLE_7
 73
           1
 44
1.0
1001
ACAD
1000
MTEXTBEGIN
1070
          73
1070
           1
1070
          44
1040
0.9
1070
          74
1070
           0
1000
MTEXTEND
  0
ENDBLK
  5
259
100
AcDbEntity
  8
0
  6
ByBlock
 62
           0
100
AcDbBlockEnd
1001
ACAD
1000
RTMaterial
1005
185D
  0
BLOCK
  5
25A
100
AcDbEntity
  8
0
  6
CONTINUOUS
 62
           2
100
AcDbBlockBegin
  2
L03-TOLERANCES_GENERALES_BL2
 70
          64
 10
202.0240792634
 20
27.9343543647
 30
0.0
  3
L03-TOLERANCES_GENERALES_BL2
  1

1001
ACAD
1000
RTMaterial
1005
185D
  0
MTEXT
  5
25B
100
AcDbEntity
  8
0
  6
CONTINUOUS
 62
           2
100
AcDbMText
 10
195.4665796012
 20
31.1343735647
 30
0.0
 40
0.9142912
 41
8.7738092563
 71
           1
 72
           1
  1
FRACTIONS \Fgdt;{\Fgdt;`}
  7
TEXTSTYLE_2
 73
           1
 44
1.0
1001
ACAD
1000
MTEXTBEGIN
1070
          73
1070
           1
1070
          44
1040
0.9
1070
          74
1070
           0
1000
MTEXTEND
  0
MTEXT
  5
25C
100
AcDbEntity
  8
0
  6
CONTINUOUS
 62
           2
100
AcDbMText
 10
195.4665796012
 20
29.7629367647
 30
0.0
 40
0.9142912
 41
13.1149993244
 71
           1
 72
           1
  1
DÉCIMALES X.X      \Fgdt;{\Fgdt;`}
  7
TEXTSTYLE_2
 73
           1
 44
1.0
1001
ACAD
1000
MTEXTBEGIN
1070
          73
1070
           1
1070
          44
1040
0.9
1070
          74
1070
           0
1000
MTEXTEND
  0
MTEXT
  5
25D
100
AcDbEntity
  8
0
  6
CONTINUOUS
 62
           2
100
AcDbMText
 10
195.4665796012
 20
28.3914999647
 30
0.0
 40
0.9142912
 41
12.9930938311
 71
           1
 72
           1
  1
                     X.XX   \Fgdt;{\Fgdt;`}
  7
TEXTSTYLE_2
 73
           1
 44
1.0
1001
ACAD
1000
MTEXTBEGIN
1070
          73
1070
           1
1070
          44
1040
0.9
1070
          74
1070
           0
1000
MTEXTEND
  0
MTEXT
  5
25E
100
AcDbEntity
  8
0
  6
CONTINUOUS
 62
           2
100
AcDbMText
 10
195.4665796012
 20
27.0200631647
 30
0.0
 40
0.9142912
 41
13.0845229511
 71
           1
 72
           1
  1
                     X.XXX \Fgdt;{\Fgdt;`}
  7
TEXTSTYLE_2
 73
           1
 44
1.0
1001
ACAD
1000
MTEXTBEGIN
1070
          73
1070
           1
1070
          44
1040
0.9
1070
          74
1070
           0
1000
MTEXTEND
  0
MTEXT
  5
25F
100
AcDbEntity
  8
0
  6
CONTINUOUS
 62
           2
100
AcDbMText
 10
195.4665796012
 20
25.6486263647
 30
0.0
 40
0.9142912
 41
5.7735796148
 71
           1
 72
           1
  1
ANGLE \Fgdt;{\Fgdt;`}
  7
TEXTSTYLE_2
 73
           1
 44
1.0
1001
ACAD
1000
MTEXTBEGIN
1070
          73
1070
           1
1070
          44
1040
0.9
1070
          74
1070
           0
1000
MTEXTEND
  0
MTEXT
  5
260
100
AcDbEntity
  8
0
  6
CONTINUOUS
 62
           2
100
AcDbMText
 10
204.5176296644
 20
31.1343708218
 30
0.0
 40
0.9142857143
 41
1.6457142857
 71
           1
 72
           1
  1
1/4
  7
TEXTSTYLE_7
 73
           1
 44
1.0
1001
ACAD
1000
MTEXTBEGIN
1070
          73
1070
           1
1070
          44
1040
0.9
1070
          74
1070
           0
1000
MTEXTEND
  0
MTEXT
  5
261
100
AcDbEntity
  8
0
  6
CONTINUOUS
 62
           2
100
AcDbMText
 10
201.2570557916
 20
25.6486565361
 30
0.0
 40
0.9142857143
 41
0.9142857143
 71
           1
 72
           1
  1
1\Fgdt;{\Fgdt;~}
  7
TEXTSTYLE_7
 73
           1
 44
1.0
1001
ACAD
1000
MTEXTBEGIN
1070
          73
1070
           1
1070
          44
1040
0.9
1070
          74
1070
           0
1000
MTEXTEND
  0
ENDBLK
  5
262
100
AcDbEntity
  8
0
  6
ByBlock
 62
           0
100
AcDbBlockEnd
1001
ACAD
1000
RTMaterial
1005
185D
  0
BLOCK
  5
263
100
AcDbEntity
  8
0
  6
CONTINUOUS
 62
           2
100
AcDbBlockBegin
  2
L03-NOTE_SPECS_BAINS_BL1
 70
          64
 10
192.8
 20
66.4
 30
0.0
  3
L03-NOTE_SPECS_BAINS_BL1
  1

1001
ACAD
1000
RTMaterial
1005
185D
  0
LINE
  5
264
100
AcDbEntity
  8
0
  6
CONTINUOUS
 62
           7
100
AcDbLine
 10
172.8
 20
76.8
 30
0.0
 11
172.8
 21
56.0
 31
0.0
1001
ACAD
1000
RTMaterial
1005
185D
  0
LINE
  5
265
100
AcDbEntity
  8
0
  6
CONTINUOUS
 62
           7
100
AcDbLine
 10
172.8
 20
76.8
 30
0.0
 11
212.8
 21
76.8
 31
0.0
1001
ACAD
1000
RTMaterial
1005
185D
  0
LINE
  5
266
100
AcDbEntity
  8
0
  6
CONTINUOUS
 62
           7
100
AcDbLine
 10
212.8
 20
76.8
 30
0.0
 11
212.8
 21
56.0
 31
0.0
1001
ACAD
1000
RTMaterial
1005
185D
  0
LINE
  5
267
100
AcDbEntity
  8
0
  6
CONTINUOUS
 62
           7
100
AcDbLine
 10
172.8
 20
56.0
 30
0.0
 11
212.8
 21
56.0
 31
0.0
1001
ACAD
1000
RTMaterial
1005
185D
  0
LINE
  5
268
100
AcDbEntity
  8
0
  6
CONTINUOUS
 62
           7
100
AcDbLine
 10
174.4
 20
64.8
 30
0.0
 11
211.2
 21
64.8
 31
0.0
1001
ACAD
1000
RTMaterial
1005
185D
  0
LINE
  5
269
100
AcDbEntity
  8
0
  6
CONTINUOUS
 62
           7
100
AcDbLine
 10
174.4
 20
73.2
 30
0.0
 11
211.2
 21
73.2
 31
0.0
1001
ACAD
1000
RTMaterial
1005
185D
  0
LINE
  5
26A
100
AcDbEntity
  8
0
  6
CONTINUOUS
 62
           7
100
AcDbLine
 10
173.7706878711
 20
62.8537974052
 30
0.0
 11
173.3278629803
 21
62.4109725144
 31
0.0
1001
ACAD
1000
RTMaterial
1005
185D
  0
LINE
  5
26B
100
AcDbEntity
  8
0
  6
CONTINUOUS
 62
           7
100
AcDbLine
 10
174.5706878711
 20
62.8537974052
 30
0.0
 11
173.6130689226
 21
61.8961784567
 31
0.0
1001
ACAD
1000
RTMaterial
1005
185D
  0
LINE
  5
26C
100
AcDbEntity
  8
0
  6
CONTINUOUS
 62
           7
100
AcDbLine
 10
175.3706878711
 20
62.8537974052
 30
0.0
 11
174.4130689226
 21
61.8961784567
 31
0.0
1001
ACAD
1000
RTMaterial
1005
185D
  0
LINE
  5
26D
100
AcDbEntity
  8
0
  6
CONTINUOUS
 62
           7
100
AcDbLine
 10
176.1706878711
 20
62.8537974052
 30
0.0
 11
175.2130689226
 21
61.8961784567
 31
0.0
1001
ACAD
1000
RTMaterial
1005
185D
  0
LINE
  5
26E
100
AcDbEntity
  8
0
  6
CONTINUOUS
 62
           7
100
AcDbLine
 10
176.9706878711
 20
62.8537974052
 30
0.0
 11
176.0130689226
 21
61.8961784567
 31
0.0
1001
ACAD
1000
RTMaterial
1005
185D
  0
LINE
  5
26F
100
AcDbEntity
  8
0
  6
CONTINUOUS
 62
           7
100
AcDbLine
 10
177.7706878711
 20
62.8537974052
 30
0.0
 11
176.8130689226
 21
61.8961784567
 31
0.0
1001
ACAD
1000
RTMaterial
1005
185D
  0
LINE
  5
270
100
AcDbEntity
  8
0
  6
CONTINUOUS
 62
           7
100
AcDbLine
 10
178.5706878711
 20
62.8537974052
 30
0.0
 11
177.6130689226
 21
61.8961784567
 31
0.0
1001
ACAD
1000
RTMaterial
1005
185D
  0
LINE
  5
271
100
AcDbEntity
  8
0
  6
CONTINUOUS
 62
           7
100
AcDbLine
 10
179.3706878711
 20
62.8537974052
 30
0.0
 11
178.4130689226
 21
61.8961784567
 31
0.0
1001
ACAD
1000
RTMaterial
1005
185D
  0
LINE
  5
272
100
AcDbEntity
  8
0
  6
CONTINUOUS
 62
           7
100
AcDbLine
 10
180.1706878711
 20
62.8537974052
 30
0.0
 11
179.2130689226
 21
61.8961784567
 31
0.0
1001
ACAD
1000
RTMaterial
1005
185D
  0
LINE
  5
273
100
AcDbEntity
  8
0
  6
CONTINUOUS
 62
           7
100
AcDbLine
 10
180.7028727921
 20
62.5859823262
 30
0.0
 11
180.0130689226
 21
61.8961784567
 31
0.0
1001
ACAD
1000
RTMaterial
1005
185D
  0
ELLIPSE
  5
274
100
AcDbEntity
  8
0
  6
CONTINUOUS
 62
           7
100
AcDbEllipse
 10
175.3744829786
 20
60.5171372483
 30
0.0
 11
1.2568247227
 21
0.0
 31
0.0
210
0.0
220
0.0
230
1.0
 40
0.4938647983
 41
0.0
 42
6.2831853071795862
1001
ACAD
1000
RTMaterial
1005
185D
  0
ELLIPSE
  5
275
100
AcDbEntity
  8
0
  6
CONTINUOUS
 62
           7
100
AcDbEllipse
 10
175.3744829786
 20
58.9171372483
 30
0.0
 11
1.2568247227
 21
0.0
 31
0.0
210
0.0
220
0.0
230
1.0
 40
0.4938647983
 41
0.0
 42
6.2831853071795862
1001
ACAD
1000
RTMaterial
1005
185D
  0
ELLIPSE
  5
276
100
AcDbEntity
  8
0
  6
CONTINUOUS
 62
           7
100
AcDbEllipse
 10
175.3744829786
 20
57.3171372483
 30
0.0
 11
1.2568247227
 21
0.0
 31
0.0
210
0.0
220
0.0
230
1.0
 40
0.4938647983
 41
0.0
 42
6.2831853071795862
1001
ACAD
1000
RTMaterial
1005
185D
  0
ELLIPSE
  5
277
100
AcDbEntity
  8
0
  6
CONTINUOUS
 62
           7
100
AcDbEllipse
 10
188.5968456759
 20
60.5405628768
 30
0.0
 11
1.2568247227
 21
0.0
 31
0.0
210
0.0
220
0.0
230
1.0
 40
0.4938647983
 41
0.0
 42
6.2831853071795862
1001
ACAD
1000
RTMaterial
1005
185D
  0
MTEXT
  5
278
100
AcDbEntity
  8
0
  6
CONTINUOUS
 62
           2
100
AcDbMText
 10
173.3026579086
 20
76.3281200693
 30
0.0
 40
0.6
 41
17.5111111111
 71
           1
 72
           1
  1
Infomations Techniques/Technical Infomations
  7
TEXTSTYLE_2
 73
           1
 44
1.0
1001
ACAD
1000
MTEXTBEGIN
1070
          73
1070
           1
1070
          44
1040
0.9
1070
          74
1070
           0
1000
MTEXTEND
  0
MTEXT
  5
279
100
AcDbEntity
  8
0
  6
CONTINUOUS
 62
           2
100
AcDbMText
 10
173.6
 20
74.8
 30
0.0
 40
0.8
 41
11.8133333333
 71
           1
 72
           1
  1
NOMBRE DE JETS:     
  7
TEXTSTYLE_2
 73
           1
 44
1.0
1001
ACAD
1000
MTEXTBEGIN
1070
          73
1070
           1
1070
          44
1040
0.9
1070
          74
1070
           0
1000
MTEXTEND
  0
MTEXT
  5
27A
100
AcDbEntity
  8
0
  6
CONTINUOUS
 62
           2
100
AcDbMText
 10
185.4133333333
 20
74.8
 30
0.0
 40
0.8
 41
1.2266666667
 71
           1
 72
           1
  1
41
  7
TEXTSTYLE_2
 73
           1
 44
1.0
1001
ACAD
1000
MTEXTBEGIN
1070
          73
1070
           1
1070
          44
1040
0.9
1070
          74
1070
           0
1000
MTEXTEND
  0
MTEXT
  5
27B
100
AcDbEntity
  8
0
  6
CONTINUOUS
 62
           2
100
AcDbMText
 10
173.6
 20
72.4
 30
0.0
 40
0.8
 41
36.6755555556
 71
           1
 72
           1
  1
NIVEAU D'EAU              GALLONS(US)        LITRES        GALLONS(UK)
  7
TEXTSTYLE_2
 73
           1
 44
1.0
1001
ACAD
1000
MTEXTBEGIN
1070
          73
1070
           1
1070
          44
1040
0.9
1070
          74
1070
           0
1000
MTEXTEND
  0
MTEXT
  5
27C
100
AcDbEntity
  8
0
  6
CONTINUOUS
 62
           2
100
AcDbMText
 10
173.6
 20
71.2
 30
0.0
 40
0.8
 41
3.2385185185
 71
           1
 72
           1
  1
PLEIN
  7
TEXTSTYLE_2
 73
           1
 44
1.0
1001
ACAD
1000
MTEXTBEGIN
1070
          73
1070
           1
1070
          44
1040
0.9
1070
          74
1070
           0
1000
MTEXTEND
  0
MTEXT
  5
27D
100
AcDbEntity
  8
0
  6
CONTINUOUS
 62
           2
100
AcDbMText
 10
173.6
 20
70.0
 30
0.0
 40
0.8
 41
7.6266666667
 71
           1
 72
           1
  1
HAUT T.PLEIN
  7
TEXTSTYLE_2
 73
           1
 44
1.0
1001
ACAD
1000
MTEXTBEGIN
1070
          73
1070
           1
1070
          44
1040
0.9
1070
          74
1070
           0
1000
MTEXTEND
  0
MTEXT
  5
27E
100
AcDbEntity
  8
0
  6
CONTINUOUS
 62
           2
100
AcDbMText
 10
173.6
 20
68.8
 30
0.0
 40
0.8
 41
8.322962963
 71
           1
 72
           1
  1
MILIEU T.PLEIN
  7
TEXTSTYLE_2
 73
           1
 44
1.0
1001
ACAD
1000
MTEXTBEGIN
1070
          73
1070
           1
1070
          44
1040
0.9
1070
          74
1070
           0
1000
MTEXTEND
  0
MTEXT
  5
27F
100
AcDbEntity
  8
0
  6
CONTINUOUS
 62
           2
100
AcDbMText
 10
173.6
 20
67.6
 30
0.0
 40
0.8
 41
6.8059259259
 71
           1
 72
           1
  1
BAS T.PLEIN
  7
TEXTSTYLE_2
 73
           1
 44
1.0
1001
ACAD
1000
MTEXTBEGIN
1070
          73
1070
           1
1070
          44
1040
0.9
1070
          74
1070
           0
1000
MTEXTEND
  0
MTEXT
  5
280
100
AcDbEntity
  8
0
  6
CONTINUOUS
 62
           2
100
AcDbMText
 10
173.6
 20
66.4
 30
0.0
 40
0.8
 41
10.1481481481
 71
           1
 72
           1
  1
3" EN BAS T.PLEIN
  7
TEXTSTYLE_2
 73
           1
 44
1.0
1001
ACAD
1000
MTEXTBEGIN
1070
          73
1070
           1
1070
          44
1040
0.9
1070
          74
1070
           0
1000
MTEXTEND
  0
MTEXT
  5
281
100
AcDbEntity
  8
0
  6
CONTINUOUS
 62
           2
100
AcDbMText
 10
173.3598061933
 20
64.3438556902
 30
0.0
 40
0.6
 41
6.3511111111
 71
           1
 72
           1
  1
Legende/Legend
  7
TEXTSTYLE_2
 73
           1
 44
1.0
1001
ACAD
1000
MTEXTBEGIN
1070
          73
1070
           1
1070
          44
1040
0.9
1070
          74
1070
           0
1000
MTEXTEND
  0
MTEXT
  5
282
100
AcDbEntity
  8
0
  6
CONTINUOUS
 62
           2
100
AcDbMText
 10
181.1944081262
 20
62.730337717
 30
0.0
 40
0.8
 41
13.5081481481
 71
           1
 72
           1
  1
ZONE DE ROBINETTERIE
  7
TEXTSTYLE_2
 73
           1
 44
1.0
1001
ACAD
1000
MTEXTBEGIN
1070
          73
1070
           1
1070
          44
1040
0.9
1070
          74
1070
           0
1000
MTEXTEND
  0
MTEXT
  5
283
100
AcDbEntity
  8
0
  6
CONTINUOUS
 62
           2
100
AcDbMText
 10
175.0987386458
 20
60.9360442997
 30
0.0
 40
0.8
 41
33.3244444444
 71
           1
 72
           1
  1
L   :  SYSTEME LED       DC   :  DOUBLE DOSSIER CHAUFFANT
  7
TEXTSTYLE_2
 73
           1
 44
1.0
1001
ACAD
1000
MTEXTBEGIN
1070
          73
1070
           1
1070
          44
1040
0.9
1070
          74
1070
           0
1000
MTEXTEND
  0
MTEXT
  5
284
100
AcDbEntity
  8
0
  6
CONTINUOUS
 62
           2
100
AcDbMText
 10
175.0987386458
 20
59.3360442997
 30
0.0
 40
0.8
 41
8.96
 71
           1
 72
           1
  1
C   :  CONTROLE
  7
TEXTSTYLE_2
 73
           1
 44
1.0
1001
ACAD
1000
MTEXTBEGIN
1070
          73
1070
           1
1070
          44
1040
0.9
1070
          74
1070
           0
1000
MTEXTEND
  0
MTEXT
  5
285
100
AcDbEntity
  8
0
  6
CONTINUOUS
 62
           2
100
AcDbMText
 10
175.0987386458
 20
57.7360442997
 30
0.0
 40
0.8
 41
7.4844444444
 71
           1
 72
           1
  1
T   :  MOTEUR
  7
TEXTSTYLE_2
 73
           1
 44
1.0
1001
ACAD
1000
MTEXTBEGIN
1070
          73
1070
           1
1070
          44
1040
0.9
1070
          74
1070
           0
1000
MTEXTEND
  0
MTEXT
  5
286
100
AcDbEntity
  8
0
  6
CONTINUOUS
 62
           2
100
AcDbMText
 10
188.6925693725
 20
71.2
 30
0.0
 40
0.8
 41
1.84
 71
           1
 72
           1
  1
106
  7
TEXTSTYLE_2
 73
           1
 44
1.0
1001
ACAD
1000
MTEXTBEGIN
1070
          73
1070
           1
1070
          44
1040
0.9
1070
          74
1070
           0
1000
MTEXTEND
  0
MTEXT
  5
287
100
AcDbEntity
  8
0
  6
CONTINUOUS
 62
           2
100
AcDbMText
 10
188.9992360392
 20
70.0
 30
0.0
 40
0.8
 41
1.2266666667
 71
           1
 72
           1
  1
90
  7
TEXTSTYLE_2
 73
           1
 44
1.0
1001
ACAD
1000
MTEXTBEGIN
1070
          73
1070
           1
1070
          44
1040
0.9
1070
          74
1070
           0
1000
MTEXTEND
  0
MTEXT
  5
288
100
AcDbEntity
  8
0
  6
CONTINUOUS
 62
           2
100
AcDbMText
 10
188.9992360392
 20
68.8
 30
0.0
 40
0.8
 41
1.2266666667
 71
           1
 72
           1
  1
82
  7
TEXTSTYLE_2
 73
           1
 44
1.0
1001
ACAD
1000
MTEXTBEGIN
1070
          73
1070
           1
1070
          44
1040
0.9
1070
          74
1070
           0
1000
MTEXTEND
  0
MTEXT
  5
289
100
AcDbEntity
  8
0
  6
CONTINUOUS
 62
           2
100
AcDbMText
 10
188.9992360392
 20
67.6
 30
0.0
 40
0.8
 41
1.2266666667
 71
           1
 72
           1
  1
74
  7
TEXTSTYLE_2
 73
           1
 44
1.0
1001
ACAD
1000
MTEXTBEGIN
1070
          73
1070
           1
1070
          44
1040
0.9
1070
          74
1070
           0
1000
MTEXTEND
  0
MTEXT
  5
28A
100
AcDbEntity
  8
0
  6
CONTINUOUS
 62
           2
100
AcDbMText
 10
188.9992360392
 20
66.4
 30
0.0
 40
0.8
 41
1.2266666667
 71
           1
 72
           1
  1
63
  7
TEXTSTYLE_2
 73
           1
 44
1.0
1001
ACAD
1000
MTEXTBEGIN
1070
          73
1070
           1
1070
          44
1040
0.9
1070
          74
1070
           0
1000
MTEXTEND
  0
MTEXT
  5
28B
100
AcDbEntity
  8
0
  6
CONTINUOUS
 62
           2
100
AcDbMText
 10
197.3034831716
 20
71.2204952825
 30
0.0
 40
0.8
 41
1.84
 71
           1
 72
           1
  1
402
  7
TEXTSTYLE_2
 73
           1
 44
1.0
1001
ACAD
1000
MTEXTBEGIN
1070
          73
1070
           1
1070
          44
1040
0.9
1070
          74
1070
           0
1000
MTEXTEND
  0
MTEXT
  5
28C
100
AcDbEntity
  8
0
  6
CONTINUOUS
 62
           2
100
AcDbMText
 10
197.3034831716
 20
70.0204952825
 30
0.0
 40
0.8
 41
1.84
 71
           1
 72
           1
  1
341
  7
TEXTSTYLE_2
 73
           1
 44
1.0
1001
ACAD
1000
MTEXTBEGIN
1070
          73
1070
           1
1070
          44
1040
0.9
1070
          74
1070
           0
1000
MTEXTEND
  0
MTEXT
  5
28D
100
AcDbEntity
  8
0
  6
CONTINUOUS
 62
           2
100
AcDbMText
 10
197.3034831716
 20
68.8204952825
 30
0.0
 40
0.8
 41
1.84
 71
           1
 72
           1
  1
311
  7
TEXTSTYLE_2
 73
           1
 44
1.0
1001
ACAD
1000
MTEXTBEGIN
1070
          73
1070
           1
1070
          44
1040
0.9
1070
          74
1070
           0
1000
MTEXTEND
  0
MTEXT
  5
28E
100
AcDbEntity
  8
0
  6
CONTINUOUS
 62
           2
100
AcDbMText
 10
197.3034831716
 20
67.6204952825
 30
0.0
 40
0.8
 41
1.84
 71
           1
 72
           1
  1
282
  7
TEXTSTYLE_2
 73
           1
 44
1.0
1001
ACAD
1000
MTEXTBEGIN
1070
          73
1070
           1
1070
          44
1040
0.9
1070
          74
1070
           0
1000
MTEXTEND
  0
MTEXT
  5
28F
100
AcDbEntity
  8
0
  6
CONTINUOUS
 62
           2
100
AcDbMText
 10
197.3034831716
 20
66.4204952825
 30
0.0
 40
0.8
 41
1.84
 71
           1
 72
           1
  1
239
  7
TEXTSTYLE_2
 73
           1
 44
1.0
1001
ACAD
1000
MTEXTBEGIN
1070
          73
1070
           1
1070
          44
1040
0.9
1070
          74
1070
           0
1000
MTEXTEND
  0
MTEXT
  5
290
100
AcDbEntity
  8
0
  6
CONTINUOUS
 62
           2
100
AcDbMText
 10
205.6370498966
 20
71.2
 30
0.0
 40
0.8
 41
1.2266666667
 71
           1
 72
           1
  1
88
  7
TEXTSTYLE_2
 73
           1
 44
1.0
1001
ACAD
1000
MTEXTBEGIN
1070
          73
1070
           1
1070
          44
1040
0.9
1070
          74
1070
           0
1000
MTEXTEND
  0
MTEXT
  5
291
100
AcDbEntity
  8
0
  6
CONTINUOUS
 62
           2
100
AcDbMText
 10
205.6370498966
 20
70.0
 30
0.0
 40
0.8
 41
1.2266666667
 71
           1
 72
           1
  1
75
  7
TEXTSTYLE_2
 73
           1
 44
1.0
1001
ACAD
1000
MTEXTBEGIN
1070
          73
1070
           1
1070
          44
1040
0.9
1070
          74
1070
           0
1000
MTEXTEND
  0
MTEXT
  5
292
100
AcDbEntity
  8
0
  6
CONTINUOUS
 62
           2
100
AcDbMText
 10
205.6370498966
 20
68.8
 30
0.0
 40
0.8
 41
1.2266666667
 71
           1
 72
           1
  1
68
  7
TEXTSTYLE_2
 73
           1
 44
1.0
1001
ACAD
1000
MTEXTBEGIN
1070
          73
1070
           1
1070
          44
1040
0.9
1070
          74
1070
           0
1000
MTEXTEND
  0
MTEXT
  5
293
100
AcDbEntity
  8
0
  6
CONTINUOUS
 62
           2
100
AcDbMText
 10
205.6370498966
 20
67.6
 30
0.0
 40
0.8
 41
1.2266666667
 71
           1
 72
           1
  1
62
  7
TEXTSTYLE_2
 73
           1
 44
1.0
1001
ACAD
1000
MTEXTBEGIN
1070
          73
1070
           1
1070
          44
1040
0.9
1070
          74
1070
           0
1000
MTEXTEND
  0
MTEXT
  5
294
100
AcDbEntity
  8
0
  6
CONTINUOUS
 62
           2
100
AcDbMText
 10
205.6370498966
 20
66.4
 30
0.0
 40
0.8
 41
1.2266666667
 71
           1
 72
           1
  1
53
  7
TEXTSTYLE_2
 73
           1
 44
1.0
1001
ACAD
1000
MTEXTBEGIN
1070
          73
1070
           1
1070
          44
1040
0.9
1070
          74
1070
           0
1000
MTEXTEND
  0
ENDBLK
  5
295
100
AcDbEntity
  8
0
  6
ByBlock
 62
           0
100
AcDbBlockEnd
1001
ACAD
1000
RTMaterial
1005
185D
  0
BLOCK
  5
296
100
AcDbEntity
  8
0
  6
CONTINUOUS
 62
           2
100
AcDbBlockBegin
  2
L03-USAGE_INTERNE_SEULEM_BL0
 70
          64
 10
59.6825708244
 20
47.9396909914
 30
0.0
  3
L03-USAGE_INTERNE_SEULEM_BL0
  1

1001
ACAD
1000
RTMaterial
1005
185D
  0
LINE
  5
297
100
AcDbEntity
  8
0
  6
CONTINUOUS
 62
           2
100
AcDbLine
 10
76.3104328924
 20
42.7274506498
 30
0.0
 11
76.3185436116
 21
42.735561369
 31
0.0
1001
ACAD
1000
RTMaterial
1005
185D
  0
LINE
  5
298
100
AcDbEntity
  8
0
  6
CONTINUOUS
 62
           2
100
AcDbLine
 10
75.4313494127
 20
42.5724445141
 30
0.0
 11
76.2100071468
 21
43.3511022482
 31
0.0
1001
ACAD
1000
RTMaterial
1005
185D
  0
LINE
  5
299
100
AcDbEntity
  8
0
  6
CONTINUOUS
 62
           2
100
AcDbLine
 10
74.552265933
 20
42.4174383783
 30
0.0
 11
76.1014706821
 21
43.9666431274
 31
0.0
1001
ACAD
1000
RTMaterial
1005
185D
  0
LINE
  5
29A
100
AcDbEntity
  8
0
  6
CONTINUOUS
 62
           2
100
AcDbLine
 10
73.6731824533
 20
42.2624322425
 30
0.0
 11
75.9929342174
 21
44.5821840066
 31
0.0
1001
ACAD
1000
RTMaterial
1005
185D
  0
LINE
  5
29B
100
AcDbEntity
  8
0
  6
CONTINUOUS
 62
           2
100
AcDbLine
 10
72.7940989736
 20
42.1074261068
 30
0.0
 11
75.8843977527
 21
45.1977248858
 31
0.0
1001
ACAD
1000
RTMaterial
1005
185D
  0
LINE
  5
29C
100
AcDbEntity
  8
0
  6
CONTINUOUS
 62
           2
100
AcDbLine
 10
71.9150154939
 20
41.952419971
 30
0.0
 11
73.7642200716
 21
43.8016245487
 31
0.0
1001
ACAD
1000
RTMaterial
1005
185D
  0
LINE
  5
29D
100
AcDbEntity
  8
0
  6
CONTINUOUS
 62
           2
100
AcDbLine
 10
74.4810343029
 20
44.51843878
 30
0.0
 11
75.7758612879
 21
45.813265765
 31
0.0
1001
ACAD
1000
RTMaterial
1005
185D
  0
LINE
  5
29E
100
AcDbEntity
  8
0
  6
CONTINUOUS
 62
           2
100
AcDbLine
 10
71.0359320142
 20
41.7974138352
 30
0.0
 11
72.8851365919
 21
43.646618413
 31
0.0
1001
ACAD
1000
RTMaterial
1005
185D
  0
LINE
  5
29F
100
AcDbEntity
  8
0
  6
CONTINUOUS
 62
           2
100
AcDbLine
 10
74.3724978382
 20
45.1339796592
 30
0.0
 11
75.6673248232
 21
46.4288066442
 31
0.0
1001
ACAD
1000
RTMaterial
1005
185D
  0
LINE
  5
2A0
100
AcDbEntity
  8
0
  6
CONTINUOUS
 62
           2
100
AcDbLine
 10
70.1568485345
 20
41.6424076995
 30
0.0
 11
72.0060531122
 21
43.4916122772
 31
0.0
1001
ACAD
1000
RTMaterial
1005
185D
  0
LINE
  5
2A1
100
AcDbEntity
  8
0
  6
CONTINUOUS
 62
           2
100
AcDbLine
 10
74.2639613734
 20
45.7495205384
 30
0.0
 11
75.5587883585
 21
47.0443475234
 31
0.0
1001
ACAD
1000
RTMaterial
1005
185D
  0
LINE
  5
2A2
100
AcDbEntity
  8
0
  6
CONTINUOUS
 62
           2
100
AcDbLine
 10
69.2777650548
 20
41.4874015637
 30
0.0
 11
71.1269696325
 21
43.3366061414
 31
0.0
1001
ACAD
1000
RTMaterial
1005
185D
  0
LINE
  5
2A3
100
AcDbEntity
  8
0
  6
CONTINUOUS
 62
           2
100
AcDbLine
 10
74.1554249087
 20
46.3650614176
 30
0.0
 11
75.4502518937
 21
47.6598884026
 31
0.0
1001
ACAD
1000
RTMaterial
1005
185D
  0
LINE
  5
2A4
100
AcDbEntity
  8
0
  6
CONTINUOUS
 62
           2
100
AcDbLine
 10
68.3986815751
 20
41.3323954279
 30
0.0
 11
70.2478861528
 21
43.1816000057
 31
0.0
1001
ACAD
1000
RTMaterial
1005
185D
  0
LINE
  5
2A5
100
AcDbEntity
  8
0
  6
CONTINUOUS
 62
           2
100
AcDbLine
 10
74.046888444
 20
46.9806022968
 30
0.0
 11
75.341715429
 21
48.2754292818
 31
0.0
1001
ACAD
1000
RTMaterial
1005
185D
  0
LINE
  5
2A6
100
AcDbEntity
  8
0
  6
CONTINUOUS
 62
           2
100
AcDbLine
 10
67.5195980954
 20
41.1773892922
 30
0.0
 11
69.3688026731
 21
43.0265938699
 31
0.0
1001
ACAD
1000
RTMaterial
1005
185D
  0
LINE
  5
2A7
100
AcDbEntity
  8
0
  6
CONTINUOUS
 62
           2
100
AcDbLine
 10
73.9383519792
 20
47.596143176
 30
0.0
 11
75.2331789643
 21
48.890970161
 31
0.0
1001
ACAD
1000
RTMaterial
1005
185D
  0
LINE
  5
2A8
100
AcDbEntity
  8
0
  6
CONTINUOUS
 62
           2
100
AcDbLine
 10
66.6405146157
 20
41.0223831564
 30
0.0
 11
68.4897191934
 21
42.8715877341
 31
0.0
1001
ACAD
1000
RTMaterial
1005
185D
  0
LINE
  5
2A9
100
AcDbEntity
  8
0
  6
CONTINUOUS
 62
           2
100
AcDbLine
 10
73.8298155145
 20
48.2116840552
 30
0.0
 11
75.1246424995
 21
49.5065110402
 31
0.0
1001
ACAD
1000
RTMaterial
1005
185D
  0
LINE
  5
2AA
100
AcDbEntity
  8
0
  6
CONTINUOUS
 62
           2
100
AcDbLine
 10
65.761431136
 20
40.8673770206
 30
0.0
 11
67.6106357137
 21
42.7165815984
 31
0.0
1001
ACAD
1000
RTMaterial
1005
185D
  0
LINE
  5
2AB
100
AcDbEntity
  8
0
  6
CONTINUOUS
 62
           2
100
AcDbLine
 10
73.7212790498
 20
48.8272249344
 30
0.0
 11
75.0161060348
 21
50.1220519195
 31
0.0
1001
ACAD
1000
RTMaterial
1005
185D
  0
LINE
  5
2AC
100
AcDbEntity
  8
0
  6
CONTINUOUS
 62
           2
100
AcDbLine
 10
64.8823476563
 20
40.7123708849
 30
0.0
 11
66.731552234
 21
42.5615754626
 31
0.0
1001
ACAD
1000
RTMaterial
1005
185D
  0
LINE
  5
2AD
100
AcDbEntity
  8
0
  6
CONTINUOUS
 62
           2
100
AcDbLine
 10
73.612742585
 20
49.4427658136
 30
0.0
 11
74.9075695701
 21
50.7375927987
 31
0.0
1001
ACAD
1000
RTMaterial
1005
185D
  0
LINE
  5
2AE
100
AcDbEntity
  8
0
  6
CONTINUOUS
 62
           2
100
AcDbLine
 10
64.0032641766
 20
40.5573647491
 30
0.0
 11
65.8524687543
 21
42.4065693268
 31
0.0
1001
ACAD
1000
RTMaterial
1005
185D
  0
LINE
  5
2AF
100
AcDbEntity
  8
0
  6
CONTINUOUS
 62
           2
100
AcDbLine
 10
73.2492870652
 20
49.8033876378
 30
0.0
 11
74.7990331053
 21
51.3531336779
 31
0.0
1001
ACAD
1000
RTMaterial
1005
185D
  0
LINE
  5
2B0
100
AcDbEntity
  8
0
  6
CONTINUOUS
 62
           2
100
AcDbLine
 10
63.1241806969
 20
40.4023586133
 30
0.0
 11
64.9733852746
 21
42.2515631911
 31
0.0
1001
ACAD
1000
RTMaterial
1005
185D
  0
LINE
  5
2B1
100
AcDbEntity
  8
0
  6
CONTINUOUS
 62
           2
100
AcDbLine
 10
72.3702035855
 20
49.648381502
 30
0.0
 11
74.6904966406
 21
51.9686745571
 31
0.0
1001
ACAD
1000
RTMaterial
1005
185D
  0
LINE
  5
2B2
100
AcDbEntity
  8
0
  6
CONTINUOUS
 62
           2
100
AcDbLine
 10
62.2450972172
 20
40.2473524776
 30
0.0
 11
64.0943017949
 21
42.0965570553
 31
0.0
1001
ACAD
1000
RTMaterial
1005
185D
  0
LINE
  5
2B3
100
AcDbEntity
  8
0
  6
CONTINUOUS
 62
           2
100
AcDbLine
 10
71.4911201058
 20
49.4933753662
 30
0.0
 11
72.7239308638
 21
50.7261861242
 31
0.0
1001
ACAD
1000
RTMaterial
1005
185D
  0
LINE
  5
2B4
100
AcDbEntity
  8
0
  6
CONTINUOUS
 62
           2
100
AcDbLine
 10
73.2871331908
 20
51.2893884512
 30
0.0
 11
74.5819601759
 21
52.5842154363
 31
0.0
1001
ACAD
1000
RTMaterial
1005
185D
  0
LINE
  5
2B5
100
AcDbEntity
  8
0
  6
CONTINUOUS
 62
           2
100
AcDbLine
 10
61.3660137375
 20
40.0923463418
 30
0.0
 11
63.2152183152
 21
41.9415509195
 31
0.0
1001
ACAD
1000
RTMaterial
1005
185D
  0
LINE
  5
2B6
100
AcDbEntity
  8
0
  6
CONTINUOUS
 62
           2
100
AcDbLine
 10
70.6120366261
 20
49.3383692305
 30
0.0
 11
71.8448471325
 21
50.5711797369
 31
0.0
1001
ACAD
1000
RTMaterial
1005
185D
  0
LINE
  5
2B7
100
AcDbEntity
  8
0
  6
CONTINUOUS
 62
           2
100
AcDbLine
 10
73.1785967261
 20
51.9049293304
 30
0.0
 11
74.4734237111
 21
53.1997563155
 31
0.0
1001
ACAD
1000
RTMaterial
1005
185D
  0
LINE
  5
2B8
100
AcDbEntity
  8
0
  6
CONTINUOUS
 62
           2
100
AcDbLine
 10
60.4869302578
 20
39.937340206
 30
0.0
 11
62.3361348355
 21
41.7865447838
 31
0.0
1001
ACAD
1000
RTMaterial
1005
185D
  0
LINE
  5
2B9
100
AcDbEntity
  8
0
  6
CONTINUOUS
 62
           2
100
AcDbLine
 10
69.7329531464
 20
49.1833630947
 30
0.0
 11
70.9657634013
 21
50.4161733496
 31
0.0
1001
ACAD
1000
RTMaterial
1005
185D
  0
LINE
  5
2BA
100
AcDbEntity
  8
0
  6
CONTINUOUS
 62
           2
100
AcDbLine
 10
73.0700602614
 20
52.5204702096
 30
0.0
 11
74.3648872464
 21
53.8152971947
 31
0.0
1001
ACAD
1000
RTMaterial
1005
185D
  0
LINE
  5
2BB
100
AcDbEntity
  8
0
  6
CONTINUOUS
 62
           2
100
AcDbLine
 10
59.6078467781
 20
39.7823340703
 30
0.0
 11
61.4570513558
 21
41.631538648
 31
0.0
1001
ACAD
1000
RTMaterial
1005
185D
  0
LINE
  5
2BC
100
AcDbEntity
  8
0
  6
CONTINUOUS
 62
           2
100
AcDbLine
 10
68.8538696667
 20
49.0283569589
 30
0.0
 11
70.0866796701
 21
50.2611669623
 31
0.0
1001
ACAD
1000
RTMaterial
1005
185D
  0
LINE
  5
2BD
100
AcDbEntity
  8
0
  6
CONTINUOUS
 62
           2
100
AcDbLine
 10
72.9615237966
 20
53.1360110889
 30
0.0
 11
74.2563507817
 21
54.4308380739
 31
0.0
1001
ACAD
1000
RTMaterial
1005
185D
  0
LINE
  5
2BE
100
AcDbEntity
  8
0
  6
CONTINUOUS
 62
           2
100
AcDbLine
 10
58.7287632984
 20
39.6273279345
 30
0.0
 11
60.5779678761
 21
41.4765325122
 31
0.0
1001
ACAD
1000
RTMaterial
1005
185D
  0
LINE
  5
2BF
100
AcDbEntity
  8
0
  6
CONTINUOUS
 62
           2
100
AcDbLine
 10
67.974786187
 20
48.8733508232
 30
0.0
 11
69.2075959388
 21
50.106160575
 31
0.0
1001
ACAD
1000
RTMaterial
1005
185D
  0
LINE
  5
2C0
100
AcDbEntity
  8
0
  6
CONTINUOUS
 62
           2
100
AcDbLine
 10
72.8529873319
 20
53.7515519681
 30
0.0
 11
74.1478143169
 21
55.0463789531
 31
0.0
1001
ACAD
1000
RTMaterial
1005
185D
  0
LINE
  5
2C1
100
AcDbEntity
  8
0
  6
CONTINUOUS
 62
           2
100
AcDbLine
 10
57.8496798187
 20
39.4723217987
 30
0.0
 11
59.6988843964
 21
41.3215263765
 31
0.0
1001
ACAD
1000
RTMaterial
1005
185D
  0
LINE
  5
2C2
100
AcDbEntity
  8
0
  6
CONTINUOUS
 62
           2
100
AcDbLine
 10
67.0957027073
 20
48.7183446874
 30
0.0
 11
68.3285122076
 21
49.9511541877
 31
0.0
1001
ACAD
1000
RTMaterial
1005
185D
  0
LINE
  5
2C3
100
AcDbEntity
  8
0
  6
CONTINUOUS
 62
           2
100
AcDbLine
 10
72.7444508672
 20
54.3670928473
 30
0.0
 11
74.0392778522
 21
55.6619198323
 31
0.0
1001
ACAD
1000
RTMaterial
1005
185D
  0
LINE
  5
2C4
100
AcDbEntity
  8
0
  6
CONTINUOUS
 62
           2
100
AcDbLine
 10
56.970596339
 20
39.317315663
 30
0.0
 11
58.8198009167
 21
41.1665202407
 31
0.0
1001
ACAD
1000
RTMaterial
1005
185D
  0
LINE
  5
2C5
100
AcDbEntity
  8
0
  6
CONTINUOUS
 62
           2
100
AcDbLine
 10
66.2166192276
 20
48.5633385516
 30
0.0
 11
67.4494284764
 21
49.7961478004
 31
0.0
1001
ACAD
1000
RTMaterial
1005
185D
  0
LINE
  5
2C6
100
AcDbEntity
  8
0
  6
CONTINUOUS
 62
           2
100
AcDbLine
 10
72.6359144024
 20
54.9826337265
 30
0.0
 11
73.9307413875
 21
56.2774607115
 31
0.0
1001
ACAD
1000
RTMaterial
1005
185D
  0
LINE
  5
2C7
100
AcDbEntity
  8
0
  6
CONTINUOUS
 62
           2
100
AcDbLine
 10
56.0915128593
 20
39.1623095272
 30
0.0
 11
57.940717437
 21
41.0115141049
 31
0.0
1001
ACAD
1000
RTMaterial
1005
185D
  0
LINE
  5
2C8
100
AcDbEntity
  8
0
  6
CONTINUOUS
 62
           2
100
AcDbLine
 10
65.3375357479
 20
48.4083324159
 30
0.0
 11
66.5703447451
 21
49.6411414131
 31
0.0
1001
ACAD
1000
RTMaterial
1005
185D
  0
LINE
  5
2C9
100
AcDbEntity
  8
0
  6
CONTINUOUS
 62
           2
100
AcDbLine
 10
72.5273779377
 20
55.5981746057
 30
0.0
 11
73.8222049227
 21
56.8930015907
 31
0.0
1001
ACAD
1000
RTMaterial
1005
185D
  0
LINE
  5
2CA
100
AcDbEntity
  8
0
  6
CONTINUOUS
 62
           2
100
AcDbLine
 10
55.2124293796
 20
39.0073033914
 30
0.0
 11
57.0616339573
 21
40.8565079692
 31
0.0
1001
ACAD
1000
RTMaterial
1005
185D
  0
LINE
  5
2CB
100
AcDbEntity
  8
0
  6
CONTINUOUS
 62
           2
100
AcDbLine
 10
64.4584522682
 20
48.2533262801
 30
0.0
 11
65.6912610139
 21
49.4861350258
 31
0.0
1001
ACAD
1000
RTMaterial
1005
185D
  0
LINE
  5
2CC
100
AcDbEntity
  8
0
  6
CONTINUOUS
 62
           2
100
AcDbLine
 10
72.418841473
 20
56.2137154849
 30
0.0
 11
73.713668458
 21
57.5085424699
 31
0.0
1001
ACAD
1000
RTMaterial
1005
185D
  0
LINE
  5
2CD
100
AcDbEntity
  8
0
  6
CONTINUOUS
 62
           2
100
AcDbLine
 10
54.3333458999
 20
38.8522972557
 30
0.0
 11
56.1825504776
 21
40.7015018334
 31
0.0
1001
ACAD
1000
RTMaterial
1005
185D
  0
LINE
  5
2CE
100
AcDbEntity
  8
0
  6
CONTINUOUS
 62
           2
100
AcDbLine
 10
63.5793687885
 20
48.0983201443
 30
0.0
 11
64.8121772826
 21
49.3311286385
 31
0.0
1001
ACAD
1000
RTMaterial
1005
185D
  0
LINE
  5
2CF
100
AcDbEntity
  8
0
  6
CONTINUOUS
 62
           2
100
AcDbLine
 10
72.2089901513
 20
56.7279415071
 30
0.0
 11
73.6051319933
 21
58.1240833491
 31
0.0
1001
ACAD
1000
RTMaterial
1005
185D
  0
LINE
  5
2D0
100
AcDbEntity
  8
0
  6
CONTINUOUS
 62
           2
100
AcDbLine
 10
53.4542624202
 20
38.6972911199
 30
0.0
 11
55.3034669979
 21
40.5464956976
 31
0.0
1001
ACAD
1000
RTMaterial
1005
185D
  0
LINE
  5
2D1
100
AcDbEntity
  8
0
  6
CONTINUOUS
 62
           2
100
AcDbLine
 10
62.7002853088
 20
47.9433140086
 30
0.0
 11
63.9330935514
 21
49.1761222512
 31
0.0
1001
ACAD
1000
RTMaterial
1005
185D
  0
LINE
  5
2D2
100
AcDbEntity
  8
0
  6
CONTINUOUS
 62
           2
100
AcDbLine
 10
71.3299066716
 20
56.5729353713
 30
0.0
 11
73.1791112493
 21
58.4221399491
 31
0.0
1001
ACAD
1000
RTMaterial
1005
185D
  0
LINE
  5
2D3
100
AcDbEntity
  8
0
  6
CONTINUOUS
 62
           2
100
AcDbLine
 10
52.5751789405
 20
38.5422849842
 30
0.0
 11
54.4243835182
 21
40.3914895619
 31
0.0
1001
ACAD
1000
RTMaterial
1005
185D
  0
LINE
  5
2D4
100
AcDbEntity
  8
0
  6
CONTINUOUS
 62
           2
100
AcDbLine
 10
61.8212018291
 20
47.7883078728
 30
0.0
 11
63.0540098202
 21
49.0211158639
 31
0.0
1001
ACAD
1000
RTMaterial
1005
185D
  0
LINE
  5
2D5
100
AcDbEntity
  8
0
  6
CONTINUOUS
 62
           2
100
AcDbLine
 10
70.4508231919
 20
56.4179292356
 30
0.0
 11
72.3000277696
 21
58.2671338133
 31
0.0
1001
ACAD
1000
RTMaterial
1005
185D
  0
LINE
  5
2D6
100
AcDbEntity
  8
0
  6
CONTINUOUS
 62
           2
100
AcDbLine
 10
51.6960954608
 20
38.3872788484
 30
0.0
 11
53.5453000385
 21
40.2364834261
 31
0.0
1001
ACAD
1000
RTMaterial
1005
185D
  0
LINE
  5
2D7
100
AcDbEntity
  8
0
  6
CONTINUOUS
 62
           2
100
AcDbLine
 10
60.9421183494
 20
47.633301737
 30
0.0
 11
62.1749260889
 21
48.8661094766
 31
0.0
1001
ACAD
1000
RTMaterial
1005
185D
  0
LINE
  5
2D8
100
AcDbEntity
  8
0
  6
CONTINUOUS
 62
           2
100
AcDbLine
 10
69.5717397122
 20
56.2629230998
 30
0.0
 11
71.4209442899
 21
58.1121276775
 31
0.0
1001
ACAD
1000
RTMaterial
1005
185D
  0
LINE
  5
2D9
100
AcDbEntity
  8
0
  6
CONTINUOUS
 62
           2
100
AcDbLine
 10
50.8170119811
 20
38.2322727126
 30
0.0
 11
52.6662165588
 21
40.0814772904
 31
0.0
1001
ACAD
1000
RTMaterial
1005
185D
  0
LINE
  5
2DA
100
AcDbEntity
  8
0
  6
CONTINUOUS
 62
           2
100
AcDbLine
 10
60.0630348697
 20
47.4782956013
 30
0.0
 11
61.2958423577
 21
48.7111030893
 31
0.0
1001
ACAD
1000
RTMaterial
1005
185D
  0
LINE
  5
2DB
100
AcDbEntity
  8
0
  6
CONTINUOUS
 62
           2
100
AcDbLine
 10
68.6926562325
 20
56.107916964
 30
0.0
 11
70.5418608102
 21
57.9571215418
 31
0.0
1001
ACAD
1000
RTMaterial
1005
185D
  0
LINE
  5
2DC
100
AcDbEntity
  8
0
  6
CONTINUOUS
 62
           2
100
AcDbLine
 10
49.9379285014
 20
38.0772665769
 30
0.0
 11
51.7871330791
 21
39.9264711546
 31
0.0
1001
ACAD
1000
RTMaterial
1005
185D
  0
LINE
  5
2DD
100
AcDbEntity
  8
0
  6
CONTINUOUS
 62
           2
100
AcDbLine
 10
59.18395139
 20
47.3232894655
 30
0.0
 11
60.4167586265
 21
48.556096702
 31
0.0
1001
ACAD
1000
RTMaterial
1005
185D
  0
LINE
  5
2DE
100
AcDbEntity
  8
0
  6
CONTINUOUS
 62
           2
100
AcDbLine
 10
67.8135727528
 20
55.9529108283
 30
0.0
 11
69.6627773305
 21
57.802115406
 31
0.0
1001
ACAD
1000
RTMaterial
1005
185D
  0
LINE
  5
2DF
100
AcDbEntity
  8
0
  6
CONTINUOUS
 62
           2
100
AcDbLine
 10
49.0588450217
 20
37.9222604411
 30
0.0
 11
50.9080495994
 21
39.7714650188
 31
0.0
1001
ACAD
1000
RTMaterial
1005
185D
  0
LINE
  5
2E0
100
AcDbEntity
  8
0
  6
CONTINUOUS
 62
           2
100
AcDbLine
 10
58.3048679103
 20
47.1682833297
 30
0.0
 11
59.5376748952
 21
48.4010903147
 31
0.0
1001
ACAD
1000
RTMaterial
1005
185D
  0
LINE
  5
2E1
100
AcDbEntity
  8
0
  6
CONTINUOUS
 62
           2
100
AcDbLine
 10
66.9344892731
 20
55.7979046925
 30
0.0
 11
68.7836938508
 21
57.6471092702
 31
0.0
1001
ACAD
1000
RTMaterial
1005
185D
  0
LINE
  5
2E2
100
AcDbEntity
  8
0
  6
CONTINUOUS
 62
           2
100
AcDbLine
 10
48.179761542
 20
37.7672543053
 30
0.0
 11
50.0289661197
 21
39.6164588831
 31
0.0
1001
ACAD
1000
RTMaterial
1005
185D
  0
LINE
  5
2E3
100
AcDbEntity
  8
0
  6
CONTINUOUS
 62
           2
100
AcDbLine
 10
57.4257844306
 20
47.013277194
 30
0.0
 11
58.658591164
 21
48.2460839274
 31
0.0
1001
ACAD
1000
RTMaterial
1005
185D
  0
LINE
  5
2E4
100
AcDbEntity
  8
0
  6
CONTINUOUS
 62
           2
100
AcDbLine
 10
66.0554057934
 20
55.6428985567
 30
0.0
 11
67.9046103711
 21
57.4921031345
 31
0.0
1001
ACAD
1000
RTMaterial
1005
185D
  0
LINE
  5
2E5
100
AcDbEntity
  8
0
  6
CONTINUOUS
 62
           2
100
AcDbLine
 10
47.3006780623
 20
37.6122481696
 30
0.0
 11
49.14988264
 21
39.4614527473
 31
0.0
1001
ACAD
1000
RTMaterial
1005
185D
  0
LINE
  5
2E6
100
AcDbEntity
  8
0
  6
CONTINUOUS
 62
           2
100
AcDbLine
 10
56.5467009509
 20
46.8582710582
 30
0.0
 11
57.7795074328
 21
48.0910775401
 31
0.0
1001
ACAD
1000
RTMaterial
1005
185D
  0
LINE
  5
2E7
100
AcDbEntity
  8
0
  6
CONTINUOUS
 62
           2
100
AcDbLine
 10
65.1763223137
 20
55.487892421
 30
0.0
 11
67.0255268914
 21
57.3370969987
 31
0.0
1001
ACAD
1000
RTMaterial
1005
185D
  0
LINE
  5
2E8
100
AcDbEntity
  8
0
  6
CONTINUOUS
 62
           2
100
AcDbLine
 10
46.4215945826
 20
37.4572420338
 30
0.0
 11
48.2707991603
 21
39.3064466115
 31
0.0
1001
ACAD
1000
RTMaterial
1005
185D
  0
LINE
  5
2E9
100
AcDbEntity
  8
0
  6
CONTINUOUS
 62
           2
100
AcDbLine
 10
55.6676174712
 20
46.7032649224
 30
0.0
 11
56.9004237015
 21
47.9360711528
 31
0.0
1001
ACAD
1000
RTMaterial
1005
185D
  0
LINE
  5
2EA
100
AcDbEntity
  8
0
  6
CONTINUOUS
 62
           2
100
AcDbLine
 10
64.297238834
 20
55.3328862852
 30
0.0
 11
66.1464434117
 21
57.1820908629
 31
0.0
1001
ACAD
1000
RTMaterial
1005
185D
  0
LINE
  5
2EB
100
AcDbEntity
  8
0
  6
CONTINUOUS
 62
           2
100
AcDbLine
 10
45.7600096555
 20
37.5197344507
 30
0.0
 11
47.3917156806
 21
39.1514404758
 31
0.0
1001
ACAD
1000
RTMaterial
1005
185D
  0
LINE
  5
2EC
100
AcDbEntity
  8
0
  6
CONTINUOUS
 62
           2
100
AcDbLine
 10
54.7885339915
 20
46.5482587867
 30
0.0
 11
56.0213399703
 21
47.7810647655
 31
0.0
1001
ACAD
1000
RTMaterial
1005
185D
  0
LINE
  5
2ED
100
AcDbEntity
  8
0
  6
CONTINUOUS
 62
           2
100
AcDbLine
 10
63.4181553543
 20
55.1778801494
 30
0.0
 11
65.267359932
 21
57.0270847272
 31
0.0
1001
ACAD
1000
RTMaterial
1005
185D
  0
LINE
  5
2EE
100
AcDbEntity
  8
0
  6
CONTINUOUS
 62
           2
100
AcDbLine
 10
45.6514731908
 20
38.1352753299
 30
0.0
 11
46.9463001758
 21
39.4301023149
 31
0.0
1001
ACAD
1000
RTMaterial
1005
185D
  0
LINE
  5
2EF
100
AcDbEntity
  8
0
  6
CONTINUOUS
 62
           2
100
AcDbLine
 10
53.9094505118
 20
46.3932526509
 30
0.0
 11
55.1422562391
 21
47.6260583782
 31
0.0
1001
ACAD
1000
RTMaterial
1005
185D
  0
LINE
  5
2F0
100
AcDbEntity
  8
0
  6
CONTINUOUS
 62
           2
100
AcDbLine
 10
62.5390718746
 20
55.0228740137
 30
0.0
 11
64.3882764523
 21
56.8720785914
 31
0.0
1001
ACAD
1000
RTMaterial
1005
185D
  0
LINE
  5
2F1
100
AcDbEntity
  8
0
  6
CONTINUOUS
 62
           2
100
AcDbLine
 10
45.5429367261
 20
38.7508162091
 30
0.0
 11
46.8377637111
 21
40.0456431941
 31
0.0
1001
ACAD
1000
RTMaterial
1005
185D
  0
LINE
  5
2F2
100
AcDbEntity
  8
0
  6
CONTINUOUS
 62
           2
100
AcDbLine
 10
53.0303670321
 20
46.2382465151
 30
0.0
 11
54.2631725078
 21
47.4710519909
 31
0.0
1001
ACAD
1000
RTMaterial
1005
185D
  0
LINE
  5
2F3
100
AcDbEntity
  8
0
  6
CONTINUOUS
 62
           2
100
AcDbLine
 10
61.6599883949
 20
54.8678678779
 30
0.0
 11
63.5091929726
 21
56.7170724556
 31
0.0
1001
ACAD
1000
RTMaterial
1005
185D
  0
LINE
  5
2F4
100
AcDbEntity
  8
0
  6
CONTINUOUS
 62
           2
100
AcDbLine
 10
45.4344002613
 20
39.3663570883
 30
0.0
 11
46.7292272464
 21
40.6611840733
 31
0.0
1001
ACAD
1000
RTMaterial
1005
185D
  0
LINE
  5
2F5
100
AcDbEntity
  8
0
  6
CONTINUOUS
 62
           2
100
AcDbLine
 10
52.1512835524
 20
46.0832403794
 30
0.0
 11
53.3840887766
 21
47.3160456036
 31
0.0
1001
ACAD
1000
RTMaterial
1005
185D
  0
LINE
  5
2F6
100
AcDbEntity
  8
0
  6
CONTINUOUS
 62
           2
100
AcDbLine
 10
60.7809049152
 20
54.7128617421
 30
0.0
 11
62.6301094929
 21
56.5620663199
 31
0.0
1001
ACAD
1000
RTMaterial
1005
185D
  0
LINE
  5
2F7
100
AcDbEntity
  8
0
  6
CONTINUOUS
 62
           2
100
AcDbLine
 10
45.3258637966
 20
39.9818979675
 30
0.0
 11
46.6206907816
 21
41.2767249525
 31
0.0
1001
ACAD
1000
RTMaterial
1005
185D
  0
LINE
  5
2F8
100
AcDbEntity
  8
0
  6
CONTINUOUS
 62
           2
100
AcDbLine
 10
51.2722000727
 20
45.9282342436
 30
0.0
 11
52.5050050454
 21
47.1610392163
 31
0.0
1001
ACAD
1000
RTMaterial
1005
185D
  0
LINE
  5
2F9
100
AcDbEntity
  8
0
  6
CONTINUOUS
 62
           2
100
AcDbLine
 10
59.9018214355
 20
54.5578556064
 30
0.0
 11
61.7510260132
 21
56.4070601841
 31
0.0
1001
ACAD
1000
RTMaterial
1005
185D
  0
LINE
  5
2FA
100
AcDbEntity
  8
0
  6
CONTINUOUS
 62
           2
100
AcDbLine
 10
45.2173273319
 20
40.5974388467
 30
0.0
 11
46.5121543169
 21
41.8922658317
 31
0.0
1001
ACAD
1000
RTMaterial
1005
185D
  0
LINE
  5
2FB
100
AcDbEntity
  8
0
  6
CONTINUOUS
 62
           2
100
AcDbLine
 10
50.393116593
 20
45.7732281078
 30
0.0
 11
51.6259213141
 21
47.006032829
 31
0.0
1001
ACAD
1000
RTMaterial
1005
185D
  0
LINE
  5
2FC
100
AcDbEntity
  8
0
  6
CONTINUOUS
 62
           2
100
AcDbLine
 10
59.0227379558
 20
54.4028494706
 30
0.0
 11
60.8719425335
 21
56.2520540483
 31
0.0
1001
ACAD
1000
RTMaterial
1005
185D
  0
LINE
  5
2FD
100
AcDbEntity
  8
0
  6
CONTINUOUS
 62
           2
100
AcDbLine
 10
45.1087908671
 20
41.2129797259
 30
0.0
 11
46.4036178522
 21
42.5078067109
 31
0.0
1001
ACAD
1000
RTMaterial
1005
185D
  0
LINE
  5
2FE
100
AcDbEntity
  8
0
  6
CONTINUOUS
 62
           2
100
AcDbLine
 10
49.5140331133
 20
45.6182219721
 30
0.0
 11
50.7468375829
 21
46.8510264417
 31
0.0
1001
ACAD
1000
RTMaterial
1005
185D
  0
LINE
  5
2FF
100
AcDbEntity
  8
0
  6
CONTINUOUS
 62
           2
100
AcDbLine
 10
58.1436544761
 20
54.2478433348
 30
0.0
 11
59.9928590538
 21
56.0970479126
 31
0.0
1001
ACAD
1000
RTMaterial
1005
185D
  0
LINE
  5
300
100
AcDbEntity
  8
0
  6
CONTINUOUS
 62
           2
100
AcDbLine
 10
45.0002544024
 20
41.8285206051
 30
0.0
 11
46.2950813874
 21
43.1233475901
 31
0.0
1001
ACAD
1000
RTMaterial
1005
185D
  0
LINE
  5
301
100
AcDbEntity
  8
0
  6
CONTINUOUS
 62
           2
100
AcDbLine
 10
48.6349496336
 20
45.4632158363
 30
0.0
 11
49.8677538517
 21
46.6960200544
 31
0.0
1001
ACAD
1000
RTMaterial
1005
185D
  0
LINE
  5
302
100
AcDbEntity
  8
0
  6
CONTINUOUS
 62
           2
100
AcDbLine
 10
57.2645709964
 20
54.0928371991
 30
0.0
 11
59.1137755741
 21
55.9420417768
 31
0.0
1001
ACAD
1000
RTMaterial
1005
185D
  0
LINE
  5
303
100
AcDbEntity
  8
0
  6
CONTINUOUS
 62
           2
100
AcDbLine
 10
44.8917179377
 20
42.4440614843
 30
0.0
 11
46.1865449227
 21
43.7388884693
 31
0.0
1001
ACAD
1000
RTMaterial
1005
185D
  0
LINE
  5
304
100
AcDbEntity
  8
0
  6
CONTINUOUS
 62
           2
100
AcDbLine
 10
47.7558661539
 20
45.3082097005
 30
0.0
 11
48.9886701204
 21
46.5410136671
 31
0.0
1001
ACAD
1000
RTMaterial
1005
185D
  0
LINE
  5
305
100
AcDbEntity
  8
0
  6
CONTINUOUS
 62
           2
100
AcDbLine
 10
56.3854875167
 20
53.9378310633
 30
0.0
 11
58.2346920944
 21
55.787035641
 31
0.0
1001
ACAD
1000
RTMaterial
1005
185D
  0
LINE
  5
306
100
AcDbEntity
  8
0
  6
CONTINUOUS
 62
           2
100
AcDbLine
 10
44.7831814729
 20
43.0596023635
 30
0.0
 11
46.078008458
 21
44.3544293485
 31
0.0
1001
ACAD
1000
RTMaterial
1005
185D
  0
LINE
  5
307
100
AcDbEntity
  8
0
  6
CONTINUOUS
 62
           2
100
AcDbLine
 10
46.8767826742
 20
45.1532035648
 30
0.0
 11
48.1095863892
 21
46.3860072798
 31
0.0
1001
ACAD
1000
RTMaterial
1005
185D
  0
LINE
  5
308
100
AcDbEntity
  8
0
  6
CONTINUOUS
 62
           2
100
AcDbLine
 10
55.506404037
 20
53.7828249275
 30
0.0
 11
57.3556086147
 21
55.6320295053
 31
0.0
1001
ACAD
1000
RTMaterial
1005
185D
  0
LINE
  5
309
100
AcDbEntity
  8
0
  6
CONTINUOUS
 62
           2
100
AcDbLine
 10
44.6746450082
 20
43.6751432427
 30
0.0
 11
45.9694719932
 21
44.9699702277
 31
0.0
1001
ACAD
1000
RTMaterial
1005
185D
  0
LINE
  5
30A
100
AcDbEntity
  8
0
  6
CONTINUOUS
 62
           2
100
AcDbLine
 10
45.9976991945
 20
44.998197429
 30
0.0
 11
47.230502658
 21
46.2310008925
 31
0.0
1001
ACAD
1000
RTMaterial
1005
185D
  0
LINE
  5
30B
100
AcDbEntity
  8
0
  6
CONTINUOUS
 62
           2
100
AcDbLine
 10
54.6273205573
 20
53.6278187918
 30
0.0
 11
56.476525135
 21
55.4770233695
 31
0.0
1001
ACAD
1000
RTMaterial
1005
185D
  0
LINE
  5
30C
100
AcDbEntity
  8
0
  6
CONTINUOUS
 62
           2
100
AcDbLine
 10
44.5661085435
 20
44.2906841219
 30
0.0
 11
46.3514189267
 21
46.0759945052
 31
0.0
1001
ACAD
1000
RTMaterial
1005
185D
  0
LINE
  5
30D
100
AcDbEntity
  8
0
  6
CONTINUOUS
 62
           2
100
AcDbLine
 10
53.7482370776
 20
53.472812656
 30
0.0
 11
55.5974416553
 21
55.3220172337
 31
0.0
1001
ACAD
1000
RTMaterial
1005
185D
  0
LINE
  5
30E
100
AcDbEntity
  8
0
  6
CONTINUOUS
 62
           2
100
AcDbLine
 10
44.4575720787
 20
44.9062250011
 30
0.0
 11
45.7523990638
 21
46.2010519861
 31
0.0
1001
ACAD
1000
RTMaterial
1005
185D
  0
LINE
  5
30F
100
AcDbEntity
  8
0
  6
CONTINUOUS
 62
           2
100
AcDbLine
 10
52.8691535978
 20
53.3178065202
 30
0.0
 11
54.7183581756
 21
55.167011098
 31
0.0
1001
ACAD
1000
RTMaterial
1005
185D
  0
LINE
  5
310
100
AcDbEntity
  8
0
  6
CONTINUOUS
 62
           2
100
AcDbLine
 10
44.349035614
 20
45.5217658803
 30
0.0
 11
45.643862599
 21
46.8165928653
 31
0.0
1001
ACAD
1000
RTMaterial
1005
185D
  0
LINE
  5
311
100
AcDbEntity
  8
0
  6
CONTINUOUS
 62
           2
100
AcDbLine
 10
51.9900701181
 20
53.1628003845
 30
0.0
 11
53.8392746959
 21
55.0120049622
 31
0.0
1001
ACAD
1000
RTMaterial
1005
185D
  0
LINE
  5
312
100
AcDbEntity
  8
0
  6
CONTINUOUS
 62
           2
100
AcDbLine
 10
44.2404991493
 20
46.1373067595
 30
0.0
 11
45.5353261343
 21
47.4321337446
 31
0.0
1001
ACAD
1000
RTMaterial
1005
185D
  0
LINE
  5
313
100
AcDbEntity
  8
0
  6
CONTINUOUS
 62
           2
100
AcDbLine
 10
51.1109866384
 20
53.0077942487
 30
0.0
 11
52.9601912162
 21
54.8569988264
 31
0.0
1001
ACAD
1000
RTMaterial
1005
185D
  0
LINE
  5
314
100
AcDbEntity
  8
0
  6
CONTINUOUS
 62
           2
100
AcDbLine
 10
44.1319626845
 20
46.7528476387
 30
0.0
 11
45.4267896696
 21
48.0476746238
 31
0.0
1001
ACAD
1000
RTMaterial
1005
185D
  0
LINE
  5
315
100
AcDbEntity
  8
0
  6
CONTINUOUS
 62
           2
100
AcDbLine
 10
50.2319031587
 20
52.8527881129
 30
0.0
 11
52.0811077365
 21
54.7019926907
 31
0.0
1001
ACAD
1000
RTMaterial
1005
185D
  0
LINE
  5
316
100
AcDbEntity
  8
0
  6
CONTINUOUS
 62
           2
100
AcDbLine
 10
44.0234262198
 20
47.3683885179
 30
0.0
 11
45.3182532048
 21
48.663215503
 31
0.0
1001
ACAD
1000
RTMaterial
1005
185D
  0
LINE
  5
317
100
AcDbEntity
  8
0
  6
CONTINUOUS
 62
           2
100
AcDbLine
 10
49.352819679
 20
52.6977819772
 30
0.0
 11
51.2020242568
 21
54.5469865549
 31
0.0
1001
ACAD
1000
RTMaterial
1005
185D
  0
LINE
  5
318
100
AcDbEntity
  8
0
  6
CONTINUOUS
 62
           2
100
AcDbLine
 10
43.9148897551
 20
47.9839293971
 30
0.0
 11
45.2097167401
 21
49.2787563822
 31
0.0
1001
ACAD
1000
RTMaterial
1005
185D
  0
LINE
  5
319
100
AcDbEntity
  8
0
  6
CONTINUOUS
 62
           2
100
AcDbLine
 10
48.4737361993
 20
52.5427758414
 30
0.0
 11
50.3229407771
 21
54.3919804191
 31
0.0
1001
ACAD
1000
RTMaterial
1005
185D
  0
LINE
  5
31A
100
AcDbEntity
  8
0
  6
CONTINUOUS
 62
           2
100
AcDbLine
 10
43.8063532903
 20
48.5994702763
 30
0.0
 11
45.1011802754
 21
49.8942972614
 31
0.0
1001
ACAD
1000
RTMaterial
1005
185D
  0
LINE
  5
31B
100
AcDbEntity
  8
0
  6
CONTINUOUS
 62
           2
100
AcDbLine
 10
47.5946527196
 20
52.3877697056
 30
0.0
 11
49.4438572974
 21
54.2369742834
 31
0.0
1001
ACAD
1000
RTMaterial
1005
185D
  0
LINE
  5
31C
100
AcDbEntity
  8
0
  6
CONTINUOUS
 62
           2
100
AcDbLine
 10
43.6978168256
 20
49.2150111555
 30
0.0
 11
44.9926438106
 21
50.5098381406
 31
0.0
1001
ACAD
1000
RTMaterial
1005
185D
  0
LINE
  5
31D
100
AcDbEntity
  8
0
  6
CONTINUOUS
 62
           2
100
AcDbLine
 10
46.7155692399
 20
52.2327635699
 30
0.0
 11
48.5647738177
 21
54.0819681476
 31
0.0
1001
ACAD
1000
RTMaterial
1005
185D
  0
LINE
  5
31E
100
AcDbEntity
  8
0
  6
CONTINUOUS
 62
           2
100
AcDbLine
 10
43.5892803609
 20
49.8305520347
 30
0.0
 11
44.8841073459
 21
51.1253790198
 31
0.0
1001
ACAD
1000
RTMaterial
1005
185D
  0
LINE
  5
31F
100
AcDbEntity
  8
0
  6
CONTINUOUS
 62
           2
100
AcDbLine
 10
45.8364857602
 20
52.0777574341
 30
0.0
 11
47.685690338
 21
53.9269620118
 31
0.0
1001
ACAD
1000
RTMaterial
1005
185D
  0
LINE
  5
320
100
AcDbEntity
  8
0
  6
CONTINUOUS
 62
           2
100
AcDbLine
 10
43.4807438961
 20
50.4460929139
 30
0.0
 11
44.7755708812
 21
51.740919899
 31
0.0
1001
ACAD
1000
RTMaterial
1005
185D
  0
LINE
  5
321
100
AcDbEntity
  8
0
  6
CONTINUOUS
 62
           2
100
AcDbLine
 10
44.9574022805
 20
51.9227512983
 30
0.0
 11
46.8066068583
 21
53.7719558761
 31
0.0
1001
ACAD
1000
RTMaterial
1005
185D
  0
LINE
  5
322
100
AcDbEntity
  8
0
  6
CONTINUOUS
 62
           2
100
AcDbLine
 10
43.3722074314
 20
51.0616337932
 30
0.0
 11
45.9275233786
 21
53.6169497403
 31
0.0
1001
ACAD
1000
RTMaterial
1005
185D
  0
LINE
  5
323
100
AcDbEntity
  8
0
  6
CONTINUOUS
 62
           2
100
AcDbLine
 10
43.2636709667
 20
51.6771746724
 30
0.0
 11
45.0484398989
 21
53.4619436045
 31
0.0
1001
ACAD
1000
RTMaterial
1005
185D
  0
LINE
  5
324
100
AcDbEntity
  8
0
  6
CONTINUOUS
 62
           2
100
AcDbLine
 10
43.155134502
 20
52.2927155516
 30
0.0
 11
44.1693564192
 21
53.3069374688
 31
0.0
1001
ACAD
1000
RTMaterial
1005
185D
  0
LINE
  5
325
100
AcDbEntity
  8
0
  6
CONTINUOUS
 62
           2
100
AcDbLine
 10
43.0465980372
 20
52.9082564308
 30
0.0
 11
43.2902729395
 21
53.151931333
 31
0.0
1001
ACAD
1000
RTMaterial
1005
185D
  0
MTEXT
  5
326
100
AcDbEntity
  8
0
  6
CONTINUOUS
 62
           2
100
AcDbMText
 10
51.3068710699
 20
51.7653074162
 30
0.0
 40
1.3952
 41
16.5098666667
 71
           1
 72
           1
  1
INTERNAL USE 
  7
TEXTSTYLE_4
 11
0.984807753006
 21
0.173648177701
 31
0.0
 73
           1
 44
1.0
1001
ACAD
1000
MTEXTBEGIN
1070
          73
1070
           1
1070
          44
1040
0.9
1070
          74
1070
           0
1000
MTEXTEND
  0
MTEXT
  5
327
100
AcDbEntity
  8
0
  6
CONTINUOUS
 62
           2
100
AcDbMText
 10
50.6198691814
 20
49.5439956875
 30
0.0
 40
1.3952
 41
17.9050666667
 71
           1
 72
           1
  1
DOCUMENT ONLY
  7
TEXTSTYLE_4
 11
0.984807753006
 21
0.173648177701
 31
0.0
 73
           1
 44
1.0
1001
ACAD
1000
MTEXTBEGIN
1070
          73
1070
           1
1070
          44
1040
0.9
1070
          74
1070
           0
1000
MTEXTEND
  0
MTEXT
  5
328
100
AcDbEntity
  8
0
  6
CONTINUOUS
 62
           2
100
AcDbMText
 10
47.2854755171
 20
44.2082440346
 30
0.0
 40
1.3952
 41
25.8112
 71
           1
 72
           1
  1
DOCUMENT POUR USAGE
  7
TEXTSTYLE_4
 11
0.984807753006
 21
0.173648177701
 31
0.0
 73
           1
 44
1.0
1001
ACAD
1000
MTEXTBEGIN
1070
          73
1070
           1
1070
          44
1040
0.9
1070
          74
1070
           0
1000
MTEXTEND
  0
MTEXT
  5
329
100
AcDbEntity
  8
0
  6
CONTINUOUS
 62
           2
100
AcDbMText
 10
47.3196980185
 20
42.0891935716
 30
0.0
 40
1.3952
 41
26.4797333333
 71
           1
 72
           1
  1
A L'INTERNE SEULEMENT
  7
TEXTSTYLE_4
 11
0.984807753006
 21
0.173648177701
 31
0.0
 73
           1
 44
1.0
1001
ACAD
1000
MTEXTBEGIN
1070
          73
1070
           1
1070
          44
1040
0.9
1070
          74
1070
           0
1000
MTEXTEND
  0
ENDBLK
  5
32A
100
AcDbEntity
  8
0
  6
ByBlock
 62
           0
100
AcDbBlockEnd
1001
ACAD
1000
RTMaterial
1005
185D
  0
ENDSEC
  0
SECTION
  2
ENTITIES
  0
LINE
  5
1632
100
AcDbEntity
  8
0
  6
CONTINUOUS
 62
           7
100
AcDbLine
 10
23.9558681114
 20
119.3024012703
 30
0.0
 11
23.9558681114
 21
78.0495472939
 31
0.0
1001
ACAD
1000
RTMaterial
1005
185D
  0
LWPOLYLINE
  5
1639
100
AcDbEntity
  8
0
  6
CONTINUOUS
 62
           9
100
AcDbPolyline
 90
      117
 70
           0
 10
27.1382786305
 20
98.6759742821
 10
27.1400695785
 20
98.3729427169
 10
27.145315204
 20
98.0699874739
 10
27.1540147088
 20
97.7671049604
 10
27.1661659251
 20
97.4643651681
 10
27.1817651133
 20
97.1618410264
 10
27.2008107997
 20
96.8595491653
 10
27.2233047436
 20
96.5574631886
 10
27.2492451866
 20
96.2556113231
 10
27.278626716
 20
95.954062454
 10
27.3114427953
 20
95.6528835487
 10
27.3476857071
 20
95.3521401825
 10
27.3873541492
 20
95.051841007
 10
27.4304513581
 20
94.7519635847
 10
27.4769690404
 20
94.4525693267
 10
27.5268926784
 20
94.1537519935
 10
27.5802200845
 20
93.8555245557
 10
27.6369376903
 20
93.557958884
 10
27.697033297
 20
93.2611169615
 10
27.760525778
 20
92.9649064165
 10
27.8274237829
 20
92.6692954715
 10
27.897681373
 20
92.374489994
 10
27.9712288528
 20
92.08077009
 10
28.0481038897
 20
91.787972532
 10
28.1283789649
 20
91.4958274304
 10
28.2119990038
 20
91.2045463024
 10
28.2988919856
 20
90.9143794225
 10
28.3890936735
 20
90.6252047822
 10
28.4825897891
 20
90.3370651758
 10
28.5793352267
 20
90.0500982672
 10
28.6793747702
 20
89.7641727205
 10
28.7826549555
 20
89.4794398979
 10
28.8891405269
 20
89.195990602
 10
28.9988939782
 20
88.9136606262
 10
29.1118624454
 20
88.6325911516
 10
29.2280128051
 20
88.3528648713
 10
29.3473641439
 20
88.0744352477
 10
29.4698858756
 20
87.7973764359
 10
29.5955506732
 20
87.5217503986
 10
29.7243433471
 20
87.2475877417
 10
29.8562750089
 20
86.9748667088
 10
29.9912210139
 20
86.7038396784
 10
30.1290413976
 20
86.4347634028
 10
30.2699425039
 20
86.1672199816
 10
30.4140820758
 20
85.9009276037
 10
30.5613245389
 20
85.6361580405
 10
30.7117752657
 20
85.3727410541
 10
30.8645640017
 20
85.1121691582
 10
31.0099975065
 20
84.8702771762
 10
31.1401898502
 20
84.6585530453
 10
31.2558769977
 20
84.4740655932
 10
31.3594624892
 20
84.3116768234
 10
31.4525391712
 20
84.167943426
 10
31.5364336233
 20
84.0401052396
 10
31.6122766306
 20
83.9258965564
 10
31.6810162936
 20
83.8234864487
 10
31.7433475831
 20
83.7314939135
 10
31.7998400581
 20
83.6487916793
 10
31.8505559227
 20
83.5750869644
 10
31.8992636763
 20
83.504769832
 10
31.9456995545
 20
83.43918635
 10
31.991286399
 20
83.3771473774
 10
32.0392167718
 20
83.3142981355
 10
32.0884348114
 20
83.2520674761
 10
32.1383439027
 20
83.1912376321
 10
32.1893369833
 20
83.1313030473
 10
32.241326548
 20
83.0723630567
 10
32.2942019521
 20
83.0145369135
 10
32.3479422011
 20
82.9578382341
 10
32.4025493911
 20
82.9022548453
 10
32.4580119472
 20
82.8477901045
 10
32.5143223049
 20
82.7944442941
 10
32.5714570065
 20
82.7422323906
 10
32.6293740592
 20
82.6911853461
 10
32.688037853
 20
82.6413264504
 10
32.7474393521
 20
82.5926555587
 10
32.807571826
 20
82.5451708786
 10
32.8684225612
 20
82.4988760464
 10
32.9299739874
 20
82.4537784773
 10
32.9921736569
 20
82.4099098213
 10
33.054992624
 20
82.3672838056
 10
33.1184435635
 20
82.3258854834
 10
33.1825076842
 20
82.2857212544
 10
33.2471395728
 20
82.2468139224
 10
33.3123079596
 20
82.2091760948
 10
33.3780039877
 20
82.1728070529
 10
33.4442373804
 20
82.1376963422
 10
33.510996273
 20
82.1038458505
 10
33.5782398046
 20
82.0712720682
 10
33.6459338863
 20
82.0399869563
 10
33.7140519295
 20
82.0099979775
 10
33.7825646193
 20
81.9813130205
 10
33.8514599123
 20
81.9539324532
 10
33.9207336727
 20
81.9278537993
 10
33.990372408
 20
81.9030783897
 10
34.0603610634
 20
81.8796084697
 10
34.1306691485
 20
81.8574508977
 10
34.2012647499
 20
81.8366123717
 10
34.2721453998
 20
81.8170906916
 10
34.3432951422
 20
81.798887411
 10
34.4146743
 20
81.7820100523
 10
34.4862687392
 20
81.7664592754
 10
34.5580740588
 20
81.7522336103
 10
34.6300629177
 20
81.7393364589
 10
34.7022184727
 20
81.7277690128
 10
34.7745217231
 20
81.7175326785
 10
34.8471570466
 20
81.7086054965
 10
34.9177060258
 20
81.7012276987
 10
34.9817608685
 20
81.6956277146
 10
35.037865644
 20
81.6915805987
 10
35.0872885188
 20
81.688677908
 10
35.1313375833
 20
81.6866100796
 10
35.1706143529
 20
81.6851755698
 10
35.2054641969
 20
81.6842236839
 10
35.2367899688
 20
81.6836316114
 10
35.2660146606
 20
81.6833161493
 10
75.0663475
 20
81.6835572068
1001
ACAD
1000
RTMaterial
1005
185D
  0
LWPOLYLINE
  5
163A
100
AcDbEntity
  8
0
  6
CONTINUOUS
 62
           9
100
AcDbPolyline
 90
      116
 70
           0
 10
27.1382786305
 20
98.6759742821
 10
27.1400700211
 20
98.9790439544
 10
27.1453160739
 20
99.2819988845
 10
27.1540159992
 20
99.584881081
 10
27.1661676285
 20
99.8876205478
 10
27.1817672225
 20
100.1901443589
 10
27.2008133079
 20
100.4924358904
 10
27.2233076437
 20
100.7945215379
 10
27.2492484714
 20
101.0963730688
 10
27.278630378
 20
101.3979215959
 10
27.3114468266
 20
101.6991001521
 10
27.3476901004
 20
101.9998431658
 10
27.3873588976
 20
102.3001419904
 10
27.4304564546
 20
102.6000190605
 10
27.4769744768
 20
102.8994129584
 10
27.5268984469
 20
103.1982299266
 10
27.5802261774
 20
103.4964569959
 10
27.6369440994
 20
103.794022293
 10
27.6970400159
 20
104.0908638439
 10
27.7605328013
 20
104.3870740254
 10
27.8274311019
 20
104.6826845989
 10
27.8976889749
 20
104.9774896805
 10
27.971236729
 20
105.2712091844
 10
28.0481120392
 20
105.5640063668
 10
28.1283873822
 20
105.8561510973
 10
28.2120076756
 20
106.1474318324
 10
28.2989009033
 20
106.4375983149
 10
28.3891028317
 20
106.7267725637
 10
28.4825991781
 20
107.0149117718
 10
28.5793448401
 20
107.3018782841
 10
28.6793846009
 20
107.5878034356
 10
28.7826649928
 20
107.8725358538
 10
28.8891507655
 20
108.1559847512
 10
28.9989044122
 20
108.4383143319
 10
29.1118730642
 20
108.7193834034
 10
29.2280236018
 20
108.9991092817
 10
29.3473751114
 20
109.2775385047
 10
29.4698970051
 20
109.5545969123
 10
29.5955619564
 20
109.8302225442
 10
29.7243547773
 20
110.1043847983
 10
29.8562865754
 20
110.3771054211
 10
29.9912326989
 20
110.6481320228
 10
30.1290531978
 20
110.9172078804
 10
30.2699544287
 20
111.1847509162
 10
30.41409412
 20
111.451042912
 10
30.5613366947
 20
111.7158120917
 10
30.7117874966
 20
111.9792286437
 10
30.8645758877
 20
112.2397994153
 10
31.0100083581
 20
112.4816892218
 10
31.1401994063
 20
112.6934108977
 10
31.2558854081
 20
112.8778962619
 10
31.3594699328
 20
113.0402833172
 10
31.4525457801
 20
113.1840152723
 10
31.536439508
 20
113.3118522358
 10
31.6122818841
 20
113.4260598747
 10
31.6810209909
 20
113.5284690784
 10
31.7433517808
 20
113.6204608194
 10
31.7998437916
 20
113.7031623295
 10
31.8505593329
 20
113.7768665397
 10
31.8992668915
 20
113.8471833389
 10
31.945702632
 20
113.9127664864
 10
31.9912894647
 20
113.97480528
 10
32.0392199117
 20
114.0376544726
 10
32.0884379652
 20
114.0998850028
 10
32.1383470621
 20
114.1607147134
 10
32.1893401564
 20
114.2206491796
 10
32.2413297266
 20
114.2795890468
 10
32.2942051303
 20
114.3374150646
 10
32.3479453766
 20
114.3941136208
 10
32.4025525619
 20
114.4496968891
 10
32.458015111
 20
114.5041615114
 10
32.5143254592
 20
114.5575072051
 10
32.5714601478
 20
114.6097189929
 10
32.6293771838
 20
114.6607659225
 10
32.6880409583
 20
114.7106247052
 10
32.7474424361
 20
114.7592954863
 10
32.8075748867
 20
114.8067800581
 10
32.8684255965
 20
114.8530747841
 10
32.9299769941
 20
114.8981722484
 10
32.9921766318
 20
114.942040801
 10
33.0549955653
 20
114.9846667159
 10
33.1184464699
 20
115.0260649399
 10
33.182510553
 20
115.0662290725
 10
33.2471424012
 20
115.1051363098
 10
33.3123107456
 20
115.1427740449
 10
33.3780067303
 20
115.1791429973
 10
33.4442400784
 20
115.214253621
 10
33.5109989244
 20
115.248104028
 10
33.5782424068
 20
115.2806777275
 10
33.6459364373
 20
115.3119627588
 10
33.7140544274
 20
115.3419516594
 10
33.7825670626
 20
115.3706365406
 10
33.8514622999
 20
115.3980170348
 10
33.9207360035
 20
115.4240956182
 10
33.9903746808
 20
115.4488709599
 10
34.0603632768
 20
115.4723408143
 10
34.1306713009
 20
115.4944983233
 10
34.2012668401
 20
115.5153367888
 10
34.2721474271
 20
115.5348584111
 10
34.3432971051
 20
115.5530616363
 10
34.4146761973
 20
115.5699389423
 10
34.4862705703
 20
115.585489669
 10
34.5580758229
 20
115.5997152867
 10
34.6300646138
 20
115.6126123932
 10
34.7022201001
 20
115.6241797971
 10
34.7745232833
 20
115.634416092
 10
34.8471585162
 20
115.6433432346
 10
34.91770734
 20
115.6507209912
 10
34.9817619814
 20
115.6563209378
 10
35.0378665684
 20
115.6603680257
 10
35.0872892907
 20
115.6632706967
 10
35.1313382297
 20
115.6653385114
 10
35.1706148908
 20
115.6667730114
 10
35.205464644
 20
115.6677248906
 10
35.2367903476
 20
115.6683169585
 10
35.2660149963
 20
115.6686324172
1001
ACAD
1000
RTMaterial
1005
185D
  0
LWPOLYLINE
  5
163B
100
AcDbEntity
  8
0
  6
CONTINUOUS
 62
           9
100
AcDbPolyline
 90
       59
 70
           0
 10
31.6744403822
 20
113.5311819677
 10
31.6278974955
 20
113.4619381396
 10
31.5765402607
 20
113.3849843418
 10
31.5201068949
 20
113.2997486403
 10
31.4581706352
 20
113.2053744028
 10
31.3900935319
 20
113.1006251402
 10
31.3150931081
 20
112.9839610028
 10
31.2322886133
 20
112.8535820965
 10
31.1406166697
 20
112.7072588633
 10
31.038821841
 20
112.542259973
 10
30.9254226404
 20
112.3552180441
 10
30.7981041918
 20
112.1409860748
 10
30.6566804415
 20
111.8975169686
 10
30.5088035145
 20
111.6364013887
 10
30.3633466898
 20
111.3726454818
 10
30.2212734881
 20
111.1079858818
 10
30.0821338801
 20
110.8416087072
 10
29.9460356495
 20
110.5737167224
 10
29.812974206
 20
110.3043024404
 10
29.6829677658
 20
110.033402898
 10
29.556030503
 20
109.7610480398
 10
29.4321849041
 20
109.4872865434
 10
29.3114452509
 20
109.2121501558
 10
29.1938216039
 20
108.9356623012
 10
29.07933473
 20
108.657872032
 10
28.9679930538
 20
108.3787995141
 10
28.859803414
 20
108.0984612519
 10
28.7547881464
 20
107.8169139108
 10
28.6529625442
 20
107.5341979017
 10
28.5543396511
 20
107.2503491491
 10
28.4589341183
 20
106.9654086716
 10
28.3667468448
 20
106.6793772117
 10
28.277784371
 20
106.3922719513
 10
28.1920641524
 20
106.1041445798
 10
28.1095989509
 20
105.8150337015
 10
28.0304051014
 20
105.5249926857
 10
27.9544906097
 20
105.2340457993
 10
27.8818525342
 20
104.9421746591
 10
27.8125016014
 20
104.6494118252
 10
27.7464572937
 20
104.3558288994
 10
27.6837349926
 20
104.0614856135
 10
27.6243472973
 20
103.7664327944
 10
27.5682924534
 20
103.4706489988
 10
27.5155703029
 20
103.1741163179
 10
27.4661960718
 20
102.8768990741
 10
27.4201840463
 20
102.5790635276
 10
27.3775512198
 20
102.2807052711
 10
27.3383116608
 20
101.9819179008
 10
27.3024667973
 20
101.6827141122
 10
27.2700178732
 20
101.3831062996
 10
27.2409720324
 20
101.0831597288
 10
27.2153349914
 20
100.7829377556
 10
27.1931109065
 20
100.4824991013
 10
27.1742996962
 20
100.1818474021
 10
27.1588993969
 20
99.8809486675
 10
27.1469122836
 20
99.5798304056
 10
27.1383419853
 20
99.2785594024
 10
27.1331908145
 20
98.9772019466
 10
27.1314598094
 20
98.6759742821
1001
ACAD
1000
RTMaterial
1005
185D
  0
LINE
  5
163C
100
AcDbEntity
  8
0
  6
CONTINUOUS
 62
           9
100
AcDbLine
 10
31.754302648
 20
113.6489332935
 30
0.0
 11
31.6744403822
 21
113.5311819677
 31
0.0
1001
ACAD
1000
RTMaterial
1005
185D
  0
LINE
  5
163D
100
AcDbEntity
  8
0
  6
CONTINUOUS
 62
           9
100
AcDbLine
 10
31.8480381266
 20
113.7854327365
 30
0.0
 11
31.754302648
 21
113.6489332935
 31
0.0
1001
ACAD
1000
RTMaterial
1005
185D
  0
LINE
  5
1640
100
AcDbEntity
  8
0
  6
CONTINUOUS
 62
           9
100
AcDbLine
 10
31.8998958878
 20
83.4918622292
 30
0.0
 11
31.8531539153
 21
83.5591164676
 31
0.0
1001
ACAD
1000
RTMaterial
1005
185D
  0
LINE
  5
1641
100
AcDbEntity
  8
0
  6
CONTINUOUS
 62
           9
100
AcDbLine
 10
31.8531539153
 20
83.5591164676
 30
0.0
 11
31.7948374763
 21
83.6437577532
 31
0.0
1001
ACAD
1000
RTMaterial
1005
185D
  0
LWPOLYLINE
  5
1642
100
AcDbEntity
  8
0
  6
CONTINUOUS
 62
           9
100
AcDbPolyline
 90
       61
 70
           0
 10
31.7948374763
 20
83.6437577532
 10
31.7236915915
 20
83.7479927874
 10
31.6823445089
 20
83.8090531599
 10
31.6364914739
 20
83.8771897153
 10
31.5858386312
 20
83.9529883312
 10
31.5301358719
 20
84.0370002382
 10
31.4689859579
 20
84.1300314577
 10
31.4017757173
 20
84.2332714637
 10
31.3277339161
 20
84.3482305733
 10
31.2459950143
 20
84.4766692045
 10
31.155518381
 20
84.6207598453
 10
31.0550522832
 20
84.7831995125
 10
30.943224983
 20
84.9671363023
 10
30.817694765
 20
85.177699102
 10
30.6774074504
 20
85.4183750651
 10
30.529326396
 20
85.6788947845
 10
30.3830307437
 20
85.9431934592
 10
30.2400978114
 20
86.208480277
 10
30.1001282389
 20
86.4754738448
 10
29.9632146784
 20
86.7440000549
 10
29.8293554439
 20
87.0140607804
 10
29.6985683664
 20
87.2856198126
 10
29.5708671839
 20
87.5586482804
 10
29.4462747117
 20
87.8330969164
 10
29.3248062082
 20
88.1089319066
 10
29.2064711832
 20
88.3861312359
 10
29.0912908884
 20
88.6646447783
 10
28.979274659
 20
88.944450198
 10
28.8704284446
 20
89.2255332672
 10
28.7647744931
 20
89.5078377059
 10
28.6623286892
 20
89.7913217422
 10
28.563104112
 20
90.0759494648
 10
28.467116259
 20
90.3616774198
 10
28.374366394
 20
90.648503833
 10
28.2848603216
 20
90.936413741
 10
28.1986154808
 20
91.2253556446
 10
28.1156447169
 20
91.5152909169
 10
28.03596471
 20
91.8061651615
 10
27.9595843238
 20
92.0979509423
 10
27.8865004707
 20
92.3906671677
 10
27.8167231926
 20
92.6842840597
 10
27.7502720201
 20
92.9787302309
 10
27.6871626449
 20
93.2739449624
 10
27.6274083206
 20
93.5698744769
 10
27.5710076446
 20
93.8665383615
 10
27.5179600027
 20
94.1639569256
 10
27.4682804199
 20
94.4620672905
 10
27.4219832584
 20
94.7608033368
 10
27.3790856645
 20
95.0600692744
 10
27.3396021448
 20
95.359769063
 10
27.3035343959
 20
95.6598882841
 10
27.2708835723
 20
95.9604152091
 10
27.241656814
 20
96.261284809
 10
27.2158599288
 20
96.5624330845
 10
27.1934971798
 20
96.8638001566
 10
27.1745685449
 20
97.1653813584
 10
27.1590720382
 20
97.4672109945
 10
27.1470099071
 20
97.7692620592
 10
27.1383858113
 20
98.0714674461
 10
27.1332020933
 20
98.3737604163
 10
27.1314598094
 20
98.6759742821
1001
ACAD
1000
RTMaterial
1005
185D
  0
LINE
  5
1652
100
AcDbEntity
  8
0
  6
CONTINUOUS
 62
           7
100
AcDbLine
 10
24.3294411232
 20
77.6759742821
 30
0.0
 11
83.5822950996
 21
77.6759742821
 31
0.0
1001
ACAD
1000
RTMaterial
1005
185D
  0
LWPOLYLINE
  5
165B
100
AcDbEntity
  8
0
  6
CONTINUOUS
 62
           9
100
AcDbPolyline
 90
       40
 70
           0
 10
34.9700233807
 20
98.675974282
 10
34.9711868611
 20
98.883063943
 10
34.9748724765
 20
99.0986938727
 10
34.9814560465
 20
99.3249447622
 10
34.9913182181
 20
99.5615018908
 10
35.0047079234
 20
99.8058498563
 10
35.0220167547
 20
100.0589557641
 10
35.0436920188
 20
100.3216458607
 10
35.0702535279
 20
100.5947907738
 10
35.1024650018
 20
100.8806390884
 10
35.1411961355
 20
101.180938222
 10
35.1876118803
 20
101.4983038662
 10
35.2430343111
 20
101.8348381604
 10
35.3091984558
 20
102.1935113648
 10
35.3883849138
 20
102.5781462062
 10
35.483556545
 20
102.9933277407
 10
35.5986194101
 20
103.4446501502
 10
35.7386228087
 20
103.9383724554
 10
35.9101588681
 20
104.4816041715
 10
36.122177551
 20
105.083219362
 10
36.3616542334
 20
105.6931003421
 10
36.5899737396
 20
106.2215401908
 10
36.8053133815
 20
106.681922815
 10
37.0074142323
 20
107.0859569883
 10
37.1963638396
 20
107.4425425681
 10
37.3725825945
 20
107.7588561105
 10
37.5366002546
 20
108.0406119855
 10
37.6888102085
 20
108.292130636
 10
37.8300849757
 20
108.5176654081
 10
37.961026294
 20
108.720358587
 10
38.0821052855
 20
108.9026771646
 10
38.1947212031
 20
109.0680806676
 10
38.2984156157
 20
109.2169953181
 10
38.3942512566
 20
109.3518593282
 10
38.4835998086
 20
109.4752861145
 10
38.5648738127
 20
109.5857028801
 10
38.6391489681
 20
109.685125951
 10
38.7076182207
 20
109.7755646621
 10
38.7718330691
 20
109.8593729976
 10
38.8311244794
 20
109.9358706409
1001
ACAD
1000
RTMaterial
1005
185D
  0
LWPOLYLINE
  5
165C
100
AcDbEntity
  8
0
  6
CONTINUOUS
 62
           9
100
AcDbPolyline
 90
       65
 70
           0
 10
36.9875193732
 20
98.6759742821
 10
36.9885496022
 20
98.860592842
 10
36.9918132592
 20
99.0528128173
 10
36.9976433169
 20
99.2544899509
 10
37.006377122
 20
99.4653431466
 10
37.0182356772
 20
99.6831329431
 10
37.0335667881
 20
99.9087260753
 10
37.0527678016
 20
100.1428601631
 10
37.0762988743
 20
100.386296203
 10
37.1048371874
 20
100.6410378867
 10
37.1391551871
 20
100.9086473343
 10
37.1802878144
 20
101.191461338
 10
37.2294104091
 20
101.4913585039
 10
37.2880603687
 20
101.8109628053
 10
37.3582620981
 20
102.1536787235
 10
37.4426498741
 20
102.5236037132
 10
37.5446989428
 20
102.9257298987
 10
37.6688884435
 20
103.3655905354
 10
37.8210825042
 20
103.849528907
 10
38.0091829343
 20
104.3852813148
 10
38.2215002719
 20
104.9278717054
 10
38.4238294565
 20
105.3976780984
 10
38.6146584641
 20
105.8069059448
 10
38.7937561997
 20
106.1659842687
 10
38.961200388
 20
106.4828413486
 10
39.1173645213
 20
106.7638712767
 10
39.2627143667
 20
107.0141575228
 10
39.3976002524
 20
107.2375522998
 10
39.5227912663
 20
107.4378348797
 10
39.6388229252
 20
107.6178050192
 10
39.7461162296
 20
107.7796684517
 10
39.8459094276
 20
107.9265048157
 10
39.9378054343
 20
108.0586883178
 10
40.0226803664
 20
108.1783412778
 10
40.1020533042
 20
108.2879019409
 10
40.1746865891
 20
108.3861270533
 10
40.2411864286
 20
108.4746968028
 10
40.3025193391
 20
108.5553381704
 10
40.3597653425
 20
108.6297199758
 10
40.4122815544
 20
108.6971553321
 10
40.4600644169
 20
108.7579300895
 10
40.502740329
 20
108.8117618905
 10
40.5373304632
 20
108.8543337036
 10
40.5650494493
 20
108.8869113053
 10
40.5953612652
 20
108.920800201
 10
40.628385609
 20
108.9559729943
 10
40.6653734747
 20
108.9933339865
 10
40.7082879446
 20
109.0341770916
 10
40.7581732263
 20
109.0785750206
 10
40.8146895
 20
109.1252183577
 10
40.8798160889
 20
109.1745583778
 10
40.9558291502
 20
109.2267378085
 10
41.0441445229
 20
109.2806511175
 10
41.145454244
 20
109.3343982707
 10
41.2479350329
 20
109.3806281761
 10
41.3439406788
 20
109.417009399
 10
41.4310703797
 20
109.4444735865
 10
41.5096767109
 20
109.4648867297
 10
41.5798960138
 20
109.4796763104
 10
41.6419010029
 20
109.4900577415
 10
41.6965790572
 20
109.4971317698
 10
41.7456405492
 20
109.5017949675
 10
41.790746085
 20
109.5047071339
 10
41.8257389132
 20
109.5060108683
 10
41.8662719907
 20
109.5064660749
1001
ACAD
1000
RTMaterial
1005
185D
  0
LWPOLYLINE
  5
165D
100
AcDbEntity
  8
0
  6
CONTINUOUS
 62
           9
100
AcDbPolyline
 90
       26
 70
           0
 10
38.8311244794
 20
109.9358706409
 10
38.9341946577
 20
110.0670867907
 10
38.9904871031
 20
110.1383124054
 10
39.0500507034
 20
110.2114087398
 10
39.1110372551
 20
110.2828624802
 10
39.1772588115
 20
110.3569216131
 10
39.2522461012
 20
110.4368798891
 10
39.3392391031
 20
110.5246878578
 10
39.4403988199
 20
110.620681735
 10
39.5556765602
 20
110.7227631034
 10
39.6889903604
 20
110.831919618
 10
39.8454352009
 20
110.9489951103
 10
40.0298610838
 20
111.0731063425
 10
40.243604731
 20
111.1998618601
 10
40.4643218016
 20
111.3131334167
 10
40.6743475384
 20
111.4055823833
 10
40.8687672613
 20
111.4785605913
 10
41.0464522748
 20
111.5351572553
 10
41.2085824074
 20
111.5786470416
 10
41.3535036916
 20
111.611048969
 10
41.4838691461
 20
111.63512122
 10
41.602452125
 20
111.6527044777
 10
41.7097591031
 20
111.6652728076
 10
41.8069729318
 20
111.6740261598
 10
41.8864892614
 20
111.6783250371
 10
41.9488683406
 20
111.679369291
1001
ACAD
1000
RTMaterial
1005
185D
  0
LWPOLYLINE
  5
1660
100
AcDbEntity
  8
0
  6
CONTINUOUS
 62
           9
100
AcDbPolyline
 90
       80
 70
           0
 10
75.0663475
 20
81.6835572068
 10
75.1292548064
 20
81.6843791642
 10
75.2004752966
 20
81.6863821808
 10
75.2765053179
 20
81.6898412898
 10
75.3528995845
 20
81.6947010857
 10
75.4294840033
 20
81.7009609294
 10
75.5061190192
 20
81.7086149921
 10
75.5826145116
 20
81.7176475559
 10
75.658870647
 20
81.7280467668
 10
75.7348926752
 20
81.7398121964
 10
75.8107111359
 20
81.7529482491
 10
75.886315002
 20
81.7674534911
 10
75.9616703258
 20
81.7833224537
 10
76.0367766394
 20
81.800556309
 10
76.1116288524
 20
81.8191555636
 10
76.1861821263
 20
81.8391108452
 10
76.260394918
 20
81.8604123946
 10
76.3342386196
 20
81.8830529312
 10
76.4076672752
 20
81.9070186692
 10
76.4806693389
 20
81.9323067996
 10
76.5532926442
 20
81.9589355719
 10
76.6255168712
 20
81.9868999106
 10
76.6972667292
 20
82.0161731311
 10
76.7685442619
 20
82.0467583054
 10
76.8392908156
 20
82.0786309942
 10
76.9094696411
 20
82.1117766868
 10
76.9790944767
 20
82.1462024473
 10
77.0481568427
 20
82.1819065241
 10
77.1166587693
 20
82.2188929856
 10
77.1845500958
 20
82.2571371619
 10
77.2517676773
 20
82.2966057575
 10
77.3183210889
 20
82.3373059181
 10
77.3842225107
 20
82.379248104
 10
77.4494287108
 20
82.4224075897
 10
77.5138877612
 20
82.4667525407
 10
77.5776070853
 20
82.5122905977
 10
77.6405758616
 20
82.5590167599
 10
77.7027492817
 20
82.6069006458
 10
77.7641091847
 20
82.6559311037
 10
77.8246538237
 20
82.7061096264
 10
77.8843530967
 20
82.7574144041
 10
77.9431770315
 20
82.8098227501
 10
78.0011151809
 20
82.8633282819
 10
78.0581463187
 20
82.9179146654
 10
78.1142529911
 20
82.9735685936
 10
78.169420172
 20
83.0302786909
 10
78.2236268242
 20
83.0880270804
 10
78.2768363341
 20
83.1467777596
 10
78.3290354134
 20
83.206519432
 10
78.3802257296
 20
83.2672576073
 10
78.4303858614
 20
83.3289712271
 10
78.4794819589
 20
83.391622325
 10
78.5274901513
 20
83.455183827
 10
78.5744164516
 20
83.5196677833
 10
78.6202385967
 20
83.585047402
 10
78.6649204018
 20
83.6512751632
 10
78.7084659391
 20
83.7183610767
 10
78.7508588011
 20
83.7862842087
 10
78.7920625913
 20
83.8549901614
 10
78.8320667857
 20
83.9244645475
 10
78.8708857019
 20
83.9947372831
 10
78.9085061611
 20
84.0657909684
 10
78.9448641899
 20
84.1375078387
 10
78.9799489542
 20
84.2098693958
 10
79.0137869703
 20
84.2829330858
 10
79.0463782495
 20
84.3567072241
 10
79.0777078873
 20
84.4311678132
 10
79.1077103317
 20
84.506160877
 10
79.1363292007
 20
84.5815426653
 10
79.1635686971
 20
84.6573124929
 10
79.1895233366
 20
84.7337496876
 10
79.2139133666
 20
84.8099547606
 10
79.2352651175
 20
84.8806880442
 10
79.2531295178
 20
84.9431965531
 10
79.2679581761
 20
84.9978369742
 10
79.2808806165
 20
85.0480202198
 10
79.2931911307
 20
85.0983849569
 10
79.305848056
 20
85.1522547985
 10
79.319305163
 20
85.2107815847
 10
79.3677840755
 20
85.424509008
1001
ACAD
1000
RTMaterial
1005
185D
  0
LWPOLYLINE
  5
1662
100
AcDbEntity
  8
0
  6
CONTINUOUS
 62
           9
100
AcDbPolyline
 90
        3
 70
           0
 10
35.7116843257
 20
81.6770247254
 10
35.4822136682
 20
81.6770210965
 10
35.30249515
 20
81.6770123807
1001
ACAD
1000
RTMaterial
1005
185D
  0
LWPOLYLINE
  5
1663
100
AcDbEntity
  8
0
  6
CONTINUOUS
 62
           9
100
AcDbPolyline
 90
       59
 70
           0
 10
35.30249515
 20
81.6770123807
 10
35.2545427483
 20
81.6772629493
 10
35.2079392845
 20
81.6780606028
 10
35.1594692338
 20
81.6794834164
 10
35.1118056347
 20
81.6814555373
 10
35.0635374362
 20
81.6840369727
 10
35.0094604613
 20
81.687630945
 10
34.9475886948
 20
81.6926519205
 10
34.8794868292
 20
81.6992986776
 10
34.8086665879
 20
81.7074598575
 10
34.7375213304
 20
81.7169489095
 10
34.6665161841
 20
81.7277168565
 10
34.5957343033
 20
81.7397505086
 10
34.5251223832
 20
81.7530589938
 10
34.4546662756
 20
81.7676478468
 10
34.3844020886
 20
81.7835126549
 10
34.3143566181
 20
81.8006504021
 10
34.2445412971
 20
81.8190610756
 10
34.1749722152
 20
81.8387435327
 10
34.1056670781
 20
81.8596963067
 10
34.0366468226
 20
81.8819166269
 10
33.9679354534
 20
81.9054005215
 10
33.8995523541
 20
81.9301450191
 10
33.8315139831
 20
81.9561480978
 10
33.763827464
 20
81.9834115916
 10
33.6965098237
 20
82.0119330452
 10
33.6295833093
 20
82.0417077231
 10
33.5630608464
 20
82.072734838
 10
33.4969688229
 20
82.105007267
 10
33.4313441383
 20
82.1385119607
 10
33.3662223408
 20
82.1732352101
 10
33.3016132875
 20
82.2091765018
 10
33.2375041136
 20
82.2463484185
 10
33.1739095822
 20
82.284748507
 10
33.110865483
 20
82.3243614652
 10
33.0484051349
 20
82.3651722225
 10
32.9865471554
 20
82.407174606
 10
32.9252928967
 20
82.4503740543
 10
32.864658328
 20
82.4947662638
 10
32.8046798196
 20
82.5403317349
 10
32.7453983485
 20
82.5870456247
 10
32.6868285642
 20
82.6349026136
 10
32.6289578926
 20
82.6839200447
 10
32.5718017296
 20
82.7340930857
 10
32.5154020525
 20
82.7853930522
 10
32.4597937736
 20
82.8377953811
 10
32.4049951842
 20
82.8912900636
 10
32.3510199894
 20
82.9458711684
 10
32.2978857137
 20
83.0015289123
 10
32.2455844564
 20
83.0582809533
 10
32.1941217009
 20
83.1161312989
 10
32.1435057893
 20
83.1750837648
 10
32.0944282158
 20
83.234311098
 10
32.0493856521
 20
83.2905746692
 10
32.0103622947
 20
83.3408720776
 10
31.9767143338
 20
83.3854367368
 10
31.9475339016
 20
83.4250750298
 10
31.9224865813
 20
83.4599002796
 10
31.8998958878
 20
83.4918622292
1001
ACAD
1000
RTMaterial
1005
185D
  0
LWPOLYLINE
  5
1664
100
AcDbEntity
  8
0
  6
CONTINUOUS
 62
           9
100
AcDbPolyline
 90
       42
 70
           0
 10
38.9754518471
 20
87.2325326712
 10
38.8705305588
 20
87.365807584
 10
38.817005025
 20
87.4342117418
 10
38.7563715594
 20
87.5126658944
 10
38.6914954018
 20
87.5975774155
 10
38.6221672622
 20
87.6894316483
 10
38.547061726
 20
87.7902971999
 10
38.4651064307
 20
87.9020311722
 10
38.3756811988
 20
88.0260188084
 10
38.2798447318
 20
88.161390843
 10
38.1759758267
 20
88.3111297167
 10
38.0633845005
 20
88.4771512079
 10
37.9423462789
 20
88.66014754
 10
37.8114129585
 20
88.8636743818
 10
37.670281253
 20
89.0899504447
 10
37.5182290021
 20
89.342325005
 10
37.3544801666
 20
89.624914261
 10
37.1785637137
 20
89.9421976657
 10
36.990092362
 20
90.2996605574
 10
36.7885796054
 20
90.7046338801
 10
36.5739481554
 20
91.1660524559
 10
36.346501181
 20
91.6956076097
 10
36.1087035008
 20
92.3050551576
 10
35.8999050762
 20
92.9012321933
 10
35.7307461047
 20
93.4400138756
 10
35.5925443712
 20
93.9299816941
 10
35.4788571474
 20
94.3781287097
 10
35.384742392
 20
94.7906225175
 10
35.3063777789
 20
95.1729517429
 10
35.2408547793
 20
95.5296457968
 10
35.1859358382
 20
95.8644670152
 10
35.1399226466
 20
96.1802994228
 10
35.1015094589
 20
96.479246325
 10
35.0695497757
 20
96.7638864573
 10
35.0431865497
 20
97.0359461157
 10
35.0216659315
 20
97.2976590463
 10
35.0044788837
 20
97.5498311425
 10
34.9911786896
 20
97.7933502217
 10
34.9813822856
 20
98.0290996373
 10
34.9748420077
 20
98.2545844704
 10
34.9711797233
 20
98.4695207565
 10
34.9700233807
 20
98.675974282
1001
ACAD
1000
RTMaterial
1005
185D
  0
LWPOLYLINE
  5
1667
100
AcDbEntity
  8
0
  6
CONTINUOUS
 62
           9
100
AcDbPolyline
 90
        3
 70
           0
 10
74.9847564472
 20
82.1374602314
 10
74.8706198171
 20
82.1373132083
 10
74.4724832196
 20
82.1373400056
1001
ACAD
1000
RTMaterial
1005
185D
  0
LWPOLYLINE
  5
1668
100
AcDbEntity
  8
0
  6
CONTINUOUS
 62
           9
100
AcDbPolyline
 90
        3
 70
           0
 10
74.4724832196
 20
82.1373400056
 10
35.8281438148
 20
82.134277196
 10
35.6410217137
 20
82.1341528096
1001
ACAD
1000
RTMaterial
1005
185D
  0
LWPOLYLINE
  5
1669
100
AcDbEntity
  8
0
  6
CONTINUOUS
 62
           9
100
AcDbPolyline
 90
      115
 70
           0
 10
35.6410217137
 20
82.1341528096
 10
35.5494701525
 20
82.1344786277
 10
35.4689206265
 20
82.1357941799
 10
35.3965712434
 20
82.138192054
 10
35.3245873769
 20
82.1417838685
 10
35.2495205678
 20
82.1467930121
 10
35.1738230063
 20
82.1532074568
 10
35.0988589726
 20
82.1609344051
 10
35.024334038
 20
82.1699867146
 10
34.9500295669
 20
82.1803848998
 10
34.8757540354
 20
82.1921582011
 10
34.8015706231
 20
82.205301297
 10
34.7275723841
 20
82.2197995489
 10
34.6537589055
 20
82.2356561408
 10
34.5802167303
 20
82.2528555564
 10
34.5069621419
 20
82.2713950537
 10
34.434030714
 20
82.2912673605
 10
34.3616376642
 20
82.3124108088
 10
34.2897356548
 20
82.3348331805
 10
34.218117982
 20
82.358600135
 10
34.1468686148
 20
82.3836886514
 10
34.0760323753
 20
82.4100847961
 10
34.0056471806
 20
82.4377744963
 10
33.9358573736
 20
82.4666998132
 10
33.8666567567
 20
82.4968616323
 10
33.7980252532
 20
82.5282679789
 10
33.7299531467
 20
82.5609238196
 10
33.662431465
 20
82.5948352074
 10
33.5954902473
 20
82.6299881106
 10
33.5292260952
 20
82.6663309332
 10
33.4637174624
 20
82.703818415
 10
33.3988884062
 20
82.7424936453
 10
33.3347977637
 20
82.7823214069
 10
33.2714701939
 20
82.8232844944
 10
33.2087573913
 20
82.8654810862
 10
33.1468341989
 20
82.9087949149
 10
33.0858149164
 20
82.9531419396
 10
33.0255816246
 20
82.9986080938
 10
32.9662227527
 20
83.0451275305
 10
32.9077584421
 20
83.0926823157
 10
32.8500961175
 20
83.141348406
 10
32.7932635288
 20
83.1911059353
 10
32.7373266498
 20
83.2418991995
 10
32.6823246162
 20
83.2936935762
 10
32.6282889971
 20
83.3464587119
 10
32.5752462615
 20
83.4001659602
 10
32.5232587031
 20
83.4547492106
 10
32.472352543
 20
83.5101765733
 10
32.4223608498
 20
83.5666333224
 10
32.373305401
 20
83.6241020356
 10
32.3252753275
 20
83.6824769371
 10
32.2780619677
 20
83.7420313697
 10
32.2329001613
 20
83.8011036875
 10
32.1900648621
 20
83.8591788957
 10
32.1458463469
 20
83.9212520331
 10
32.097264743
 20
83.9915556661
 10
32.0434319285
 20
84.0707750278
 10
31.9829965806
 20
84.1603368662
 10
31.9156984564
 20
84.2609943099
 10
31.8406821885
 20
84.3744632327
 10
31.7603194063
 20
84.4974362365
 10
31.6847222047
 20
84.6145103379
 10
31.6171053048
 20
84.720396575
 10
31.5499865719
 20
84.8266307703
 10
31.4763243702
 20
84.9445455908
 10
31.3940060807
 20
85.0779956379
 10
31.302756408
 20
85.2280551875
 10
31.2011450148
 20
85.3978782267
 10
31.087558393
 20
85.5912474293
 10
30.9597007699
 20
85.8135749688
 10
30.8195428084
 20
86.0632624529
 10
30.675973814
 20
86.3258840708
 10
30.5353624203
 20
86.5902517143
 10
30.3982787311
 20
86.8552587707
 10
30.2642274955
 20
87.1218219876
 10
30.1329486491
 20
87.3904847495
 10
30.0046236829
 20
87.6609100873
 10
29.8794770685
 20
87.9326286081
 10
29.7574460555
 20
88.2057708969
 10
29.638451603
 20
88.4805243499
 10
29.5225635798
 20
88.7567434253
 10
29.4099216952
 20
89.0340941239
 10
29.3005817096
 20
89.3124241154
 10
29.1943381254
 20
89.5922488836
 10
29.0911543277
 20
89.8736784055
 10
28.9913376743
 20
90.1558739441
 10
28.8947818902
 20
90.4391285648
 10
28.8013801828
 20
90.7237615493
 10
28.7114537949
 20
91.0087838234
 10
28.6248697712
 20
91.2945745066
 10
28.5412727091
 20
91.582331418
 10
28.4608898777
 20
91.8713341433
 10
28.3840418244
 20
92.1604096745
 10
28.3105620352
 20
92.4501342373
 10
28.2402596676
 20
92.7412815483
 10
28.1732771839
 20
93.0333078354
 10
28.1097372433
 20
93.3256543746
 10
28.049531733
 20
93.6187868023
 10
27.9925899673
 20
93.9130835208
 10
27.9390373296
 20
94.2079255071
 10
27.8889314951
 20
94.5029673523
 10
27.8422179648
 20
94.7985050682
 10
27.7988798482
 20
95.0946545497
 10
27.7589140965
 20
95.3914445517
 10
27.7223355747
 20
95.6887799519
 10
27.6891657603
 20
95.9864949754
 10
27.659415438
 20
96.2844814109
 10
27.6330946668
 20
96.5826138436
 10
27.6101990299
 20
96.8809248711
 10
27.5907155483
 20
97.1795841791
 10
27.5746438032
 20
97.4786177117
 10
27.5619930591
 20
97.7779010699
 10
27.5527694875
 20
98.0773101099
 10
27.5469770465
 20
98.3766802471
 10
27.54461561
 20
98.6759742821
1001
ACAD
1000
RTMaterial
1005
185D
  0
LINE
  5
166D
100
AcDbEntity
  8
0
  6
CONTINUOUS
 62
           9
100
AcDbLine
 10
42.1189605581
 20
85.6733013452
 30
0.0
 11
41.9872844837
 21
85.6726052881
 31
0.0
1001
ACAD
1000
RTMaterial
1005
185D
  0
LINE
  5
166E
100
AcDbEntity
  8
0
  6
CONTINUOUS
 62
           9
100
AcDbLine
 10
43.5886807923
 20
85.6773098959
 30
0.0
 11
42.1189605581
 21
85.6733013452
 31
0.0
1001
ACAD
1000
RTMaterial
1005
185D
  0
LINE
  5
166F
100
AcDbEntity
  8
0
  6
CONTINUOUS
 62
           9
100
AcDbLine
 10
72.8014071762
 20
85.7476883609
 30
0.0
 11
43.5886807923
 21
85.6773098959
 31
0.0
1001
ACAD
1000
RTMaterial
1005
185D
  0
LWPOLYLINE
  5
1670
100
AcDbEntity
  8
0
  6
CONTINUOUS
 62
           9
100
AcDbPolyline
 90
       25
 70
           0
 10
41.9872844837
 20
85.6726052881
 10
41.9294847131
 20
85.6727278053
 10
41.8631544964
 20
85.6745569159
 10
41.7770382256
 20
85.6802706648
 10
41.6769548513
 20
85.6902484989
 10
41.5662666804
 20
85.7041450367
 10
41.4445496969
 20
85.7235915166
 10
41.3104176855
 20
85.7498990925
 10
41.160713604
 20
85.7853431889
 10
40.9942719448
 20
85.8324311285
 10
40.8122515744
 20
85.8933909491
 10
40.6133691153
 20
85.9717205117
 10
40.4003041544
 20
86.0699150536
 10
40.1786837029
 20
86.1887437163
 10
39.9737812247
 20
86.3150696646
 10
39.7981439508
 20
86.4371532307
 10
39.6493041402
 20
86.5515784639
 10
39.5218849417
 20
86.6583401573
 10
39.4111648583
 20
86.758366755
 10
39.3141223242
 20
86.852092356
 10
39.230944308
 20
86.9373676491
 10
39.1588714872
 20
87.0152589464
 10
39.0945927586
 20
87.0880223412
 10
39.0344807143
 20
87.1593292534
 10
38.9754518471
 20
87.2325326712
1001
ACAD
1000
RTMaterial
1005
185D
  0
LINE
  5
1673
100
AcDbEntity
  8
0
  6
CONTINUOUS
 62
           9
100
AcDbLine
 10
73.0975500544
 20
87.8622086005
 30
0.0
 11
72.3787546714
 21
87.8571136523
 31
0.0
1001
ACAD
1000
RTMaterial
1005
185D
  0
LWPOLYLINE
  5
1674
100
AcDbEntity
  8
0
  6
CONTINUOUS
 62
           9
100
AcDbPolyline
 90
        3
 70
           0
 10
72.3787546714
 20
87.8571136523
 10
72.2115860089
 20
87.8568448314
 10
71.6191821049
 20
87.8567589392
1001
ACAD
1000
RTMaterial
1005
185D
  0
LWPOLYLINE
  5
1675
100
AcDbEntity
  8
0
  6
CONTINUOUS
 62
           9
100
AcDbPolyline
 90
        3
 70
           0
 10
47.0511654796
 20
87.8476740439
 10
43.3558635911
 20
87.8454996193
 10
43.1621343869
 20
87.8453977517
1001
ACAD
1000
RTMaterial
1005
185D
  0
LWPOLYLINE
  5
1676
100
AcDbEntity
  8
0
  6
CONTINUOUS
 62
           9
100
AcDbPolyline
 90
        3
 70
           0
 10
71.6191821049
 20
87.8567589392
 10
69.9259760777
 20
87.8563671495
 10
47.0511654796
 20
87.8476740439
1001
ACAD
1000
RTMaterial
1005
185D
  0
LINE
  5
1677
100
AcDbEntity
  8
0
  6
CONTINUOUS
 62
           9
100
AcDbLine
 10
42.5590703758
 20
87.8457263342
 30
0.0
 11
41.8991889236
 21
87.8454234255
 31
0.0
1001
ACAD
1000
RTMaterial
1005
185D
  0
LINE
  5
1678
100
AcDbEntity
  8
0
  6
CONTINUOUS
 62
           9
100
AcDbLine
 10
43.1621343869
 20
87.8453977517
 30
0.0
 11
42.5590703758
 21
87.8457263342
 31
0.0
1001
ACAD
1000
RTMaterial
1005
185D
  0
LWPOLYLINE
  5
1679
100
AcDbEntity
  8
0
  6
CONTINUOUS
 62
           9
100
AcDbPolyline
 90
       66
 70
           0
 10
41.8991889236
 20
87.8454234255
 10
41.8517897785
 20
87.8455726941
 10
41.8163208511
 20
87.8461879594
 10
41.7771035906
 20
87.847986241
 10
41.7308511003
 20
87.8513923651
 10
41.6804999575
 20
87.8566928618
 10
41.6238722008
 20
87.8646517846
 10
41.5595772089
 20
87.8762185974
 10
41.4871341694
 20
87.8924987163
 10
41.4062071598
 20
87.9147859658
 10
41.3167626568
 20
87.9445789725
 10
41.2187653331
 20
87.9836797939
 10
41.1153621904
 20
88.0326557268
 10
41.017728715
 20
88.0867023281
 10
40.933294694
 20
88.1401020366
 10
40.860710321
 20
88.1914018081
 10
40.798422138
 20
88.2397761046
 10
40.7439780612
 20
88.2856870364
 10
40.6960641105
 20
88.3291451524
 10
40.6550399271
 20
88.368843122
 10
40.6193770649
 20
88.405395975
 10
40.5872243293
 20
88.4400896357
 10
40.5578068948
 20
88.4733862212
 10
40.5293556197
 20
88.5072851664
 10
40.4927170775
 20
88.5527516786
 10
40.4485214878
 20
88.6086650023
 10
40.399924843
 20
88.6705900439
 10
40.346201279
 20
88.7397719551
 10
40.2882654526
 20
88.8152661154
 10
40.2261677569
 20
88.8971463438
 10
40.1589535058
 20
88.9869604327
 10
40.0857395554
 20
89.0863150537
 10
40.0064702666
 20
89.1962964258
 10
39.9215717488
 20
89.3164001014
 10
39.8295392478
 20
89.4492934997
 10
39.7297780062
 20
89.5966556272
 10
39.6225327011
 20
89.7590949561
 10
39.5065195823
 20
89.9397785098
 10
39.3814659486
 20
90.1406911402
 10
39.2467306091
 20
90.3648140504
 10
39.1016297212
 20
90.6158043862
 10
38.9457428178
 20
90.8976570183
 10
38.7787311899
 20
91.215248993
 10
38.6001618596
 20
91.5751112138
 10
38.4099656424
 20
91.9852015291
 10
38.2084107525
 20
92.4559341944
 10
37.9975432072
 20
92.9981584569
 10
37.8122333714
 20
93.5291786522
 10
37.6620927607
 20
94.0092620428
 10
37.539458626
 20
94.445871835
 10
37.4385970583
 20
94.8452475708
 10
37.3551213663
 20
95.2128439575
 10
37.2856286443
 20
95.5535625601
 10
37.2275316188
 20
95.8714527933
 10
37.1788432326
 20
96.1698658935
 10
37.1380577588
 20
96.4513510572
 10
37.1040138453
 20
96.7177888791
 10
37.0756925394
 20
96.9714838119
 10
37.0523323316
 20
97.2139796215
 10
37.0332645622
 20
97.4472671562
 10
37.018038416
 20
97.6720504285
 10
37.0062569442
 20
97.8891223001
 10
36.9975797887
 20
98.0992754405
 10
36.9917870208
 20
98.3002884534
 10
36.9885434557
 20
98.4919071808
 10
36.9875193732
 20
98.6759742821
1001
ACAD
1000
RTMaterial
1005
185D
  0
LINE
  5
1690
100
AcDbEntity
  8
0
  6
CONTINUOUS
 62
           9
100
AcDbLine
 10
80.4993776855
 20
98.676078332
 30
0.0
 11
80.3599715225
 21
98.6758640541
 31
0.0
1001
ACAD
1000
RTMaterial
1005
185D
  0
LINE
  5
1691
100
AcDbEntity
  8
0
  6
CONTINUOUS
 62
           9
100
AcDbLine
 10
80.5578141594
 20
98.6761076049
 30
0.0
 11
80.4993776855
 21
98.676078332
 31
0.0
1001
ACAD
1000
RTMaterial
1005
185D
  0
LINE
  5
1692
100
AcDbEntity
  8
0
  6
CONTINUOUS
 62
           9
100
AcDbLine
 10
80.8485059013
 20
98.6759742821
 30
0.0
 11
80.8425628694
 21
98.6759742821
 31
0.0
1001
ACAD
1000
RTMaterial
1005
185D
  0
LINE
  5
1693
100
AcDbEntity
  8
0
  6
CONTINUOUS
 62
           9
100
AcDbLine
 10
71.131090979
 20
98.6759742821
 30
0.0
 11
70.9579196315
 21
98.6759742821
 31
0.0
1001
ACAD
1000
RTMaterial
1005
185D
  0
LINE
  5
1694
100
AcDbEntity
  8
0
  6
CONTINUOUS
 62
           9
100
AcDbLine
 10
34.9700233807
 20
98.675974282
 30
0.0
 11
34.4677085917
 21
98.6759742821
 31
0.0
1001
ACAD
1000
RTMaterial
1005
185D
  0
LINE
  5
1695
100
AcDbEntity
  8
0
  6
CONTINUOUS
 62
           7
100
AcDbLine
 10
27.54461561
 20
98.6759742821
 30
0.0
 11
27.3912695014
 21
98.6759742821
 31
0.0
1001
ACAD
1000
RTMaterial
1005
185D
  0
LINE
  5
1696
100
AcDbEntity
  8
DEFAULT_1
  6
CENTER
 62
           7
100
AcDbLine
 10
72.9558681114
 20
98.6759742821
 30
0.0
 11
71.131090979
 21
98.6759742821
 31
0.0
1001
ACAD
1000
RTMaterial
1005
185D
  0
LINE
  5
1697
100
AcDbEntity
  8
DEFAULT_1
  6
CENTER
 62
           7
100
AcDbLine
 10
70.9579196315
 20
98.6759742821
 30
0.0
 11
34.9700233807
 21
98.675974282
 31
0.0
1001
ACAD
1000
RTMaterial
1005
185D
  0
LINE
  5
1698
100
AcDbEntity
  8
DEFAULT_1
  6
CENTER
 62
           7
100
AcDbLine
 10
34.4677085917
 20
98.6759742821
 30
0.0
 11
27.73766915
 21
98.6758052099
 31
0.0
1001
ACAD
1000
RTMaterial
1005
185D
  0
LINE
  5
1699
100
AcDbEntity
  8
DEFAULT_1
  6
CENTER
 62
           7
100
AcDbLine
 10
26.8916213962
 20
98.6758951692
 30
0.0
 11
21.922316078
 21
98.6759742821
 31
0.0
1001
ACAD
1000
RTMaterial
1005
185D
  0
LINE
  5
169A
100
AcDbEntity
  8
DEFAULT_1
  6
CENTER
 62
           7
100
AcDbLine
 10
72.9558681114
 20
98.6759742821
 30
0.0
 11
74.8166931763
 21
98.6759742821
 31
0.0
1001
ACAD
1000
RTMaterial
1005
185D
  0
LINE
  5
169B
100
AcDbEntity
  8
DEFAULT_1
  6
CENTER
 62
           7
100
AcDbLine
 10
80.6069652609
 20
98.6759742821
 30
0.0
 11
80.8425628694
 21
98.6759742821
 31
0.0
1001
ACAD
1000
RTMaterial
1005
185D
  0
LINE
  5
169C
100
AcDbEntity
  8
DEFAULT_1
  6
CENTER
 62
           7
100
AcDbLine
 10
80.8485059013
 20
98.6759742821
 30
0.0
 11
84.6389834532
 21
98.6759742821
 31
0.0
1001
ACAD
1000
RTMaterial
1005
185D
  0
LINE
  5
169D
100
AcDbEntity
  8
DEFAULT_1
  6
CENTER
 62
           7
100
AcDbLine
 10
74.9793149398
 20
98.6759742821
 30
0.0
 11
80.1555946538
 21
98.6759742821
 31
0.0
1001
ACAD
1000
RTMaterial
1005
185D
  0
LINE
  5
169E
100
AcDbEntity
  8
DEFAULT_1
  6
CENTER
 62
           7
100
AcDbLine
 10
80.3599715382
 20
98.6759742821
 30
0.0
 11
80.4993776855
 21
98.676078332
 31
0.0
1001
ACAD
1000
RTMaterial
1005
185D
  0
LINE
  5
169F
100
AcDbEntity
  8
0
  6
CONTINUOUS
 62
           9
100
AcDbLine
 10
74.8166931763
 20
98.6759742821
 30
0.0
 11
74.9793149398
 21
98.6759742821
 31
0.0
1001
ACAD
1000
RTMaterial
1005
185D
  0
LINE
  5
16A0
100
AcDbEntity
  8
0
  6
CONTINUOUS
 62
           7
100
AcDbLine
 10
80.5578139013
 20
98.6759742821
 30
0.0
 11
80.6069652609
 21
98.6759742821
 31
0.0
1001
ACAD
1000
RTMaterial
1005
185D
  0
LINE
  5
16A1
100
AcDbEntity
  8
0
  6
CONTINUOUS
 62
           9
100
AcDbLine
 10
80.3599715382
 20
98.6759742821
 30
0.0
 11
80.1555946538
 21
98.6759742821
 31
0.0
1001
ACAD
1000
RTMaterial
1005
185D
  0
LINE
  5
16A2
100
AcDbEntity
  8
0
  6
CONTINUOUS
 62
           9
100
AcDbLine
 10
27.3912693779
 20
98.6758979621
 30
0.0
 11
26.8916213962
 21
98.6758951692
 31
0.0
1001
ACAD
1000
RTMaterial
1005
185D
  0
LINE
  5
16A3
100
AcDbEntity
  8
0
  6
CONTINUOUS
 62
           9
100
AcDbLine
 10
27.73766915
 20
98.6758052099
 30
0.0
 11
27.544615246
 21
98.6761437888
 31
0.0
1001
ACAD
1000
RTMaterial
1005
185D
  0
LWPOLYLINE
  5
16B4
100
AcDbEntity
  8
0
  6
CONTINUOUS
 62
           7
100
AcDbPolyline
 90
       20
 70
           0
 10
79.9785437903
 20
97.4884742822
 10
79.9648149326
 20
97.4926237387
 10
79.9513470946
 20
97.5050405634
 10
79.9382651793
 20
97.5255659784
 10
79.9256355104
 20
97.5540207735
 10
79.9135764288
 20
97.5900132641
 10
79.9021246441
 20
97.6332664114
 10
79.8913435971
 20
97.6833688526
 10
79.8812668481
 20
97.7399758852
 10
79.8719170983
 20
97.8027981765
 10
79.8633424941
 20
97.8713455935
 10
79.8555490091
 20
97.9454278153
 10
79.8485854351
 20
98.0244554221
 10
79.8424658605
 20
98.1081464243
 10
79.8372234882
 20
98.1959743089
 10
79.8328883629
 20
98.2873534652
 10
79.8294802813
 20
98.3818419189
 10
79.8270311511
 20
98.4785128057
 10
79.8255522217
 20
98.5768861502
 10
79.825058539
 20
98.6759742822
1001
ACAD
1000
RTMaterial
1005
185D
  0
LWPOLYLINE
  5
16BC
100
AcDbEntity
  8
0
  6
CONTINUOUS
 62
           7
100
AcDbPolyline
 90
       20
 70
           0
 10
79.9785437903
 20
99.8634742822
 10
79.9921977069
 20
99.859466011
 10
80.0059674494
 20
99.8474087773
 10
80.0197185535
 20
99.8273584817
 10
80.0333675399
 20
99.7993820145
 10
80.0467615443
 20
99.763752964
 10
80.0598188553
 20
99.7206573273
 10
80.0724189632
 20
99.6704384368
 10
80.0844619582
 20
99.6134347297
 10
80.0958605698
 20
99.5499603531
 10
80.1064919996
 20
99.480595925
 10
80.1162920329
 20
99.405630947
 10
80.1251490761
 20
99.3257681085
 10
80.1330021225
 20
99.2413987253
 10
80.1397723947
 20
99.1531680876
 10
80.1453953363
 20
99.0617372084
 10
80.1498284052
 20
98.967569881
 10
80.1530203957
 20
98.8715388822
 10
80.1549501517
 20
98.7740471799
 10
80.1555946538
 20
98.6759742821
1001
ACAD
1000
RTMaterial
1005
185D
  0
LINE
  5
16C1
100
AcDbEntity
  8
0
  6
CONTINUOUS
 62
           9
100
AcDbLine
 10
58.1965557182
 20
109.4990349676
 30
0.0
 11
71.9445107051
 21
109.495112428
 31
0.0
1001
ACAD
1000
RTMaterial
1005
185D
  0
LINE
  5
16C2
100
AcDbEntity
  8
0
  6
CONTINUOUS
 62
           9
100
AcDbLine
 10
71.9445107051
 20
109.495112428
 30
0.0
 11
72.3068036436
 21
109.49509882
 31
0.0
1001
ACAD
1000
RTMaterial
1005
185D
  0
LINE
  5
16C3
100
AcDbEntity
  8
0
  6
CONTINUOUS
 62
           9
100
AcDbLine
 10
42.2792680922
 20
109.5062529601
 30
0.0
 11
43.2294268468
 21
109.5065370204
 31
0.0
1001
ACAD
1000
RTMaterial
1005
185D
  0
LINE
  5
16C4
100
AcDbEntity
  8
0
  6
CONTINUOUS
 62
           9
100
AcDbLine
 10
51.6817803287
 20
109.5018621628
 30
0.0
 11
58.1965557182
 21
109.4990349676
 31
0.0
1001
ACAD
1000
RTMaterial
1005
185D
  0
LINE
  5
16C5
100
AcDbEntity
  8
0
  6
CONTINUOUS
 62
           9
100
AcDbLine
 10
43.2294268468
 20
109.5065370204
 30
0.0
 11
43.4305261847
 21
109.5063998599
 31
0.0
1001
ACAD
1000
RTMaterial
1005
185D
  0
LINE
  5
16C6
100
AcDbEntity
  8
0
  6
CONTINUOUS
 62
           9
100
AcDbLine
 10
43.4305261847
 20
109.5063998599
 30
0.0
 11
51.6817803287
 21
109.5018621628
 31
0.0
1001
ACAD
1000
RTMaterial
1005
185D
  0
LINE
  5
16C7
100
AcDbEntity
  8
0
  6
CONTINUOUS
 62
           9
100
AcDbLine
 10
41.8662719907
 20
109.5064660749
 30
0.0
 11
42.2792680922
 21
109.5062529601
 31
0.0
1001
ACAD
1000
RTMaterial
1005
185D
  0
LWPOLYLINE
  5
16C8
100
AcDbEntity
  8
0
  6
CONTINUOUS
 62
           9
100
AcDbPolyline
 90
        4
 70
           0
 10
72.3068036436
 20
109.49509882
 10
72.467080976
 20
109.4942068864
 10
72.61237787
 20
109.4929888885
 10
72.9641847145
 20
109.4905729004
1001
ACAD
1000
RTMaterial
1005
185D
  0
LWPOLYLINE
  5
16C9
100
AcDbEntity
  8
0
  6
CONTINUOUS
 62
           9
100
AcDbPolyline
 90
        3
 70
           0
 10
72.9641847145
 20
109.4905729004
 10
73.0598533202
 20
109.4899671015
 10
73.3024516605
 20
109.4888068272
1001
ACAD
1000
RTMaterial
1005
185D
  0
LWPOLYLINE
  5
16CA
100
AcDbEntity
  8
0
  6
CONTINUOUS
 62
           9
100
AcDbPolyline
 90
       28
 70
           0
 10
73.3024516605
 20
109.4888068272
 10
73.3740260011
 20
109.4879012096
 10
73.4361794454
 20
109.485075288
 10
73.5096016037
 20
109.4790487621
 10
73.5937942314
 20
109.4684612484
 10
73.6895582
 20
109.4516021737
 10
73.7956047835
 20
109.4267958373
 10
73.9072248441
 20
109.3934407486
 10
74.0192086672
 20
109.3520991253
 10
74.1290608075
 20
109.3033295995
 10
74.2351579749
 20
109.2478088079
 10
74.3373846705
 20
109.1856150069
 10
74.4355678282
 20
109.1168898371
 10
74.5283972108
 20
109.0426299944
 10
74.6157223058
 20
108.9630213444
 10
74.6978551014
 20
108.8779187485
 10
74.7738039298
 20
108.7884129923
 10
74.8435456562
 20
108.694576032
 10
74.9067752496
 20
108.5969642861
 10
74.9611564715
 20
108.5001344775
 10
75.0057095502
 20
108.408404408
 10
75.0409642314
 20
108.3244966391
 10
75.0684911012
 20
108.2489009434
 10
75.0898239745
 20
108.1813747983
 10
75.1065418894
 20
108.1203564834
 10
75.1200449908
 20
108.0632794858
 10
75.1304326921
 20
108.0117408594
 10
75.1432524767
 20
107.9397234061
1001
ACAD
1000
RTMaterial
1005
185D
  0
LINE
  5
16CF
100
AcDbEntity
  8
0
  6
CONTINUOUS
 62
           9
100
AcDbLine
 10
73.0658226135
 20
111.6039116111
 30
0.0
 11
73.2246001538
 21
111.6039610155
 31
0.0
1001
ACAD
1000
RTMaterial
1005
185D
  0
LWPOLYLINE
  5
16D0
100
AcDbEntity
  8
0
  6
CONTINUOUS
 62
           9
100
AcDbPolyline
 90
       30
 70
           0
 10
73.2246001538
 20
111.6039610155
 10
73.3066535089
 20
111.6038094018
 10
73.4190490999
 20
111.6019677385
 10
73.5583506037
 20
111.5949903283
 10
73.7176782755
 20
111.5811744971
 10
73.9000786144
 20
111.5575494793
 10
74.107314435
 20
111.5204456959
 10
74.3365876836
 20
111.4663435812
 10
74.5781903459
 20
111.3939000759
 10
74.8209087841
 20
111.3043002092
 10
75.0589343386
 20
111.1989000866
 10
75.2893240863
 20
111.0788995512
 10
75.5119010272
 20
110.9443744222
 10
75.7249288076
 20
110.7964642071
 10
75.9279662387
 20
110.6355966548
 10
76.1199183111
 20
110.4626020498
 10
76.3000393564
 20
110.2783519802
 10
76.4682578262
 20
110.0829774501
 10
76.623594293
 20
109.8774556556
 10
76.7652176879
 20
109.6629247986
 10
76.8882154505
 20
109.4485442277
 10
76.9898422925
 20
109.244252727
 10
77.070929097
 20
109.0563730925
 10
77.1347254334
 20
108.8863092446
 10
77.1846054724
 20
108.7337148507
 10
77.2239750848
 20
108.5951962348
 10
77.2557169411
 20
108.4671925147
 10
77.2816772994
 20
108.3444199453
 10
77.29879282
 20
108.2490136237
 10
77.3137861681
 20
108.1582044742
1001
ACAD
1000
RTMaterial
1005
185D
  0
LINE
  5
16D1
100
AcDbEntity
  8
0
  6
CONTINUOUS
 62
           9
100
AcDbLine
 10
72.3222418339
 20
111.6050871961
 30
0.0
 11
73.0658226135
 21
111.6039116111
 31
0.0
1001
ACAD
1000
RTMaterial
1005
185D
  0
LINE
  5
16D2
100
AcDbEntity
  8
0
  6
CONTINUOUS
 62
           9
100
AcDbLine
 10
65.1759056622
 20
111.6211550605
 30
0.0
 11
72.3222418339
 21
111.6050871961
 31
0.0
1001
ACAD
1000
RTMaterial
1005
185D
  0
LINE
  5
16D3
100
AcDbEntity
  8
0
  6
CONTINUOUS
 62
           9
100
AcDbLine
 10
52.5605123243
 20
111.651922739
 30
0.0
 11
65.1759056622
 21
111.6211550605
 31
0.0
1001
ACAD
1000
RTMaterial
1005
185D
  0
LINE
  5
16D4
100
AcDbEntity
  8
0
  6
CONTINUOUS
 62
           9
100
AcDbLine
 10
41.9488683406
 20
111.679369291
 30
0.0
 11
52.5605123243
 21
111.651922739
 31
0.0
1001
ACAD
1000
RTMaterial
1005
185D
  0
LWPOLYLINE
  5
16D5
100
AcDbEntity
  8
0
  6
CONTINUOUS
 62
           9
100
AcDbPolyline
 90
       46
 70
           0
 10
71.13109097
 20
98.6759742821
 10
71.1362638861
 20
98.5388287722
 10
71.1517744792
 20
98.4023610956
 10
71.1775423284
 20
98.2674523558
 10
71.2133064058
 20
98.1352627221
 10
71.2585770858
 20
98.0070360775
 10
71.3124861251
 20
97.8842817176
 10
71.3738605386
 20
97.7683591556
 10
71.4417785676
 20
97.6596534807
 10
71.5156179434
 20
97.5580521753
 10
71.5950157402
 20
97.4632581999
 10
71.6799099909
 20
97.3748635198
 10
71.7703620137
 20
97.292602939
 10
71.8664409426
 20
97.2164229551
 10
71.9682737305
 20
97.1463954845
 10
72.076014974
 20
97.0827290673
 10
72.1900852024
 20
97.0256532847
 10
72.3109656572
 20
96.9756004662
 10
72.4386735027
 20
96.9333772391
 10
72.5715939273
 20
96.9002292854
 10
72.7069298224
 20
96.8771639226
 10
72.8433390546
 20
96.8644090949
 10
72.9805067214
 20
96.8619877629
 10
73.1180120491
 20
96.8699877211
 10
73.2553674187
 20
96.8884874721
 10
73.3909367303
 20
96.9172998152
 10
73.5222796786
 20
96.9556960147
 10
73.6572829882
 20
97.0066406076
 10
73.7989478382
 20
97.0720407628
 10
73.9242200252
 20
97.1398663207
 10
74.0309862907
 20
97.2075913083
 10
74.129571982
 20
97.2804013438
 10
74.2222603503
 20
97.358802704
 10
74.3078508454
 20
97.4412155281
 10
74.3860253532
 20
97.5266175872
 10
74.4572830978
 20
97.6149425685
 10
74.5219019849
 20
97.7060751344
 10
74.580147862
 20
97.8000178809
 10
74.6323678365
 20
97.8971571339
 10
74.6786177904
 20
97.9977070633
 10
74.7186661739
 20
98.1014616068
 10
74.7524407272
 20
98.2088255946
 10
74.7796241748
 20
98.3199308812
 10
74.7997506961
 20
98.4346733409
 10
74.8123208987
 20
98.5532137191
 10
74.8166931788
 20
98.6759742821
1001
ACAD
1000
RTMaterial
1005
185D
  0
LWPOLYLINE
  5
16DA
100
AcDbEntity
  8
0
  6
CONTINUOUS
 62
           9
100
AcDbPolyline
 90
       60
 70
           0
 10
35.2836990701
 20
115.6748920131
 10
35.2369312015
 20
115.674452487
 10
35.1898741992
 20
115.6734263215
 10
35.141725254
 20
115.6717976338
 10
35.0943131459
 20
115.6696256924
 10
35.0445363804
 20
115.6667333452
 10
34.9878792907
 20
115.6626762896
 10
34.9236972216
 20
115.6570985957
 10
34.8544802666
 20
115.6499140139
 10
34.7835695139
 20
115.6412894247
 10
34.7126558515
 20
115.6313767368
 10
34.641943996
 20
115.620201744
 10
34.5714441434
 20
115.6077675151
 10
34.5011035868
 20
115.5940637548
 10
34.4309267425
 20
115.5790882755
 10
34.3609508782
 20
115.5628459735
 10
34.2911971464
 20
115.5453387664
 10
34.2216770296
 20
115.5265668133
 10
34.1524071802
 20
115.5065313304
 10
34.0834060604
 20
115.4852341417
 10
34.0146956789
 20
115.4626784604
 10
33.9462988553
 20
115.4388680364
 10
33.8782339671
 20
115.4138056637
 10
33.810514261
 20
115.3874920616
 10
33.7431485722
 20
115.3599261911
 10
33.6761561725
 20
115.3311115387
 10
33.6095566331
 20
115.3010517393
 10
33.5433652107
 20
115.2697487244
 10
33.4776117467
 20
115.2372114729
 10
33.4123340083
 20
115.2034539091
 10
33.3475614344
 20
115.1684868663
 10
33.2832956196
 20
115.1323062213
 10
33.2195281439
 20
115.0949018084
 10
33.1562807102
 20
115.0562801348
 10
33.0935901257
 20
115.0164575166
 10
33.0314863052
 20
114.9754471752
 10
32.9699823593
 20
114.9332516723
 10
32.909081078
 20
114.8898665845
 10
32.8488037174
 20
114.8453000113
 10
32.789189432
 20
114.7995740058
 10
32.7302741908
 20
114.7527100414
 10
32.6720642811
 20
114.7047067014
 10
32.6145504254
 20
114.6555491915
 10
32.5577554489
 20
114.6052487279
 10
32.501721754
 20
114.5538349707
 10
32.446480254
 20
114.5013292326
 10
32.3920470054
 20
114.4477395268
 10
32.3384364868
 20
114.3930727536
 10
32.2856612364
 20
114.3373334135
 10
32.2337141482
 20
114.2805046452
 10
32.1825880879
 20
114.2225675358
 10
32.1323777686
 20
114.163618419
 10
32.0841405476
 20
114.1049518941
 10
32.0404293405
 20
114.0499592531
 10
32.0027386125
 20
114.0010783498
 10
31.9702077423
 20
113.9577579656
 10
31.9420264862
 20
113.9192785311
 10
31.9177058712
 20
113.8853241405
 10
31.8953891915
 20
113.8536572469
 10
31.8480381266
 20
113.7854327365
1001
ACAD
1000
RTMaterial
1005
185D
  0
LWPOLYLINE
  5
16DB
100
AcDbEntity
  8
0
  6
CONTINUOUS
 62
           9
100
AcDbPolyline
 90
      115
 70
           0
 10
35.6410311496
 20
115.2177957483
 10
35.5494790253
 20
115.2174700184
 10
35.4689286364
 20
115.21615458
 10
35.3965789214
 20
115.2137568313
 10
35.3245953106
 20
115.2101651561
 10
35.2495288052
 20
115.2051561749
 10
35.1738313563
 20
115.1987418916
 10
35.0988673767
 20
115.1910151026
 10
35.0243425286
 20
115.1819629593
 10
34.950038164
 20
115.1715649472
 10
34.8757627461
 20
115.159791825
 10
34.8015794393
 20
115.1466489118
 10
34.7275812944
 20
115.1321508451
 10
34.6537678959
 20
115.1162944402
 10
34.5802258032
 20
115.0990952166
 10
34.5069712915
 20
115.0805559146
 10
34.4340399263
 20
115.0606838039
 10
34.3616469374
 20
115.0395405553
 10
34.2897449945
 20
115.0171183894
 10
34.2181273932
 20
114.9933516475
 10
34.146878088
 20
114.9682633454
 10
34.0760419033
 20
114.9418674172
 10
34.0056567496
 20
114.9141779328
 10
33.9358669725
 20
114.8852528317
 10
33.8666663845
 20
114.8550912325
 10
33.7980349109
 20
114.8236851111
 10
33.7299628344
 20
114.7910295006
 10
33.6624411795
 20
114.7571183465
 10
33.5954999774
 20
114.7219656762
 10
33.5292358265
 20
114.6856230833
 10
33.4637271923
 20
114.6481358348
 10
33.3988981315
 20
114.609460841
 10
33.3348074771
 20
114.5696333163
 10
33.2714798969
 20
114.5286704715
 10
33.2087670773
 20
114.4864741235
 10
33.1468438522
 20
114.4431605324
 10
33.0858245372
 20
114.3988137508
 10
33.0255912109
 20
114.3533478438
 10
32.9662322986
 20
114.3068286556
 10
32.9077679429
 20
114.2592741206
 10
32.8501055726
 20
114.2106082861
 10
32.7932729311
 20
114.1608510124
 10
32.7373359866
 20
114.1100579987
 10
32.68233388
 20
114.0582638714
 10
32.628298183
 20
114.0054989863
 10
32.5752553561
 20
113.951791981
 10
32.5232676963
 20
113.897208969
 10
32.4723614434
 20
113.84178186
 10
32.4223696648
 20
113.7853253809
 10
32.3733141167
 20
113.7278569283
 10
32.3252839531
 20
113.6694823063
 10
32.2780704011
 20
113.6099280315
 10
32.2329082724
 20
113.5508556778
 10
32.1900729689
 20
113.4927808542
 10
32.1458550578
 20
113.43070896
 10
32.0972744203
 20
113.3604070618
 10
32.0434428071
 20
113.2811896021
 10
31.9830088498
 20
113.1916299485
 10
31.9157122289
 20
113.0909749702
 10
31.8406973871
 20
112.9775084467
 10
31.7603348123
 20
112.8545360482
 10
31.6847363954
 20
112.737460331
 10
31.6171187156
 20
112.6315731024
 10
31.5500006873
 20
112.5253402553
 10
31.4763401392
 20
112.4074283663
 10
31.3940238104
 20
112.273981863
 10
31.302776379
 20
112.1239264689
 10
31.2011674541
 20
111.9541081649
 10
31.0875837451
 20
111.7607447219
 10
30.9597291501
 20
111.5384235105
 10
30.819573072
 20
111.2887407243
 10
30.6760042692
 20
111.0261209697
 10
30.5353923831
 20
110.7617539714
 10
30.3983082551
 20
110.4967476764
 10
30.2642566222
 20
110.2301853291
 10
30.1329773828
 20
109.9615234816
 10
30.0046519468
 20
109.6910989302
 10
29.8795048239
 20
109.4193811378
 10
29.7574733012
 20
109.146239601
 10
29.638478331
 20
108.8714869105
 10
29.5225897657
 20
108.5952685691
 10
29.4099473056
 20
108.3179185511
 10
29.3006067526
 20
108.0395892854
 10
29.1943626177
 20
107.7597653179
 10
29.0911782343
 20
107.4783365349
 10
28.9913609723
 20
107.1961417059
 10
28.8948045497
 20
106.9128877402
 10
28.8014021959
 20
106.6282554177
 10
28.711475188
 20
106.3432339248
 10
28.6248904982
 20
106.0574439082
 10
28.5412927989
 20
105.7696878051
 10
28.4609092827
 20
105.4806857685
 10
28.3840604948
 20
105.1916107762
 10
28.310580006
 20
104.9018869247
 10
28.2402769208
 20
104.6107403045
 10
28.1732936888
 20
104.3187146269
 10
28.1097530081
 20
104.0263687772
 10
28.0495467422
 20
103.7332370219
 10
27.9926041928
 20
103.4389408911
 10
27.9390507658
 20
103.1440995196
 10
27.8889441253
 20
102.8490582524
 10
27.8422297828
 20
102.5535211456
 10
27.7988908471
 20
102.2573723008
 10
27.758924264
 20
101.9605829292
 10
27.7223448954
 20
101.6632481299
 10
27.6891742189
 20
101.3655336701
 10
27.6594230205
 20
101.0675477661
 10
27.6331013617
 20
100.7694158528
 10
27.6102048285
 20
100.4711053725
 10
27.5907204417
 20
100.1724466401
 10
27.5746477791
 20
99.8734136704
 10
27.5619961044
 20
99.5741308374
 10
27.5527715899
 20
99.2747222864
 10
27.5469781947
 20
98.9753526106
 10
27.54461561
 20
98.6759742821
1001
ACAD
1000
RTMaterial
1005
185D
  0
LINE
  5
16DC
100
AcDbEntity
  8
0
  6
CONTINUOUS
 62
           9
100
AcDbLine
 10
74.6750196544
 20
115.6684381287
 30
0.0
 11
74.7448250025
 21
115.6684412945
 31
0.0
1001
ACAD
1000
RTMaterial
1005
185D
  0
LWPOLYLINE
  5
16DE
100
AcDbEntity
  8
0
  6
CONTINUOUS
 62
           9
100
AcDbPolyline
 90
        3
 70
           0
 10
35.2660149963
 20
115.6686324172
 10
35.3265311377
 20
115.6687297349
 10
74.6750196544
 20
115.6684381287
1001
ACAD
1000
RTMaterial
1005
185D
  0
LWPOLYLINE
  5
16DF
100
AcDbEntity
  8
0
  6
CONTINUOUS
 62
           9
100
AcDbPolyline
 90
        3
 70
           0
 10
74.7448250025
 20
115.6684412945
 10
74.8656117925
 20
115.6684215842
 10
75.0122564864
 20
115.668519839
1001
ACAD
1000
RTMaterial
1005
185D
  0
LINE
  5
16E1
100
AcDbEntity
  8
0
  6
CONTINUOUS
 62
           9
100
AcDbLine
 10
75.0481243527
 20
115.6744856257
 30
0.0
 11
35.2836990701
 21
115.6748920131
 31
0.0
1001
ACAD
1000
RTMaterial
1005
185D
  0
LWPOLYLINE
  5
16E2
100
AcDbEntity
  8
0
  6
CONTINUOUS
 62
           9
100
AcDbPolyline
 90
       79
 70
           0
 10
75.0122564864
 20
115.668519839
 10
75.0663400818
 20
115.6683914051
 10
75.1292462348
 20
115.6675695712
 10
75.2004658124
 20
115.665566729
 10
75.2764954237
 20
115.6621078141
 10
75.3528895777
 20
115.6572482058
 10
75.429473904
 20
115.6509885518
 10
75.506108849
 20
115.6433346803
 10
75.5826042901
 20
115.6343023086
 10
75.6588603809
 20
115.6239032917
 10
75.7348823624
 20
115.6121380591
 10
75.8107007756
 20
115.5990022063
 10
75.8863045977
 20
115.5844971665
 10
75.9616598804
 20
115.5686284085
 10
76.0367661538
 20
115.5513947607
 10
76.1116183306
 20
115.5327957157
 10
76.186171575
 20
115.5128406452
 10
76.2603843428
 20
115.4915393083
 10
76.3342280266
 20
115.4688989853
 10
76.4076566693
 20
115.4449334624
 10
76.4806587184
 20
115.4196455509
 10
76.5532820078
 20
115.3930170011
 10
76.6255062268
 20
115.3650528853
 10
76.6972560832
 20
115.3357798886
 10
76.7685336193
 20
115.3051949391
 10
76.8392801847
 20
115.2733224747
 10
76.9094590248
 20
115.2401770085
 10
76.9790838757
 20
115.2057514774
 10
77.0481462585
 20
115.1700476329
 10
77.1166482068
 20
115.1330614045
 10
77.1845395651
 20
115.0948174594
 10
77.2517571838
 20
115.0553490953
 10
77.3183106323
 20
115.0146491702
 10
77.3842120948
 20
114.9727072211
 10
77.4494183445
 20
114.9295479702
 10
77.5138774495
 20
114.8852032543
 10
77.57759683
 20
114.8396654351
 10
77.6405656687
 20
114.7929395102
 10
77.702739158
 20
114.7450558607
 10
77.7640991334
 20
114.6960256405
 10
77.824643849
 20
114.6458473562
 10
77.8843432053
 20
114.5945428154
 10
77.9431672286
 20
114.5421347062
 10
78.0011054709
 20
114.4886294114
 10
78.0581367067
 20
114.4340432646
 10
78.1142434817
 20
114.3783895731
 10
78.1694107701
 20
114.3216797122
 10
78.2236175368
 20
114.2639315565
 10
78.2768271674
 20
114.205181109
 10
78.3290263705
 20
114.1454396698
 10
78.3802168142
 20
114.0847017283
 10
78.4303770805
 20
114.0229883392
 10
78.4794733197
 20
113.960337468
 10
78.5274816575
 20
113.8967761932
 10
78.574408107
 20
113.8322924647
 10
78.6202304086
 20
113.7669130689
 10
78.6649123755
 20
113.7006855289
 10
78.7084580779
 20
113.6335998372
 10
78.7508511122
 20
113.5656769219
 10
78.7920550814
 20
113.4969711812
 10
78.8320594568
 20
113.4274970099
 10
78.8708785564
 20
113.357224492
 10
78.9084992086
 20
113.2861710134
 10
78.9448574399
 20
113.2144543381
 10
78.9799424077
 20
113.1420929811
 10
79.0137806273
 20
113.0690294989
 10
79.046372114
 20
112.9952555683
 10
79.0777019696
 20
112.9207951711
 10
79.1077046463
 20
112.8458022716
 10
79.1363237553
 20
112.7704206344
 10
79.1635634843
 20
112.6946509858
 10
79.18951838
 20
112.6182139108
 10
79.2139088487
 20
112.5420083525
 10
79.2352612285
 20
112.4712737805
 10
79.2531262572
 20
112.4087637281
 10
79.2679553915
 20
112.3541221255
 10
79.2808780708
 20
112.3039385034
 10
79.2931885997
 20
112.2535741955
 10
79.3058453969
 20
112.199705242
1001
ACAD
1000
RTMaterial
1005
185D
  0
LINE
  5
16E3
100
AcDbEntity
  8
DEFAULT_1
  6
CENTER
 62
           7
100
AcDbLine
 10
72.9558681114
 20
98.6759742821
 30
0.0
 11
72.9558681114
 21
95.5209742821
 31
0.0
1001
ACAD
1000
RTMaterial
1005
185D
  0
LINE
  5
16E4
100
AcDbEntity
  8
DEFAULT_1
  6
CENTER
 62
           7
100
AcDbLine
 10
72.9558681114
 20
98.6759742821
 30
0.0
 11
72.9558681114
 21
101.8309742821
 31
0.0
1001
ACAD
1000
RTMaterial
1005
185D
  0
LWPOLYLINE
  5
16E7
100
AcDbEntity
  8
0
  6
CONTINUOUS
 62
           9
100
AcDbPolyline
 90
       17
 70
           0
 10
75.867445083
 20
102.8021885471
 10
75.8939510319
 20
102.4843217442
 10
75.9092289086
 20
102.299059249
 10
75.9251993151
 20
102.0894626109
 10
75.9408960082
 20
101.8549764363
 10
75.9568552307
 20
101.588450764
 10
75.9734653461
 20
101.2849156695
 10
75.9891780564
 20
100.9657936168
 10
76.0019927089
 20
100.6696978258
 10
76.0121574532
 20
100.3878958183
 10
76.0201223732
 20
100.1150245567
 10
76.026150667
 20
99.8507693018
 10
76.0306452134
 20
99.5938096869
 10
76.0337893837
 20
99.3462742906
 10
76.0357653662
 20
99.1103300889
 10
76.0368426745
 20
98.8866885932
 10
76.0372153977
 20
98.6759742821
1001
ACAD
1000
RTMaterial
1005
185D
  0
LWPOLYLINE
  5
16E8
100
AcDbEntity
  8
0
  6
CONTINUOUS
 62
           9
100
AcDbPolyline
 90
       46
 70
           0
 10
74.8166931788
 20
98.6759742821
 10
74.8123232738
 20
98.79870153
 10
74.7997544368
 20
98.9172486924
 10
74.7796269266
 20
99.0320045893
 10
74.752442866
 20
99.1431153217
 10
74.7186678454
 20
99.2504821839
 10
74.6786176814
 20
99.354241759
 10
74.6323674938
 20
99.4547921181
 10
74.5801472464
 20
99.5519317482
 10
74.5219000444
 20
99.6458763545
 10
74.4572814141
 20
99.7370082212
 10
74.3860226332
 20
99.8253341423
 10
74.3078478131
 20
99.910736148
 10
74.2222558692
 20
99.9931499079
 10
74.1295654612
 20
100.0715523817
 10
74.0309809031
 20
100.1443609555
 10
73.9242209882
 20
100.2120816789
 10
73.7989764778
 20
100.279893446
 10
73.6573162235
 20
100.3452939918
 10
73.5222776146
 20
100.3962532384
 10
73.3909300174
 20
100.4346504419
 10
73.2553669566
 20
100.4634611722
 10
73.1180111298
 20
100.4819609316
 10
72.9805071149
 20
100.4899607933
 10
72.8433372278
 20
100.4875393679
 10
72.706927806
 20
100.474784376
 10
72.5715935667
 20
100.4517192032
 10
72.4386720301
 20
100.4185708982
 10
72.3109643316
 20
100.3763476045
 10
72.1900836375
 20
100.3262945643
 10
72.076012934
 20
100.2692183847
 10
71.9682712783
 20
100.2055515138
 10
71.8664391245
 20
100.1355242653
 10
71.7703603877
 20
100.0593442439
 10
71.6799082498
 20
99.9770833502
 10
71.5950136173
 20
99.8886879987
 10
71.5156153843
 20
99.7938931127
 10
71.4417766549
 20
99.6922922502
 10
71.3738603321
 20
99.5835890506
 10
71.3124861547
 20
99.4676669079
 10
71.2585772784
 20
99.3449129734
 10
71.2133066479
 20
99.2166866196
 10
71.1775418133
 20
99.0844939733
 10
71.1517737166
 20
98.9495824546
 10
71.1362635738
 20
98.8131156581
 10
71.13109097
 20
98.6759742821
1001
ACAD
1000
RTMaterial
1005
185D
  0
LWPOLYLINE
  5
16E9
100
AcDbEntity
  8
0
  6
CONTINUOUS
 62
           9
100
AcDbPolyline
 90
       15
 70
           0
 10
76.0372153977
 20
98.6759742821
 10
76.0368447681
 20
98.4658969367
 10
76.0357740054
 20
98.2429660495
 10
76.0338115028
 20
98.0078006381
 10
76.0306896774
 20
97.7611037748
 10
76.0262268676
 20
97.5050017262
 10
76.0202439926
 20
97.2416345519
 10
76.0123422246
 20
96.9697422863
 10
76.0022586876
 20
96.6889797506
 10
75.9895533634
 20
96.3942396073
 10
75.9739555828
 20
96.0764721642
 10
75.9573221156
 20
95.7716351374
 10
75.941253108
 20
95.5027067802
 10
75.9254654718
 20
95.2661957694
 10
75.9093813533
 20
95.0547824123
1001
ACAD
1000
RTMaterial
1005
185D
  0
LWPOLYLINE
  5
16EA
100
AcDbEntity
  8
0
  6
CONTINUOUS
 62
           9
100
AcDbPolyline
 90
       18
 70
           0
 10
75.9093813533
 20
95.0547824123
 10
75.8799988762
 20
94.6998179656
 10
75.8673446281
 20
94.5485631574
 10
75.8575947245
 20
94.4135256257
 10
75.8525690125
 20
94.2924332948
 10
75.8484520347
 20
94.1828559575
 10
75.8405319779
 20
94.0853393681
 10
75.8293723768
 20
93.9985856379
 10
75.8148498972
 20
93.9193113838
 10
75.796019469
 20
93.8441016455
 10
75.7742618718
 20
93.7701463311
 10
75.7560841247
 20
93.6963858914
 10
75.7413966964
 20
93.6196842035
 10
75.7287946742
 20
93.5366920113
 10
75.7175944029
 20
93.4452020451
 10
75.7078501032
 20
93.3445594139
 10
75.696755248
 20
93.2332936293
 10
75.6831131439
 20
93.1106636226
1001
ACAD
1000
RTMaterial
1005
185D
  0
LINE
  5
16EB
100
AcDbEntity
  8
0
  6
CONTINUOUS
 62
           9
100
AcDbLine
 10
75.6831131439
 20
93.1106636226
 30
0.0
 11
75.6507383223
 21
92.8312322447
 31
0.0
1001
ACAD
1000
RTMaterial
1005
185D
  0
LWPOLYLINE
  5
16EC
100
AcDbEntity
  8
0
  6
CONTINUOUS
 62
           9
100
AcDbPolyline
 90
        6
 70
           0
 10
75.6507383223
 20
92.8312322447
 10
75.6115392847
 20
92.4976286472
 10
75.5889158172
 20
92.3070537869
 10
75.562711711
 20
92.0939806549
 10
75.5316046256
 20
91.873329171
 10
75.4642006493
 20
91.4211030517
1001
ACAD
1000
RTMaterial
1005
185D
  0
LINE
  5
16F8
100
AcDbEntity
  8
0
  6
CONTINUOUS
 62
           7
100
AcDbLine
 10
24.3294411232
 20
119.6759742821
 30
0.0
 11
83.5822950996
 21
119.6759742821
 31
0.0
1001
ACAD
1000
RTMaterial
1005
185D
  0
LWPOLYLINE
  5
1700
100
AcDbEntity
  8
0
  6
CONTINUOUS
 62
           9
100
AcDbPolyline
 90
        3
 70
           0
 10
75.5487993231
 20
105.3632052714
 10
75.5796150534
 20
105.1215917955
 10
75.6057456648
 20
104.9034441363
1001
ACAD
1000
RTMaterial
1005
185D
  0
LINE
  5
1701
100
AcDbEntity
  8
0
  6
CONTINUOUS
 62
           9
100
AcDbLine
 10
75.6057456648
 20
104.9034441363
 30
0.0
 11
75.648477814
 21
104.5400807224
 31
0.0
1001
ACAD
1000
RTMaterial
1005
185D
  0
LWPOLYLINE
  5
1702
100
AcDbEntity
  8
0
  6
CONTINUOUS
 62
           9
100
AcDbPolyline
 90
       17
 70
           0
 10
75.648477814
 20
104.5400807224
 10
75.6823503223
 20
104.2479131694
 10
75.6963078284
 20
104.1228940495
 10
75.7075558047
 20
104.0105104971
 10
75.7173249693
 20
103.9092394955
 10
75.7285339644
 20
103.8171625613
 10
75.7411543472
 20
103.733708067
 10
75.7558344957
 20
103.6567158489
 10
75.7740047123
 20
103.5827373444
 10
75.7958123407
 20
103.5085712111
 10
75.8147390636
 20
103.4331524941
 10
75.8293242163
 20
103.3536742624
 10
75.8405237004
 20
103.2666881169
 10
75.8484646734
 20
103.1688778942
 10
75.8525853854
 20
103.0589378866
 10
75.8576492951
 20
102.9374388916
 10
75.867445083
 20
102.8021885471
1001
ACAD
1000
RTMaterial
1005
185D
  0
LINE
  5
1703
100
AcDbEntity
  8
0
  6
CONTINUOUS
 62
           9
100
AcDbLine
 10
77.8300561834
 20
104.189588505
 30
0.0
 11
77.848968126
 21
103.988105775
 31
0.0
1001
ACAD
1000
RTMaterial
1005
185D
  0
LINE
  5
1704
100
AcDbEntity
  8
0
  6
CONTINUOUS
 62
           9
100
AcDbLine
 10
77.848968126
 20
103.988105775
 30
0.0
 11
77.863523356
 21
103.8279909668
 31
0.0
1001
ACAD
1000
RTMaterial
1005
185D
  0
LINE
  5
1705
100
AcDbEntity
  8
0
  6
CONTINUOUS
 62
           9
100
AcDbLine
 10
77.863523356
 20
103.8279909668
 30
0.0
 11
77.8818511656
 21
103.6215178572
 31
0.0
1001
ACAD
1000
RTMaterial
1005
185D
  0
LINE
  5
1706
100
AcDbEntity
  8
0
  6
CONTINUOUS
 62
           9
100
AcDbLine
 10
77.8818511656
 20
103.6215178572
 30
0.0
 11
77.8960134636
 21
103.4581684556
 31
0.0
1001
ACAD
1000
RTMaterial
1005
185D
  0
LWPOLYLINE
  5
1707
100
AcDbEntity
  8
0
  6
CONTINUOUS
 62
           9
100
AcDbPolyline
 90
       15
 70
           0
 10
77.8960134636
 20
103.4581684556
 10
77.9141019599
 20
103.2415817544
 10
77.9243843628
 20
103.1133648705
 10
77.9352428473
 20
102.9736049555
 10
77.9468426908
 20
102.8191718314
 10
77.9591802928
 20
102.6485353976
 10
77.9722498281
 20
102.4597112221
 10
77.9863145636
 20
102.2458437404
 10
78.0011601851
 20
102.0057529633
 10
78.0168284347
 20
101.7324605185
 10
78.0331169929
 20
101.4202660793
 10
78.0484908246
 20
101.0896898791
 10
78.0610938094
 20
100.7813128826
 10
78.0715249597
 20
100.4876742621
 10
78.0801688543
 20
100.2028349894
1001
ACAD
1000
RTMaterial
1005
185D
  0
LWPOLYLINE
  5
1708
100
AcDbEntity
  8
0
  6
CONTINUOUS
 62
           9
100
AcDbPolyline
 90
        7
 70
           0
 10
78.0816705342
 20
100.1477832893
 10
78.0882300269
 20
99.8785225316
 10
78.0933577288
 20
99.6162147995
 10
78.097118699
 20
99.3631864332
 10
78.0996192039
 20
99.1216203039
 10
78.1010061941
 20
98.8923120134
 10
78.1014346089
 20
98.6759742827
1001
ACAD
1000
RTMaterial
1005
185D
  0
LWPOLYLINE
  5
1709
100
AcDbEntity
  8
0
  6
CONTINUOUS
 62
           9
100
AcDbPolyline
 90
        7
 70
           0
 10
78.1014346089
 20
98.6759742827
 10
78.1010062005
 20
98.45963819
 10
78.0996192301
 20
98.2303314546
 10
78.0971187597
 20
97.9887669539
 10
78.0933579355
 20
97.7357457465
 10
78.0882302051
 20
97.4734343177
 10
78.0816705581
 20
97.2041655478
1001
ACAD
1000
RTMaterial
1005
185D
  0
LWPOLYLINE
  5
170A
100
AcDbEntity
  8
0
  6
CONTINUOUS
 62
           9
100
AcDbPolyline
 90
       14
 70
           0
 10
78.0801688446
 20
97.14911401
 10
78.0715542969
 20
96.8651662087
 10
78.061162311
 20
96.5724325096
 10
78.0486141723
 20
96.2650899686
 10
78.0333207604
 20
95.9358085695
 10
78.0170029559
 20
95.6226670366
 10
78.0012385957
 20
95.3475085813
 10
77.9862987146
 20
95.1058568541
 10
77.9721390979
 20
94.8905996549
 10
77.9589775783
 20
94.7005522686
 10
77.9465722859
 20
94.5291132114
 10
77.9349586784
 20
94.3746279311
 10
77.9241268402
 20
94.2353239216
 10
77.9138872303
 20
94.1077317787
1001
ACAD
1000
RTMaterial
1005
185D
  0
LINE
  5
170B
100
AcDbEntity
  8
0
  6
CONTINUOUS
 62
           9
100
AcDbLine
 10
77.9138872303
 20
94.1077317787
 30
0.0
 11
77.8958902949
 21
93.8923389547
 31
0.0
1001
ACAD
1000
RTMaterial
1005
185D
  0
LINE
  5
170C
100
AcDbEntity
  8
0
  6
CONTINUOUS
 62
           9
100
AcDbLine
 10
77.8958902949
 20
93.8923389547
 30
0.0
 11
77.8817904538
 21
93.729738233
 31
0.0
1001
ACAD
1000
RTMaterial
1005
185D
  0
LINE
  5
170D
100
AcDbEntity
  8
0
  6
CONTINUOUS
 62
           9
100
AcDbLine
 10
77.8817904538
 20
93.729738233
 30
0.0
 11
77.8635193311
 21
93.5239135507
 31
0.0
1001
ACAD
1000
RTMaterial
1005
185D
  0
LINE
  5
170E
100
AcDbEntity
  8
0
  6
CONTINUOUS
 62
           9
100
AcDbLine
 10
77.8635193311
 20
93.5239135507
 30
0.0
 11
77.849018356
 21
93.3643881132
 31
0.0
1001
ACAD
1000
RTMaterial
1005
185D
  0
LWPOLYLINE
  5
170F
100
AcDbEntity
  8
0
  6
CONTINUOUS
 62
           9
100
AcDbPolyline
 90
       22
 70
           0
 10
77.849018356
 20
93.3643881132
 10
77.8302053668
 20
93.1639196616
 10
77.8189088917
 20
93.0470856697
 10
77.8062590099
 20
92.9191218466
 10
77.7921383653
 20
92.7795752961
 10
77.7763792538
 20
92.6276631396
 10
77.7586250228
 20
92.4610163981
 10
77.7386327296
 20
92.2786423835
 10
77.7160169575
 20
92.0785438749
 10
77.6899886558
 20
91.8556752319
 10
77.6625048507
 20
91.6280309421
 10
77.6344587653
 20
91.4028319488
 10
77.6033522585
 20
91.1607316536
 10
77.5671418096
 20
90.8881695334
 10
77.5311874872
 20
90.626476067
 10
77.498624977
 20
90.3964640508
 10
77.4688044707
 20
90.1911849959
 10
77.441663902
 20
90.0085412329
 10
77.4167663573
 20
89.8442722593
 10
77.3938548138
 20
89.6956261579
 10
77.3726804896
 20
89.5603316703
 10
77.3530574138
 20
89.4368893667
1001
ACAD
1000
RTMaterial
1005
185D
  0
LWPOLYLINE
  5
1710
100
AcDbEntity
  8
0
  6
CONTINUOUS
 62
           9
100
AcDbPolyline
 90
       10
 70
           0
 10
75.4642006493
 20
91.4211030517
 10
75.4246145293
 20
91.157048076
 10
75.3857241727
 20
90.9014832373
 10
75.3509056249
 20
90.6763220916
 10
75.319348381
 20
90.4754771773
 10
75.2908732102
 20
90.2969354932
 10
75.2649059871
 20
90.136407546
 10
75.2410853634
 20
89.9910117616
 10
75.2191795968
 20
89.8588342841
 10
75.1990552463
 20
89.7388306541
1001
ACAD
1000
RTMaterial
1005
185D
  0
LWPOLYLINE
  5
1711
100
AcDbEntity
  8
0
  6
CONTINUOUS
 62
           9
100
AcDbPolyline
 90
       32
 70
           0
 10
77.3530574138
 20
89.4368893667
 10
77.3185581986
 20
89.22327252
 10
77.3036331704
 20
89.1318342452
 10
77.2878278717
 20
89.0403288879
 10
77.264829095
 20
88.9254545265
 10
77.2351183421
 20
88.7997577575
 10
77.1986492035
 20
88.6654384319
 10
77.152786351
 20
88.518529882
 10
77.094207407
 20
88.3549329624
 10
77.0196069323
 20
88.173634538
 10
76.9255463402
 20
87.9751069934
 10
76.810179407
 20
87.7639003949
 10
76.674739497
 20
87.548583993
 10
76.5245208845
 20
87.3403049698
 10
76.3612101308
 20
87.141772151
 10
76.1858449065
 20
86.954110266
 10
75.9987377935
 20
86.7775847432
 10
75.800102215
 20
86.6126224672
 10
75.5913360208
 20
86.4604128982
 10
75.3728433127
 20
86.3212752081
 10
75.1458607076
 20
86.1961560774
 10
74.9112918229
 20
86.0855531386
 10
74.6705873074
 20
85.9901102783
 10
74.4282929078
 20
85.9111978113
 10
74.1934886683
 20
85.850206151
 10
73.9776598242
 20
85.8069992106
 10
73.7862185466
 20
85.778665537
 10
73.618576235
 20
85.7614529584
 10
73.472701214
 20
85.7520839622
 10
73.344764836
 20
85.7484441317
 10
73.2563692178
 20
85.7479941114
 10
72.8014071762
 20
85.7476883609
1001
ACAD
1000
RTMaterial
1005
185D
  0
LWPOLYLINE
  5
1712
100
AcDbEntity
  8
0
  6
CONTINUOUS
 62
           9
100
AcDbPolyline
 90
       31
 70
           0
 10
75.1990552463
 20
89.7388306541
 10
75.1478662464
 20
89.4388658487
 10
75.1344838697
 20
89.3625069815
 10
75.1239316849
 20
89.3068781155
 10
75.1114607517
 20
89.2514160297
 10
75.096030111
 20
89.1922225487
 10
75.0765299475
 20
89.1273910711
 10
75.0514145317
 20
89.0549046207
 10
75.019143479
 20
88.9741145551
 10
74.978168955
 20
88.8852885265
 10
74.9274443838
 20
88.7901546528
 10
74.8672321591
 20
88.6923484307
 10
74.7999775317
 20
88.5972889229
 10
74.7265745358
 20
88.5065176134
 10
74.6468492316
 20
88.4199107853
 10
74.5616024922
 20
88.3383870165
 10
74.4712457388
 20
88.2624505847
 10
74.3752196305
 20
88.1917143665
 10
74.2746895818
 20
88.1271236353
 10
74.170424742
 20
88.0692361109
 10
74.0622818506
 20
88.0179671937
 10
73.9512065334
 20
87.9737743732
 10
73.8392567674
 20
87.937293498
 10
73.7306747829
 20
87.9091882508
 10
73.6307547572
 20
87.8893801713
 10
73.5421164884
 20
87.8765230076
 10
73.4649969789
 20
87.8688866219
 10
73.396740886
 20
87.8648256137
 10
73.3347516313
 20
87.8634084933
 10
73.2574772893
 20
87.8629058551
 10
73.0975500544
 20
87.8622086005
1001
ACAD
1000
RTMaterial
1005
185D
  0
LWPOLYLINE
  5
1713
100
AcDbEntity
  8
0
  6
CONTINUOUS
 62
           7
100
AcDbPolyline
 90
       16
 70
           0
 10
80.0421238115
 20
99.776089679
 10
80.0373790816
 20
99.7619293695
 10
80.025925726
 20
99.7186749343
 10
80.0151424215
 20
99.6685685342
 10
80.0050642076
 20
99.611962074
 10
79.9957121964
 20
99.5491358887
 10
79.9871357416
 20
99.4805873584
 10
79.9793405603
 20
99.4065054919
 10
79.9723749884
 20
99.3274741481
 10
79.9662542991
 20
99.243789671
 10
79.9610103429
 20
99.1559598459
 10
79.9566743321
 20
99.0645893535
 10
79.9532652411
 20
98.970103491
 10
79.9508153306
 20
98.8734344091
 10
79.9493359629
 20
98.775068095
 10
79.9488420476
 20
98.6759742822
1001
ACAD
1000
RTMaterial
1005
185D
  0
LINE
  5
1716
100
AcDbEntity
  8
0
  6
CONTINUOUS
 62
           9
100
AcDbLine
 10
75.1432524767
 20
107.9397234061
 30
0.0
 11
75.174623344
 21
107.7568210717
 31
0.0
1001
ACAD
1000
RTMaterial
1005
185D
  0
LWPOLYLINE
  5
1717
100
AcDbEntity
  8
0
  6
CONTINUOUS
 62
           9
100
AcDbPolyline
 90
       10
 70
           0
 10
75.174623344
 20
107.7568210717
 10
75.2122498149
 20
107.5346003139
 10
75.2333945615
 20
107.4075133693
 10
75.2563016045
 20
107.2682610365
 10
75.281131008
 20
107.1154936393
 10
75.3081188009
 20
106.9471927974
 10
75.3376893622
 20
106.7601144131
 10
75.3701318772
 20
106.5517480714
 10
75.4056818012
 20
106.3198134658
 10
75.4447224973
 20
106.0612528668
1001
ACAD
1000
RTMaterial
1005
185D
  0
LWPOLYLINE
  5
1718
100
AcDbEntity
  8
0
  6
CONTINUOUS
 62
           9
100
AcDbPolyline
 90
       22
 70
           0
 10
77.3137861681
 20
108.1582044742
 10
77.3471542671
 20
107.9518146845
 10
77.3662284104
 20
107.8324175691
 10
77.3867554359
 20
107.7019164437
 10
77.4088439874
 20
107.5593376221
 10
77.4327175614
 20
107.4027781726
 10
77.4585549783
 20
107.2301949049
 10
77.4866509105
 20
107.0385071314
 10
77.5171947034
 20
106.8250927072
 10
77.5502763259
 20
106.5875903507
 10
77.5861611698
 20
106.3218024339
 10
77.6192303175
 20
106.0686041942
 10
77.6483080988
 20
105.8387685451
 10
77.6772029517
 20
105.6030858519
 10
77.7069594904
 20
105.3518211582
 10
77.7330851289
 20
105.122979159
 10
77.7552441234
 20
104.9221547137
 10
77.7744557738
 20
104.7425639741
 10
77.7911294006
 20
104.5822173787
 10
77.8057595073
 20
104.4378209586
 10
77.8186552812
 20
104.307457285
 10
77.8300561834
 20
104.189588505
1001
ACAD
1000
RTMaterial
1005
185D
  0
LINE
  5
1719
100
AcDbEntity
  8
0
  6
CONTINUOUS
 62
           9
100
AcDbLine
 10
75.4447224973
 20
106.0612528668
 30
0.0
 11
75.5487993231
 21
105.3632052714
 31
0.0
1001
ACAD
1000
RTMaterial
1005
185D
  0
LWPOLYLINE
  5
171A
100
AcDbEntity
  8
0
  6
CONTINUOUS
 62
           7
100
AcDbPolyline
 90
       16
 70
           0
 10
79.9488420476
 20
98.6759742822
 10
79.9493365954
 20
98.5768171689
 10
79.9508196577
 20
98.4782995488
 10
79.9532774023
 20
98.3814484755
 10
79.9566984334
 20
98.2867814152
 10
79.9610492793
 20
98.1952609334
 10
79.9663082117
 20
98.1073459179
 10
79.9724434488
 20
98.0236238745
 10
79.9794209604
 20
97.9446095833
 10
79.9872251577
 20
97.8705827878
 10
79.9958062466
 20
97.802123786
 10
80.0051568774
 20
97.7394171395
 10
80.0152262998
 20
97.6829510466
 10
80.0259912782
 20
97.6329983855
 10
80.0374218516
 20
97.5898750182
 10
80.0421225222
 20
97.5758557171
1001
ACAD
1000
RTMaterial
1005
185D
  0
LWPOLYLINE
  5
171B
100
AcDbEntity
  8
0
  6
CONTINUOUS
 62
           9
100
AcDbPolyline
 90
       37
 70
           0
 10
80.8485059013
 20
98.6759742821
 10
80.8465631391
 20
99.1562600924
 10
80.8407980154
 20
99.6366163671
 10
80.8312114931
 20
100.1168520103
 10
80.817804909
 20
100.5969258709
 10
80.80057874
 20
101.0768313083
 10
80.7795323446
 20
101.5565923436
 10
80.754665472
 20
102.0362125658
 10
80.7259795385
 20
102.5156588354
 10
80.693476935
 20
102.9948854686
 10
80.6571601488
 20
103.4738538245
 10
80.6170367012
 20
103.9524741073
 10
80.5731166416
 20
104.430650612
 10
80.5254049691
 20
104.908357335
 10
80.4739046514
 20
105.3855893447
 10
80.4186214538
 20
105.8623163142
 10
80.3595625848
 20
106.33849684
 10
80.2967348188
 20
106.814095367
 10
80.2301405771
 20
107.2891094308
 10
80.1597896055
 20
107.7634862115
 10
80.0856459251
 20
108.2374632299
 10
80.0077914224
 20
108.7105285861
 10
79.930405068
 20
109.1590624937
 10
79.8587153022
 20
109.5576198358
 10
79.7935080515
 20
109.9074769459
 10
79.7341379466
 20
110.2164835602
 10
79.680005913
 20
110.4909319348
 10
79.6305844714
 20
110.7358369563
 10
79.5854074152
 20
110.9552663895
 10
79.5440613454
 20
111.1525681721
 10
79.5061794796
 20
111.3305243286
 10
79.47143559
 20
111.4914645625
 10
79.439539567
 20
111.6373747905
 10
79.4102333442
 20
111.7699585452
 10
79.3832887134
 20
111.8906126928
 10
79.3584737691
 20
112.0006693539
 10
79.3148599678
 20
112.1918200619
1001
ACAD
1000
RTMaterial
1005
185D
  0
LWPOLYLINE
  5
171C
100
AcDbEntity
  8
0
  6
CONTINUOUS
 62
           9
100
AcDbPolyline
 90
       48
 70
           0
 10
80.5578139013
 20
98.6759742821
 10
80.5569719781
 20
98.8978883441
 10
80.5555089797
 20
99.0979101471
 10
80.5536140111
 20
99.2786059792
 10
80.5514407095
 20
99.4414159667
 10
80.549083299
 20
99.589317676
 10
80.5465301906
 20
99.7285786547
 10
80.543693577
 20
99.8660679047
 10
80.540390652
 20
100.0099080186
 10
80.5363403658
 20
100.1688398777
 10
80.5312786352
 20
100.3475978887
 10
80.5250431924
 20
100.5456210855
 10
80.5173575107
 20
100.7652034098
 10
80.5078054034
 20
101.0108004906
 10
80.4958316997
 20
101.2877444049
 10
80.4807784299
 20
101.6002988951
 10
80.4617190823
 20
101.9549065667
 10
80.4373337342
 20
102.3604422255
 10
80.4063199011
 20
102.8205688469
 10
80.3701804382
 20
103.3005297683
 10
80.3302169116
 20
103.7798763794
 10
80.2864141506
 20
104.2587603577
 10
80.2387252243
 20
104.73773448
 10
80.1872356014
 20
105.2159710173
 10
80.1319182787
 20
105.6937136773
 10
80.0726701957
 20
106.1717622475
 10
80.0095637569
 20
106.6495256723
 10
79.942670027
 20
107.1264879188
 10
79.8743529931
 20
107.5871404988
 10
79.8112827555
 20
107.9920572374
 10
79.7537481139
 20
108.3465164162
 10
79.7012375221
 20
108.6589211193
 10
79.6532631768
 20
108.9359157217
 10
79.6093773787
 20
109.1828124537
 10
79.5698368145
 20
109.4003155157
 10
79.5342746268
 20
109.5921669492
 10
79.4991977027
 20
109.7780879972
 10
79.460887602
 20
109.9775808895
 10
79.4167471036
 20
110.2030663262
 10
79.3673982892
 20
110.4499380326
 10
79.3189407014
 20
110.687297244
 10
79.2754821216
 20
110.8961201097
 10
79.2364741278
 20
111.0804815547
 10
79.2012993668
 20
111.2444159538
 10
79.1694066133
 20
111.3912156765
 10
79.1403470334
 20
111.5233684761
 10
79.1137666183
 20
111.6428456339
 10
79.0674706045
 20
111.8491800976
1001
ACAD
1000
RTMaterial
1005
185D
  0
LWPOLYLINE
  5
171D
100
AcDbEntity
  8
0
  6
CONTINUOUS
 62
           9
100
AcDbPolyline
 90
       46
 70
           0
 10
80.5578139013
 20
98.6759742821
 10
80.5569723169
 20
98.4541202371
 10
80.5555094635
 20
98.25409228
 10
80.5536145907
 20
98.0733909169
 10
80.5514413488
 20
97.9105760738
 10
80.5490839848
 20
97.7626708247
 10
80.5465309363
 20
97.6234081655
 10
80.5436944192
 20
97.4859193456
 10
80.5403916525
 20
97.3420819612
 10
80.5363415975
 20
97.1831546235
 10
80.5312801552
 20
97.0044016493
 10
80.5250450557
 20
96.8063836773
 10
80.5173598058
 20
96.5868074482
 10
80.5078082487
 20
96.3412175838
 10
80.4958352453
 20
96.0642820076
 10
80.4807828922
 20
95.7517375519
 10
80.461724736
 20
95.3971416707
 10
80.4373408782
 20
94.9916187739
 10
80.4063285307
 20
94.5315008107
 10
80.3701901999
 20
94.0515418475
 10
80.3302275744
 20
93.5721941596
 10
80.2864257338
 20
93.0933094762
 10
80.2387376923
 20
92.6143344177
 10
80.1872489435
 20
92.1360969685
 10
80.1319325077
 20
91.6583536008
 10
80.072685323
 20
91.1803044886
 10
80.0095797447
 20
90.7025403074
 10
79.9426864893
 20
90.2255746965
 10
79.8743687744
 20
89.7649117055
 10
79.8112971413
 20
89.3599816597
 10
79.7537612012
 20
89.0055112825
 10
79.7012494298
 20
88.6930971657
 10
79.6532739948
 20
88.4160944482
 10
79.6093871627
 20
88.169190497
 10
79.5698455523
 20
87.9516806169
 10
79.5342828053
 20
87.7598253411
 10
79.4992061482
 20
87.5739049486
 10
79.4608970598
 20
87.3744164808
 10
79.4167577355
 20
87.1489360075
 10
79.367409183
 20
86.9020644453
 10
79.3189507866
 20
86.6647002167
 10
79.2754911929
 20
86.4558716578
 10
79.2364822773
 20
86.2715052389
 10
79.201306676
 20
86.107566455
 10
79.1694132032
 20
85.9607630353
 10
79.1403530072
 20
85.8286070862
1001
ACAD
1000
RTMaterial
1005
185D
  0
LWPOLYLINE
  5
171E
100
AcDbEntity
  8
0
  6
CONTINUOUS
 62
           9
100
AcDbPolyline
 90
       35
 70
           0
 10
80.8485059013
 20
98.6759742821
 10
80.8465507584
 20
98.1941476887
 10
80.8407494856
 20
97.7123003592
 10
80.8311030573
 20
97.230574838
 10
80.8176128175
 20
96.7490122767
 10
80.8002792349
 20
96.2676190318
 10
80.7791016622
 20
95.7863708994
 10
80.7540798641
 20
95.3052647886
 10
80.7252152972
 20
94.8243346021
 10
80.6925103841
 20
94.3436264825
 10
80.6559677103
 20
93.8631801129
 10
80.6155949786
 20
93.3830869035
 10
80.5714022878
 20
92.9034422618
 10
80.5233945455
 20
92.4242708377
 10
80.4715747754
 20
91.9455777993
 10
80.4159488863
 20
91.4673945491
 10
80.3565241733
 20
90.9897629419
 10
80.2933073569
 20
90.5127179131
 10
80.2263009251
 20
90.0362622218
 10
80.1555139066
 20
89.56044379
 10
80.0809148518
 20
89.0850547435
 10
80.0027094641
 20
88.6113338629
 10
79.9252928729
 20
88.1639489048
 10
79.8538262752
 20
87.7676953403
 10
79.7888723955
 20
87.4200278701
 10
79.7297399543
 20
87.1129148937
 10
79.6758342889
 20
86.8401407451
 10
79.6266281235
 20
86.5967293994
 10
79.581655716
 20
86.378643115
 10
79.540504102
 20
86.1825570615
 10
79.5028069098
 20
86.0057077727
 10
79.4682381793
 20
85.8457794465
 10
79.4365091692
 20
85.700799255
 10
79.4073618409
 20
85.5690745393
 10
79.3805662546
 20
85.4492125448
1001
ACAD
1000
RTMaterial
1005
185D
  0
LWPOLYLINE
  5
171F
100
AcDbEntity
  8
0
  6
CONTINUOUS
 62
           7
100
AcDbPolyline
 90
       20
 70
           0
 10
79.825058539
 20
98.6759742822
 10
79.8255530061
 20
98.7751409414
 10
79.8270355854
 20
98.8736557508
 10
79.829492572
 20
98.9705075949
 10
79.8329124274
 20
99.0651721961
 10
79.8372613611
 20
99.1566823793
 10
79.8425185561
 20
99.2445969994
 10
79.8486511669
 20
99.3283100154
 10
79.855626642
 20
99.4073257658
 10
79.8634282566
 20
99.4813497674
 10
79.87200683
 20
99.5498077963
 10
79.8813553061
 20
99.6125162676
 10
79.8914218879
 20
99.6689801952
 10
79.9021851826
 20
99.7189363884
 10
79.9136140219
 20
99.7620620441
 10
79.9256527976
 20
99.7979729515
 10
79.9382677719
 20
99.826387527
 10
79.9513407852
 20
99.8469001648
 10
79.96480805
 20
99.8593206317
 10
79.9785437903
 20
99.8634742822
1001
ACAD
1000
RTMaterial
1005
185D
  0
LWPOLYLINE
  5
1720
100
AcDbEntity
  8
0
  6
CONTINUOUS
 62
           7
100
AcDbPolyline
 90
       20
 70
           0
 10
80.1555946538
 20
98.6759742821
 10
80.1549500672
 20
98.5778949661
 10
80.1530203814
 20
98.4804091425
 10
80.1498284272
 20
98.384379233
 10
80.1453954109
 20
98.2902127324
 10
80.139772948
 20
98.1987884952
 10
80.1330024899
 20
98.1105541735
 10
80.1251501729
 20
98.0261912313
 10
80.1162930263
 20
97.9463258588
 10
80.1064934741
 20
97.8713630509
 10
80.0958624923
 20
97.801999802
 10
80.0844640328
 20
97.7385244932
 10
80.0724219705
 20
97.6815232099
 10
80.0598215929
 20
97.631301192
 10
80.0467648657
 20
97.5882054831
 10
80.0333715021
 20
97.5525758691
 10
80.0197232541
 20
97.5245983179
 10
80.0059729442
 20
97.504546196
 10
79.9922013839
 20
97.4924847037
 10
79.9785437903
 20
97.4884742822
1001
ACAD
1000
RTMaterial
1005
185D
  0
LWPOLYLINE
  5
173D
100
AcDbEntity
  8
0
  6
CONTINUOUS
 62
           9
100
AcDbPolyline
 90
       37
 70
           0
 10
79.4550687872
 20
85.8183414734
 10
79.4817718941
 20
85.9413674836
 10
79.510824882
 20
86.076652918
 10
79.5424869659
 20
86.2258418645
 10
79.5765225259
 20
86.388322952
 10
79.6127784456
 20
86.5639019917
 10
79.6520236996
 20
86.7569926297
 10
79.6949021307
 20
86.9717469293
 10
79.741972837
 20
87.2123096128
 10
79.7926710812
 20
87.477405678
 10
79.8452471075
 20
87.7593569302
 10
79.9013403696
 20
88.0687073106
 10
79.9630551808
 20
88.4201754349
 10
80.0310700028
 20
88.8224589613
 10
80.1053034599
 20
89.2816975493
 10
80.178593902
 20
89.758843368
 10
80.2481044904
 20
90.2368149223
 10
80.3137621826
 20
90.7151143389
 10
80.3756009747
 20
91.193977663
 10
80.4336083687
 20
91.6733090699
 10
80.4877736127
 20
92.1530072088
 10
80.5381074101
 20
92.6331659414
 10
80.5846064849
 20
93.1137675161
 10
80.6272649837
 20
93.5947602613
 10
80.6660759975
 20
94.0760644854
 10
80.7010353463
 20
94.557626512
 10
80.7321452497
 20
95.0394787475
 10
80.7594111064
 20
95.5217295878
 10
80.7828405367
 20
96.0046570667
 10
80.8015084364
 20
96.4633518391
 10
80.81502747
 20
96.8662949692
 10
80.8246561965
 20
97.2192584035
 10
80.8314272382
 20
97.5301722508
 10
80.836042431
 20
97.8024397981
 10
80.8393344998
 20
98.0654094677
 10
80.8416134824
 20
98.3511300555
 10
80.8425628694
 20
98.6759742821
1001
ACAD
1000
RTMaterial
1005
185D
  0
LINE
  5
173E
100
AcDbEntity
  8
0
  6
CONTINUOUS
 62
           9
100
AcDbLine
 10
79.4078642814
 20
85.6037866263
 30
0.0
 11
79.4550687872
 21
85.8183414734
 31
0.0
1001
ACAD
1000
RTMaterial
1005
185D
  0
LWPOLYLINE
  5
173F
100
AcDbEntity
  8
0
  6
CONTINUOUS
 62
           9
100
AcDbPolyline
 90
       79
 70
           0
 10
79.1403530072
 20
85.8286070862
 10
79.0895055439
 20
85.6008371767
 10
79.067475012
 20
85.5027879663
 10
79.04726208
 20
85.4143075948
 10
79.028459034
 20
85.334772537
 10
79.0108044479
 20
85.2646888985
 10
78.9919940687
 20
85.1948271531
 10
78.9710639674
 20
85.1219527277
 10
78.9489623158
 20
85.0499192821
 10
78.9254735662
 20
84.9780251503
 10
78.9007313426
 20
84.9067031788
 10
78.8746067395
 20
84.8355793854
 10
78.8471876331
 20
84.7649073131
 10
78.8184708096
 20
84.6946885781
 10
78.7885525379
 20
84.6251538806
 10
78.7573711638
 20
84.5561534319
 10
78.7249690359
 20
84.4877770791
 10
78.6914110828
 20
84.4201492464
 10
78.656573497
 20
84.353017542
 10
78.6205750402
 20
84.286613252
 10
78.5832878765
 20
84.2207071398
 10
78.5447555649
 20
84.1553915063
 10
78.5051977837
 20
84.0910302223
 10
78.4644931339
 20
84.0274116579
 10
78.4225262298
 20
83.9643653335
 10
78.3793861075
 20
83.9020376227
 10
78.3352655589
 20
83.8407001624
 10
78.2900226434
 20
83.7801471243
 10
78.2435880908
 20
83.7202933686
 10
78.1961491748
 20
83.6613823614
 10
78.1477025175
 20
83.6034023701
 10
78.0981775105
 20
83.5462678707
 10
78.0476128132
 20
83.4900255901
 10
77.9960599064
 20
83.4347318765
 10
77.943536785
 20
83.3804052807
 10
77.8900643594
 20
83.3270662797
 10
77.8356841495
 20
83.2747534565
 10
77.7803351594
 20
83.2234076292
 10
77.7240094373
 20
83.173025087
 10
77.6668379615
 20
83.1237225145
 10
77.6088131504
 20
83.0754889552
 10
77.5498155879
 20
83.0282272028
 10
77.4899519902
 20
82.982026654
 10
77.4293732169
 20
82.9370015335
 10
77.3679707562
 20
82.8930692085
 10
77.3057509866
 20
82.8502368593
 10
77.2428867101
 20
82.8086207234
 10
77.1792307234
 20
82.7681209423
 10
77.1147250901
 20
82.7287063692
 10
77.0496150853
 20
82.6905274807
 10
76.9839087596
 20
82.6535818284
 10
76.9173710878
 20
82.6177393599
 10
76.8502120492
 20
82.5831176642
 10
76.782666438
 20
82.5498310188
 10
76.7143931146
 20
82.517708691
 10
76.6454398496
 20
82.4867812911
 10
76.5758901767
 20
82.4570910237
 10
76.5058706696
 20
82.4286917869
 10
76.4353984476
 20
82.4015875848
 10
76.3643812155
 20
82.3757426641
 10
76.2930769651
 20
82.3512474361
 10
76.2212976074
 20
82.3280339039
 10
76.1490505549
 20
82.3061072695
 10
76.0764490167
 20
82.2855028126
 10
76.0034347242
 20
82.2662041999
 10
75.9300914659
 20
82.2482346016
 10
75.8564825711
 20
82.2316085908
 10
75.7825848226
 20
82.2163199069
 10
75.7084098391
 20
82.2023712067
 10
75.6339824756
 20
82.1897674286
 10
75.5593263924
 20
82.1785126366
 10
75.4844507939
 20
82.1686079512
 10
75.4095838542
 20
82.1600808351
 10
75.3347563605
 20
82.1529306854
 10
75.2593291018
 20
82.1471047
 10
75.1835663937
 20
82.1426314317
 10
75.1099075057
 20
82.1395814286
 10
75.0428928193
 20
82.1380074156
 10
74.9847564472
 20
82.1374602314
1001
ACAD
1000
RTMaterial
1005
185D
  0
LINE
  5
1740
100
AcDbEntity
  8
0
  6
CONTINUOUS
 62
           9
100
AcDbLine
 10
79.3677840755
 20
85.424509008
 30
0.0
 11
79.4078642814
 21
85.6037866263
 31
0.0
1001
ACAD
1000
RTMaterial
1005
185D
  0
LWPOLYLINE
  5
1742
100
AcDbEntity
  8
0
  6
CONTINUOUS
 62
           9
100
AcDbPolyline
 90
       83
 70
           0
 10
79.3805662546
 20
85.4492125448
 10
79.3332751672
 20
85.2403405241
 10
79.3125859527
 20
85.1503276759
 10
79.2937216507
 20
85.0710643023
 10
79.2750890323
 20
84.9979566424
 10
79.2544305445
 20
84.9226591554
 10
79.2317593206
 20
84.8452624747
 10
79.2077702794
 20
84.7683120234
 10
79.1826844986
 20
84.6925117247
 10
79.1564419289
 20
84.6176286694
 10
79.1288749448
 20
84.5431557133
 10
79.0999587046
 20
84.4690327993
 10
79.0697324989
 20
84.3953689369
 10
79.0382504704
 20
84.3222961796
 10
79.0055515781
 20
84.2498987724
 10
78.9716417996
 20
84.1781819012
 10
78.936507746
 20
84.1071121867
 10
78.9001593247
 20
84.036705943
 10
78.862618789
 20
83.9670025816
 10
78.8238978454
 20
83.8980199057
 10
78.7840151154
 20
83.829786972
 10
78.7429968978
 20
83.7623437958
 10
78.7008470453
 20
83.6956920987
 10
78.6575646064
 20
83.6298267226
 10
78.6131739746
 20
83.5647818327
 10
78.5677041236
 20
83.500595851
 10
78.5211771767
 20
83.4372951294
 10
78.4735920756
 20
83.3748742999
 10
78.4249541331
 20
83.3133370413
 10
78.3752961252
 20
83.2527216903
 10
78.3246446967
 20
83.1930568442
 10
78.2730146365
 20
83.1343559014
 10
78.2204089411
 20
83.0766190142
 10
78.1668406938
 20
83.0198573435
 10
78.1123490882
 20
82.9641090657
 10
78.0569379785
 20
82.9093750338
 10
78.0007220715
 20
82.8557617588
 10
77.9433041501
 20
82.8028985176
 10
77.8856902193
 20
82.7516917053
 10
77.8284049269
 20
82.7025209264
 10
77.7695779544
 20
82.6537583184
 10
77.7093790968
 20
82.6055994386
 10
77.6485726524
 20
82.5586708485
 10
77.5872776757
 20
82.5130436214
 10
77.5255101133
 20
82.4687065291
 10
77.4621400582
 20
82.4248715004
 10
77.3974153616
 20
82.3817698595
 10
77.3324732697
 20
82.3401640591
 10
77.2671038474
 20
82.2998908628
 10
77.2010316299
 20
82.2607715787
 10
77.1343622836
 20
82.2228677414
 10
77.0671027355
 20
82.186180195
 10
76.9992672896
 20
82.1507141755
 10
76.9308905522
 20
82.1164849767
 10
76.8619905764
 20
82.0834989682
 10
76.7925533646
 20
82.0517476103
 10
76.7225973352
 20
82.0212378916
 10
76.652163165
 20
81.9919859691
 10
76.5812858333
 20
81.9640042399
 10
76.5100018491
 20
81.9373045954
 10
76.4383526534
 20
81.9118994751
 10
76.3663271393
 20
81.8877824363
 10
76.2938947184
 20
81.8649417171
 10
76.2210857498
 20
81.8433862575
 10
76.147945794
 20
81.8231284201
 10
76.0745103037
 20
81.8041762779
 10
76.0008111744
 20
81.7865360962
 10
75.9268757742
 20
81.7702124766
 10
75.8527092367
 20
81.7552048821
 10
75.7783277081
 20
81.741515046
 10
75.7037986256
 20
81.7291530612
 10
75.6290858506
 20
81.7181106811
 10
75.5541981468
 20
81.7083865586
 10
75.4787315739
 20
81.6999371985
 10
75.4069111939
 20
81.6931462412
 10
75.3433793458
 20
81.6881544122
 10
75.2876726938
 20
81.6845637255
 10
75.2388088471
 20
81.6820228324
 10
75.1919837888
 20
81.6801257593
 10
75.1410119902
 20
81.6786509813
 10
75.0858292535
 20
81.677722205
 10
75.0257952184
 20
81.6774181779
 10
35.7116843257
 20
81.6770247254
1001
ACAD
1000
RTMaterial
1005
185D
  0
LWPOLYLINE
  5
1746
100
AcDbEntity
  8
0
  6
CONTINUOUS
 62
           9
100
AcDbPolyline
 90
       80
 70
           0
 10
79.3148599678
 20
112.1918200619
 10
79.2959184509
 20
112.2718925021
 10
79.2774330849
 20
112.3450974731
 10
79.2570991725
 20
112.4198441092
 10
79.2347167439
 20
112.4968630877
 10
79.2109554247
 20
112.5736851895
 10
79.1860923292
 20
112.6493952309
 10
79.1600951355
 20
112.7241419922
 10
79.1327980989
 20
112.7984336329
 10
79.1041591774
 20
112.8723815509
 10
79.0742114121
 20
112.945891331
 10
79.0430084696
 20
113.0188303626
 10
79.0105922876
 20
113.0911058845
 10
78.9769732127
 20
113.1627029814
 10
78.9421383838
 20
113.2336542094
 10
78.9060942172
 20
113.3039504488
 10
78.8688621936
 20
113.3735534522
 10
78.8304548771
 20
113.4424435519
 10
78.7908893395
 20
113.510594147
 10
78.7501920848
 20
113.5779644761
 10
78.7083700944
 20
113.6445476473
 10
78.6654212412
 20
113.7103507644
 10
78.6213660804
 20
113.7753453271
 10
78.5762334581
 20
113.8394925677
 10
78.5300476996
 20
113.9027627394
 10
78.4828104705
 20
113.9651575822
 10
78.4345240828
 20
114.0266773661
 10
78.3852175544
 20
114.0872882427
 10
78.3349193435
 20
114.1469589795
 10
78.283646535
 20
114.2056733796
 10
78.2314030385
 20
114.2634302086
 10
78.1781984077
 20
114.3202221335
 10
78.1240697423
 20
114.3760128505
 10
78.0690198777
 20
114.4308023182
 10
78.0131769913
 20
114.4844701001
 10
77.9561433472
 20
114.5373909847
 10
77.8986966638
 20
114.5888533278
 10
77.8416285817
 20
114.6382275031
 10
77.7833656536
 20
114.6869148888
 10
77.7236175328
 20
114.7351136309
 10
77.6631180623
 20
114.7822053221
 10
77.6021259199
 20
114.8280033372
 10
77.5407413847
 20
114.8724588234
 10
77.4779697059
 20
114.9162809294
 10
77.4136972262
 20
114.9594920761
 10
77.3489980711
 20
115.001350625
 10
77.2839642331
 20
115.0418216564
 10
77.2182771035
 20
115.0811176304
 10
77.1519666669
 20
115.1192226937
 10
77.0850698671
 20
115.1561181073
 10
77.0175952936
 20
115.1918017613
 10
76.9495741581
 20
115.2262599178
 10
76.8810308909
 20
115.2594829813
 10
76.8119560657
 20
115.2914774322
 10
76.742358027
 20
115.3222409677
 10
76.6722731924
 20
115.3517589622
 10
76.6017380861
 20
115.3800179866
 10
76.5307879894
 20
115.4070062856
 10
76.459466632
 20
115.4327102181
 10
76.3877775536
 20
115.4571312298
 10
76.3156892499
 20
115.4802817498
 10
76.2432146483
 20
115.5021585083
 10
76.1703976221
 20
115.5227491531
 10
76.0972766757
 20
115.5420443643
 10
76.0238843547
 20
115.5600374658
 10
75.9502505102
 20
115.576723135
 10
75.8763852806
 20
115.5921007416
 10
75.8022971126
 20
115.6061700623
 10
75.728046589
 20
115.6189217173
 10
75.6536255268
 20
115.630359293
 10
75.5790566265
 20
115.6404826232
 10
75.5037182831
 20
115.6493632426
 10
75.4303979664
 20
115.6567154604
 10
75.3641199985
 20
115.6622694439
 10
75.3060072659
 20
115.6662843867
 10
75.2553330535
 20
115.669130451
 10
75.208591102
 20
115.6712102677
 10
75.1594808437
 20
115.672832939
 10
75.1060067751
 20
115.6739655253
 10
75.0481243527
 20
115.6744856257
1001
ACAD
1000
RTMaterial
1005
185D
  0
LWPOLYLINE
  5
1748
100
AcDbEntity
  8
0
  6
CONTINUOUS
 62
           9
100
AcDbPolyline
 90
       78
 70
           0
 10
79.0674706045
 20
111.8491800976
 10
79.0472580455
 20
111.9376584112
 10
79.0284552717
 20
112.0171914656
 10
79.0108007044
 20
112.0872740462
 10
78.9919900364
 20
112.1571359179
 10
78.9710596278
 20
112.2300104507
 10
78.9489577533
 20
112.3020436879
 10
78.9254687768
 20
112.3739376348
 10
78.9007263325
 20
112.4452594163
 10
78.8746015081
 20
112.5163830327
 10
78.847182197
 20
112.5870548951
 10
78.8184651821
 20
112.6572733983
 10
78.7885467255
 20
112.7268078624
 10
78.7573651709
 20
112.7958080802
 10
78.7249628681
 20
112.8641842018
 10
78.6914047381
 20
112.9318118192
 10
78.6565669785
 20
112.9989433101
 10
78.6205683524
 20
113.0653473874
 10
78.5832810155
 20
113.1312532989
 10
78.5447485553
 20
113.1965686972
 10
78.5051906357
 20
113.2609297395
 10
78.4644858414
 20
113.32454808
 10
78.4225187922
 20
113.3875941874
 10
78.3793785521
 20
113.4499216484
 10
78.3352578945
 20
113.511258856
 10
78.2900148551
 20
113.5718116693
 10
78.2435801941
 20
113.6316651859
 10
78.1961411858
 20
113.6905759418
 10
78.1476944331
 20
113.7485556931
 10
78.0981693319
 20
113.8056899578
 10
78.0476045506
 20
113.8619319987
 10
77.9960515684
 20
113.9172254699
 10
77.9435283775
 20
113.9715518234
 10
77.8900558898
 20
114.0248905812
 10
77.8356756202
 20
114.0772031653
 10
77.7803265679
 20
114.1285487614
 10
77.7240007942
 20
114.1789310683
 10
77.6668292806
 20
114.2282333997
 10
77.608804425
 20
114.2764667295
 10
77.5498068204
 20
114.3237282555
 10
77.4899432024
 20
114.3699285661
 10
77.4293644137
 20
114.4149534508
 10
77.3679619324
 20
114.4588855489
 10
77.3057421567
 20
114.501717666
 10
77.2428778782
 20
114.5433335732
 10
77.1792218771
 20
114.5838331382
 10
77.1147162451
 20
114.6232474899
 10
77.0496062589
 20
114.6614261522
 10
76.9838999412
 20
114.6983715898
 10
76.9173622944
 20
114.7342138389
 10
76.8502033011
 20
114.7688353098
 10
76.7826577296
 20
114.8021217395
 10
76.7143844311
 20
114.834243863
 10
76.6454312049
 20
114.8651710567
 10
76.5758815821
 20
114.8948611176
 10
76.5058621159
 20
114.9232601566
 10
76.4353899409
 20
114.9503641629
 10
76.364372759
 20
114.976208891
 10
76.2930685746
 20
115.0007039259
 10
76.2212892858
 20
115.0239172685
 10
76.1490423041
 20
115.0458437173
 10
76.0764408396
 20
115.0664479924
 10
76.0034266223
 20
115.0857464274
 10
75.9300834459
 20
115.1037158507
 10
75.8564746377
 20
115.1203416899
 10
75.7825769766
 20
115.1356302065
 10
75.7084020835
 20
115.1495787434
 10
75.6339748114
 20
115.1621823622
 10
75.5593188235
 20
115.1734369986
 10
75.4844433343
 20
115.1833415311
 10
75.4095765167
 20
115.1918684975
 10
75.3347491163
 20
115.1990185048
 10
75.2593219354
 20
115.2048443523
 10
75.1835594352
 20
115.2093174814
 10
75.1099010444
 20
115.2123673438
 10
75.0428871817
 20
115.213941234
 10
74.9847514482
 20
115.2144883582
 10
35.6410311496
 20
115.2177957483
1001
ACAD
1000
RTMaterial
1005
185D
  0
LINE
  5
1749
100
AcDbEntity
  8
0
  6
CONTINUOUS
 62
           9
100
AcDbLine
 10
79.3058453969
 20
112.199705242
 30
0.0
 11
79.3338700386
 21
112.0772362565
 31
0.0
1001
ACAD
1000
RTMaterial
1005
185D
  0
LINE
  5
174A
100
AcDbEntity
  8
0
  6
CONTINUOUS
 62
           9
100
AcDbLine
 10
79.3338700386
 20
112.0772362565
 30
0.0
 11
79.3677802259
 21
111.9274566439
 31
0.0
1001
ACAD
1000
RTMaterial
1005
185D
  0
LINE
  5
174B
100
AcDbEntity
  8
0
  6
CONTINUOUS
 62
           9
100
AcDbLine
 10
79.3677802259
 20
111.9274566439
 30
0.0
 11
79.4078597153
 21
111.7481825156
 31
0.0
1001
ACAD
1000
RTMaterial
1005
185D
  0
LWPOLYLINE
  5
174C
100
AcDbEntity
  8
0
  6
CONTINUOUS
 62
           9
100
AcDbPolyline
 90
       38
 70
           0
 10
79.4078597153
 20
111.7481825156
 10
79.4550633489
 20
111.5336320214
 10
79.481765953
 20
111.4106085907
 10
79.5108183818
 20
111.2753260848
 10
79.5424798994
 20
111.1261402048
 10
79.57651493
 20
110.9636621238
 10
79.6127702474
 20
110.7880865743
 10
79.6520147395
 20
110.595000391
 10
79.6948922697
 20
110.3802514938
 10
79.74196207
 20
110.1396945768
 10
79.7926596597
 20
109.8746033399
 10
79.8452350289
 20
109.5926572729
 10
79.9013272066
 20
109.2833149387
 10
79.9630406134
 20
108.931857554
 10
80.0310539517
 20
108.5295865301
 10
80.1052867714
 20
108.0703568422
 10
80.1785776908
 20
107.5932136216
 10
80.2480890784
 20
107.1152426772
 10
80.3137475813
 20
106.6369438418
 10
80.3755871895
 20
106.1580811162
 10
80.43359541
 20
105.6787502859
 10
80.4877614879
 20
105.1990527236
 10
80.5380961263
 20
104.7188945773
 10
80.5845960508
 20
104.2382935817
 10
80.6272554086
 20
103.757301401
 10
80.6660672903
 20
103.2759977264
 10
80.7010275149
 20
102.7944362472
 10
80.7321383008
 20
102.3125845765
 10
80.759405046
 20
101.8303343478
 10
80.7828355063
 20
101.3474045275
 10
80.8015046045
 20
100.8887005877
 10
80.815024706
 20
100.48574509
 10
80.8246542315
 20
100.1327708486
 10
80.8314258713
 20
99.8218474857
 10
80.8360414671
 20
99.5495743535
 10
80.8393338016
 20
99.2866066062
 10
80.8416130591
 20
99.0008939374
 10
80.8425628694
 20
98.6759742821
1001
ACAD
1000
RTMaterial
1005
185D
  0
LINE
  5
1750
100
AcDbEntity
  8
0
  6
CONTINUOUS
 62
           7
100
AcDbLine
 10
83.9558681114
 20
78.0495472939
 30
0.0
 11
83.9558681114
 21
119.3024012703
 31
0.0
1001
ACAD
1000
RTMaterial
1005
185D
  0
CIRCLE
  5
184F
100
AcDbEntity
  8
0
  6
CONTINUOUS
 62
           9
100
AcDbCircle
 10
72.9558681114
 20
98.6759742821
 30
0.0
 40
1.2714466072
1001
ACAD
1000
RTMaterial
1005
185D
  0
ELLIPSE
  5
1854
100
AcDbEntity
  8
0
  6
CONTINUOUS
 62
           7
100
AcDbEllipse
 10
24.3323005504
 20
78.0524067212
 30
0.0
 11
0.267186978
 21
0.267186978
 31
0.0
210
0.0
220
0.0
230
1.0
 40
0.9924325091
 41
2.3599925884999999
 42
3.9231927187000002
1001
ACAD
1000
RTMaterial
1005
185D
  0
ELLIPSE
  5
1855
100
AcDbEntity
  8
0
  6
CONTINUOUS
 62
           7
100
AcDbEllipse
 10
24.3323005504
 20
119.299541843
 30
0.0
 11
0.267186978
 21
-0.267186978
 31
0.0
210
0.0
220
0.0
230
1.0
 40
0.9924325091
 41
2.3599925884999999
 42
3.9231927187000002
1001
ACAD
1000
RTMaterial
1005
185D
  0
ELLIPSE
  5
1856
100
AcDbEntity
  8
0
  6
CONTINUOUS
 62
           7
100
AcDbEllipse
 10
83.5794356723
 20
78.0524067212
 30
0.0
 11
-0.267186978
 21
0.267186978
 31
0.0
210
0.0
220
0.0
230
1.0
 40
0.9924325091
 41
-3.9231927187000002
 42
-2.3599925884999999
1001
ACAD
1000
RTMaterial
1005
185D
  0
ELLIPSE
  5
1857
100
AcDbEntity
  8
0
  6
CONTINUOUS
 62
           7
100
AcDbEllipse
 10
83.5794356723
 20
119.299541843
 30
0.0
 11
-0.267186978
 21
-0.267186978
 31
0.0
210
0.0
220
0.0
230
1.0
 40
0.9924325091
 41
2.3599925884999999
 42
3.9231927187000002
1001
ACAD
1000
RTMaterial
1005
185D
  0
ENDSEC
  0
SECTION
  2
OBJECTS
  0
DICTIONARY
  5
C
100
AcDbDictionary
280
           0
281
           1
  3
ACAD_COLOR
350
1886
  3
ACAD_GROUP
350
D
  3
ACAD_LAYOUT
350
1A
  3
ACAD_MATERIAL
350
185C
  3
ACAD_MLEADERSTYLE
350
18AB
  3
ACAD_MLINESTYLE
350
17
  3
ACAD_PLOTSETTINGS
350
19
  3
ACAD_SCALELIST
350
1889
  3
ACAD_TABLESTYLE
350
1887
  3
ACAD_VISUALSTYLE
350
1875
  3
ACDB_RECOMPOSE_DATA
350
18B0
  3
ACDBVARIABLEDICTIONARY
350
18F1
  0
DICTIONARY
  5
D
102
{ACAD_REACTORS
330
C
102
}
100
AcDbDictionary
280
           0
281
           1
  0
DICTIONARY
  5
17
102
{ACAD_REACTORS
330
C
102
}
100
AcDbDictionary
280
           0
281
           1
  3
STANDARD
350
18
  0
MLINESTYLE
  5
18
102
{ACAD_REACTORS
330
17
102
}
100
AcDbMlineStyle
  2
Standard
 70
           0
  3

 62
         256
 51
90.0
 52
90.0
 71
           2
 49
0.5
 62
         256
  6
BYLAYER
 49
-0.5
 62
         256
  6
BYLAYER
  0
ACDBDICTIONARYWDFLT
  5
E
102
{ACAD_REACTORS
330
C
102
}
100
AcDbDictionary
281
           1
  3
NORMAL
350
F
100
AcDbDictionaryWithDefault
340
F
  0
ACDBPLACEHOLDER
  5
F
102
{ACAD_REACTORS
330
E
102
}
  0
LAYOUT
  5
1858
102
{ACAD_REACTORS
330
1A
102
}
100
AcDbPlotSettings
  1

  2
none_device
  4

  6

 40
0.0
 41
0.0
 42
0.0
 43
0.0
 44
431.8
 45
279.4
 46
0.0
 47
0.0
 48
0.0
 49
0.0
140
0.0
141
0.0
142
1.0
143
1.0
 70
        1024
 72
           0
 73
           0
 74
           0
  7

 75
           0
147
1.0
148
0.0
149
0.0
100
AcDbLayout
  1
Model
 70
           0
 71
           0
 10
0.0
 20
0.0
 11
17.0
 21
11.0
 12
0.0
 22
0.0
 32
0.0
 14
0.0
 24
0.0
 34
0.0
 15
0.0
 25
0.0
 35
0.0
146
0.0
 13
0.0
 23
0.0
 33
0.0
 16
1.0
 26
0.0
 36
0.0
 17
0.0
 27
1.0
 37
0.0
 76
           0
330
21C
331
0
345
0
346
0
  0
LAYOUT
  5
1859
102
{ACAD_REACTORS
330
1A
102
}
100
AcDbPlotSettings
  1

  2
none_device
  4

  6

 40
0.0
 41
0.0
 42
0.0
 43
0.0
 44
431.8
 45
279.4
 46
0.0
 47
0.0
 48
0.0
 49
0.0
140
0.0
141
0.0
142
1.0
143
1.0
 70
           0
 72
           0
 73
           0
 74
           0
  7

 75
           0
147
1.0
148
0.0
149
0.0
100
AcDbLayout
  1
Layout1
 70
           0
 71
           1
 10
0.0
 20
0.0
 11
17.0
 21
11.0
 12
0.0
 22
0.0
 32
0.0
 14
0.0
 24
0.0
 34
0.0
 15
0.0
 25
0.0
 35
0.0
146
0.0
 13
0.0
 23
0.0
 33
0.0
 16
1.0
 26
0.0
 36
0.0
 17
0.0
 27
1.0
 37
0.0
 76
           0
330
21D
331
0
345
0
346
0
  0
DICTIONARY
  5
1A
102
{ACAD_REACTORS
330
C
102
}
100
AcDbDictionary
280
           0
281
           1
  3
LAYOUT1
350
1859
  3
MODEL
350
1858
  0
DICTIONARY
  5
19
102
{ACAD_REACTORS
330
C
102
}
100
AcDbDictionary
280
           0
281
           1
  0
WIPEOUTVARIABLES
  5
18F9
100
AcDbWipeoutVariables
 70
           1
  0
DICTIONARY
  5
185C
102
{ACAD_REACTORS
330
C
102
}
100
AcDbDictionary
280
           0
281
           1
  3
BYBLOCK
350
1865
  3
BYLAYER
350
185D
  3
GLOBAL
350
186D
  0
ACAD_PROXY_OBJECT
  5
185D
102
{ACAD_REACTORS
330
185C
102
}
330
185C
100
AcDbProxyObject
 90
      499
 91
      503
 95
        0
 70
           0
 93
     1340
310
42109E53185E595C802004014080404555555555555953FAA155555555555654FEA9AA400014080404555555555555953FAA155555555555654FEA9AA400000000000000E03F4080404555555555555953FAA155555555555654FEA9AA4014080404555555555555953FAA155555555555654FEA9AA4010201011555555555
310
55654FEA8555555555555953FAA6A9005020101155555555555654FEA8555555555555953FAA6A9000
 94
        0
  0
DICTIONARY
  5
185E
100
AcDbDictionary
280
           0
281
           1
  3
ACAD_XREC_ROUNDTRIP
350
18ED
  3
BUMPTILE
350
1860
  3
DIFFUSETILE
350
185F
  3
OPACITYTILE
350
1863
  3
REFLECTIONTILE
350
1862
  3
REFRACTIONTILE
350
1864
  3
SPECULARTILE
350
1861
  0
XRECORD
  5
185F
102
{ACAD_REACTORS
330
185E
102
}
100
AcDbXrecord
280
           0
  0
XRECORD
  5
1860
102
{ACAD_REACTORS
330
185E
102
}
100
AcDbXrecord
280
           0
  0
XRECORD
  5
1861
102
{ACAD_REACTORS
330
185E
102
}
100
AcDbXrecord
280
           0
  0
XRECORD
  5
1862
102
{ACAD_REACTORS
330
185E
102
}
100
AcDbXrecord
280
           0
  0
XRECORD
  5
1863
102
{ACAD_REACTORS
330
185E
102
}
100
AcDbXrecord
280
           0
  0
XRECORD
  5
1864
102
{ACAD_REACTORS
330
185E
102
}
100
AcDbXrecord
280
           0
  0
ACAD_PROXY_OBJECT
  5
1865
102
{ACAD_REACTORS
330
185C
102
}
330
185C
100
AcDbProxyObject
 90
      499
 91
      503
 95
        0
 70
           0
 93
     1340
310
42109E509B1BD8DAC02004014080404555555555555953FAA155555555555654FEA9AA400014080404555555555555953FAA155555555555654FEA9AA400000000000000E03F4080404555555555555953FAA155555555555654FEA9AA4014080404555555555555953FAA155555555555654FEA9AA4010201011555555555
310
55654FEA8555555555555953FAA6A9005020101155555555555654FEA8555555555555953FAA6A9000
 94
        0
  0
DICTIONARY
  5
1866
100
AcDbDictionary
280
           0
281
           1
  3
ACAD_XREC_ROUNDTRIP
350
18EE
  3
BUMPTILE
350
1868
  3
DIFFUSETILE
350
1867
  3
OPACITYTILE
350
186B
  3
REFLECTIONTILE
350
186A
  3
REFRACTIONTILE
350
186C
  3
SPECULARTILE
350
1869
  0
XRECORD
  5
1867
102
{ACAD_REACTORS
330
1866
102
}
100
AcDbXrecord
280
           0
  0
XRECORD
  5
1868
102
{ACAD_REACTORS
330
1866
102
}
100
AcDbXrecord
280
           0
  0
XRECORD
  5
1869
102
{ACAD_REACTORS
330
1866
102
}
100
AcDbXrecord
280
           0
  0
XRECORD
  5
186A
102
{ACAD_REACTORS
330
1866
102
}
100
AcDbXrecord
280
           0
  0
XRECORD
  5
186B
102
{ACAD_REACTORS
330
1866
102
}
100
AcDbXrecord
280
           0
  0
XRECORD
  5
186C
102
{ACAD_REACTORS
330
1866
102
}
100
AcDbXrecord
280
           0
  0
ACAD_PROXY_OBJECT
  5
186D
102
{ACAD_REACTORS
330
185C
102
}
330
185C
100
AcDbProxyObject
 90
      499
 91
      503
 95
        0
 70
           0
 93
     1332
310
41D1DB1BD8985B002004014080404555555555555953FAA155555555555654FEA9AA400014080404555555555555953FAA155555555555654FEA9AA400000000000000E03F4080404555555555555953FAA155555555555654FEA9AA4014080404555555555555953FAA155555555555654FEA9AA401020101155555555555
310
654FEA8555555555555953FAA6A9005020101155555555555654FEA8555555555555953FAA6A9000
 94
        0
  0
DICTIONARY
  5
186E
100
AcDbDictionary
280
           0
281
           1
  3
ACAD_XREC_ROUNDTRIP
350
18EF
  3
BUMPTILE
350
1870
  3
DIFFUSETILE
350
186F
  3
OPACITYTILE
350
1873
  3
REFLECTIONTILE
350
1872
  3
REFRACTIONTILE
350
1874
  3
SPECULARTILE
350
1871
  0
XRECORD
  5
186F
102
{ACAD_REACTORS
330
186E
102
}
100
AcDbXrecord
280
           0
  0
XRECORD
  5
1870
102
{ACAD_REACTORS
330
186E
102
}
100
AcDbXrecord
280
           0
  0
XRECORD
  5
1871
102
{ACAD_REACTORS
330
186E
102
}
100
AcDbXrecord
280
           0
  0
XRECORD
  5
1872
102
{ACAD_REACTORS
330
186E
102
}
100
AcDbXrecord
280
           0
  0
XRECORD
  5
1873
102
{ACAD_REACTORS
330
186E
102
}
100
AcDbXrecord
280
           0
  0
XRECORD
  5
1874
102
{ACAD_REACTORS
330
186E
102
}
100
AcDbXrecord
280
           0
  0
DICTIONARY
  5
1875
102
{ACAD_REACTORS
330
C
102
}
100
AcDbDictionary
280
           0
281
           1
  3
2DWIREFRAME
350
187B
  3
3D HIDDEN
350
187D
  3
3DWIREFRAME
350
187C
  3
BASIC
350
187A
  3
BRIGHTEN
350
1881
  3
COLORCHANGE
350
1885
  3
CONCEPTUAL
350
187E
  3
DIM
350
1880
  3
FACEPATTERN
350
1884
  3
FLAT
350
1876
  3
FLATWITHEDGES
350
1877
  3
GOURAUD
350
1878
  3
GOURAUDWITHEDGES
350
1879
  3
LINEPATTERN
350
1883
  3
REALISTIC
350
187F
  3
THICKEN
350
1882
  0
ACAD_PROXY_OBJECT
  5
1876
102
{ACAD_REACTORS
330
1875
102
}
330
1875
100
AcDbProxyObject
 90
      499
 91
      504
 95
        0
 70
           0
 93
      396
310
41519B185D00240901404333333333333E3BF0000000000000F9010740A41107004050150841D405064090741402480A1B50
 94
        0
1001
ACAD
1000
AcDbSavedByObjectVersion
1070
           0
  0
ACAD_PROXY_OBJECT
  5
1877
102
{ACAD_REACTORS
330
1875
102
}
330
1875
100
AcDbProxyObject
 90
      499
 91
      504
 95
        0
 70
           0
 93
      484
310
43919B185D15DA5D1A115919D95CC010140901404333333333333E3BF0000000000000F9010740901411070040501600405405064090741402480A1B50
 94
        0
1001
ACAD
1000
AcDbSavedByObjectVersion
1070
           0
  0
ACAD_PROXY_OBJECT
  5
1878
102
{ACAD_REACTORS
330
1875
102
}
330
1875
100
AcDbProxyObject
 90
      499
 91
      504
 95
        0
 70
           0
 93
      420
310
4211DBDD5C985D590010240902404333333333333E3BF0000000000000F9010740A411070040501641D405064090741402480A1B50
 94
        0
1001
ACAD
1000
AcDbSavedByObjectVersion
1070
           0
  0
ACAD_PROXY_OBJECT
  5
1879
102
{ACAD_REACTORS
330
1875
102
}
330
1875
100
AcDbProxyObject
 90
      499
 91
      504
 95
        0
 70
           0
 93
      508
310
4451DBDD5C985D5915DA5D1A115919D95CC010340902404333333333333E3BF0000000000000F9010740901411070040501600405405064090741402480A1B50
 94
        0
1001
ACAD
1000
AcDbSavedByObjectVersion
1070
           0
  0
ACAD_PROXY_OBJECT
  5
187A
102
{ACAD_REACTORS
330
1875
102
}
330
1875
100
AcDbProxyObject
 90
      499
 91
      504
 95
        0
 70
           0
 93
      396
310
4190985CDA58C0107406404333333333333E3BF0000000000000FB0107A41107004050150841D405064090741402480A0350
 94
        0
1001
ACAD
1000
AcDbSavedByObjectVersion
1070
           0
  0
ACAD_PROXY_OBJECT
  5
187B
102
{ACAD_REACTORS
330
1875
102
}
330
1875
100
AcDbProxyObject
 90
      499
 91
      504
 95
        0
 70
           0
 93
      444
310
430C9915DA5C99599C985B59401049028333333333333E3BF0000000000000FB0107901411070040501600405405064090741402480A0340
 94
        0
1001
ACAD
1000
AcDbSavedByObjectVersion
1070
           0
  0
ACAD_PROXY_OBJECT
  5
187C
102
{ACAD_REACTORS
330
1875
102
}
330
1875
100
AcDbProxyObject
 90
      499
 91
      504
 95
        0
 70
           0
 93
      444
310
430CD915DA5C99599C985B59401059028333333333333E3BF0000000000000FB0107901411070040501600405405064090741402480A0340
 94
        0
1001
ACAD
1000
AcDbSavedByObjectVersion
1070
           0
  0
ACAD_PROXY_OBJECT
  5
187D
102
{ACAD_REACTORS
330
1875
102
}
330
1875
100
AcDbProxyObject
 90
      499
 91
      504
 95
        0
 70
           0
 93
      508
310
428CD108121A5919195B8010640502408333333333333E3BF0000000000000FB01079024090700405020000000000001110200405405064090740C02480A0340
 94
        0
1001
ACAD
1000
AcDbSavedByObjectVersion
1070
           0
  0
ACAD_PROXY_OBJECT
  5
187E
102
{ACAD_REACTORS
330
1875
102
}
330
1875
100
AcDbProxyObject
 90
      499
 91
      504
 95
        0
 70
           0
 93
      508
310
42D0DBDB98D95C1D1D585B0010940D028333333333333E3BF0000000000000FB0107902409070040501000000000000111010841D405064090740C02480A0340
 94
        0
1001
ACAD
1000
AcDbSavedByObjectVersion
1070
           0
  0
ACAD_PROXY_OBJECT
  5
187F
102
{ACAD_REACTORS
330
1875
102
}
330
1875
100
AcDbProxyObject
 90
      499
 91
      504
 95
        0
 70
           0
 93
      428
310
429499585B1A5CDD1A58C0108409028333333333333E3BF0000000000000FB01079019070040501508421405064090741402480A1B40
 94
        0
1001
ACAD
1000
AcDbSavedByObjectVersion
1070
           0
  0
ACAD_PROXY_OBJECT
  5
1880
102
{ACAD_REACTORS
330
1875
102
}
330
1875
100
AcDbProxyObject
 90
      499
 91
      504
 95
        0
 70
           0
 93
      420
310
41111A5B4010B409028333333333333E3BF0000000000000FB010790141107004050150841D405064090741402480A02677FFFFFD0
 94
        0
1001
ACAD
1000
AcDbSavedByObjectVersion
1070
           0
  0
ACAD_PROXY_OBJECT
  5
1881
102
{ACAD_REACTORS
330
1875
102
}
330
1875
100
AcDbProxyObject
 90
      499
 91
      504
 95
        0
 70
           0
 93
      436
310
42509C9A59DA1D195B8010C409028333333333333E3BF0000000000000FB010790141107004050150841D405064090741402480A029950
 94
        0
1001
ACAD
1000
AcDbSavedByObjectVersion
1070
           0
  0
ACAD_PROXY_OBJECT
  5
1882
102
{ACAD_REACTORS
330
1875
102
}
330
1875
100
AcDbProxyObject
 90
      499
 91
      504
 95
        0
 70
           0
 93
      420
310
42151A1A58DAD95B8010D409028333333333333E3BF0000000000000FB010790141107004050150C41D405064090741402480A0350
 94
        0
1001
ACAD
1000
AcDbSavedByObjectVersion
1070
           0
  0
ACAD_PROXY_OBJECT
  5
1883
102
{ACAD_REACTORS
330
1875
102
}
330
1875
100
AcDbProxyObject
 90
      499
 91
      504
 95
        0
 70
           0
 93
      452
310
43131A5B995C185D1D195C9B8010E409028333333333333E3BF0000000000000FB010790141107004050750841D405064090741402483A0350
 94
        0
1001
ACAD
1000
AcDbSavedByObjectVersion
1070
           0
  0
ACAD_PROXY_OBJECT
  5
1884
102
{ACAD_REACTORS
330
1875
102
}
330
1875
100
AcDbProxyObject
 90
      499
 91
      504
 95
        0
 70
           0
 93
      452
310
43119858D95C185D1D195C9B8010F409028333333333333E3BF0000000000000FB010790141107004050150841D405064090741402480A0350
 94
        0
1001
ACAD
1000
AcDbSavedByObjectVersion
1070
           0
  0
ACAD_PROXY_OBJECT
  5
1885
102
{ACAD_REACTORS
330
1875
102
}
330
1875
100
AcDbProxyObject
 90
      499
 91
      504
 95
        0
 70
           0
 93
      460
310
4310DBDB1BDC90DA185B99D9401104090240C333333333333E3BF0000000000000FB0108901411070040501508421405064090741402480A0350
 94
        0
1001
ACAD
1000
AcDbSavedByObjectVersion
1070
           0
  0
DICTIONARY
  5
1886
102
{ACAD_REACTORS
330
C
102
}
100
AcDbDictionary
280
           0
281
           1
  0
DICTIONARY
  5
1887
102
{ACAD_REACTORS
330
C
102
}
100
AcDbDictionary
280
           0
281
           1
  3
STANDARD
350
1888
  0
ACAD_PROXY_OBJECT
  5
1888
102
{ACAD_REACTORS
330
1887
102
}
330
1887
100
AcDbProxyObject
 90
      499
 91
      505
 95
        0
 70
           0
 93
     1849
310
4254DD185B99185C990028B81E85EB51B8AE3F2E07A17AD46E2B8FC02B5E8DC0F42B1CFD028000000C1008070000C3001FDFF8000000C1003FBFF000000182007F7FE00000030400FEFFC00000060801FDFF8000000C1003FBFF00000018200000000000000681FA0B0000001820100E000186003FBFF000000182007F7FE0
310
0000030400FEFFC00000060801FDFF8000000C1003FBFF000000182007F7FE000000304000AD7A3703D0AC73F4160000003040201C00030C007F7FE00000030400FEFFC00000060801FDFF8000000C1003FBFF000000182007F7FE00000030400FEFFC000000608000
340
11
340
11
340
11
 94
        0
  0
DICTIONARY
  5
1889
102
{ACAD_REACTORS
330
C
102
}
100
AcDbDictionary
280
           0
281
           1
  3
A0
350
188A
  3
A1
350
188B
  3
A2
350
188C
  3
A3
350
188D
  3
A4
350
188E
  3
A5
350
188F
  3
A6
350
1890
  3
A7
350
1891
  3
A8
350
1892
  3
A9
350
1893
  3
B0
350
1894
  3
B1
350
1895
  3
B2
350
1896
  3
B3
350
1897
  3
B4
350
1898
  3
B5
350
1899
  3
B6
350
189A
  3
B7
350
189B
  3
B8
350
189C
  3
B9
350
189D
  3
C0
350
189E
  3
C1
350
189F
  3
C2
350
18A0
  3
C3
350
18A1
  3
C4
350
18A2
  3
C5
350
18A3
  3
C6
350
18A4
  3
C7
350
18A5
  3
C8
350
18A6
  3
C9
350
18A7
  3
D0
350
18A8
  3
D1
350
18A9
  3
D2
350
18AA
  0
ACAD_PROXY_OBJECT
  5
188A
102
{ACAD_REACTORS
330
1889
102
}
330
1889
100
AcDbProxyObject
 90
      499
 91
      506
 95
        0
 70
           0
 93
       49
310
904313A3100580
 94
        0
  0
ACAD_PROXY_OBJECT
  5
188B
102
{ACAD_REACTORS
330
1889
102
}
330
1889
100
AcDbProxyObject
 90
      499
 91
      506
 95
        0
 70
           0
 93
      113
310
904313A32004000000000000004000
 94
        0
  0
ACAD_PROXY_OBJECT
  5
188C
102
{ACAD_REACTORS
330
1889
102
}
330
1889
100
AcDbProxyObject
 90
      499
 91
      506
 95
        0
 70
           0
 93
      113
310
904313A34004000000000000104000
 94
        0
  0
ACAD_PROXY_OBJECT
  5
188D
102
{ACAD_REACTORS
330
1889
102
}
330
1889
100
AcDbProxyObject
 90
      499
 91
      506
 95
        0
 70
           0
 93
      113
310
904313A35004000000000000144000
 94
        0
  0
ACAD_PROXY_OBJECT
  5
188E
102
{ACAD_REACTORS
330
1889
102
}
330
1889
100
AcDbProxyObject
 90
      499
 91
      506
 95
        0
 70
           0
 93
      113
310
904313A38004000000000000204000
 94
        0
  0
ACAD_PROXY_OBJECT
  5
188F
102
{ACAD_REACTORS
330
1889
102
}
330
1889
100
AcDbProxyObject
 90
      499
 91
      506
 95
        0
 70
           0
 93
      121
310
905313A3130004000000000000244000
 94
        0
  0
ACAD_PROXY_OBJECT
  5
1890
102
{ACAD_REACTORS
330
1889
102
}
330
1889
100
AcDbProxyObject
 90
      499
 91
      506
 95
        0
 70
           0
 93
      121
310
905313A3136004000000000000304000
 94
        0
  0
ACAD_PROXY_OBJECT
  5
1891
102
{ACAD_REACTORS
330
1889
102
}
330
1889
100
AcDbProxyObject
 90
      499
 91
      506
 95
        0
 70
           0
 93
      121
310
905313A3230004000000000000344000
 94
        0
  0
ACAD_PROXY_OBJECT
  5
1892
102
{ACAD_REACTORS
330
1889
102
}
330
1889
100
AcDbProxyObject
 90
      499
 91
      506
 95
        0
 70
           0
 93
      121
310
905313A33300040000000000003E4000
 94
        0
  0
ACAD_PROXY_OBJECT
  5
1893
102
{ACAD_REACTORS
330
1889
102
}
330
1889
100
AcDbProxyObject
 90
      499
 91
      506
 95
        0
 70
           0
 93
      121
310
905313A3430004000000000000444000
 94
        0
  0
ACAD_PROXY_OBJECT
  5
1894
102
{ACAD_REACTORS
330
1889
102
}
330
1889
100
AcDbProxyObject
 90
      499
 91
      506
 95
        0
 70
           0
 93
      121
310
905313A3530004000000000000494000
 94
        0
  0
ACAD_PROXY_OBJECT
  5
1895
102
{ACAD_REACTORS
330
1889
102
}
330
1889
100
AcDbProxyObject
 90
      499
 91
      506
 95
        0
 70
           0
 93
      129
310
906313A313030004000000000000594000
 94
        0
  0
ACAD_PROXY_OBJECT
  5
1896
102
{ACAD_REACTORS
330
1889
102
}
330
1889
100
AcDbProxyObject
 90
      499
 91
      506
 95
        0
 70
           0
 93
      113
310
904323A31000000000000000010100
 94
        0
  0
ACAD_PROXY_OBJECT
  5
1897
102
{ACAD_REACTORS
330
1889
102
}
330
1889
100
AcDbProxyObject
 90
      499
 91
      506
 95
        0
 70
           0
 93
      113
310
904343A31000000000000000410100
 94
        0
  0
ACAD_PROXY_OBJECT
  5
1898
102
{ACAD_REACTORS
330
1889
102
}
330
1889
100
AcDbProxyObject
 90
      499
 91
      506
 95
        0
 70
           0
 93
      113
310
904383A31000000000000000810100
 94
        0
  0
ACAD_PROXY_OBJECT
  5
1899
102
{ACAD_REACTORS
330
1889
102
}
330
1889
100
AcDbProxyObject
 90
      499
 91
      506
 95
        0
 70
           0
 93
      121
310
90531303A31000000000000000910100
 94
        0
  0
ACAD_PROXY_OBJECT
  5
189A
102
{ACAD_REACTORS
330
1889
102
}
330
1889
100
AcDbProxyObject
 90
      499
 91
      506
 95
        0
 70
           0
 93
      129
310
9063130303A31000000000000001650100
 94
        0
  0
ACAD_PROXY_OBJECT
  5
189B
102
{ACAD_REACTORS
330
1889
102
}
330
1889
100
AcDbProxyObject
 90
      499
 91
      506
 95
        0
 70
           0
 93
      265
310
90F312F31323822203D2031272D302200000000000000200FC000000000000284000
 94
        0
  0
ACAD_PROXY_OBJECT
  5
189C
102
{ACAD_REACTORS
330
1889
102
}
330
1889
100
AcDbProxyObject
 90
      499
 91
      506
 95
        0
 70
           0
 93
      257
310
90E312F363422203D2031272D302200000000000000240FC000000000000284000
 94
        0
  0
ACAD_PROXY_OBJECT
  5
189D
102
{ACAD_REACTORS
330
1889
102
}
330
1889
100
AcDbProxyObject
 90
      499
 91
      506
 95
        0
 70
           0
 93
      257
310
90E312F333222203D2031272D302200000000000000280FC000000000000284000
 94
        0
  0
ACAD_PROXY_OBJECT
  5
189E
102
{ACAD_REACTORS
330
1889
102
}
330
1889
100
AcDbProxyObject
 90
      499
 91
      506
 95
        0
 70
           0
 93
      257
310
90E312F313622203D2031272D3022000000000000002C0FC000000000000284000
 94
        0
  0
ACAD_PROXY_OBJECT
  5
189F
102
{ACAD_REACTORS
330
1889
102
}
330
1889
100
AcDbProxyObject
 90
      499
 91
      506
 95
        0
 70
           0
 93
      257
310
90E332F333222203D2031272D3022000000000000002E0FC000000000000284000
 94
        0
  0
ACAD_PROXY_OBJECT
  5
18A0
102
{ACAD_REACTORS
330
1889
102
}
330
1889
100
AcDbProxyObject
 90
      499
 91
      506
 95
        0
 70
           0
 93
      249
310
90D312F3822203D2031272D302200000000000000300FC000000000000284000
 94
        0
  0
ACAD_PROXY_OBJECT
  5
18A1
102
{ACAD_REACTORS
330
1889
102
}
330
1889
100
AcDbProxyObject
 90
      499
 91
      506
 95
        0
 70
           0
 93
      257
310
90E332F313622203D2031272D302200000000000000320FC000000000000284000
 94
        0
  0
ACAD_PROXY_OBJECT
  5
18A2
102
{ACAD_REACTORS
330
1889
102
}
330
1889
100
AcDbProxyObject
 90
      499
 91
      506
 95
        0
 70
           0
 93
      249
310
90D312F3422203D2031272D302200000000000000340FC000000000000284000
 94
        0
  0
ACAD_PROXY_OBJECT
  5
18A3
102
{ACAD_REACTORS
330
1889
102
}
330
1889
100
AcDbProxyObject
 90
      499
 91
      506
 95
        0
 70
           0
 93
      249
310
90D332F3822203D2031272D302200000000000000360FC000000000000284000
 94
        0
  0
ACAD_PROXY_OBJECT
  5
18A4
102
{ACAD_REACTORS
330
1889
102
}
330
1889
100
AcDbProxyObject
 90
      499
 91
      506
 95
        0
 70
           0
 93
      249
310
90D312F3222203D2031272D302200000000000000380FC000000000000284000
 94
        0
  0
ACAD_PROXY_OBJECT
  5
18A5
102
{ACAD_REACTORS
330
1889
102
}
330
1889
100
AcDbProxyObject
 90
      499
 91
      506
 95
        0
 70
           0
 93
      249
310
90D332F3422203D2031272D3022000000000000003A0FC000000000000284000
 94
        0
  0
ACAD_PROXY_OBJECT
  5
18A6
102
{ACAD_REACTORS
330
1889
102
}
330
1889
100
AcDbProxyObject
 90
      499
 91
      506
 95
        0
 70
           0
 93
      169
310
90B3122203D2031272D3022004000000000000284000
 94
        0
  0
ACAD_PROXY_OBJECT
  5
18A7
102
{ACAD_REACTORS
330
1889
102
}
330
1889
100
AcDbProxyObject
 90
      499
 91
      506
 95
        0
 70
           0
 93
      265
310
90F312D312F3222203D2031272D3022000000000000003E0FC000000000000284000
 94
        0
  0
ACAD_PROXY_OBJECT
  5
18A8
102
{ACAD_REACTORS
330
1889
102
}
330
1889
100
AcDbProxyObject
 90
      499
 91
      506
 95
        0
 70
           0
 93
      233
310
90B3322203D2031272D30220000000000000002100000000000000284000
 94
        0
  0
ACAD_PROXY_OBJECT
  5
18A9
102
{ACAD_REACTORS
330
1889
102
}
330
1889
100
AcDbProxyObject
 90
      499
 91
      506
 95
        0
 70
           0
 93
      233
310
90B3622203D2031272D30220000000000000006100000000000000284000
 94
        0
  0
ACAD_PROXY_OBJECT
  5
18AA
102
{ACAD_REACTORS
330
1889
102
}
330
1889
100
AcDbProxyObject
 90
      499
 91
      506
 95
        0
 70
           0
 93
      257
310
90E31272D3022203D2031272D3022000000000000000A100000000000000284000
 94
        0
  0
DICTIONARY
  5
18AB
102
{ACAD_REACTORS
330
C
102
}
100
AcDbDictionary
280
           0
281
           1
  3
STANDARD
350
18AC
  0
ACAD_PROXY_OBJECT
  5
18AC
102
{ACAD_REACTORS
330
18AB
102
}
330
18AB
100
AcDbProxyObject
 90
      499
 91
      507
 95
        0
 70
           0
 93
      618
310
40901902A4063FBFFFFFE056BD1B81E855B9FC0AD7A3703D0AD73F4254DD185B99185C990000AD7A3703D0AC73F90141901A02B5E8DC0F42B1CFC02B5E8DC0F42B1CFE5764000000000000300FC0
340
14
340
18FA
340
11
340
18FB
 94
        0
1001
ACAD_MLEADERVER
1070
           2
  0
DICTIONARY
  5
18AE
100
AcDbDictionary
280
           0
281
           1
  3
ACAD_ROUNDTRIP_2008_TABLESTYLE_CELLSTYLEMAP
350
18AF
  3
ACAD_XREC_ROUNDTRIP
350
18F0
  0
ACAD_PROXY_OBJECT
  5
18AF
102
{ACAD_REACTORS
330
18AE
102
}
330
18AE
100
AcDbProxyObject
 90
      499
 91
      508
 95
        0
 70
           0
 93
     1044
310
40D054060020000020000003200101A000080002A5058000000C100000000000000340FE901405075F5449544C450041501A8000000C800406800020000A9416000000304000AD7A3703D0AC73FA409014217D2115051115480105406A0000003200101A000080002A5028000000C10002B5E8DC0F42B1CFE903409065F444
310
15441000
340
11
340
11
340
11
 94
        0
  0
XRECORD
  5
18B0
102
{ACAD_REACTORS
330
C
102
}
100
AcDbXrecord
280
           0
 90
        1
330
1888
  0
DICTIONARY
  5
18B1
100
AcDbDictionary
280
           0
281
           1
  3
ACAD_XREC_ROUNDTRIP
350
18B2
  0
XRECORD
  5
18B2
102
{ACAD_REACTORS
330
18B1
102
}
100
AcDbXrecord
280
           0
102
VTR_0.000_0.000_1.000_1.000_VISUALSTYLE
340
7B18000000000000
102
VTR_0.000_0.000_1.000_1.000_GRIDDISPLAY
 70
           3
102
VTR_0.000_0.000_1.000_1.000_GRIDMAJOR
 70
           5
102
VTR_0.000_0.000_1.000_1.000_DEFAULTLIGHTING
  0
DICTIONARY
  5
18B3
100
AcDbDictionary
280
           0
281
           1
  3
ACAD_XREC_ROUNDTRIP
350
18B4
  0
XRECORD
  5
18B4
102
{ACAD_REACTORS
330
18B3
102
}
100
AcDbXrecord
280
           0
102
MATERIAL
340
6D18000000000000
  0
DICTIONARY
  5
18B5
100
AcDbDictionary
280
           0
281
           1
  3
ACAD_XREC_ROUNDTRIP
350
18B6
  0
XRECORD
  5
18B6
102
{ACAD_REACTORS
330
18B5
102
}
100
AcDbXrecord
280
           0
102
MATERIAL
340
6D18000000000000
  0
DICTIONARY
  5
18B7
100
AcDbDictionary
280
           0
281
           1
  3
ACAD_XREC_ROUNDTRIP
350
18B8
  0
XRECORD
  5
18B8
102
{ACAD_REACTORS
330
18B7
102
}
100
AcDbXrecord
280
           0
102
MATERIAL
340
6D18000000000000
  0
DICTIONARY
  5
18B9
100
AcDbDictionary
280
           0
281
           1
  3
ACAD_XREC_ROUNDTRIP
350
18BA
  0
XRECORD
  5
18BA
102
{ACAD_REACTORS
330
18B9
102
}
100
AcDbXrecord
280
           0
102
MATERIAL
340
6D18000000000000
  0
DICTIONARY
  5
18BB
100
AcDbDictionary
280
           0
281
           1
  3
ACAD_XREC_ROUNDTRIP
350
18BC
  0
XRECORD
  5
18BC
102
{ACAD_REACTORS
330
18BB
102
}
100
AcDbXrecord
280
           0
102
MATERIAL
340
6D18000000000000
  0
DICTIONARY
  5
18BD
100
AcDbDictionary
280
           0
281
           1
  3
ACAD_XREC_ROUNDTRIP
350
18BE
  0
XRECORD
  5
18BE
102
{ACAD_REACTORS
330
18BD
102
}
100
AcDbXrecord
280
           0
102
MATERIAL
340
6D18000000000000
  0
DICTIONARY
  5
18BF
100
AcDbDictionary
280
           0
281
           1
  3
ACAD_XREC_ROUNDTRIP
350
18C0
  0
XRECORD
  5
18C0
102
{ACAD_REACTORS
330
18BF
102
}
100
AcDbXrecord
280
           0
102
MATERIAL
340
6D18000000000000
  0
DICTIONARY
  5
18C1
100
AcDbDictionary
280
           0
281
           1
  3
ACAD_XREC_ROUNDTRIP
350
18C2
  0
XRECORD
  5
18C2
102
{ACAD_REACTORS
330
18C1
102
}
100
AcDbXrecord
280
           0
102
MATERIAL
340
6D18000000000000
  0
DICTIONARY
  5
18C3
100
AcDbDictionary
280
           0
281
           1
  3
ACAD_XREC_ROUNDTRIP
350
18C4
  0
XRECORD
  5
18C4
102
{ACAD_REACTORS
330
18C3
102
}
100
AcDbXrecord
280
           0
102
MATERIAL
340
6D18000000000000
  0
DICTIONARY
  5
18C5
100
AcDbDictionary
280
           0
281
           1
  3
ACAD_XREC_ROUNDTRIP
350
18C6
  0
XRECORD
  5
18C6
102
{ACAD_REACTORS
330
18C5
102
}
100
AcDbXrecord
280
           0
102
MATERIAL
340
6D18000000000000
  0
DICTIONARY
  5
18C7
100
AcDbDictionary
280
           0
281
           1
  3
ACAD_XREC_ROUNDTRIP
350
18C8
  0
XRECORD
  5
18C8
102
{ACAD_REACTORS
330
18C7
102
}
100
AcDbXrecord
280
           0
102
MATERIAL
340
6D18000000000000
  0
DICTIONARY
  5
18C9
100
AcDbDictionary
280
           0
281
           1
  3
ACAD_XREC_ROUNDTRIP
350
18CA
  0
XRECORD
  5
18CA
102
{ACAD_REACTORS
330
18C9
102
}
100
AcDbXrecord
280
           0
102
MATERIAL
340
6D18000000000000
  0
DICTIONARY
  5
18CB
100
AcDbDictionary
280
           0
281
           1
  3
ACAD_XREC_ROUNDTRIP
350
18CC
  0
XRECORD
  5
18CC
102
{ACAD_REACTORS
330
18CB
102
}
100
AcDbXrecord
280
           0
102
MATERIAL
340
6D18000000000000
  0
DICTIONARY
  5
18CD
100
AcDbDictionary
280
           0
281
           1
  3
ACAD_XREC_ROUNDTRIP
350
18CE
  0
XRECORD
  5
18CE
102
{ACAD_REACTORS
330
18CD
102
}
100
AcDbXrecord
280
           0
102
MATERIAL
340
6D18000000000000
  0
DICTIONARY
  5
18CF
100
AcDbDictionary
280
           0
281
           1
  3
ACAD_XREC_ROUNDTRIP
350
18D0
  0
XRECORD
  5
18D0
102
{ACAD_REACTORS
330
18CF
102
}
100
AcDbXrecord
280
           0
102
MATERIAL
340
6D18000000000000
  0
DICTIONARY
  5
18D1
100
AcDbDictionary
280
           0
281
           1
  3
ACAD_XREC_ROUNDTRIP
350
18D2
  0
XRECORD
  5
18D2
102
{ACAD_REACTORS
330
18D1
102
}
100
AcDbXrecord
280
           0
102
MATERIAL
340
6D18000000000000
  0
DICTIONARY
  5
18D3
100
AcDbDictionary
280
           0
281
           1
  3
ACAD_XREC_ROUNDTRIP
350
18D4
  0
XRECORD
  5
18D4
102
{ACAD_REACTORS
330
18D3
102
}
100
AcDbXrecord
280
           0
102
MATERIAL
340
6D18000000000000
  0
DICTIONARY
  5
18D5
100
AcDbDictionary
280
           0
281
           1
  3
ACAD_XREC_ROUNDTRIP
350
18D6
  0
XRECORD
  5
18D6
102
{ACAD_REACTORS
330
18D5
102
}
100
AcDbXrecord
280
           0
102
MATERIAL
340
6D18000000000000
  0
DICTIONARY
  5
18D7
100
AcDbDictionary
280
           0
281
           1
  3
ACAD_XREC_ROUNDTRIP
350
18D8
  0
XRECORD
  5
18D8
102
{ACAD_REACTORS
330
18D7
102
}
100
AcDbXrecord
280
           0
102
MATERIAL
340
6D18000000000000
  0
DICTIONARY
  5
18D9
100
AcDbDictionary
280
           0
281
           1
  3
ACAD_XREC_ROUNDTRIP
350
18DA
  0
XRECORD
  5
18DA
102
{ACAD_REACTORS
330
18D9
102
}
100
AcDbXrecord
280
           0
102
MATERIAL
340
6D18000000000000
  0
DICTIONARY
  5
18DB
100
AcDbDictionary
280
           0
281
           1
  3
ACAD_XREC_ROUNDTRIP
350
18DC
  0
XRECORD
  5
18DC
102
{ACAD_REACTORS
330
18DB
102
}
100
AcDbXrecord
280
           0
102
MATERIAL
340
6D18000000000000
  0
DICTIONARY
  5
18DD
100
AcDbDictionary
280
           0
281
           1
  3
ACAD_XREC_ROUNDTRIP
350
18DE
  0
XRECORD
  5
18DE
102
{ACAD_REACTORS
330
18DD
102
}
100
AcDbXrecord
280
           0
102
MATERIAL
340
6D18000000000000
  0
DICTIONARY
  5
18DF
100
AcDbDictionary
280
           0
281
           1
  3
ACAD_XREC_ROUNDTRIP
350
18E0
  0
XRECORD
  5
18E0
102
{ACAD_REACTORS
330
18DF
102
}
100
AcDbXrecord
280
           0
102
MATERIAL
340
6D18000000000000
  0
DICTIONARY
  5
18E1
100
AcDbDictionary
280
           0
281
           1
  3
ACAD_XREC_ROUNDTRIP
350
18E2
  0
XRECORD
  5
18E2
102
{ACAD_REACTORS
330
18E1
102
}
100
AcDbXrecord
280
           0
102
MATERIAL
340
6D18000000000000
  0
DICTIONARY
  5
18E3
100
AcDbDictionary
280
           0
281
           1
  3
ACAD_XREC_ROUNDTRIP
350
18E4
  0
XRECORD
  5
18E4
102
{ACAD_REACTORS
330
18E3
102
}
100
AcDbXrecord
280
           0
102
MATERIAL
340
6D18000000000000
  0
DICTIONARY
  5
18E5
100
AcDbDictionary
280
           0
281
           1
  3
ACAD_XREC_ROUNDTRIP
350
18E6
  0
XRECORD
  5
18E6
102
{ACAD_REACTORS
330
18E5
102
}
100
AcDbXrecord
280
           0
102
MATERIAL
340
6D18000000000000
  0
DICTIONARY
  5
18E7
100
AcDbDictionary
280
           0
281
           1
  3
ACAD_XREC_ROUNDTRIP
350
18E8
  0
XRECORD
  5
18E8
102
{ACAD_REACTORS
330
18E7
102
}
100
AcDbXrecord
280
           0
102
MATERIAL
340
6D18000000000000
  0
DICTIONARY
  5
18E9
100
AcDbDictionary
280
           0
281
           1
  3
ACAD_XREC_ROUNDTRIP
350
18EA
  0
XRECORD
  5
18EA
102
{ACAD_REACTORS
330
18E9
102
}
100
AcDbXrecord
280
           0
102
SHADEPLOT
 70
           0
102
SHADEPLOTRESLEVEL
 70
           2
102
SHADEPLOTCUSTOMDPI
 70
         300
  0
DICTIONARY
  5
18EB
100
AcDbDictionary
280
           0
281
           1
  3
ACAD_XREC_ROUNDTRIP
350
18EC
  0
XRECORD
  5
18EC
102
{ACAD_REACTORS
330
18EB
102
}
100
AcDbXrecord
280
           0
102
SHADEPLOT
 70
           0
102
SHADEPLOTRESLEVEL
 70
           2
102
SHADEPLOTCUSTOMDPI
 70
         300
  0
XRECORD
  5
18ED
102
{ACAD_REACTORS
330
185E
102
}
100
AcDbXrecord
280
           0
102
MATERIAL
  0
XRECORD
  5
18EE
102
{ACAD_REACTORS
330
1866
102
}
100
AcDbXrecord
280
           0
102
MATERIAL
  0
XRECORD
  5
18EF
102
{ACAD_REACTORS
330
186E
102
}
100
AcDbXrecord
280
           0
102
MATERIAL
  0
XRECORD
  5
18F0
102
{ACAD_REACTORS
330
18AE
102
}
100
AcDbXrecord
280
           0
102
ACAD_ROUNDTRIP_PRE2007_TABLESTYLE
 90
      512
 91
        0
  1

 92
      512
 93
        0
  2

 94
      512
 95
        0
  3

  0
DICTIONARY
  5
18F1
102
{ACAD_REACTORS
330
C
102
}
100
AcDbDictionary
280
           0
281
           1
  3
CANNOSCALE
350
18F4
  3
CMLEADERSTYLE
350
18F3
  3
CTABLESTYLE
350
18F2
  3
DIMASSOC
350
18F7
  3
INDEXCTL
350
18F6
  3
SORTENTS
350
18F5
  3
DIMADEC
350
18F8
  0
DICTIONARYVAR
  5
18F2
102
{ACAD_REACTORS
330
18F1
102
}
100
DictionaryVariables
280
           0
  1
STANDARD
  0
DICTIONARYVAR
  5
18F3
102
{ACAD_REACTORS
330
18F1
102
}
100
DictionaryVariables
280
           0
  1
STANDARD
  0
DICTIONARYVAR
  5
18F4
102
{ACAD_REACTORS
330
18F1
102
}
100
DictionaryVariables
280
           0
  1
1:1
  0
DICTIONARYVAR
  5
18F5
102
{ACAD_REACTORS
330
18F1
102
}
100
DictionaryVariables
280
           0
  1
127
  0
DICTIONARYVAR
  5
18F6
102
{ACAD_REACTORS
330
18F1
102
}
100
DictionaryVariables
280
           0
  1
0
  0
DICTIONARYVAR
  5
18F7
102
{ACAD_REACTORS
330
18F1
102
}
100
DictionaryVariables
280
           0
  1
1
  0
DICTIONARYVAR
  5
18F8
102
{ACAD_REACTORS
330
18F1
102
}
100
DictionaryVariables
280
           0
  1
0
  0
ENDSEC
  0
EOF
