  0
SECTION
  2
HEADER
  9
$ACADVER
  1
AC1032
  9
$ACADMAINTVER
 90
       55
  9
$DWGCODEPAGE
  3
ANSI_1252
  9
$LASTSAVEDBY
  1
mariehp
  9
$REQUIREDVERSIONS
160
                 0
  9
$INSBASE
 10
0.0
 20
0.0
 30
0.0
  9
$EXTMIN
 10
97.4224494321
 20
19.1235841424
 30
0.0
  9
$EXTMAX
 10
128.4224494321
 20
43.24017365329999
 30
0.0
  9
$LIMMIN
 10
0.0
 20
0.0
  9
$LIMMAX
 10
181.3333333333
 20
117.3333333333
  9
$ORTHOMODE
 70
     0
  9
$REGENMODE
 70
     1
  9
$FILLMODE
 70
     1
  9
$QTEXTMODE
 70
     0
  9
$MIRRTEXT
 70
     0
  9
$LTSCALE
 40
9.973333333300001
  9
$ATTMODE
 70
     1
  9
$TEXTSIZE
 40
0.2
  9
$TRACEWID
 40
0.05
  9
$TEXTSTYLE
  7
STANDARD
  9
$CLAYER
  8
0
  9
$CELTYPE
  6
BYLAYER
  9
$CECOLOR
 62
   256
  9
$CELTSCALE
 40
1.0
  9
$DISPSILH
 70
     0
  9
$DIMSCALE
 40
1.0
  9
$DIMASZ
 40
2.0
  9
$DIMEXO
 40
0.0625
  9
$DIMDLI
 40
6.890666666699999
  9
$DIMRND
 40
0.0
  9
$DIMDLE
 40
0.0
  9
$DIMEXE
 40
0.125
  9
$DIMTP
 40
0.001
  9
$DIMTM
 40
0.001
  9
$DIMTXT
 40
1.333333333299999
  9
$DIMCEN
 40
1.631999999999999
  9
$DIMTSZ
 40
0.0
  9
$DIMTOL
 70
     1
  9
$DIMLIM
 70
     0
  9
$DIMTIH
 70
     1
  9
$DIMTOH
 70
     1
  9
$DIMSE1
 70
     0
  9
$DIMSE2
 70
     0
  9
$DIMTAD
 70
     0
  9
$DIMZIN
 70
     0
  9
$DIMBLK
  1
_FILLED
  9
$DIMASO
 70
     1
  9
$DIMSHO
 70
     1
  9
$DIMPOST
  1

  9
$DIMAPOST
  1

  9
$DIMALT
 70
     1
  9
$DIMALTD
 70
     2
  9
$DIMALTF
 40
25.4
  9
$DIMLFAC
 40
1.0
  9
$DIMTOFL
 70
     0
  9
$DIMTVP
 40
0.0
  9
$DIMTIX
 70
     0
  9
$DIMSOXD
 70
     0
  9
$DIMSAH
 70
     0
  9
$DIMBLK1
  1

  9
$DIMBLK2
  1

  9
$DIMSTYLE
  2
STANDARD
  9
$DIMCLRD
 70
     0
  9
$DIMCLRE
 70
     0
  9
$DIMCLRT
 70
     0
  9
$DIMTFAC
 40
1.0
  9
$DIMGAP
 40
0.09
  9
$DIMJUST
 70
     0
  9
$DIMSD1
 70
     0
  9
$DIMSD2
 70
     0
  9
$DIMTOLJ
 70
     1
  9
$DIMTZIN
 70
     0
  9
$DIMALTZ
 70
     0
  9
$DIMALTTZ
 70
     0
  9
$DIMUPT
 70
     0
  9
$DIMDEC
 70
     4
  9
$DIMTDEC
 70
     4
  9
$DIMALTU
 70
     2
  9
$DIMALTTD
 70
     2
  9
$DIMTXSTY
  7
STANDARD
  9
$DIMAUNIT
 70
     0
  9
$DIMADEC
 70
     0
  9
$DIMALTRND
 40
0.0
  9
$DIMAZIN
 70
     0
  9
$DIMDSEP
 70
    46
  9
$DIMATFIT
 70
     3
  9
$DIMFRAC
 70
     0
  9
$DIMLDRBLK
  1

  9
$DIMLUNIT
 70
     2
  9
$DIMLWD
 70
    -2
  9
$DIMLWE
 70
    -2
  9
$DIMTMOVE
 70
     0
  9
$DIMFXL
 40
1.0
  9
$DIMFXLON
 70
     0
  9
$DIMJOGANG
 40
0.7853981633974483
  9
$DIMTFILL
 70
     0
  9
$DIMTFILLCLR
 70
     0
  9
$DIMARCSYM
 70
     0
  9
$DIMLTYPE
  6

  9
$DIMLTEX1
  6

  9
$DIMLTEX2
  6

  9
$DIMTXTDIRECTION
 70
     0
  9
$LUNITS
 70
     2
  9
$LUPREC
 70
     4
  9
$SKETCHINC
 40
0.1
  9
$FILLETRAD
 40
0.0
  9
$AUNITS
 70
     0
  9
$AUPREC
 70
     0
  9
$MENU
  1
.
  9
$ELEVATION
 40
0.0
  9
$PELEVATION
 40
0.0
  9
$THICKNESS
 40
0.0
  9
$LIMCHECK
 70
     0
  9
$CHAMFERA
 40
0.0
  9
$CHAMFERB
 40
0.0
  9
$CHAMFERC
 40
0.0
  9
$CHAMFERD
 40
0.0
  9
$SKPOLY
 70
     0
  9
$TDCREATE
 40
2459690.364965278
  9
$TDUCREATE
 40
2459690.531631944
  9
$TDUPDATE
 40
2459773.500092592
  9
$TDUUPDATE
 40
2459773.666759259
  9
$TDINDWG
 40
0.0126273148
  9
$TDUSRTIMER
 40
0.0126273148
  9
$USRTIMER
 70
     1
  9
$ANGBASE
 50
0.0
  9
$ANGDIR
 70
     0
  9
$PDMODE
 70
     3
  9
$PDSIZE
 40
0.03125
  9
$PLINEWID
 40
0.0
  9
$SPLFRAME
 70
     0
  9
$SPLINETYPE
 70
     6
  9
$SPLINESEGS
 70
     8
  9
$HANDSEED
  5
6A19
  9
$SURFTAB1
 70
     6
  9
$SURFTAB2
 70
     6
  9
$SURFTYPE
 70
     6
  9
$SURFU
 70
     6
  9
$SURFV
 70
     6
  9
$UCSBASE
  2

  9
$UCSNAME
  2

  9
$UCSORG
 10
0.0
 20
0.0
 30
0.0
  9
$UCSXDIR
 10
1.0
 20
0.0
 30
0.0
  9
$UCSYDIR
 10
0.0
 20
1.0
 30
0.0
  9
$UCSORTHOREF
  2

  9
$UCSORTHOVIEW
 70
     0
  9
$UCSORGTOP
 10
0.0
 20
0.0
 30
0.0
  9
$UCSORGBOTTOM
 10
0.0
 20
0.0
 30
0.0
  9
$UCSORGLEFT
 10
0.0
 20
0.0
 30
0.0
  9
$UCSORGRIGHT
 10
0.0
 20
0.0
 30
0.0
  9
$UCSORGFRONT
 10
0.0
 20
0.0
 30
0.0
  9
$UCSORGBACK
 10
0.0
 20
0.0
 30
0.0
  9
$PUCSBASE
  2

  9
$PUCSNAME
  2

  9
$PUCSORG
 10
0.0
 20
0.0
 30
0.0
  9
$PUCSXDIR
 10
1.0
 20
0.0
 30
0.0
  9
$PUCSYDIR
 10
0.0
 20
1.0
 30
0.0
  9
$PUCSORTHOREF
  2

  9
$PUCSORTHOVIEW
 70
     0
  9
$PUCSORGTOP
 10
0.0
 20
0.0
 30
0.0
  9
$PUCSORGBOTTOM
 10
0.0
 20
0.0
 30
0.0
  9
$PUCSORGLEFT
 10
0.0
 20
0.0
 30
0.0
  9
$PUCSORGRIGHT
 10
0.0
 20
0.0
 30
0.0
  9
$PUCSORGFRONT
 10
0.0
 20
0.0
 30
0.0
  9
$PUCSORGBACK
 10
0.0
 20
0.0
 30
0.0
  9
$USERI1
 70
     0
  9
$USERI2
 70
     0
  9
$USERI3
 70
     0
  9
$USERI4
 70
     0
  9
$USERI5
 70
     0
  9
$USERR1
 40
0.0
  9
$USERR2
 40
0.0
  9
$USERR3
 40
0.0
  9
$USERR4
 40
0.0
  9
$USERR5
 40
0.0
  9
$WORLDVIEW
 70
     1
  9
$SHADEDGE
 70
     3
  9
$SHADEDIF
 70
    70
  9
$TILEMODE
 70
     1
  9
$MAXACTVP
 70
    64
  9
$PINSBASE
 10
0.0
 20
0.0
 30
0.0
  9
$PLIMCHECK
 70
     0
  9
$PEXTMIN
 10
1.000000000000000E+20
 20
1.000000000000000E+20
 30
1.000000000000000E+20
  9
$PEXTMAX
 10
-1.000000000000000E+20
 20
-1.000000000000000E+20
 30
-1.000000000000000E+20
  9
$PLIMMIN
 10
0.0
 20
0.0
  9
$PLIMMAX
 10
12.0
 20
9.0
  9
$UNITMODE
 70
     0
  9
$VISRETAIN
 70
     1
  9
$PLINEGEN
 70
     0
  9
$PSLTSCALE
 70
     1
  9
$TREEDEPTH
 70
  3020
  9
$CMLSTYLE
  2
Standard
  9
$CMLJUST
 70
     0
  9
$CMLSCALE
 40
1.0
  9
$PROXYGRAPHICS
 70
     1
  9
$MEASUREMENT
 70
     0
  9
$CELWEIGHT
370
    -1
  9
$ENDCAPS
280
     0
  9
$JOINSTYLE
280
     0
  9
$LWDISPLAY
290
     0
  9
$INSUNITS
 70
     1
  9
$HYPERLINKBASE
  1

  9
$STYLESHEET
  1

  9
$XEDIT
290
     1
  9
$CEPSNTYPE
380
     0
  9
$PSTYLEMODE
290
     1
  9
$FINGERPRINTGUID
  2
{356A01AF-3562-BA45-B3BE-C9BD5CA13709}
  9
$VERSIONGUID
  2
{A5A8BF5E-BCD8-0545-9C51-E02C55581975}
  9
$EXTNAMES
290
     1
  9
$PSVPSCALE
 40
0.0
  9
$OLESTARTUP
290
     0
  9
$SORTENTS
280
   127
  9
$INDEXCTL
280
     0
  9
$HIDETEXT
280
     0
  9
$XCLIPFRAME
280
     2
  9
$HALOGAP
280
     0
  9
$OBSCOLOR
 70
   257
  9
$OBSLTYPE
280
     0
  9
$INTERSECTIONDISPLAY
280
     0
  9
$INTERSECTIONCOLOR
 70
   257
  9
$DIMASSOC
280
     1
  9
$PROJECTNAME
  1

  9
$CAMERADISPLAY
290
     0
  9
$LENSLENGTH
 40
50.0
  9
$CAMERAHEIGHT
 40
0.0
  9
$STEPSPERSEC
 40
2.0
  9
$STEPSIZE
 40
6.0
  9
$3DDWFPREC
 40
2.0
  9
$PSOLWIDTH
 40
0.25
  9
$PSOLHEIGHT
 40
4.0
  9
$LOFTANG1
 40
1.570796326794896
  9
$LOFTANG2
 40
1.570796326794896
  9
$LOFTMAG1
 40
0.0
  9
$LOFTMAG2
 40
0.0
  9
$LOFTPARAM
 70
     7
  9
$LOFTNORMALS
280
     1
  9
$LATITUDE
 40
37.795
  9
$LONGITUDE
 40
-122.394
  9
$NORTHDIRECTION
 40
0.0
  9
$TIMEZONE
 70
 -8000
  9
$LIGHTGLYPHDISPLAY
280
     1
  9
$TILEMODELIGHTSYNCH
280
     1
  9
$CMATERIAL
347
67EF
  9
$SOLIDHIST
280
     0
  9
$SHOWHIST
280
     1
  9
$DWFFRAME
280
     2
  9
$DGNFRAME
280
     0
  9
$REALWORLDSCALE
290
     1
  9
$INTERFERECOLOR
 62
     1
  9
$INTERFEREOBJVS
345
6811
  9
$INTERFEREVPVS
346
680E
  9
$CSHADOW
280
     0
  9
$SHADOWPLANELOCATION
 40
0.0
  0
ENDSEC
  0
SECTION
  2
CLASSES
  0
CLASS
  1
ACDBDICTIONARYWDFLT
  2
AcDbDictionaryWithDefault
  3
ObjectDBX Classes
 90
        0
 91
        1
280
     0
281
     0
  0
CLASS
  1
MATERIAL
  2
AcDbMaterial
  3
ObjectDBX Classes
 90
     1153
 91
        3
280
     0
281
     0
  0
CLASS
  1
VISUALSTYLE
  2
AcDbVisualStyle
  3
ObjectDBX Classes
 90
     4095
 91
       24
280
     0
281
     0
  0
CLASS
  1
TABLESTYLE
  2
AcDbTableStyle
  3
ObjectDBX Classes
 90
     4095
 91
        1
280
     0
281
     0
  0
CLASS
  1
SCALE
  2
AcDbScale
  3
ObjectDBX Classes
 90
     1153
 91
       17
280
     0
281
     0
  0
CLASS
  1
MLEADERSTYLE
  2
AcDbMLeaderStyle
  3
ACDB_MLEADERSTYLE_CLASS
 90
     4095
 91
        1
280
     0
281
     0
  0
CLASS
  1
ACDBSECTIONVIEWSTYLE
  2
AcDbSectionViewStyle
  3
ObjectDBX Classes
 90
     1025
 91
        1
280
     0
281
     0
  0
CLASS
  1
ACDBDETAILVIEWSTYLE
  2
AcDbDetailViewStyle
  3
ObjectDBX Classes
 90
     1025
 91
        1
280
     0
281
     0
  0
CLASS
  1
CELLSTYLEMAP
  2
AcDbCellStyleMap
  3
ObjectDBX Classes
 90
     1152
 91
        2
280
     0
281
     0
  0
CLASS
  1
DICTIONARYVAR
  2
AcDbDictionaryVar
  3
ObjectDBX Classes
 90
        0
 91
       12
280
     0
281
     0
  0
ENDSEC
  0
SECTION
  2
TABLES
  0
TABLE
  2
VPORT
  5
8
102
{ACAD_XDICTIONARY
360
683F
102
}
330
0
100
AcDbSymbolTable
 70
     1
  0
VPORT
  5
1F4
330
8
100
AcDbSymbolTableRecord
100
AcDbViewportTableRecord
  2
*ACTIVE
 70
     0
 10
0.0
 20
0.0
 11
1.0
 21
1.0
 12
118.3225175321763
 22
32.38591450857167
 13
0.0
 23
0.0
 14
1.0
 24
1.0
 15
0.0
 25
0.0
 16
0.0
 26
0.0
 36
1.0
 17
0.0
 27
0.0
 37
0.0
 40
35.35279854566592
 41
1.976027397260273
 42
50.0
 43
0.0
 44
0.0
 50
0.0
 51
0.0
 71
     0
 72
   100
 73
     1
 74
     1
 75
     0
 76
     0
 77
     0
 78
     0
281
     0
 65
     1
110
0.0
120
0.0
130
0.0
111
1.0
121
0.0
131
0.0
112
0.0
122
1.0
132
0.0
 79
     0
146
0.0
348
680D
 60
     3
 61
     5
292
     1
282
     1
141
0.0
142
0.0
 63
   250
421
  3355443
1001
ACAD_NAV_VCDISPLAY
1070
     3
  0
ENDTAB
  0
TABLE
  2
LTYPE
  5
5
330
0
100
AcDbSymbolTable
 70
     6
  0
LTYPE
  5
14
330
5
100
AcDbSymbolTableRecord
100
AcDbLinetypeTableRecord
  2
BYBLOCK
 70
     0
  3

 72
    65
 73
     0
 40
0.0
  0
LTYPE
  5
15
330
5
100
AcDbSymbolTableRecord
100
AcDbLinetypeTableRecord
  2
BYLAYER
 70
     0
  3

 72
    65
 73
     0
 40
0.0
  0
LTYPE
  5
16
330
5
100
AcDbSymbolTableRecord
100
AcDbLinetypeTableRecord
  2
CONTINUOUS
 70
     0
  3
Solid line
 72
    65
 73
     0
 40
0.0
  0
LTYPE
  5
1F5
330
5
100
AcDbSymbolTableRecord
100
AcDbLinetypeTableRecord
  2
CENTER
 70
     0
  3
____ _ ____ _ ____ _ ____ _ ____ _ ____ _ ____
 72
    65
 73
     4
 40
0.6
 49
0.375
 74
     0
 49
-0.075
 74
     0
 49
0.075
 74
     0
 49
-0.075
 74
     0
  0
LTYPE
  5
1F6
330
5
100
AcDbSymbolTableRecord
100
AcDbLinetypeTableRecord
  2
HIDDEN
 70
     0
  3
- - - - - - - - - - - - - - - - - - - -
 72
    65
 73
     2
 40
0.2
 49
0.1
 74
     0
 49
-0.1
 74
     0
  0
LTYPE
  5
1F7
330
5
100
AcDbSymbolTableRecord
100
AcDbLinetypeTableRecord
  2
PHANTOM
 70
     0
  3
_____ _ _ _____ _ _ _____ _ _ _____
 72
    65
 73
     6
 40
0.8
 49
0.45
 74
     0
 49
-0.05
 74
     0
 49
0.1
 74
     0
 49
-0.05
 74
     0
 49
0.1
 74
     0
 49
-0.05
 74
     0
  0
LTYPE
  5
1F8
330
5
100
AcDbSymbolTableRecord
100
AcDbLinetypeTableRecord
  2
DOT
 70
     0
  3
. . . . . . . . . . . . . . . . . . . .
 72
    65
 73
     2
 40
0.2
 49
0.1
 74
     0
 49
-0.1
 74
     0
  0
LTYPE
  5
1F9
330
5
100
AcDbSymbolTableRecord
100
AcDbLinetypeTableRecord
  2
DASHED
 70
     0
  3
- - - - - - - - - - - - - - - - - - - -
 72
    65
 73
     2
 40
0.2
 49
0.1
 74
     0
 49
-0.1
 74
     0
  0
ENDTAB
  0
TABLE
  2
LAYER
  5
2
102
{ACAD_XDICTIONARY
360
6A0F
102
}
330
0
100
AcDbSymbolTable
 70
    31
  0
LAYER
  5
10
102
{ACAD_XDICTIONARY
360
68AA
102
}
330
2
100
AcDbSymbolTableRecord
100
AcDbLayerTableRecord
  2
0
 70
     0
 62
     7
  6
CONTINUOUS
370
    -3
390
F
347
67FF
348
0
  0
LAYER
  5
1FA
102
{ACAD_XDICTIONARY
360
68AC
102
}
330
2
100
AcDbSymbolTableRecord
100
AcDbLayerTableRecord
  2
DEFAULT_1
 70
     0
 62
     7
  6
CENTER
370
    -3
390
F
347
67FF
348
0
  0
LAYER
  5
1FB
102
{ACAD_XDICTIONARY
360
68AE
102
}
330
2
100
AcDbSymbolTableRecord
100
AcDbLayerTableRecord
  2
DEFAULT_2
 70
     0
 62
     8
  6
HIDDEN
370
    -3
390
F
347
67FF
348
0
  0
LAYER
  5
1FC
102
{ACAD_XDICTIONARY
360
68B0
102
}
330
2
100
AcDbSymbolTableRecord
100
AcDbLayerTableRecord
  2
DEFAULT_3
 70
     0
 62
     7
  6
PHANTOM
370
    -3
390
F
347
67FF
348
0
  0
LAYER
  5
1FD
102
{ACAD_XDICTIONARY
360
68B2
102
}
330
2
100
AcDbSymbolTableRecord
100
AcDbLayerTableRecord
  2
0_DEFAULT
 70
     0
 62
     7
  6
CONTINUOUS
370
    -3
390
F
347
67FF
348
0
  0
LAYER
  5
1FE
102
{ACAD_XDICTIONARY
360
68B4
102
}
330
2
100
AcDbSymbolTableRecord
100
AcDbLayerTableRecord
  2
1_CURVES
 70
     0
 62
     7
  6
CONTINUOUS
370
    -3
390
F
347
67FF
348
0
  0
LAYER
  5
1FF
102
{ACAD_XDICTIONARY
360
68B6
102
}
330
2
100
AcDbSymbolTableRecord
100
AcDbLayerTableRecord
  2
1_CURVES_DECOUPE
 70
     0
 62
     7
  6
CONTINUOUS
370
    -3
390
F
347
67FF
348
0
  0
LAYER
  5
200
102
{ACAD_XDICTIONARY
360
68B8
102
}
330
2
100
AcDbSymbolTableRecord
100
AcDbLayerTableRecord
  2
1_CURVES_FOND
 70
     0
 62
     7
  6
CONTINUOUS
370
    -3
390
F
347
67FF
348
0
  0
LAYER
  5
201
102
{ACAD_XDICTIONARY
360
68BA
102
}
330
2
100
AcDbSymbolTableRecord
100
AcDbLayerTableRecord
  2
1_CURVES_ILLUSIO
 70
     0
 62
     7
  6
CONTINUOUS
370
    -3
390
F
347
67FF
348
0
  0
LAYER
  5
202
102
{ACAD_XDICTIONARY
360
68BC
102
}
330
2
100
AcDbSymbolTableRecord
100
AcDbLayerTableRecord
  2
1_CURVES_JETS
 70
     0
 62
     7
  6
CONTINUOUS
370
    -3
390
F
347
67FF
348
0
  0
LAYER
  5
203
102
{ACAD_XDICTIONARY
360
68BE
102
}
330
2
100
AcDbSymbolTableRecord
100
AcDbLayerTableRecord
  2
1_CURVES_PLAGE
 70
     0
 62
     7
  6
CONTINUOUS
370
    -3
390
F
347
67FF
348
0
  0
LAYER
  5
204
102
{ACAD_XDICTIONARY
360
68C0
102
}
330
2
100
AcDbSymbolTableRecord
100
AcDbLayerTableRecord
  2
1_CURVES_POSITION_DOT
 70
     0
 62
     7
  6
CONTINUOUS
370
    -3
390
F
347
67FF
348
0
  0
LAYER
  5
205
102
{ACAD_XDICTIONARY
360
68C2
102
}
330
2
100
AcDbSymbolTableRecord
100
AcDbLayerTableRecord
  2
1_CURVES_SPEC_FRONT
 70
     0
 62
     7
  6
CONTINUOUS
370
    -3
390
F
347
67FF
348
0
  0
LAYER
  5
206
102
{ACAD_XDICTIONARY
360
68C4
102
}
330
2
100
AcDbSymbolTableRecord
100
AcDbLayerTableRecord
  2
1_CURVES_SPEC_RIGHT
 70
     0
 62
     7
  6
CONTINUOUS
370
    -3
390
F
347
67FF
348
0
  0
LAYER
  5
207
102
{ACAD_XDICTIONARY
360
68C6
102
}
330
2
100
AcDbSymbolTableRecord
100
AcDbLayerTableRecord
  2
2_PLANES
 70
     0
 62
     7
  6
CONTINUOUS
370
    -3
390
F
347
67FF
348
0
  0
LAYER
  5
208
102
{ACAD_XDICTIONARY
360
68C8
102
}
330
2
100
AcDbSymbolTableRecord
100
AcDbLayerTableRecord
  2
2_PLANES_ILLUSIO
 70
     0
 62
     7
  6
CONTINUOUS
370
    -3
390
F
347
67FF
348
0
  0
LAYER
  5
209
102
{ACAD_XDICTIONARY
360
68CA
102
}
330
2
100
AcDbSymbolTableRecord
100
AcDbLayerTableRecord
  2
3_POINTS
 70
     0
 62
     7
  6
CONTINUOUS
370
    -3
390
F
347
67FF
348
0
  0
LAYER
  5
20A
102
{ACAD_XDICTIONARY
360
68CC
102
}
330
2
100
AcDbSymbolTableRecord
100
AcDbLayerTableRecord
  2
3_POINTS_JETS
 70
     0
 62
     7
  6
CONTINUOUS
370
    -3
390
F
347
67FF
348
0
  0
LAYER
  5
20B
102
{ACAD_XDICTIONARY
360
68CE
102
}
330
2
100
AcDbSymbolTableRecord
100
AcDbLayerTableRecord
  2
4_CSYS
 70
     0
 62
     7
  6
CONTINUOUS
370
    -3
390
F
347
67FF
348
0
  0
LAYER
  5
20C
102
{ACAD_XDICTIONARY
360
68D0
102
}
330
2
100
AcDbSymbolTableRecord
100
AcDbLayerTableRecord
  2
5_AXIS
 70
     0
 62
     7
  6
CONTINUOUS
370
    -3
390
F
347
67FF
348
0
  0
LAYER
  5
20D
102
{ACAD_XDICTIONARY
360
68D2
102
}
330
2
100
AcDbSymbolTableRecord
100
AcDbLayerTableRecord
  2
5_AXIS_ILLUSIO
 70
     0
 62
     7
  6
CONTINUOUS
370
    -3
390
F
347
67FF
348
0
  0
LAYER
  5
20E
102
{ACAD_XDICTIONARY
360
68D4
102
}
330
2
100
AcDbSymbolTableRecord
100
AcDbLayerTableRecord
  2
5_AXIS_JETS
 70
     0
 62
     7
  6
CONTINUOUS
370
    -3
390
F
347
67FF
348
0
  0
LAYER
  5
20F
102
{ACAD_XDICTIONARY
360
68D6
102
}
330
2
100
AcDbSymbolTableRecord
100
AcDbLayerTableRecord
  2
6_RATIO_ETIREMENT
 70
     0
 62
     7
  6
CONTINUOUS
370
    -3
390
F
347
67FF
348
0
  0
LAYER
  5
210
102
{ACAD_XDICTIONARY
360
68D8
102
}
330
2
100
AcDbSymbolTableRecord
100
AcDbLayerTableRecord
  2
6_SURFACES
 70
     0
 62
     7
  6
CONTINUOUS
370
    -3
390
F
347
67FF
348
0
  0
LAYER
  5
211
102
{ACAD_XDICTIONARY
360
68DA
102
}
330
2
100
AcDbSymbolTableRecord
100
AcDbLayerTableRecord
  2
6_SURFACES_OFFSET_FIBRE
 70
     0
 62
     7
  6
CONTINUOUS
370
    -3
390
F
347
67FF
348
0
  0
LAYER
  5
212
102
{ACAD_XDICTIONARY
360
68DC
102
}
330
2
100
AcDbSymbolTableRecord
100
AcDbLayerTableRecord
  2
6_SURFACES_TOOLING
 70
     0
 62
     7
  6
CONTINUOUS
370
    -3
390
F
347
67FF
348
0
  0
LAYER
  5
213
102
{ACAD_XDICTIONARY
360
68DE
102
}
330
2
100
AcDbSymbolTableRecord
100
AcDbLayerTableRecord
  2
7_NOTES
 70
     0
 62
     7
  6
CONTINUOUS
370
    -3
390
F
347
67FF
348
0
  0
LAYER
  5
214
102
{ACAD_XDICTIONARY
360
68E0
102
}
330
2
100
AcDbSymbolTableRecord
100
AcDbLayerTableRecord
  2
CURVE_ZONE_ROBINETTERIE
 70
     0
 62
     7
  6
CONTINUOUS
370
    -3
390
F
347
67FF
348
0
  0
LAYER
  5
215
102
{ACAD_XDICTIONARY
360
68E2
102
}
330
2
100
AcDbSymbolTableRecord
100
AcDbLayerTableRecord
  2
MIA_PLUS_TROU
 70
     0
 62
     7
  6
CONTINUOUS
370
    -3
390
F
347
67FF
348
0
  0
LAYER
  5
216
102
{ACAD_XDICTIONARY
360
68E4
102
}
330
2
100
AcDbSymbolTableRecord
100
AcDbLayerTableRecord
  2
MIA_TROU
 70
     0
 62
     7
  6
CONTINUOUS
370
    -3
390
F
347
67FF
348
0
  0
LAYER
  5
217
102
{ACAD_XDICTIONARY
360
68E6
102
}
330
2
100
AcDbSymbolTableRecord
100
AcDbLayerTableRecord
  2
XSEC_DATUMS
 70
     0
 62
     7
  6
CONTINUOUS
370
    -3
390
F
347
67FF
348
0
  0
ENDTAB
  0
TABLE
  2
STYLE
  5
3
330
0
100
AcDbSymbolTable
 70
     8
  0
STYLE
  5
11
330
3
100
AcDbSymbolTableRecord
100
AcDbTextStyleTableRecord
  2
STANDARD
 70
     0
 40
0.0
 41
0.8
 50
0.0
 71
     0
 42
0.2
  3
txt
  4

  0
STYLE
  5
218
330
3
100
AcDbSymbolTableRecord
100
AcDbTextStyleTableRecord
  2
TEXTSTYLE_1
 70
     0
 40
0.0
 41
0.8
 50
0.0
 71
     0
 42
0.2
  3
gdt
  4

  0
STYLE
  5
219
330
3
100
AcDbSymbolTableRecord
100
AcDbTextStyleTableRecord
  2
TEXTSTYLE_2
 70
     0
 40
0.0
 41
1.0
 50
0.0
 71
     0
 42
0.2
  3

  4

1001
ACAD
1000
CG Triumvirate
1071
       34
  0
STYLE
  5
21A
330
3
100
AcDbSymbolTableRecord
100
AcDbTextStyleTableRecord
  2
TEXTSTYLE_3
 70
     0
 40
0.0
 41
1.0
 50
0.0
 71
     0
 42
0.2
  3

  4

1001
ACAD
1000
CG Triumvirate
1071
       34
  0
STYLE
  5
21B
330
3
100
AcDbSymbolTableRecord
100
AcDbTextStyleTableRecord
  2
TEXTSTYLE_4
 70
     0
 40
0.0
 41
1.0
 50
0.0
 71
     0
 42
0.2
  3
txt
  4

  0
STYLE
  5
21C
330
3
100
AcDbSymbolTableRecord
100
AcDbTextStyleTableRecord
  2
TEXTSTYLE_5
 70
     0
 40
0.0
 41
1.0
 50
0.0
 71
     0
 42
0.2
  3
txt
  4

  0
STYLE
  5
21D
330
3
100
AcDbSymbolTableRecord
100
AcDbTextStyleTableRecord
  2
TEXTSTYLE_6
 70
     0
 40
0.0
 41
1.0
 50
0.0
 71
     0
 42
0.2
  3

  4

1001
ACAD
1000
CG Triumvirate
1071
       34
  0
STYLE
  5
21E
330
3
100
AcDbSymbolTableRecord
100
AcDbTextStyleTableRecord
  2
TEXTSTYLE_7
 70
     0
 40
0.0
 41
0.8
 50
0.0
 71
     0
 42
0.2
  3
txt
  4

  0
ENDTAB
  0
TABLE
  2
VIEW
  5
6
330
0
100
AcDbSymbolTable
 70
     1
  0
ENDTAB
  0
TABLE
  2
UCS
  5
7
330
0
100
AcDbSymbolTable
 70
     0
  0
ENDTAB
  0
TABLE
  2
APPID
  5
9
330
0
100
AcDbSymbolTable
 70
     3
  0
APPID
  5
21F
330
9
100
AcDbSymbolTableRecord
100
AcDbRegAppTableRecord
  2
ACAD
 70
     0
  0
APPID
  5
6895
330
9
100
AcDbSymbolTableRecord
100
AcDbRegAppTableRecord
  2
ACAD_MLEADERVER
 70
     0
  0
APPID
  5
68E8
330
9
100
AcDbSymbolTableRecord
100
AcDbRegAppTableRecord
  2
ACAD_NAV_VCDISPLAY
 70
     0
  0
ENDTAB
  0
TABLE
  2
DIMSTYLE
  5
A
330
0
100
AcDbSymbolTable
 70
     2
100
AcDbDimStyleTable
 71
     0
  0
DIMSTYLE
105
228
330
A
100
AcDbSymbolTableRecord
100
AcDbDimStyleTableRecord
  2
STANDARD
 70
     0
 41
2.0
 44
0.125
 47
0.001
 48
0.001
 71
     1
 78
     4
 79
     1
140
1.333333333299999
143
2.54
170
     1
179
     3
271
     3
272
     3
284
     4
340
11
341
222
342
222
343
222
344
222
  0
DIMSTYLE
105
229
330
A
100
AcDbSymbolTableRecord
100
AcDbDimStyleTableRecord
  2
DIMSTYLE_1
 70
     0
 41
2.0
 44
0.125
 47
0.001
 48
0.001
 78
     4
 79
     1
140
1.333333333299999
143
2.54
147
0.0625
170
     1
171
     0
179
     3
272
    16
274
     0
284
     4
340
11
341
222
342
222
343
222
344
222
  0
ENDTAB
  0
TABLE
  2
BLOCK_RECORD
  5
1
330
0
100
AcDbSymbolTable
 70
     4
  0
BLOCK_RECORD
  5
220
330
1
100
AcDbSymbolTableRecord
100
AcDbBlockTableRecord
  2
*Model_Space
340
67E8
 70
     0
280
     1
281
     0
  0
BLOCK_RECORD
  5
221
330
1
100
AcDbSymbolTableRecord
100
AcDbBlockTableRecord
  2
*Paper_Space
340
67E9
 70
     0
280
     1
281
     0
  0
BLOCK_RECORD
  5
222
330
1
100
AcDbSymbolTableRecord
100
AcDbBlockTableRecord
  2
_FILLED
340
0
 70
     0
280
     1
281
     0
  0
BLOCK_RECORD
  5
225
330
1
100
AcDbSymbolTableRecord
100
AcDbBlockTableRecord
  2
L03-USAGE_INTERNE_SEULEM_BL2
340
0
 70
     0
280
     1
281
     0
  0
BLOCK_RECORD
  5
226
330
1
100
AcDbSymbolTableRecord
100
AcDbBlockTableRecord
  2
L03-MOTEUR-CONTROLE-LED_BL1
340
0
 70
     0
280
     1
281
     0
  0
BLOCK_RECORD
  5
227
330
1
100
AcDbSymbolTableRecord
100
AcDbBlockTableRecord
  2
L03-NOTE_SPECS_BAINS_BL0
340
0
 70
     0
280
     1
281
     0
  0
ENDTAB
  0
ENDSEC
  0
SECTION
  2
BLOCKS
  0
BLOCK
  5
20
330
220
100
AcDbEntity
  8
0
100
AcDbBlockBegin
  2
*Model_Space
 70
     0
 10
0.0
 20
0.0
 30
0.0
  3
*Model_Space
  1

  0
ENDBLK
  5
21
330
220
100
AcDbEntity
  8
0
100
AcDbBlockEnd
  0
BLOCK
  5
1C
330
221
100
AcDbEntity
 67
     1
  8
0
100
AcDbBlockBegin
  2
*Paper_Space
 70
     0
 10
0.0
 20
0.0
 30
0.0
  3
*Paper_Space
  1

  0
ENDBLK
  5
1D
330
221
100
AcDbEntity
 67
     1
  8
0
100
AcDbBlockEnd
  0
BLOCK
  5
2F9
330
222
100
AcDbEntity
  8
0
100
AcDbBlockBegin
  2
_FILLED
 70
     0
 10
0.0
 20
0.0
 30
0.0
  3
_FILLED
  1

  0
SOLID
  5
2FA
330
222
100
AcDbEntity
  8
0
  6
ByBlock
 62
     0
100
AcDbTrace
 10
0.0
 20
0.0
 30
0.0
 11
-1.0
 21
0.1666666667
 31
0.0
 12
-1.0
 22
-0.1666666667
 32
0.0
 13
-1.0
 23
-0.1666666667
 33
0.0
  0
ENDBLK
  5
2FB
330
222
100
AcDbEntity
  8
0
  6
ByBlock
 62
     0
100
AcDbBlockEnd
  0
BLOCK
  5
22A
330
225
100
AcDbEntity
  8
0
  6
Continuous
 62
     2
100
AcDbBlockBegin
  2
L03-USAGE_INTERNE_SEULEM_BL2
 70
     0
 10
118.5494982453
 20
50.4006314105
 30
0.0
  3
L03-USAGE_INTERNE_SEULEM_BL2
  1

  0
TEXT
  5
22B
330
225
100
AcDbEntity
  8
0
  6
Continuous
 62
     7
100
AcDbText
 10
112.2354379435
 20
52.6456653963
 30
0.0
 40
1.1626666667
  1
INTERNAL USE 
 50
10.0
  7
TEXTSTYLE_3
100
AcDbText
  0
TEXT
  5
22C
330
225
100
AcDbEntity
  8
0
  6
Continuous
 62
     7
100
AcDbText
 10
111.4917537395
 20
50.6441442186
 30
0.0
 40
1.1626666667
  1
DOCUMENT ONLY
 50
10.0
  7
TEXTSTYLE_3
100
AcDbText
  0
TEXT
  5
22D
330
225
100
AcDbEntity
  8
0
  6
Continuous
 62
     7
100
AcDbText
 10
117.2764813027
 20
50.39571616799999
 30
0.0
 40
1.1626666667
  1
 
 50
10.0
  7
TEXTSTYLE_5
100
AcDbText
  0
TEXT
  5
22E
330
225
100
AcDbEntity
  8
0
  6
Continuous
 62
     7
100
AcDbText
 10
108.8318334197
 20
46.2186217617
 30
0.0
 40
1.1626666667
  1
DOCUMENT POUR USAGE
 50
10.0
  7
TEXTSTYLE_3
100
AcDbText
  0
TEXT
  5
22F
330
225
100
AcDbEntity
  8
0
  6
Continuous
 62
     7
100
AcDbText
 10
109.2609328657
 20
44.2018733014
 30
0.0
 40
1.1626666667
  1
A L'INTERNE SEULEMENT
 50
10.0
  7
TEXTSTYLE_3
100
AcDbText
  0
LINE
  5
230
330
225
100
AcDbEntity
  8
0
  6
Continuous
 62
     1
100
AcDbLine
 10
132.4060499686
 20
46.0570977925
 30
0.0
 11
132.4128089012
 21
46.0638567251
 31
0.0
  0
LINE
  5
231
330
225
100
AcDbEntity
  8
0
  6
Continuous
 62
     1
100
AcDbLine
 10
131.6734804022
 20
45.92792601270001
 30
0.0
 11
132.3223618473
 21
46.57680745779999
 31
0.0
  0
LINE
  5
232
330
225
100
AcDbEntity
  8
0
  6
Continuous
 62
     1
100
AcDbLine
 10
130.9409108358
 20
45.7987542329
 30
0.0
 11
132.2319147933
 21
47.08975819049999
 31
0.0
  0
LINE
  5
233
330
225
100
AcDbEntity
  8
0
  6
Continuous
 62
     1
100
AcDbLine
 10
130.2083412693
 20
45.6695824531
 30
0.0
 11
132.1414677394
 21
47.6027089232
 31
0.0
  0
LINE
  5
234
330
225
100
AcDbEntity
  8
0
  6
Continuous
 62
     1
100
AcDbLine
 10
129.4757717029
 20
45.5404106733
 30
0.0
 11
132.0510206855
 21
48.1156596558
 31
0.0
  0
LINE
  5
235
330
225
100
AcDbEntity
  8
0
  6
Continuous
 62
     1
100
AcDbLine
 10
128.7432021365
 20
45.4112388935
 30
0.0
 11
130.2842059513
 21
46.95224270819999
 31
0.0
  0
LINE
  5
236
330
225
100
AcDbEntity
  8
0
  6
Continuous
 62
     1
100
AcDbLine
 10
130.881551144
 20
47.549587901
 30
0.0
 11
131.9605736314999
 21
48.6286103885
 31
0.0
  0
LINE
  5
237
330
225
100
AcDbEntity
  8
0
  6
Continuous
 62
     1
100
AcDbLine
 10
128.0106325701
 20
45.2820671137
 30
0.0
 11
129.5516363849
 21
46.8230709284
 31
0.0
  0
LINE
  5
238
330
225
100
AcDbEntity
  8
0
  6
Continuous
 62
     1
100
AcDbLine
 10
130.7911040901
 20
48.0625386336
 30
0.0
 11
131.8701265776
 21
49.1415611212
 31
0.0
  0
LINE
  5
239
330
225
100
AcDbEntity
  8
0
  6
Continuous
 62
     1
100
AcDbLine
 10
127.2780630037
 20
45.1528953339
 30
0.0
 11
128.8190668184
 21
46.69389914859999
 31
0.0
  0
LINE
  5
23A
330
225
100
AcDbEntity
  8
0
  6
Continuous
 62
     1
100
AcDbLine
 10
130.7006570361
 20
48.5754893663
 30
0.0
 11
131.7796795236
 21
49.6545118538
 31
0.0
  0
LINE
  5
23B
330
225
100
AcDbEntity
  8
0
  6
Continuous
 62
     1
100
AcDbLine
 10
126.5454934372
 20
45.0237235541
 30
0.0
 11
128.086497252
 21
46.5647273688
 31
0.0
  0
LINE
  5
23C
330
225
100
AcDbEntity
  8
0
  6
Continuous
 62
     1
100
AcDbLine
 10
130.6102099822
 20
49.088440099
 30
0.0
 11
131.6892324697
 21
50.16746258649999
 31
0.0
  0
LINE
  5
23D
330
225
100
AcDbEntity
  8
0
  6
Continuous
 62
     1
100
AcDbLine
 10
125.8129238708
 20
44.8945517743
 30
0.0
 11
127.3539276856
 21
46.435555589
 31
0.0
  0
LINE
  5
23E
330
225
100
AcDbEntity
  8
0
  6
Continuous
 62
     1
100
AcDbLine
 10
130.5197629282
 20
49.6013908316
 30
0.0
 11
131.5987854157
 21
50.68041331919999
 31
0.0
  0
LINE
  5
23F
330
225
100
AcDbEntity
  8
0
  6
Continuous
 62
     1
100
AcDbLine
 10
125.0803543044
 20
44.76537999439999
 30
0.0
 11
126.6213581192
 21
46.30638380919999
 31
0.0
  0
LINE
  5
240
330
225
100
AcDbEntity
  8
0
  6
Continuous
 62
     1
100
AcDbLine
 10
130.4293158743
 20
50.1143415643
 30
0.0
 11
131.5083383618
 21
51.1933640518
 31
0.0
  0
LINE
  5
241
330
225
100
AcDbEntity
  8
0
  6
Continuous
 62
     1
100
AcDbLine
 10
124.347784738
 20
44.6362082146
 30
0.0
 11
125.8887885528
 21
46.17721202939999
 31
0.0
  0
LINE
  5
242
330
225
100
AcDbEntity
  8
0
  6
Continuous
 62
     1
100
AcDbLine
 10
130.3388688203
 20
50.627292297
 30
0.0
 11
131.4178913079
 21
51.70631478449999
 31
0.0
  0
LINE
  5
243
330
225
100
AcDbEntity
  8
0
  6
Continuous
 62
     1
100
AcDbLine
 10
123.6152151716
 20
44.50703643479999
 30
0.0
 11
125.1562189864
 21
46.04804024959999
 31
0.0
  0
LINE
  5
244
330
225
100
AcDbEntity
  8
0
  6
Continuous
 62
     1
100
AcDbLine
 10
130.2484217664
 20
51.1402430297
 30
0.0
 11
131.3274442539
 21
52.2192655172
 31
0.0
  0
LINE
  5
245
330
225
100
AcDbEntity
  8
0
  6
Continuous
 62
     1
100
AcDbLine
 10
122.8826456052
 20
44.377864655
 30
0.0
 11
124.4236494199
 21
45.91886846979999
 31
0.0
  0
LINE
  5
246
330
225
100
AcDbEntity
  8
0
  6
Continuous
 62
     1
100
AcDbLine
 10
130.1579747125
 20
51.65319376229999
 30
0.0
 11
131.2369972
 21
52.73221624979999
 31
0.0
  0
LINE
  5
247
330
225
100
AcDbEntity
  8
0
  6
Continuous
 62
     1
100
AcDbLine
 10
122.1500760387
 20
44.2486928752
 30
0.0
 11
123.6910798535
 21
45.78969669
 31
0.0
  0
LINE
  5
248
330
225
100
AcDbEntity
  8
0
  6
Continuous
 62
     1
100
AcDbLine
 10
129.8550951126
 20
51.95371194909999
 30
0.0
 11
131.146550146
 21
53.2451669825
 31
0.0
  0
LINE
  5
249
330
225
100
AcDbEntity
  8
0
  6
Continuous
 62
     1
100
AcDbLine
 10
121.4175064723
 20
44.11952109539999
 30
0.0
 11
122.9585102871
 21
45.6605249102
 31
0.0
  0
LINE
  5
24A
330
225
100
AcDbEntity
  8
0
  6
Continuous
 62
     1
100
AcDbLine
 10
129.1225255462
 20
51.8245401693
 30
0.0
 11
131.0561030921
 21
53.75811771520001
 31
0.0
  0
LINE
  5
24B
330
225
100
AcDbEntity
  8
0
  6
Continuous
 62
     1
100
AcDbLine
 10
120.6849369059
 20
43.99034931560001
 30
0.0
 11
122.2259407207
 21
45.5313531304
 31
0.0
  0
LINE
  5
24C
330
225
100
AcDbEntity
  8
0
  6
Continuous
 62
     1
100
AcDbLine
 10
128.3899559798
 20
51.6953683895
 30
0.0
 11
129.417298278
 21
52.7227106878
 31
0.0
  0
LINE
  5
24D
330
225
100
AcDbEntity
  8
0
  6
Continuous
 62
     1
100
AcDbLine
 10
129.8866335506
 20
53.1920459603
 30
0.0
 11
130.9656560381
 21
54.27106844779999
 31
0.0
  0
LINE
  5
24E
330
225
100
AcDbEntity
  8
0
  6
Continuous
 62
     1
100
AcDbLine
 10
119.9523673395
 20
43.86117753579999
 30
0.0
 11
121.4933711543
 21
45.4021813506
 31
0.0
  0
LINE
  5
24F
330
225
100
AcDbEntity
  8
0
  6
Continuous
 62
     1
100
AcDbLine
 10
127.6573864134
 20
51.5661966097
 30
0.0
 11
128.684728502
 21
52.5935386983
 31
0.0
  0
LINE
  5
250
330
225
100
AcDbEntity
  8
0
  6
Continuous
 62
     1
100
AcDbLine
 10
129.7961864967
 20
53.704996693
 30
0.0
 11
130.8752089842
 21
54.7840191805
 31
0.0
  0
LINE
  5
251
330
225
100
AcDbEntity
  8
0
  6
Continuous
 62
     1
100
AcDbLine
 10
119.2197977731
 20
43.73200575600001
 30
0.0
 11
120.7608015878
 21
45.2730095708
 31
0.0
  0
LINE
  5
252
330
225
100
AcDbEntity
  8
0
  6
Continuous
 62
     1
100
AcDbLine
 10
126.924816847
 20
51.4370248299
 30
0.0
 11
127.952158726
 21
52.4643667089
 31
0.0
  0
LINE
  5
253
330
225
100
AcDbEntity
  8
0
  6
Continuous
 62
     1
100
AcDbLine
 10
129.7057394427
 20
54.2179474257
 30
0.0
 11
130.7847619302
 21
55.29696991319999
 31
0.0
  0
LINE
  5
254
330
225
100
AcDbEntity
  8
0
  6
Continuous
 62
     1
100
AcDbLine
 10
118.4872282066
 20
43.60283397619999
 30
0.0
 11
120.0282320214
 21
45.143837791
 31
0.0
  0
LINE
  5
255
330
225
100
AcDbEntity
  8
0
  6
Continuous
 62
     1
100
AcDbLine
 10
126.1922472805
 20
51.3078530501
 30
0.0
 11
127.21958895
 21
52.3351947195
 31
0.0
  0
LINE
  5
256
330
225
100
AcDbEntity
  8
0
  6
Continuous
 62
     1
100
AcDbLine
 10
129.6152923888
 20
54.7308981583
 30
0.0
 11
130.6943148763
 21
55.8099206459
 31
0.0
  0
LINE
  5
257
330
225
100
AcDbEntity
  8
0
  6
Continuous
 62
     1
100
AcDbLine
 10
117.7546586402
 20
43.4736621964
 30
0.0
 11
119.295662455
 21
45.01466601119999
 31
0.0
  0
LINE
  5
258
330
225
100
AcDbEntity
  8
0
  6
Continuous
 62
     1
100
AcDbLine
 10
125.4596777141
 20
51.1786812703
 30
0.0
 11
126.4870191739
 21
52.2060227301
 31
0.0
  0
LINE
  5
259
330
225
100
AcDbEntity
  8
0
  6
Continuous
 62
     1
100
AcDbLine
 10
129.5248453348
 20
55.24384889100001
 30
0.0
 11
130.6038678224
 21
56.3228713785
 31
0.0
  0
LINE
  5
25A
330
225
100
AcDbEntity
  8
0
  6
Continuous
 62
     1
100
AcDbLine
 10
117.0220890738
 20
43.3444904166
 30
0.0
 11
118.5630928886
 21
44.8854942314
 31
0.0
  0
LINE
  5
25B
330
225
100
AcDbEntity
  8
0
  6
Continuous
 62
     1
100
AcDbLine
 10
124.7271081477
 20
51.0495094905
 30
0.0
 11
125.7544493979
 21
52.07685074069999
 31
0.0
  0
LINE
  5
25C
330
225
100
AcDbEntity
  8
0
  6
Continuous
 62
     1
100
AcDbLine
 10
129.4343982809
 20
55.75679962369999
 30
0.0
 11
130.5134207684
 21
56.8358221112
 31
0.0
  0
LINE
  5
25D
330
225
100
AcDbEntity
  8
0
  6
Continuous
 62
     1
100
AcDbLine
 10
116.2895195074
 20
43.2153186368
 30
0.0
 11
117.8305233222
 21
44.75632245159999
 31
0.0
  0
LINE
  5
25E
330
225
100
AcDbEntity
  8
0
  6
Continuous
 62
     1
100
AcDbLine
 10
123.9945385813
 20
50.92033771069999
 30
0.0
 11
125.0218796219
 21
51.94767875130001
 31
0.0
  0
LINE
  5
25F
330
225
100
AcDbEntity
  8
0
  6
Continuous
 62
     1
100
AcDbLine
 10
129.343951227
 20
56.2697503563
 30
0.0
 11
130.4229737145
 21
57.3487728439
 31
0.0
  0
LINE
  5
260
330
225
100
AcDbEntity
  8
0
  6
Continuous
 62
     1
100
AcDbLine
 10
115.556949941
 20
43.08614685699999
 30
0.0
 11
117.0979537558
 21
44.6271506718
 31
0.0
  0
LINE
  5
261
330
225
100
AcDbEntity
  8
0
  6
Continuous
 62
     1
100
AcDbLine
 10
123.2619690149
 20
50.7911659309
 30
0.0
 11
124.2893098458
 21
51.8185067618
 31
0.0
  0
LINE
  5
262
330
225
100
AcDbEntity
  8
0
  6
Continuous
 62
     1
100
AcDbLine
 10
129.253504173
 20
56.782701089
 30
0.0
 11
130.3325266605
 21
57.86172357649999
 31
0.0
  0
LINE
  5
263
330
225
100
AcDbEntity
  8
0
  6
Continuous
 62
     1
100
AcDbLine
 10
114.8243803746
 20
42.95697507719999
 30
0.0
 11
116.3653841893
 21
44.4979788919
 31
0.0
  0
LINE
  5
264
330
225
100
AcDbEntity
  8
0
  6
Continuous
 62
     1
100
AcDbLine
 10
122.5293994484
 20
50.66199415109999
 30
0.0
 11
123.5567400698
 21
51.68933477239999
 31
0.0
  0
LINE
  5
265
330
225
100
AcDbEntity
  8
0
  6
Continuous
 62
     1
100
AcDbLine
 10
129.1630571191
 20
57.29565182169999
 30
0.0
 11
130.2420796066
 21
58.3746743092
 31
0.0
  0
LINE
  5
266
330
225
100
AcDbEntity
  8
0
  6
Continuous
 62
     1
100
AcDbLine
 10
114.0918108081
 20
42.82780329739999
 30
0.0
 11
115.6328146229
 21
44.3688071121
 31
0.0
  0
LINE
  5
267
330
225
100
AcDbEntity
  8
0
  6
Continuous
 62
     1
100
AcDbLine
 10
121.796829882
 20
50.5328223713
 30
0.0
 11
122.8241702938
 21
51.560162783
 31
0.0
  0
LINE
  5
268
330
225
100
AcDbEntity
  8
0
  6
Continuous
 62
     1
100
AcDbLine
 10
128.9881810177
 20
57.72417350689999
 30
0.0
 11
130.1516325526
 21
58.88762504189999
 31
0.0
  0
LINE
  5
269
330
225
100
AcDbEntity
  8
0
  6
Continuous
 62
     1
100
AcDbLine
 10
113.3592412417
 20
42.6986315176
 30
0.0
 11
114.9002450565
 21
44.2396353323
 31
0.0
  0
LINE
  5
26A
330
225
100
AcDbEntity
  8
0
  6
Continuous
 62
     1
100
AcDbLine
 10
121.0642603156
 20
50.4036505914
 30
0.0
 11
122.0916005178
 21
51.43099079359999
 31
0.0
  0
LINE
  5
26B
330
225
100
AcDbEntity
  8
0
  6
Continuous
 62
     1
100
AcDbLine
 10
128.2556114512
 20
57.5950017271
 30
0.0
 11
129.796615266
 21
59.1360055418
 31
0.0
  0
LINE
  5
26C
330
225
100
AcDbEntity
  8
0
  6
Continuous
 62
     1
100
AcDbLine
 10
112.6266716753
 20
42.5694597378
 30
0.0
 11
114.1676754901
 21
44.11046355249999
 31
0.0
  0
LINE
  5
26D
330
225
100
AcDbEntity
  8
0
  6
Continuous
 62
     1
100
AcDbLine
 10
120.3316907492
 20
50.2744788116
 30
0.0
 11
121.3590307417
 21
51.3018188042
 31
0.0
  0
LINE
  5
26E
330
225
100
AcDbEntity
  8
0
  6
Continuous
 62
     1
100
AcDbLine
 10
127.5230418848
 20
57.46582994729999
 30
0.0
 11
129.0640456996
 21
59.00683376199999
 31
0.0
  0
LINE
  5
26F
330
225
100
AcDbEntity
  8
0
  6
Continuous
 62
     1
100
AcDbLine
 10
111.8941021089
 20
42.4402879579
 30
0.0
 11
113.4351059237
 21
43.9812917727
 31
0.0
  0
LINE
  5
270
330
225
100
AcDbEntity
  8
0
  6
Continuous
 62
     1
100
AcDbLine
 10
119.5991211828
 20
50.1453070318
 30
0.0
 11
120.6264609657
 21
51.1726468148
 31
0.0
  0
LINE
  5
271
330
225
100
AcDbEntity
  8
0
  6
Continuous
 62
     1
100
AcDbLine
 10
126.7904723184
 20
57.3366581675
 30
0.0
 11
128.3314761332
 21
58.8776619822
 31
0.0
  0
LINE
  5
272
330
225
100
AcDbEntity
  8
0
  6
Continuous
 62
     1
100
AcDbLine
 10
111.1615325425
 20
42.31111617809999
 30
0.0
 11
112.7025363572
 21
43.8521199929
 31
0.0
  0
LINE
  5
273
330
225
100
AcDbEntity
  8
0
  6
Continuous
 62
     1
100
AcDbLine
 10
118.8665516164
 20
50.01613525199999
 30
0.0
 11
119.8938911897
 21
51.04347482539999
 31
0.0
  0
LINE
  5
274
330
225
100
AcDbEntity
  8
0
  6
Continuous
 62
     1
100
AcDbLine
 10
126.057902752
 20
57.2074863877
 30
0.0
 11
127.5989065668
 21
58.7484902024
 31
0.0
  0
LINE
  5
275
330
225
100
AcDbEntity
  8
0
  6
Continuous
 62
     1
100
AcDbLine
 10
110.4289629761
 20
42.18194439829999
 30
0.0
 11
111.9699667908
 21
43.7229482131
 31
0.0
  0
LINE
  5
276
330
225
100
AcDbEntity
  8
0
  6
Continuous
 62
     1
100
AcDbLine
 10
118.1339820499
 20
49.8869634722
 30
0.0
 11
119.1613214136
 21
50.9143028359
 31
0.0
  0
LINE
  5
277
330
225
100
AcDbEntity
  8
0
  6
Continuous
 62
     1
100
AcDbLine
 10
125.3253331856
 20
57.07831460779999
 30
0.0
 11
126.8663370003
 21
58.6193184226
 31
0.0
  0
LINE
  5
278
330
225
100
AcDbEntity
  8
0
  6
Continuous
 62
     1
100
AcDbLine
 10
109.6963934096
 20
42.0527726185
 30
0.0
 11
111.2373972244
 21
43.5937764333
 31
0.0
  0
LINE
  5
279
330
225
100
AcDbEntity
  8
0
  6
Continuous
 62
     1
100
AcDbLine
 10
117.4014124835
 20
49.75779169239999
 30
0.0
 11
118.4287516376
 21
50.78513084649999
 31
0.0
  0
LINE
  5
27A
330
225
100
AcDbEntity
  8
0
  6
Continuous
 62
     1
100
AcDbLine
 10
124.5927636191
 20
56.949142828
 30
0.0
 11
126.1337674339
 21
58.4901466428
 31
0.0
  0
LINE
  5
27B
330
225
100
AcDbEntity
  8
0
  6
Continuous
 62
     1
100
AcDbLine
 10
108.9638238432
 20
41.92360083869999
 30
0.0
 11
110.504827658
 21
43.4646046535
 31
0.0
  0
LINE
  5
27C
330
225
100
AcDbEntity
  8
0
  6
Continuous
 62
     1
100
AcDbLine
 10
116.6688429171
 20
49.6286199126
 30
0.0
 11
117.6961818616
 21
50.6559588571
 31
0.0
  0
LINE
  5
27D
330
225
100
AcDbEntity
  8
0
  6
Continuous
 62
     1
100
AcDbLine
 10
123.8601940527
 20
56.81997104819999
 30
0.0
 11
125.4011978675
 21
58.360974863
 31
0.0
  0
LINE
  5
27E
330
225
100
AcDbEntity
  8
0
  6
Continuous
 62
     1
100
AcDbLine
 10
108.2312542768
 20
41.7944290589
 30
0.0
 11
109.7722580916
 21
43.3354328737
 31
0.0
  0
LINE
  5
27F
330
225
100
AcDbEntity
  8
0
  6
Continuous
 62
     1
100
AcDbLine
 10
115.9362733507
 20
49.4994481328
 30
0.0
 11
116.9636120856
 21
50.52678686770001
 31
0.0
  0
LINE
  5
280
330
225
100
AcDbEntity
  8
0
  6
Continuous
 62
     1
100
AcDbLine
 10
123.1276244863
 20
56.6907992684
 30
0.0
 11
124.6686283011
 21
58.2318030832
 31
0.0
  0
LINE
  5
281
330
225
100
AcDbEntity
  8
0
  6
Continuous
 62
     1
100
AcDbLine
 10
107.4986847104
 20
41.66525727909999
 30
0.0
 11
109.0396885252
 21
43.2062610939
 31
0.0
  0
LINE
  5
282
330
225
100
AcDbEntity
  8
0
  6
Continuous
 62
     1
100
AcDbLine
 10
115.2037037843
 20
49.370276353
 30
0.0
 11
116.2310423095
 21
50.39761487829999
 31
0.0
  0
LINE
  5
283
330
225
100
AcDbEntity
  8
0
  6
Continuous
 62
     1
100
AcDbLine
 10
122.3950549199
 20
56.56162748859999
 30
0.0
 11
123.9360587347
 21
58.1026313034
 31
0.0
  0
LINE
  5
284
330
225
100
AcDbEntity
  8
0
  6
Continuous
 62
     1
100
AcDbLine
 10
106.9473639379
 20
41.7173342932
 30
0.0
 11
108.3071189587
 21
43.0770893141
 31
0.0
  0
LINE
  5
285
330
225
100
AcDbEntity
  8
0
  6
Continuous
 62
     1
100
AcDbLine
 10
114.4711342178
 20
49.2411045732
 30
0.0
 11
115.4984725335
 21
50.2684428889
 31
0.0
  0
LINE
  5
286
330
225
100
AcDbEntity
  8
0
  6
Continuous
 62
     1
100
AcDbLine
 10
121.6624853535
 20
56.4324557088
 30
0.0
 11
123.2034891682
 21
57.9734595236
 31
0.0
  0
LINE
  5
287
330
225
100
AcDbEntity
  8
0
  6
Continuous
 62
     1
100
AcDbLine
 10
106.8569168839
 20
42.2302850259
 30
0.0
 11
107.9359393714
 21
43.3093075134
 31
0.0
  0
LINE
  5
288
330
225
100
AcDbEntity
  8
0
  6
Continuous
 62
     1
100
AcDbLine
 10
113.7385646514
 20
49.1119327934
 30
0.0
 11
114.7659027575
 21
50.1392708994
 31
0.0
  0
LINE
  5
289
330
225
100
AcDbEntity
  8
0
  6
Continuous
 62
     1
100
AcDbLine
 10
120.9299157871
 20
56.303283929
 30
0.0
 11
122.4709196018
 21
57.8442877438
 31
0.0
  0
LINE
  5
28A
330
225
100
AcDbEntity
  8
0
  6
Continuous
 62
     1
100
AcDbLine
 10
106.76646983
 20
42.7432357585
 30
0.0
 11
107.8454923175
 21
43.82225824609999
 31
0.0
  0
LINE
  5
28B
330
225
100
AcDbEntity
  8
0
  6
Continuous
 62
     1
100
AcDbLine
 10
113.005995085
 20
48.9827610136
 30
0.0
 11
114.0333329814
 21
50.01009891
 31
0.0
  0
LINE
  5
28C
330
225
100
AcDbEntity
  8
0
  6
Continuous
 62
     1
100
AcDbLine
 10
120.1973462206
 20
56.1741121492
 30
0.0
 11
121.7383500354
 21
57.71511596399999
 31
0.0
  0
LINE
  5
28D
330
225
100
AcDbEntity
  8
0
  6
Continuous
 62
     1
100
AcDbLine
 10
106.676022776
 20
43.25618649119999
 30
0.0
 11
107.7550452635
 21
44.33520897869999
 31
0.0
  0
LINE
  5
28E
330
225
100
AcDbEntity
  8
0
  6
Continuous
 62
     1
100
AcDbLine
 10
112.2734255186
 20
48.8535892338
 30
0.0
 11
113.3007632054
 21
49.8809269206
 31
0.0
  0
LINE
  5
28F
330
225
100
AcDbEntity
  8
0
  6
Continuous
 62
     1
100
AcDbLine
 10
119.4647766542
 20
56.0449403694
 30
0.0
 11
121.005780469
 21
57.5859441842
 31
0.0
  0
LINE
  5
290
330
225
100
AcDbEntity
  8
0
  6
Continuous
 62
     1
100
AcDbLine
 10
106.5855757221
 20
43.7691372239
 30
0.0
 11
107.6645982096
 21
44.8481597114
 31
0.0
  0
LINE
  5
291
330
225
100
AcDbEntity
  8
0
  6
Continuous
 62
     1
100
AcDbLine
 10
111.5408559522
 20
48.72441745399999
 30
0.0
 11
112.5681934294
 21
49.7517549312
 31
0.0
  0
LINE
  5
292
330
225
100
AcDbEntity
  8
0
  6
Continuous
 62
     1
100
AcDbLine
 10
118.7322070878
 20
55.91576858959999
 30
0.0
 11
120.2732109026
 21
57.4567724044
 31
0.0
  0
LINE
  5
293
330
225
100
AcDbEntity
  8
0
  6
Continuous
 62
     1
100
AcDbLine
 10
106.4951286681
 20
44.2820879566
 30
0.0
 11
107.5741511557
 21
45.3611104441
 31
0.0
  0
LINE
  5
294
330
225
100
AcDbEntity
  8
0
  6
Continuous
 62
     1
100
AcDbLine
 10
110.8082863858
 20
48.5952456742
 30
0.0
 11
111.8356236534
 21
49.6225829418
 31
0.0
  0
LINE
  5
295
330
225
100
AcDbEntity
  8
0
  6
Continuous
 62
     1
100
AcDbLine
 10
117.9996375214
 20
55.78659680979999
 30
0.0
 11
119.5406413362
 21
57.3276006246
 31
0.0
  0
LINE
  5
296
330
225
100
AcDbEntity
  8
0
  6
Continuous
 62
     1
100
AcDbLine
 10
106.4046816142
 20
44.7950386892
 30
0.0
 11
107.4837041017
 21
45.8740611767
 31
0.0
  0
LINE
  5
297
330
225
100
AcDbEntity
  8
0
  6
Continuous
 62
     1
100
AcDbLine
 10
110.0757168193
 20
48.46607389439999
 30
0.0
 11
111.1030538773
 21
49.4934109524
 31
0.0
  0
LINE
  5
298
330
225
100
AcDbEntity
  8
0
  6
Continuous
 62
     1
100
AcDbLine
 10
117.267067955
 20
55.65742503
 30
0.0
 11
118.8080717697
 21
57.1984288448
 31
0.0
  0
LINE
  5
299
330
225
100
AcDbEntity
  8
0
  6
Continuous
 62
     1
100
AcDbLine
 10
106.3142345603
 20
45.30798942189999
 30
0.0
 11
107.3932570478
 21
46.38701190939999
 31
0.0
  0
LINE
  5
29A
330
225
100
AcDbEntity
  8
0
  6
Continuous
 62
     1
100
AcDbLine
 10
109.3431472529
 20
48.3369021146
 30
0.0
 11
110.3704841013
 21
49.3642389629
 31
0.0
  0
LINE
  5
29B
330
225
100
AcDbEntity
  8
0
  6
Continuous
 62
     1
100
AcDbLine
 10
116.5344983885
 20
55.5282532502
 30
0.0
 11
118.0755022033
 21
57.069257065
 31
0.0
  0
LINE
  5
29C
330
225
100
AcDbEntity
  8
0
  6
Continuous
 62
     1
100
AcDbLine
 10
106.2237875063
 20
45.8209401546
 30
0.0
 11
107.3028099938
 21
46.8999626421
 31
0.0
  0
LINE
  5
29D
330
225
100
AcDbEntity
  8
0
  6
Continuous
 62
     1
100
AcDbLine
 10
108.6105776865
 20
48.2077303348
 30
0.0
 11
109.6379143253
 21
49.2350669735
 31
0.0
  0
LINE
  5
29E
330
225
100
AcDbEntity
  8
0
  6
Continuous
 62
     1
100
AcDbLine
 10
115.8019288221
 20
55.3990814704
 30
0.0
 11
117.3429326369
 21
56.94008528520001
 31
0.0
  0
LINE
  5
29F
330
225
100
AcDbEntity
  8
0
  6
Continuous
 62
     1
100
AcDbLine
 10
106.1333404524
 20
46.3338908872
 30
0.0
 11
107.2123629399
 21
47.4129133747
 31
0.0
  0
LINE
  5
2A0
330
225
100
AcDbEntity
  8
0
  6
Continuous
 62
     1
100
AcDbLine
 10
107.8780081201
 20
48.0785585549
 30
0.0
 11
108.9053445493
 21
49.1058949841
 31
0.0
  0
LINE
  5
2A1
330
225
100
AcDbEntity
  8
0
  6
Continuous
 62
     1
100
AcDbLine
 10
115.0693592557
 20
55.2699096906
 30
0.0
 11
116.6103630705
 21
56.8109135054
 31
0.0
  0
LINE
  5
2A2
330
225
100
AcDbEntity
  8
0
  6
Continuous
 62
     1
100
AcDbLine
 10
106.0428933984
 20
46.84684161989999
 30
0.0
 11
107.1219158859
 21
47.92586410739999
 31
0.0
  0
LINE
  5
2A3
330
225
100
AcDbEntity
  8
0
  6
Continuous
 62
     1
100
AcDbLine
 10
107.1454385537
 20
47.9493867751
 30
0.0
 11
108.1727747732
 21
48.9767229947
 31
0.0
  0
LINE
  5
2A4
330
225
100
AcDbEntity
  8
0
  6
Continuous
 62
     1
100
AcDbLine
 10
114.3367896893
 20
55.1407379108
 30
0.0
 11
115.8777935041
 21
56.6817417255
 31
0.0
  0
LINE
  5
2A5
330
225
100
AcDbEntity
  8
0
  6
Continuous
 62
     1
100
AcDbLine
 10
105.9524463445
 20
47.3597923526
 30
0.0
 11
107.4402049972
 21
48.8475510053
 31
0.0
  0
LINE
  5
2A6
330
225
100
AcDbEntity
  8
0
  6
Continuous
 62
     1
100
AcDbLine
 10
113.6042201229
 20
55.011566131
 30
0.0
 11
115.1452239377
 21
56.5525699457
 31
0.0
  0
LINE
  5
2A7
330
225
100
AcDbEntity
  8
0
  6
Continuous
 62
     1
100
AcDbLine
 10
105.8619992905
 20
47.8727430852
 30
0.0
 11
106.9410217781
 21
48.9517655728
 31
0.0
  0
LINE
  5
2A8
330
225
100
AcDbEntity
  8
0
  6
Continuous
 62
     1
100
AcDbLine
 10
112.8716505565
 20
54.8823943512
 30
0.0
 11
114.4126543712
 21
56.4233981659
 31
0.0
  0
LINE
  5
2A9
330
225
100
AcDbEntity
  8
0
  6
Continuous
 62
     1
100
AcDbLine
 10
105.7715522366
 20
48.3856938179
 30
0.0
 11
106.8505747241
 21
49.46471630539999
 31
0.0
  0
LINE
  5
2AA
330
225
100
AcDbEntity
  8
0
  6
Continuous
 62
     1
100
AcDbLine
 10
112.13908099
 20
54.7532225714
 30
0.0
 11
113.6800848048
 21
56.2942263861
 31
0.0
  0
LINE
  5
2AB
330
225
100
AcDbEntity
  8
0
  6
Continuous
 62
     1
100
AcDbLine
 10
105.6811051826
 20
48.8986445506
 30
0.0
 11
106.7601276702
 21
49.9776670381
 31
0.0
  0
LINE
  5
2AC
330
225
100
AcDbEntity
  8
0
  6
Continuous
 62
     1
100
AcDbLine
 10
111.4065114236
 20
54.62405079149999
 30
0.0
 11
112.9475152384
 21
56.1650546063
 31
0.0
  0
LINE
  5
2AD
330
225
100
AcDbEntity
  8
0
  6
Continuous
 62
     1
100
AcDbLine
 10
105.5906581287
 20
49.4115952832
 30
0.0
 11
106.6696806162
 21
50.4906177708
 31
0.0
  0
LINE
  5
2AE
330
225
100
AcDbEntity
  8
0
  6
Continuous
 62
     1
100
AcDbLine
 10
110.6739418572
 20
54.4948790117
 30
0.0
 11
112.214945672
 21
56.03588282649999
 31
0.0
  0
LINE
  5
2AF
330
225
100
AcDbEntity
  8
0
  6
Continuous
 62
     1
100
AcDbLine
 10
105.5002110748
 20
49.9245460159
 30
0.0
 11
106.5792335623
 21
51.0035685034
 31
0.0
  0
LINE
  5
2B0
330
225
100
AcDbEntity
  8
0
  6
Continuous
 62
     1
100
AcDbLine
 10
109.9413722908
 20
54.3657072319
 30
0.0
 11
111.4823761056
 21
55.90671104670001
 31
0.0
  0
LINE
  5
2B1
330
225
100
AcDbEntity
  8
0
  6
Continuous
 62
     1
100
AcDbLine
 10
105.4097640208
 20
50.43749674859999
 30
0.0
 11
106.4887865083
 21
51.5165192361
 31
0.0
  0
LINE
  5
2B2
330
225
100
AcDbEntity
  8
0
  6
Continuous
 62
     1
100
AcDbLine
 10
109.2088027244
 20
54.2365354521
 30
0.0
 11
110.7498065391
 21
55.77753926689999
 31
0.0
  0
LINE
  5
2B3
330
225
100
AcDbEntity
  8
0
  6
Continuous
 62
     1
100
AcDbLine
 10
105.3193169669
 20
50.9504474812
 30
0.0
 11
106.3983394544
 21
52.0294699688
 31
0.0
  0
LINE
  5
2B4
330
225
100
AcDbEntity
  8
0
  6
Continuous
 62
     1
100
AcDbLine
 10
108.476233158
 20
54.1073636723
 30
0.0
 11
110.0172369727
 21
55.6483674871
 31
0.0
  0
LINE
  5
2B5
330
225
100
AcDbEntity
  8
0
  6
Continuous
 62
     1
100
AcDbLine
 10
105.2288699129
 20
51.4633982139
 30
0.0
 11
106.3078924004
 21
52.5424207014
 31
0.0
  0
LINE
  5
2B6
330
225
100
AcDbEntity
  8
0
  6
Continuous
 62
     1
100
AcDbLine
 10
107.7436635915
 20
53.9781918925
 30
0.0
 11
109.2846674063
 21
55.51919570729999
 31
0.0
  0
LINE
  5
2B7
330
225
100
AcDbEntity
  8
0
  6
Continuous
 62
     1
100
AcDbLine
 10
105.138422859
 20
51.9763489466
 30
0.0
 11
106.2174453465
 21
53.05537143409999
 31
0.0
  0
LINE
  5
2B8
330
225
100
AcDbEntity
  8
0
  6
Continuous
 62
     1
100
AcDbLine
 10
107.0110940251
 20
53.8490201127
 30
0.0
 11
108.5520978399
 21
55.3900239275
 31
0.0
  0
LINE
  5
2B9
330
225
100
AcDbEntity
  8
0
  6
Continuous
 62
     1
100
AcDbLine
 10
105.047975805
 20
52.4892996793
 30
0.0
 11
106.1269982926
 21
53.5683221668
 31
0.0
  0
LINE
  5
2BA
330
225
100
AcDbEntity
  8
0
  6
Continuous
 62
     1
100
AcDbLine
 10
106.2785244587
 20
53.71984833289999
 30
0.0
 11
107.8195282735
 21
55.26085214770001
 31
0.0
  0
LINE
  5
2BB
330
225
100
AcDbEntity
  8
0
  6
Continuous
 62
     1
100
AcDbLine
 10
104.9575287511
 20
53.0022504119
 30
0.0
 11
107.0869587071
 21
55.1316803679
 31
0.0
  0
LINE
  5
2BC
330
225
100
AcDbEntity
  8
0
  6
Continuous
 62
     1
100
AcDbLine
 10
104.8670816972
 20
53.5152011446
 30
0.0
 11
106.3543891406
 21
55.00250858810001
 31
0.0
  0
LINE
  5
2BD
330
225
100
AcDbEntity
  8
0
  6
Continuous
 62
     1
100
AcDbLine
 10
104.7766346432
 20
54.02815187729999
 30
0.0
 11
105.6218195742
 21
54.87333680829999
 31
0.0
  0
LINE
  5
2BE
330
225
100
AcDbEntity
  8
0
  6
Continuous
 62
     1
100
AcDbLine
 10
104.6861875893
 20
54.5411026099
 30
0.0
 11
104.8892500078
 21
54.74416502850001
 31
0.0
  0
ENDBLK
  5
2BF
330
225
100
AcDbEntity
  8
0
  6
ByBlock
 62
     0
100
AcDbBlockEnd
  0
BLOCK
  5
2C0
330
226
100
AcDbEntity
  8
0
  6
Continuous
 62
     2
100
AcDbBlockBegin
  2
L03-MOTEUR-CONTROLE-LED_BL1
 70
     0
 10
21.1888048956
 20
79.65046796260001
 30
0.0
  3
L03-MOTEUR-CONTROLE-LED_BL1
  1

  0
TEXT
  5
2C1
330
226
100
AcDbEntity
  8
0
  6
Continuous
 62
     2
100
AcDbText
 10
20.6258417136
 20
78.9838010365
 30
0.0
 40
1.333333852099999
  1
T
  7
TEXTSTYLE_2
100
AcDbText
  0
ELLIPSE
  5
2C2
330
226
100
AcDbEntity
  8
0
  6
Continuous
 62
     7
100
AcDbEllipse
 10
21.1888048956
 20
79.65046796260001
 30
0.0
 11
-1.942887567899999
 21
0.0
 31
0.0
210
0.0
220
0.0
230
1.0
 40
0.6606458385
 41
0.0
 42
6.283185307179586
  0
ENDBLK
  5
2C3
330
226
100
AcDbEntity
  8
0
  6
ByBlock
 62
     0
100
AcDbBlockEnd
  0
BLOCK
  5
2C4
330
227
100
AcDbEntity
  8
0
  6
Continuous
 62
     2
100
AcDbBlockBegin
  2
L03-NOTE_SPECS_BAINS_BL0
 70
     0
 10
160.6669177978
 20
55.3336830668
 30
0.0
  3
L03-NOTE_SPECS_BAINS_BL0
  1

  0
TEXT
  5
2C5
330
227
100
AcDbEntity
  8
0
  6
Continuous
 62
     2
100
AcDbText
 10
144.4191327217
 20
63.1071164579
 30
0.0
 40
0.5
  1
Infomations Techniques/Technical Infomations
  7
TEXTSTYLE_2
100
AcDbText
  0
TEXT
  5
2C6
330
227
100
AcDbEntity
  8
0
  6
Continuous
 62
     2
100
AcDbText
 10
144.6669177978
 20
61.6670164001
 30
0.0
 40
0.6666666667
  1
NOMBRE DE JETS:     
  7
TEXTSTYLE_2
100
AcDbText
  0
TEXT
  5
2C7
330
227
100
AcDbEntity
  8
0
  6
Continuous
 62
     2
100
AcDbText
 10
154.5113622423
 20
61.6670164001
 30
0.0
 40
0.6666666667
  1
40
  7
TEXTSTYLE_2
100
AcDbText
  0
TEXT
  5
2C8
330
227
100
AcDbEntity
  8
0
  6
Continuous
 62
     2
100
AcDbText
 10
144.6669177978
 20
60.6670164001
 30
0.0
 40
0.6666666667
  1
 
  7
TEXTSTYLE_2
100
AcDbText
  0
TEXT
  5
2C9
330
227
100
AcDbEntity
  8
0
  6
Continuous
 62
     2
100
AcDbText
 10
144.6669177978
 20
59.66701640010001
 30
0.0
 40
0.6666666667
  1
NIVEAU D'EAU              GALLONS(US)        LITRES        GALLONS(UK)
  7
TEXTSTYLE_2
100
AcDbText
  0
TEXT
  5
2CA
330
227
100
AcDbEntity
  8
0
  6
Continuous
 62
     2
100
AcDbText
 10
144.6669177978
 20
58.6670164001
 30
0.0
 40
0.6666666667
  1
PLEIN
  7
TEXTSTYLE_2
100
AcDbText
  0
TEXT
  5
2CB
330
227
100
AcDbEntity
  8
0
  6
Continuous
 62
     2
100
AcDbText
 10
144.6669177978
 20
57.6670164001
 30
0.0
 40
0.6666666667
  1
HAUT T.PLEIN
  7
TEXTSTYLE_2
100
AcDbText
  0
TEXT
  5
2CC
330
227
100
AcDbEntity
  8
0
  6
Continuous
 62
     2
100
AcDbText
 10
144.6669177978
 20
56.6670164001
 30
0.0
 40
0.6666666667
  1
MILIEU T.PLEIN
  7
TEXTSTYLE_2
100
AcDbText
  0
TEXT
  5
2CD
330
227
100
AcDbEntity
  8
0
  6
Continuous
 62
     2
100
AcDbText
 10
144.6669177978
 20
55.6670164001
 30
0.0
 40
0.6666666667
  1
BAS T.PLEIN
  7
TEXTSTYLE_2
100
AcDbText
  0
TEXT
  5
2CE
330
227
100
AcDbEntity
  8
0
  6
Continuous
 62
     2
100
AcDbText
 10
144.6669177978
 20
54.66701640010001
 30
0.0
 40
0.6666666667
  1
3" EN BAS T.PLEIN
  7
TEXTSTYLE_2
100
AcDbText
  0
TEXT
  5
2CF
330
227
100
AcDbEntity
  8
0
  6
Continuous
 62
     2
100
AcDbText
 10
144.6669177978
 20
53.6670164001
 30
0.0
 40
0.6666666667
  1
 
  7
TEXTSTYLE_2
100
AcDbText
  0
TEXT
  5
2D0
330
227
100
AcDbEntity
  8
0
  6
Continuous
 62
     2
100
AcDbText
 10
144.4667562922
 20
53.1202294753
 30
0.0
 40
0.5
  1
Legende/Legend
  7
TEXTSTYLE_2
100
AcDbText
  0
TEXT
  5
2D1
330
227
100
AcDbEntity
  8
0
  6
Continuous
 62
     2
100
AcDbText
 10
150.9955912363
 20
51.6089644976
 30
0.0
 40
0.6666666667
  1
ZONE DE ROBINETTERIE
  7
TEXTSTYLE_2
100
AcDbText
  0
TEXT
  5
2D2
330
227
100
AcDbEntity
  8
0
  6
Continuous
 62
     2
100
AcDbText
 10
145.9158666693
 20
50.1137199832
 30
0.0
 40
0.6666666667
  1
L   :  SYSTEME LED       DC   :  DOUBLE DOSSIER CHAUFFANT
  7
TEXTSTYLE_2
100
AcDbText
  0
TEXT
  5
2D3
330
227
100
AcDbEntity
  8
0
  6
Continuous
 62
     2
100
AcDbText
 10
145.9158666693
 20
48.7803866499
 30
0.0
 40
0.6666666667
  1
C   :  CONTROLE
  7
TEXTSTYLE_2
100
AcDbText
  0
TEXT
  5
2D4
330
227
100
AcDbEntity
  8
0
  6
Continuous
 62
     2
100
AcDbText
 10
145.9158666693
 20
47.44705331649999
 30
0.0
 40
0.6666666667
  1
T   :  MOTEUR
  7
TEXTSTYLE_2
100
AcDbText
  0
TEXT
  5
2D5
330
227
100
AcDbEntity
  8
0
  6
Continuous
 62
     2
100
AcDbText
 10
157.2440589416
 20
58.6670164001
 30
0.0
 40
0.6666666667
  1
112
  7
TEXTSTYLE_2
100
AcDbText
  0
TEXT
  5
2D6
330
227
100
AcDbEntity
  8
0
  6
Continuous
 62
     2
100
AcDbText
 10
157.4996144971
 20
57.6670164001
 30
0.0
 40
0.6666666667
  1
87
  7
TEXTSTYLE_2
100
AcDbText
  0
TEXT
  5
2D7
330
227
100
AcDbEntity
  8
0
  6
Continuous
 62
     2
100
AcDbText
 10
157.4996144971
 20
56.6670164001
 30
0.0
 40
0.6666666667
  1
86
  7
TEXTSTYLE_2
100
AcDbText
  0
TEXT
  5
2D8
330
227
100
AcDbEntity
  8
0
  6
Continuous
 62
     2
100
AcDbText
 10
157.4996144971
 20
55.6670164001
 30
0.0
 40
0.6666666667
  1
85
  7
TEXTSTYLE_2
100
AcDbText
  0
TEXT
  5
2D9
330
227
100
AcDbEntity
  8
0
  6
Continuous
 62
     2
100
AcDbText
 10
157.4996144971
 20
54.66701640010001
 30
0.0
 40
0.6666666667
  1
68
  7
TEXTSTYLE_2
100
AcDbText
  0
TEXT
  5
2DA
330
227
100
AcDbEntity
  8
0
  6
Continuous
 62
     2
100
AcDbText
 10
164.4198204409
 20
58.68409580229999
 30
0.0
 40
0.6666666667
  1
424
  7
TEXTSTYLE_2
100
AcDbText
  0
TEXT
  5
2DB
330
227
100
AcDbEntity
  8
0
  6
Continuous
 62
     2
100
AcDbText
 10
164.4198204409
 20
57.68409580229999
 30
0.0
 40
0.6666666667
  1
329
  7
TEXTSTYLE_2
100
AcDbText
  0
TEXT
  5
2DC
330
227
100
AcDbEntity
  8
0
  6
Continuous
 62
     2
100
AcDbText
 10
164.4198204409
 20
56.68409580229999
 30
0.0
 40
0.6666666667
  1
325
  7
TEXTSTYLE_2
100
AcDbText
  0
TEXT
  5
2DD
330
227
100
AcDbEntity
  8
0
  6
Continuous
 62
     2
100
AcDbText
 10
164.4198204409
 20
55.68409580229999
 30
0.0
 40
0.6666666667
  1
320
  7
TEXTSTYLE_2
100
AcDbText
  0
TEXT
  5
2DE
330
227
100
AcDbEntity
  8
0
  6
Continuous
 62
     2
100
AcDbText
 10
164.4198204409
 20
54.68409580229999
 30
0.0
 40
0.6666666667
  1
256
  7
TEXTSTYLE_2
100
AcDbText
  0
TEXT
  5
2DF
330
227
100
AcDbEntity
  8
0
  6
Continuous
 62
     2
100
AcDbText
 10
171.3644593783
 20
58.6670164001
 30
0.0
 40
0.6666666667
  1
93
  7
TEXTSTYLE_2
100
AcDbText
  0
TEXT
  5
2E0
330
227
100
AcDbEntity
  8
0
  6
Continuous
 62
     2
100
AcDbText
 10
171.3644593783
 20
57.6670164001
 30
0.0
 40
0.6666666667
  1
72
  7
TEXTSTYLE_2
100
AcDbText
  0
TEXT
  5
2E1
330
227
100
AcDbEntity
  8
0
  6
Continuous
 62
     2
100
AcDbText
 10
171.3644593783
 20
56.6670164001
 30
0.0
 40
0.6666666667
  1
71
  7
TEXTSTYLE_2
100
AcDbText
  0
TEXT
  5
2E2
330
227
100
AcDbEntity
  8
0
  6
Continuous
 62
     2
100
AcDbText
 10
171.3644593783
 20
55.6670164001
 30
0.0
 40
0.6666666667
  1
70
  7
TEXTSTYLE_2
100
AcDbText
  0
TEXT
  5
2E3
330
227
100
AcDbEntity
  8
0
  6
Continuous
 62
     2
100
AcDbText
 10
171.3644593783
 20
54.66701640010001
 30
0.0
 40
0.6666666667
  1
56
  7
TEXTSTYLE_2
100
AcDbText
  0
LINE
  5
2E4
330
227
100
AcDbEntity
  8
0
  6
Continuous
 62
     7
100
AcDbLine
 10
144.0002511312
 20
64.0003497335
 30
0.0
 11
144.0002511312
 21
46.6670164001
 31
0.0
  0
LINE
  5
2E5
330
227
100
AcDbEntity
  8
0
  6
Continuous
 62
     7
100
AcDbLine
 10
144.0002511312
 20
64.0003497335
 30
0.0
 11
177.3335844645
 21
64.0003497335
 31
0.0
  0
LINE
  5
2E6
330
227
100
AcDbEntity
  8
0
  6
Continuous
 62
     7
100
AcDbLine
 10
177.3335844645
 20
64.0003497335
 30
0.0
 11
177.3335844645
 21
46.6670164001
 31
0.0
  0
LINE
  5
2E7
330
227
100
AcDbEntity
  8
0
  6
Continuous
 62
     7
100
AcDbLine
 10
144.0002511312
 20
46.6670164001
 30
0.0
 11
177.3335844645
 21
46.6670164001
 31
0.0
  0
LINE
  5
2E8
330
227
100
AcDbEntity
  8
0
  6
Continuous
 62
     7
100
AcDbLine
 10
145.3335844645
 20
54.0003497335
 30
0.0
 11
176.0002511312
 21
54.0003497335
 31
0.0
  0
LINE
  5
2E9
330
227
100
AcDbEntity
  8
0
  6
Continuous
 62
     7
100
AcDbLine
 10
145.3335844645
 20
61.0003497335
 30
0.0
 11
176.0002511312
 21
61.0003497335
 31
0.0
  0
LINE
  5
2EA
330
227
100
AcDbEntity
  8
0
  6
Continuous
 62
     7
100
AcDbLine
 10
144.8091576904
 20
52.3785142378
 30
0.0
 11
144.4401369481
 21
52.0094934955
 31
0.0
  0
LINE
  5
2EB
330
227
100
AcDbEntity
  8
0
  6
Continuous
 62
     7
100
AcDbLine
 10
145.4758243570999
 20
52.3785142378
 30
0.0
 11
144.6778085667
 21
51.58049844739999
 31
0.0
  0
LINE
  5
2EC
330
227
100
AcDbEntity
  8
0
  6
Continuous
 62
     7
100
AcDbLine
 10
146.1424910238
 20
52.3785142378
 30
0.0
 11
145.3444752334
 21
51.58049844739999
 31
0.0
  0
LINE
  5
2ED
330
227
100
AcDbEntity
  8
0
  6
Continuous
 62
     7
100
AcDbLine
 10
146.8091576904
 20
52.3785142378
 30
0.0
 11
146.0111419
 21
51.58049844739999
 31
0.0
  0
LINE
  5
2EE
330
227
100
AcDbEntity
  8
0
  6
Continuous
 62
     7
100
AcDbLine
 10
147.4758243571
 20
52.3785142378
 30
0.0
 11
146.6778085667
 21
51.58049844739999
 31
0.0
  0
LINE
  5
2EF
330
227
100
AcDbEntity
  8
0
  6
Continuous
 62
     7
100
AcDbLine
 10
148.1424910238
 20
52.3785142378
 30
0.0
 11
147.3444752334
 21
51.58049844739999
 31
0.0
  0
LINE
  5
2F0
330
227
100
AcDbEntity
  8
0
  6
Continuous
 62
     7
100
AcDbLine
 10
148.8091576904
 20
52.3785142378
 30
0.0
 11
148.0111419
 21
51.58049844739999
 31
0.0
  0
LINE
  5
2F1
330
227
100
AcDbEntity
  8
0
  6
Continuous
 62
     7
100
AcDbLine
 10
149.4758243571
 20
52.3785142378
 30
0.0
 11
148.6778085667
 21
51.58049844739999
 31
0.0
  0
LINE
  5
2F2
330
227
100
AcDbEntity
  8
0
  6
Continuous
 62
     7
100
AcDbLine
 10
150.1424910238
 20
52.3785142378
 30
0.0
 11
149.3444752334
 21
51.58049844739999
 31
0.0
  0
LINE
  5
2F3
330
227
100
AcDbEntity
  8
0
  6
Continuous
 62
     7
100
AcDbLine
 10
150.5859784579
 20
52.1553350053
 30
0.0
 11
150.0111419
 21
51.58049844739999
 31
0.0
  0
ELLIPSE
  5
2F4
330
227
100
AcDbEntity
  8
0
  6
Continuous
 62
     7
100
AcDbEllipse
 10
146.1456536134
 20
50.4312974404
 30
0.0
 11
1.0473539356
 21
0.0
 31
0.0
210
0.0
220
0.0
230
1.0
 40
0.4938647983
 41
0.0
 42
6.283185307179586
  0
ELLIPSE
  5
2F5
330
227
100
AcDbEntity
  8
0
  6
Continuous
 62
     7
100
AcDbEllipse
 10
146.1456536134
 20
49.0979641071
 30
0.0
 11
1.0473539356
 21
0.0
 31
0.0
210
0.0
220
0.0
230
1.0
 40
0.4938647983
 41
0.0
 42
6.283185307179586
  0
ELLIPSE
  5
2F6
330
227
100
AcDbEntity
  8
0
  6
Continuous
 62
     7
100
AcDbEllipse
 10
146.1456536134
 20
47.76463077369999
 30
0.0
 11
1.0473539356
 21
0.0
 31
0.0
210
0.0
220
0.0
230
1.0
 40
0.4938647983
 41
0.0
 42
6.283185307179586
  0
ELLIPSE
  5
2F7
330
227
100
AcDbEntity
  8
0
  6
Continuous
 62
     7
100
AcDbEllipse
 10
157.1642891945
 20
50.4508187975
 30
0.0
 11
1.0473539356
 21
0.0
 31
0.0
210
0.0
220
0.0
230
1.0
 40
0.4938647983
 41
0.0
 42
6.283185307179586
  0
ENDBLK
  5
2F8
330
227
100
AcDbEntity
  8
0
  6
ByBlock
 62
     0
100
AcDbBlockEnd
  0
ENDSEC
  0
SECTION
  2
ENTITIES
  0
LINE
  5
513
330
220
100
AcDbEntity
  8
0
  6
Continuous
 62
     7
100
AcDbLine
 10
97.4224494321
 20
43.1191890221
 30
0.0
 11
98.8690027167
 21
43.07418189879999
 31
0.0
  0
LINE
  5
2481
330
220
100
AcDbEntity
  8
0
  6
Continuous
 62
     7
100
AcDbLine
 10
97.4224494321
 20
19.2485841424
 30
0.0
 11
97.4224494321
 21
43.24017365329999
 31
0.0
  0
LINE
  5
2482
330
220
100
AcDbEntity
  8
0
  6
Continuous
 62
     7
100
AcDbLine
 10
98.17244943209999
 20
19.2485841424
 30
0.0
 11
98.17244943209999
 21
19.1235841424
 31
0.0
  0
LINE
  5
2489
330
220
100
AcDbEntity
  8
0
  6
Continuous
 62
     7
100
AcDbLine
 10
99.1724494321
 20
19.2485841424
 30
0.0
 11
99.1724494321
 21
19.1235841424
 31
0.0
  0
LINE
  5
24E2
330
220
100
AcDbEntity
  8
0
  6
Continuous
 62
     7
100
AcDbLine
 10
127.6724494321
 20
19.1235841424
 30
0.0
 11
126.6724494321
 21
19.1235841424
 31
0.0
  0
LINE
  5
24E3
330
220
100
AcDbEntity
  8
0
  6
Continuous
 62
     7
100
AcDbLine
 10
121.9224494321
 20
19.1235841424
 30
0.0
 11
120.9224494321
 21
19.1235841424
 31
0.0
  0
LINE
  5
24E4
330
220
100
AcDbEntity
  8
0
  6
Continuous
 62
     7
100
AcDbLine
 10
104.9224494321
 20
19.1235841424
 30
0.0
 11
103.9224494321
 21
19.1235841424
 31
0.0
  0
LINE
  5
24E5
330
220
100
AcDbEntity
  8
0
  6
Continuous
 62
     7
100
AcDbLine
 10
99.1724494321
 20
19.1235841424
 30
0.0
 11
98.17244943209999
 21
19.1235841424
 31
0.0
  0
LINE
  5
24E6
330
220
100
AcDbEntity
  8
0
  6
Continuous
 62
     7
100
AcDbLine
 10
97.4224494321
 20
19.2485841424
 30
0.0
 11
128.4224494321
 21
19.2485841424
 31
0.0
  0
LINE
  5
24E8
330
220
100
AcDbEntity
  8
DEFAULT_2
  6
HIDDEN
 62
     8
100
AcDbLine
 10
102.1242063289
 20
22.9569568107
 30
0.0
 11
99.34842928809999
 21
42.7076367226
 31
0.0
  0
LINE
  5
2602
330
220
100
AcDbEntity
  8
0
  6
Continuous
 62
     7
100
AcDbLine
 10
103.9224494321
 20
19.2485841424
 30
0.0
 11
103.9224494321
 21
19.1235841424
 31
0.0
  0
LWPOLYLINE
  5
26CC
330
220
100
AcDbEntity
  8
DEFAULT_2
  6
HIDDEN
 62
     8
100
AcDbPolyline
 90
       27
 70
     0
 43
0.0
 10
114.9155883085
 20
22.2690758153
 10
115.1652175195
 20
22.274182636
 10
115.5524839335
 20
22.2830438367
 10
115.9369835465
 20
22.292887379
 10
116.3183156114
 20
22.3035868141
 10
116.6960617843
 20
22.315017056
 10
117.0698129515
 20
22.3270560809
 10
117.4391411808
 20
22.3395849248
 10
117.8035495433
 20
22.3524865039
 10
118.1628362248
 20
22.3656594583
 10
118.5169840946
 20
22.3790157208
 10
118.8649417483
 20
22.3924292733
 10
119.2059939454
 20
22.4057869414
 10
119.5391131994
 20
22.4189675257
 10
119.8633463465
 20
22.4318578812
 10
120.177752945
 20
22.4443514905
 10
120.4818701079
 20
22.4563672046
 10
120.7733088716
 20
22.4677546273
 10
121.0514175613
 20
22.4784389232
 10
121.310517624
 20
22.4881634759
 10
121.5460058834
 20
22.4967366665
 10
121.7540033424
 20
22.5040220654
 10
121.9282011909
 20
22.5098400805
 10
122.0712909697
 20
22.5143521306
 10
122.1821891111
 20
22.5176183872
 10
122.2659186446
 20
22.5198962872
 10
122.3265927425
 20
22.5214013873
  0
LINE
  5
26CD
330
220
100
AcDbEntity
  8
DEFAULT_2
  6
HIDDEN
 62
     8
100
AcDbLine
 10
122.3265927425
 20
22.5214013873
 30
0.0
 11
122.3743101705
 21
22.5224507976
 31
0.0
  0
LWPOLYLINE
  5
26CE
330
220
100
AcDbEntity
  8
DEFAULT_2
  6
HIDDEN
 62
     8
100
AcDbPolyline
 90
        6
 70
     0
 43
0.0
 10
122.3743101705
 20
22.5224507976
 10
122.3892188887
 20
22.5227370285
 10
122.3725338228
 20
22.5225054394
 10
122.3291088025
 20
22.5220210643
 10
122.2501356006
 20
22.5213693214
 10
122.1895497167
 20
22.5209984717
  0
LINE
  5
26CF
330
220
100
AcDbEntity
  8
DEFAULT_2
  6
HIDDEN
 62
     8
100
AcDbLine
 10
114.2456727368
 20
21.7485841424
 30
0.0
 11
111.5992261274
 21
21.7485841424
 31
0.0
  0
LWPOLYLINE
  5
26D0
330
220
100
AcDbEntity
  8
DEFAULT_2
  6
HIDDEN
 62
     8
100
AcDbPolyline
 90
        4
 70
     0
 43
0.0
 10
103.6554828816
 20
22.5209977333
 10
103.5968485323
 20
22.5213549569
 10
103.5187899254
 20
22.5219917381
 10
103.4752960049
 20
22.522468361
  0
LINE
  5
26D1
330
220
100
AcDbEntity
  8
DEFAULT_2
  6
HIDDEN
 62
     8
100
AcDbLine
 10
103.4752960049
 20
22.522468361
 30
0.0
 11
103.4553177503
 21
22.5227415151
 31
0.0
  0
LWPOLYLINE
  5
26D2
330
220
100
AcDbEntity
  8
DEFAULT_2
  6
HIDDEN
 62
     8
100
AcDbPolyline
 90
       29
 70
     0
 43
0.0
 10
103.4553177503
 20
22.5227415151
 10
103.4711775443
 20
22.5224389395
 10
103.5017610418
 20
22.5217823675
 10
103.549882952
 20
22.5206367398
 10
103.615876741
 20
22.5189166556
 10
103.7043502468
 20
22.5164205164
 10
103.8193222806
 20
22.5129422162
 10
103.9628942916
 20
22.5083275372
 10
104.1396470648
 20
22.5023435457
 10
104.3461581357
 20
22.495040341
 10
104.5823682854
 20
22.4863827625
 10
104.8427625528
 20
22.4765618826
 10
105.1225993849
 20
22.4657735346
 10
105.4194974515
 20
22.4541442846
 10
105.7300899995
 20
22.441853909
 10
106.0525943913
 20
22.4290317063
 10
106.3839846885
 20
22.4158651453
 10
106.7246270689
 20
22.4024137808
 10
107.0741147511
 20
22.3887751799
 10
107.4317436519
 20
22.3750657535
 10
107.7967879448
 20
22.36140858
 10
108.1689084147
 20
22.3479140744
 10
108.5476534375
 20
22.3347020306
 10
108.9326356926
 20
22.3218980381
 10
109.3234487013
 20
22.3096361778
 10
109.7196982654
 20
22.2980574141
 10
110.1209815557
 20
22.2873095816
 10
110.5269176505
 20
22.2775457459
 10
110.9293089284
 20
22.269075847
  0
LWPOLYLINE
  5
26D3
330
220
100
AcDbEntity
  8
DEFAULT_2
  6
HIDDEN
 62
     8
100
AcDbPolyline
 90
       14
 70
     0
 43
0.0
 10
110.9292428764
 20
22.2690771982
 10
110.9323025912
 20
22.2689969191
 10
110.9387950862
 20
22.2686919911
 10
110.9480365968
 20
22.2679554153
 10
110.9608263542
 20
22.266355988
 10
110.9755723649
 20
22.2636658135
 10
110.9909700603
 20
22.2598602765
 10
111.0070143002
 20
22.2547602769
 10
111.0233112936
 20
22.2483162148
 10
111.0397028909
 20
22.2404383291
 10
111.0559620314
 20
22.2310871936
 10
111.0718623688
 20
22.2202568805
 10
111.087162683
 20
22.2079931095
 10
111.1000510925
 20
22.1959826102
  0
LINE
  5
2757
330
220
100
AcDbEntity
  8
0
  6
Continuous
 62
     7
100
AcDbLine
 10
104.9224494321
 20
19.2485841424
 30
0.0
 11
104.9224494321
 21
19.1235841424
 31
0.0
  0
LINE
  5
278F
330
220
100
AcDbEntity
  8
DEFAULT_2
  6
HIDDEN
 62
     8
100
AcDbLine
 10
111.1000498887
 20
22.195983906
 30
0.0
 11
111.0831572888
 21
22.2113973722
 31
0.0
  0
LINE
  5
2796
330
220
100
AcDbEntity
  8
DEFAULT_2
  6
HIDDEN
 62
     8
100
AcDbLine
 10
111.5108377797
 20
21.7851957947
 30
0.0
 11
111.1000518215
 21
22.195981753
 31
0.0
  0
LINE
  5
28D2
330
220
100
AcDbEntity
  8
DEFAULT_2
  6
HIDDEN
 62
     8
100
AcDbLine
 10
111.3286994321
 20
39.2311875048
 30
0.0
 11
111.3286994321
 21
39.2485841424
 31
0.0
  0
LINE
  5
28D3
330
220
100
AcDbEntity
  8
DEFAULT_2
  6
HIDDEN
 62
     8
100
AcDbLine
 10
111.6099494321
 20
39.5270970367
 30
0.0
 11
111.6099494321
 21
39.5097003991
 31
0.0
  0
LINE
  5
28D4
330
220
100
AcDbEntity
  8
DEFAULT_2
  6
HIDDEN
 62
     8
100
AcDbLine
 10
111.6099494321
 20
38.9700712481
 30
0.0
 11
111.6099494321
 21
38.9526746104
 31
0.0
  0
LINE
  5
28D9
330
220
100
AcDbEntity
  8
0
  6
Continuous
 62
     9
100
AcDbLine
 10
112.9224494321
 20
43.1836336067
 30
0.0
 11
112.9224494321
 21
43.23995045359999
 31
0.0
  0
LWPOLYLINE
  5
28DA
330
220
100
AcDbEntity
  8
DEFAULT_2
  6
HIDDEN
 62
     8
100
AcDbPolyline
 90
        6
 70
     0
 43
0.0
 10
126.6613214229
 20
43.012443965
 10
126.7242136051
 20
43.05951569069999
 10
126.7937023429
 20
43.0961557747
 10
126.868072338
 20
43.12145975039999
 10
126.9454877846
 20
43.13480297539999
 10
126.9759073077
 20
43.1366780242
  0
LINE
  5
290C
330
220
100
AcDbEntity
  8
DEFAULT_2
  6
HIDDEN
 62
     8
100
AcDbLine
 10
114.2349494321
 20
39.5270970367
 30
0.0
 11
114.2349494321
 21
39.5097003991
 31
0.0
  0
LINE
  5
290D
330
220
100
AcDbEntity
  8
DEFAULT_2
  6
HIDDEN
 62
     8
100
AcDbLine
 10
114.2349494321
 20
38.9700712481
 30
0.0
 11
114.2349494321
 21
38.9526746104
 31
0.0
  0
LINE
  5
290E
330
220
100
AcDbEntity
  8
DEFAULT_2
  6
HIDDEN
 62
     8
100
AcDbLine
 10
114.5161994321
 20
39.2311875048
 30
0.0
 11
114.5161994321
 21
39.2485841424
 31
0.0
  0
LINE
  5
2E09
330
220
100
AcDbEntity
  8
DEFAULT_2
  6
HIDDEN
 62
     8
100
AcDbLine
 10
124.8176587872
 20
30.834130231
 30
0.0
 11
124.8275614679
 21
30.8327384999
 31
0.0
  0
LINE
  5
2F5D
330
220
100
AcDbEntity
  8
DEFAULT_2
  6
HIDDEN
 62
     8
100
AcDbLine
 10
124.8884496995
 20
31.26598078
 30
0.0
 11
124.8785470188
 21
31.267372511
 31
0.0
  0
LINE
  5
3041
330
220
100
AcDbEntity
  8
0
  6
Continuous
 62
     7
100
AcDbLine
 10
120.9224494321
 20
19.2485841424
 30
0.0
 11
120.9224494321
 21
19.1235841424
 31
0.0
  0
LINE
  5
3119
330
220
100
AcDbEntity
  8
DEFAULT_2
  6
HIDDEN
 62
     8
100
AcDbLine
 10
114.7448470426
 20
22.1959817529
 30
0.0
 11
114.3340610844
 21
21.7851957947
 31
0.0
  0
LWPOLYLINE
  5
311C
330
220
100
AcDbEntity
  8
DEFAULT_2
  6
HIDDEN
 62
     8
100
AcDbPolyline
 90
       13
 70
     0
 43
0.0
 10
114.744847787
 20
22.1959826249
 10
114.7580267166
 20
22.2082449314
 10
114.7755223302
 20
22.2220704458
 10
114.7936122585
 20
22.2339440878
 10
114.8120335777
 20
22.2439035781
 10
114.830465394
 20
22.2519903547
 10
114.8488011417
 20
22.2583593302
 10
114.8662120147
 20
22.2629794669
 10
114.8821562756
 20
22.2660580325
 10
114.8956585815
 20
22.2678336166
 10
114.9052640277
 20
22.2686396135
 10
114.9119666826
 20
22.2689752251
 10
114.9156489755
 20
22.2690770501
  0
LINE
  5
311D
330
220
100
AcDbEntity
  8
DEFAULT_2
  6
HIDDEN
 62
     8
100
AcDbLine
 10
114.7448490421
 20
22.1959838394
 30
0.0
 11
114.763879935
 21
22.213156198
 31
0.0
  0
LINE
  5
311E
330
220
100
AcDbEntity
  8
DEFAULT_2
  6
HIDDEN
 62
     8
100
AcDbLine
 10
114.2349494321
 20
38.9526746104
 30
0.0
 11
111.6099494321
 21
38.9526746104
 31
0.0
  0
LINE
  5
311F
330
220
100
AcDbEntity
  8
DEFAULT_2
  6
HIDDEN
 62
     8
100
AcDbLine
 10
114.2349494321
 20
38.9700712481
 30
0.0
 11
111.6099494321
 21
38.9700712481
 31
0.0
  0
LINE
  5
3120
330
220
100
AcDbEntity
  8
DEFAULT_2
  6
HIDDEN
 62
     8
100
AcDbLine
 10
111.6099494321
 20
39.5097003991
 30
0.0
 11
114.2349494321
 21
39.5097003991
 31
0.0
  0
LINE
  5
3121
330
220
100
AcDbEntity
  8
DEFAULT_2
  6
HIDDEN
 62
     8
100
AcDbLine
 10
111.6099494321
 20
39.5270970367
 30
0.0
 11
114.2349494321
 21
39.5270970367
 31
0.0
  0
LINE
  5
3183
330
220
100
AcDbEntity
  8
0
  6
Continuous
 62
     7
100
AcDbLine
 10
121.9224494321
 20
19.2485841424
 30
0.0
 11
121.9224494321
 21
19.1235841424
 31
0.0
  0
LINE
  5
3219
330
220
100
AcDbEntity
  8
DEFAULT_2
  6
HIDDEN
 62
     8
100
AcDbLine
 10
98.86900497030001
 20
43.13667760699999
 30
0.0
 11
98.86896623530001
 21
43.1366830338
 31
0.0
  0
LWPOLYLINE
  5
3300
330
220
100
AcDbEntity
  8
DEFAULT_2
  6
HIDDEN
 62
     8
100
AcDbPolyline
 90
       10
 70
     0
 43
0.0
 10
126.4963119245
 20
42.7065149729
 10
126.514494531
 20
42.78698359199999
 10
126.5456723445
 20
42.86338888849999
 10
126.5890077295
 20
42.9336458144
 10
126.6433282164
 20
42.99583108229999
 10
126.7071585868
 20
43.04823997609999
 10
126.7787644986
 20
43.0894354588
 10
126.8561966281
 20
43.1182840768
 10
126.9373437064
 20
43.1339881155
 10
126.9758961614
 20
43.1366818813
  0
LWPOLYLINE
  5
3301
330
220
100
AcDbEntity
  8
DEFAULT_2
  6
HIDDEN
 62
     8
100
AcDbPolyline
 90
       10
 70
     0
 43
0.0
 10
126.4963579611
 20
42.70684173489999
 10
126.5146063008
 20
42.7873382849
 10
126.5458509294
 20
42.86373994659999
 10
126.5892424646
 20
42.93396377759999
 10
126.6435997963
 20
42.9960941493
 10
126.7074423037
 20
43.04843577069999
 10
126.7790308423
 20
43.08956038389999
 10
126.85641457
 20
43.11834509359999
 10
126.9374841052
 20
43.1340032072
 10
126.9758963356
 20
43.13668171529999
  0
LINE
  5
3312
330
220
100
AcDbEntity
  8
DEFAULT_2
  6
HIDDEN
 62
     8
100
AcDbLine
 10
126.9758872934
 20
43.1366796534
 30
0.0
 11
126.9757125086
 21
43.1366729722
 31
0.0
  0
LINE
  5
3313
330
220
100
AcDbEntity
  8
DEFAULT_2
  6
HIDDEN
 62
     8
100
AcDbLine
 10
128.4224494321
 20
43.18169023279999
 30
0.0
 11
127.5395541495
 21
43.1542198092
 31
0.0
  0
LINE
  5
3314
330
220
100
AcDbEntity
  8
DEFAULT_2
  6
HIDDEN
 62
     8
100
AcDbLine
 10
127.5395541495
 20
43.1542198092
 30
0.0
 11
126.9758961475
 21
43.1366818988
 31
0.0
  0
LINE
  5
3315
330
220
100
AcDbEntity
  8
DEFAULT_2
  6
HIDDEN
 62
     8
100
AcDbLine
 10
126.9758774891
 20
43.136678104
 30
0.0
 11
128.4224494321
 21
43.18167534699999
 31
0.0
  0
LINE
  5
3316
330
220
100
AcDbEntity
  8
DEFAULT_2
  6
HIDDEN
 62
     8
100
AcDbLine
 10
126.9759007077
 20
43.1366814645
 30
0.0
 11
126.9758731286
 21
43.1366811433
 31
0.0
  0
LINE
  5
3317
330
220
100
AcDbEntity
  8
DEFAULT_2
  6
HIDDEN
 62
     8
100
AcDbLine
 10
98.8689981565
 20
43.1366814645
 30
0.0
 11
98.8690257356
 21
43.1366811433
 31
0.0
  0
LINE
  5
3318
330
220
100
AcDbEntity
  8
DEFAULT_2
  6
HIDDEN
 62
     8
100
AcDbLine
 10
98.8690115708
 20
43.1366796534
 30
0.0
 11
98.86918633790001
 21
43.1366729727
 31
0.0
  0
LINE
  5
33AB
330
220
100
AcDbEntity
  8
DEFAULT_2
  6
HIDDEN
 62
     8
100
AcDbLine
 10
124.9394352505
 20
31.7006147911
 30
0.0
 11
124.8176587872
 21
30.834130231
 31
0.0
  0
LINE
  5
33AD
330
220
100
AcDbEntity
  8
DEFAULT_2
  6
HIDDEN
 62
     8
100
AcDbLine
 10
126.4967808723
 20
42.7097736406
 30
0.0
 11
123.7206925353
 21
22.9569568107
 31
0.0
  0
LINE
  5
33D1
330
220
100
AcDbEntity
  8
0
  6
Continuous
 62
     7
100
AcDbLine
 10
126.6724494321
 20
19.2485841424
 30
0.0
 11
126.6724494321
 21
19.1235841424
 31
0.0
  0
LINE
  5
33D5
330
220
100
AcDbEntity
  8
0
  6
Continuous
 62
     7
100
AcDbLine
 10
127.6724494321
 20
19.2485841424
 30
0.0
 11
127.6724494321
 21
19.1235841424
 31
0.0
  0
LINE
  5
33D6
330
220
100
AcDbEntity
  8
0
  6
Continuous
 62
     7
100
AcDbLine
 10
128.4224494321
 20
19.2485841424
 30
0.0
 11
128.4224494321
 21
43.19436978859999
 31
0.0
  0
LINE
  5
33D7
330
220
100
AcDbEntity
  8
0
  6
Continuous
 62
     7
100
AcDbLine
 10
128.4224494321
 20
43.23460343499999
 30
0.0
 11
128.4224494321
 21
43.24017365329999
 31
0.0
  0
ARC
  5
4037
330
220
100
AcDbEntity
  8
DEFAULT_2
  6
HIDDEN
 62
     8
100
AcDbCircle
 10
110.9232988875
 20
22.0192977351
 30
0.0
 40
0.249908314
100
AcDbArc
 50
50.2339910436
 51
88.88372055339999
  0
ARC
  5
4038
330
220
100
AcDbEntity
  8
DEFAULT_2
  6
HIDDEN
 62
     8
100
AcDbCircle
 10
111.5992261274
 20
21.8735841424
 30
0.0
 40
0.125
100
AcDbArc
 50
225.0
 51
270.0
  0
ARC
  5
4083
330
220
100
AcDbEntity
  8
DEFAULT_2
  6
HIDDEN
 62
     8
100
AcDbCircle
 10
98.7610510724
 20
42.555547723
 30
0.0
 40
0.6283838804000001
100
AcDbArc
 50
61.83922393600001
 51
73.4975783606
  0
ARC
  5
4084
330
220
100
AcDbEntity
  8
DEFAULT_2
  6
HIDDEN
 62
     8
100
AcDbCircle
 10
98.76842652530001
 20
42.5700422786
 30
0.0
 40
0.6121243607000001
100
AcDbArc
 50
52.97751172729999
 51
61.8075613231
  0
ARC
  5
4085
330
220
100
AcDbEntity
  8
DEFAULT_2
  6
HIDDEN
 62
     8
100
AcDbCircle
 10
98.84061022639999
 20
42.6372632466
 30
0.0
 40
0.5126711119000001
100
AcDbArc
 50
8.0144191534
 51
18.6725228833
  0
ARC
  5
4086
330
220
100
AcDbEntity
  8
DEFAULT_2
  6
HIDDEN
 62
     8
100
AcDbCircle
 10
98.85012102299999
 20
42.63751315869999
 30
0.0
 40
0.5032180525
100
AcDbArc
 50
8.0102496025
 51
30.7748482838
  0
ARC
  5
4087
330
220
100
AcDbEntity
  8
DEFAULT_2
  6
HIDDEN
 62
     8
100
AcDbCircle
 10
98.8534535644
 20
42.6369237334
 30
0.0
 40
0.5
100
AcDbArc
 50
8.0
 51
88.2179110699
  0
ARC
  5
4088
330
220
100
AcDbEntity
  8
DEFAULT_2
  6
HIDDEN
 62
     8
100
AcDbCircle
 10
114.9215980136
 20
22.0193062241
 30
0.0
 40
0.2498993307
100
AcDbArc
 50
91.1158672618
 51
129.1321118957
  0
ARC
  5
4089
330
220
100
AcDbEntity
  8
DEFAULT_2
  6
HIDDEN
 62
     8
100
AcDbCircle
 10
114.2456727368
 20
21.8735841424
 30
0.0
 40
0.125
100
AcDbArc
 50
270.0
 51
315.0
  0
ARC
  5
40D1
330
220
100
AcDbEntity
  8
DEFAULT_2
  6
HIDDEN
 62
     8
100
AcDbCircle
 10
126.9946082061
 20
42.63755130129999
 30
0.0
 40
0.5030447575000001
100
AcDbArc
 50
150.6879950737
 51
171.9913599838
  0
SPLINE
  5
582A
330
220
100
AcDbEntity
  8
DEFAULT_2
  6
HIDDEN
 62
     8
100
AcDbSpline
210
0.0
220
0.0
230
1.0
 70
     8
 71
     3
 72
    11
 73
     7
 74
     0
 42
0.0000001
 43
0.0000000001
 40
0.0
 40
0.0
 40
0.0
 40
0.0
 40
0.2511283217
 40
0.5015971782000001
 40
0.751130435
 40
1.0
 40
1.0
 40
1.0
 40
1.0
 10
114.2349494321
 20
39.5270970367
 30
0.0
 10
114.2715153819
 20
39.5270970367
 30
0.0
 10
114.345340078
 20
39.5126524296
 30
0.0
 10
114.4388167143
 20
39.4507742318
 30
0.0
 10
114.501513153
 20
39.35819669380001
 30
0.0
 10
114.5161994321
 20
39.2848212022
 30
0.0
 10
114.5161994321
 20
39.2485841424
 30
0.0
  0
SPLINE
  5
582B
330
220
100
AcDbEntity
  8
DEFAULT_2
  6
HIDDEN
 62
     8
100
AcDbSpline
210
0.0
220
0.0
230
1.0
 70
     8
 71
     3
 72
    19
 73
    15
 74
     0
 42
0.0000001
 43
0.0000000001
 40
0.0
 40
0.0
 40
0.0
 40
0.0
 40
0.2500010711
 40
0.3750016067000001
 40
0.5000021422
 40
0.6250026778
 40
0.6875029456
 40
0.7500032134000002
 40
0.8125034811
 40
0.8750037481999999
 40
0.9062538838
 40
0.9375039967000001
 40
0.968753127
 40
1.0
 40
1.0
 40
1.0
 40
1.0
 10
112.9225274104
 20
43.1366818916
 30
0.0
 10
111.7509158465
 20
43.1366818846
 30
0.0
 10
109.9934985005
 20
43.1366876567
 30
0.0
 10
107.6502753731
 20
43.13668468609999
 30
0.0
 10
105.8928580262
 20
43.13665944069999
 30
0.0
 10
104.4283435754
 20
43.13664152229999
 30
0.0
 10
103.2567320033
 20
43.1366554908
 30
0.0
 10
102.3780233559
 20
43.136659561
 30
0.0
 10
101.4993145931
 20
43.1367603557
 30
0.0
 10
100.7670576524
 20
43.1365598208
 30
0.0
 10
100.1812513747
 20
43.1367880684
 30
0.0
 10
99.74190365360001
 20
43.13647148
 30
0.0
 10
99.302562674
 20
43.1367783406
 30
0.0
 10
99.0097046578
 20
43.14152878709999
 30
0.0
 10
98.86330459600001
 20
43.1447802268
 30
0.0
  0
SPLINE
  5
582C
330
220
100
AcDbEntity
  8
DEFAULT_2
  6
HIDDEN
 62
     8
100
AcDbSpline
210
0.0
220
0.0
230
1.0
 70
     8
 71
     3
 72
    11
 73
     7
 74
     0
 42
0.0000001
 43
0.0000000001
 40
0.0
 40
0.0
 40
0.0
 40
0.0
 40
0.248869565
 40
0.4984028218
 40
0.7488716783
 40
1.0
 40
1.0
 40
1.0
 40
1.0
 10
111.3286994321
 20
39.2485841424
 30
0.0
 10
111.3286994321
 20
39.2848212022
 30
0.0
 10
111.3433857112
 20
39.35819669380001
 30
0.0
 10
111.4060821499
 20
39.4507742318
 30
0.0
 10
111.4995587862
 20
39.5126524296
 30
0.0
 10
111.5733834823
 20
39.5270970367
 30
0.0
 10
111.6099494321
 20
39.5270970367
 30
0.0
  0
SPLINE
  5
582D
330
220
100
AcDbEntity
  8
DEFAULT_2
  6
HIDDEN
 62
     8
100
AcDbSpline
210
0.0
220
0.0
230
1.0
 70
     8
 71
     3
 72
    14
 73
    10
 74
     0
 42
0.0000001
 43
0.0000000001
 40
0.0
 40
0.0
 40
0.0
 40
0.0
 40
0.2500000003
 40
0.5000000005
 40
0.6250000007000001
 40
0.7500000008
 40
0.8750000009
 40
0.9374999995999999
 40
1.0
 40
1.0
 40
1.0
 40
1.0
 10
112.9224494468
 20
43.1148473697
 30
0.0
 10
114.2141161157
 20
43.1148475768
 30
0.0
 10
116.797449455
 20
43.11484604100001
 30
0.0
 10
120.0266161223
 20
43.11485082589999
 30
0.0
 10
122.6099494705
 20
43.11484206399999
 30
0.0
 10
124.5474494429
 20
43.1148695156
 30
0.0
 10
126.1620328696
 20
43.11478304709999
 30
0.0
 10
127.4536993337
 20
43.11495805969999
 30
0.0
 10
128.0995330685
 20
43.1146362596
 30
0.0
 10
128.4224494321
 20
43.1150804504
 30
0.0
  0
SPLINE
  5
582E
330
220
100
AcDbEntity
  8
DEFAULT_2
  6
HIDDEN
 62
     8
100
AcDbSpline
210
0.0
220
0.0
230
1.0
 70
     8
 71
     3
 72
    13
 73
     9
 74
     0
 42
0.0000001
 43
0.0000000001
 40
0.0
 40
0.0
 40
0.0
 40
0.0
 40
0.0910531938
 40
0.2071556135
 40
0.2944903908
 40
0.4220963938000001
 40
0.6387510670000001
 40
1.0
 40
1.0
 40
1.0
 40
1.0
 10
98.86904553489999
 20
43.136677081
 30
0.0
 10
98.86866276399999
 20
43.13666375859999
 30
0.0
 10
98.86761254479999
 20
43.1368405076
 30
0.0
 10
98.86759192159999
 20
43.1383405635
 30
0.0
 10
98.86781379040002
 20
43.13970540899999
 30
0.0
 10
98.87030869989999
 20
43.1406962397
 30
0.0
 10
98.86566010840001
 20
43.1424528715
 30
0.0
 10
98.86437072280001
 20
43.14369743060001
 30
0.0
 10
98.8633045953
 20
43.1447801977
 30
0.0
  0
SPLINE
  5
582F
330
220
100
AcDbEntity
  8
DEFAULT_2
  6
HIDDEN
 62
     8
100
AcDbSpline
210
0.0
220
0.0
230
1.0
 70
     8
 71
     3
 72
    10
 73
     6
 74
     0
 42
0.0000001
 43
0.0000000001
 40
0.0
 40
0.0
 40
0.0
 40
0.0
 40
0.3011083239
 40
0.5542191996
 40
1.0
 40
1.0
 40
1.0
 40
1.0
 10
99.28247821950002
 20
42.8949926004
 30
0.0
 10
99.25653833969999
 20
42.93860957369999
 30
0.0
 10
99.19613059360001
 20
43.0121883637
 30
0.0
 10
99.0566944612
 20
43.1091047062
 30
0.0
 10
98.93833138920001
 20
43.14084166589999
 30
0.0
 10
98.86330460069999
 20
43.14478044149999
 30
0.0
  0
SPLINE
  5
5830
330
220
100
AcDbEntity
  8
DEFAULT_2
  6
HIDDEN
 62
     8
100
AcDbSpline
210
0.0
220
0.0
230
1.0
 70
     8
 71
     3
 72
    13
 73
     9
 74
     0
 42
0.0000001
 43
0.0000000001
 40
0.0
 40
0.0
 40
0.0
 40
0.0
 40
0.0910560725
 40
0.2071582829
 40
0.2944928935
 40
0.4220975759
 40
0.6387544683
 40
1.0
 40
1.0
 40
1.0
 40
1.0
 10
126.9758533296
 20
43.136677081
 30
0.0
 10
126.9762361212
 20
43.13666399369999
 30
0.0
 10
126.9772863528
 20
43.1368403814
 30
0.0
 10
126.9773069303
 20
43.1383406264
 30
0.0
 10
126.9770850536
 20
43.13970541899999
 30
0.0
 10
126.9745901503
 20
43.1406962784
 30
0.0
 10
126.9792387774
 20
43.14245285720001
 30
0.0
 10
126.9805281499
 20
43.1436974393
 30
0.0
 10
126.9815942688
 20
43.1447801977
 30
0.0
  0
SPLINE
  5
5831
330
220
100
AcDbEntity
  8
DEFAULT_2
  6
HIDDEN
 62
     8
100
AcDbSpline
210
0.0
220
0.0
230
1.0
 70
     8
 71
     3
 72
    10
 73
     6
 74
     0
 42
0.0000001
 43
0.0000000001
 40
0.0
 40
0.0
 40
0.0
 40
0.0
 40
0.3037214088
 40
0.5567216299000001
 40
1.0
 40
1.0
 40
1.0
 40
1.0
 10
126.5559699213
 20
42.8838244894
 30
0.0
 10
126.5816357944
 20
42.9295934084
 30
0.0
 10
126.6423819922
 20
43.0066997621
 30
0.0
 10
126.7841741642
 20
43.10780354609999
 30
0.0
 10
126.9051141595
 20
43.14076536939999
 30
0.0
 10
126.9815942635
 20
43.14478044149999
 30
0.0
  0
SPLINE
  5
67B6
330
220
100
AcDbEntity
  8
DEFAULT_2
  6
HIDDEN
 62
     8
100
AcDbSpline
210
0.0
220
0.0
230
1.0
 70
     8
 71
     3
 72
    11
 73
     7
 74
     0
 42
0.0000001
 43
0.0000000001
 40
0.0
 40
0.0
 40
0.0
 40
0.0
 40
0.2511283217
 40
0.5015971782000001
 40
0.751130435
 40
1.0
 40
1.0
 40
1.0
 40
1.0
 10
111.6099494321
 20
38.9700712481
 30
0.0
 10
111.5733834823
 20
38.9700712481
 30
0.0
 10
111.4995587862
 20
38.9845158552
 30
0.0
 10
111.4060821499
 20
39.046394053
 30
0.0
 10
111.3433857112
 20
39.138971591
 30
0.0
 10
111.3286994321
 20
39.2123470825
 30
0.0
 10
111.3286994321
 20
39.2485841424
 30
0.0
  0
SPLINE
  5
67B7
330
220
100
AcDbEntity
  8
DEFAULT_2
  6
HIDDEN
 62
     8
100
AcDbSpline
210
0.0
220
0.0
230
1.0
 70
     8
 71
     3
 72
    11
 73
     7
 74
     0
 42
0.0000001
 43
0.0000000001
 40
0.0
 40
0.0
 40
0.0
 40
0.0
 40
0.248869565
 40
0.4984028218
 40
0.7488716783
 40
1.0
 40
1.0
 40
1.0
 40
1.0
 10
114.5161994321
 20
39.2485841424
 30
0.0
 10
114.5161994321
 20
39.2123470825
 30
0.0
 10
114.501513153
 20
39.138971591
 30
0.0
 10
114.4388167143
 20
39.046394053
 30
0.0
 10
114.345340078
 20
38.9845158552
 30
0.0
 10
114.2715153819
 20
38.9700712481
 30
0.0
 10
114.2349494321
 20
38.9700712481
 30
0.0
  0
SPLINE
  5
67B8
330
220
100
AcDbEntity
  8
DEFAULT_2
  6
HIDDEN
 62
     8
100
AcDbSpline
210
0.0
220
0.0
230
1.0
 70
     8
 71
     3
 72
    11
 73
     7
 74
     0
 42
0.0000001
 43
0.0000000001
 40
0.0
 40
0.0
 40
0.0
 40
0.0
 40
0.248869565
 40
0.4984028218
 40
0.7488716783
 40
1.0
 40
1.0
 40
1.0
 40
1.0
 10
111.3286994321
 20
39.2311875048
 30
0.0
 10
111.3286994321
 20
39.2674245646
 30
0.0
 10
111.3433857112
 20
39.3408000562
 30
0.0
 10
111.4060821499
 20
39.4333775942
 30
0.0
 10
111.4995587862
 20
39.49525579199999
 30
0.0
 10
111.5733834823
 20
39.5097003991
 30
0.0
 10
111.6099494321
 20
39.5097003991
 30
0.0
  0
SPLINE
  5
67B9
330
220
100
AcDbEntity
  8
DEFAULT_2
  6
HIDDEN
 62
     8
100
AcDbSpline
210
0.0
220
0.0
230
1.0
 70
     8
 71
     3
 72
    11
 73
     7
 74
     0
 42
0.0000001
 43
0.0000000001
 40
0.0
 40
0.0
 40
0.0
 40
0.0
 40
0.2511283217
 40
0.5015971782000001
 40
0.751130435
 40
1.0
 40
1.0
 40
1.0
 40
1.0
 10
114.2349494321
 20
39.5097003991
 30
0.0
 10
114.2715153819
 20
39.5097003991
 30
0.0
 10
114.345340078
 20
39.49525579199999
 30
0.0
 10
114.4388167143
 20
39.4333775942
 30
0.0
 10
114.501513153
 20
39.3408000562
 30
0.0
 10
114.5161994321
 20
39.2674245646
 30
0.0
 10
114.5161994321
 20
39.2311875048
 30
0.0
  0
SPLINE
  5
67BA
330
220
100
AcDbEntity
  8
DEFAULT_2
  6
HIDDEN
 62
     8
100
AcDbSpline
210
0.0
220
0.0
230
1.0
 70
    24
 71
     3
 72
     8
 73
     4
 74
     0
 42
0.0000001
 43
0.0000000001
 40
0.0
 40
0.0
 40
0.0
 40
0.0
 40
1.0
 40
1.0
 40
1.0
 40
1.0
 10
98.8689753381
 20
43.13668812319999
 30
0.0
 10
98.8689860126
 20
43.136686031
 30
0.0
 10
98.86899668719999
 20
43.1366839388
 30
0.0
 10
98.8690073617
 20
43.1366818466
 30
0.0
  0
SPLINE
  5
67BB
330
220
100
AcDbEntity
  8
DEFAULT_2
  6
HIDDEN
 62
     8
100
AcDbSpline
210
0.0
220
0.0
230
1.0
 70
    24
 71
     3
 72
     8
 73
     4
 74
     0
 42
0.0000001
 43
0.0000000001
 40
0.0
 40
0.0
 40
0.0
 40
0.0
 40
1.0
 40
1.0
 40
1.0
 40
1.0
 10
98.8690115702
 20
43.1366809305
 30
0.0
 10
98.8690410432
 20
43.1366740675
 30
0.0
 10
98.86907051620001
 20
43.13666720439999
 30
0.0
 10
98.86909998930001
 20
43.1366603414
 30
0.0
  0
LINE
  5
67BC
330
220
100
AcDbEntity
  8
DEFAULT_2
  6
HIDDEN
 62
     8
100
AcDbLine
 10
112.9226029448
 20
43.1780561816
 30
0.0
 11
99.0455713857
 21
43.1780576385
 31
0.0
  0
LINE
  5
67BD
330
220
100
AcDbEntity
  8
DEFAULT_2
  6
HIDDEN
 62
     8
100
AcDbLine
 10
99.0455713857
 20
43.1780576385
 30
0.0
 11
98.86901252800001
 21
43.1780571851
 31
0.0
  0
LINE
  5
67BE
330
220
100
AcDbEntity
  8
DEFAULT_2
  6
HIDDEN
 62
     8
100
AcDbLine
 10
98.86901252800001
 20
43.1780571851
 30
0.0
 11
98.84752995239999
 21
43.1780570476
 31
0.0
  0
SPLINE
  5
67BF
330
220
100
AcDbEntity
  8
DEFAULT_2
  6
HIDDEN
 62
     8
100
AcDbSpline
210
0.0
220
0.0
230
1.0
 70
     8
 71
     3
 72
    19
 73
    15
 74
     0
 42
0.0000001
 43
0.0000000001
 40
0.0
 40
0.0
 40
0.0
 40
0.0
 40
0.0215008311
 40
0.0470152059
 40
0.0668144905
 40
0.0883321207
 40
0.1139118323
 40
0.1435293554
 40
0.180969509
 40
0.2543094721
 40
0.3477269086
 40
0.4498582966
 40
0.6965395456
 40
1.0
 40
1.0
 40
1.0
 40
1.0
 10
98.8689711514
 20
43.1366821554
 30
0.0
 10
98.86862111180001
 20
43.1367487451
 30
0.0
 10
98.86769420450001
 20
43.13696103659999
 30
0.0
 10
98.86785186490001
 20
43.13837981619999
 30
0.0
 10
98.8685300674
 20
43.13921539949999
 30
0.0
 10
98.86889647950001
 20
43.1402980802
 30
0.0
 10
98.86952733260001
 20
43.1413429106
 30
0.0
 10
98.8709954651
 20
43.14254046569999
 30
0.0
 10
98.8688170127
 20
43.14460690959999
 30
0.0
 10
98.8664444481
 20
43.1464742242
 30
0.0
 10
98.8632387992
 20
43.1498117788
 30
0.0
 10
98.85925626469999
 20
43.1559263948
 30
0.0
 10
98.85409912750001
 20
43.1653712655
 30
0.0
 10
98.8488129897
 20
43.1731456102
 30
0.0
 10
98.847706538
 20
43.17805140549999
 30
0.0
  0
SPLINE
  5
67C0
330
220
100
AcDbEntity
  8
DEFAULT_2
  6
HIDDEN
 62
     8
100
AcDbSpline
210
0.0
220
0.0
230
1.0
 70
     8
 71
     3
 72
    11
 73
     7
 74
     0
 42
0.0000001
 43
0.0000000001
 40
0.0
 40
0.0
 40
0.0
 40
0.0
 40
0.2499945796
 40
0.4999920877
 40
0.7499940783
 40
1.0
 40
1.0
 40
1.0
 40
1.0
 10
102.1189002165
 20
22.9947117621
 30
0.0
 10
102.1269670331
 20
22.9373133795
 30
0.0
 10
102.1636056283
 20
22.82438045320001
 30
0.0
 10
102.2729979116
 20
22.6847878948
 30
0.0
 10
102.423457265
 20
22.5908964887
 30
0.0
 10
102.5396545995
 20
22.5665002576
 30
0.0
 10
102.5975883656
 20
22.5645946207
 30
0.0
  0
SPLINE
  5
67C1
330
220
100
AcDbEntity
  8
DEFAULT_2
  6
HIDDEN
 62
     8
100
AcDbSpline
210
0.0
220
0.0
230
1.0
 70
     8
 71
     3
 72
    11
 73
     7
 74
     0
 42
0.0000001
 43
0.0000000001
 40
0.0
 40
0.0
 40
0.0
 40
0.0
 40
0.248869565
 40
0.4984028218
 40
0.7488716783
 40
1.0
 40
1.0
 40
1.0
 40
1.0
 10
114.5161994321
 20
39.2311875048
 30
0.0
 10
114.5161994321
 20
39.1949504449
 30
0.0
 10
114.501513153
 20
39.1215749533
 30
0.0
 10
114.4388167143
 20
39.02899741530001
 30
0.0
 10
114.345340078
 20
38.9671192175
 30
0.0
 10
114.2715153819
 20
38.9526746104
 30
0.0
 10
114.2349494321
 20
38.9526746104
 30
0.0
  0
SPLINE
  5
67C2
330
220
100
AcDbEntity
  8
DEFAULT_2
  6
HIDDEN
 62
     8
100
AcDbSpline
210
0.0
220
0.0
230
1.0
 70
     8
 71
     3
 72
     9
 73
     5
 74
     0
 42
0.0000001
 43
0.0000000001
 40
0.0
 40
0.0
 40
0.0
 40
0.0
 40
0.7500365620000001
 40
1.0
 40
1.0
 40
1.0
 40
1.0
 10
102.5975883653
 20
22.5645946097
 30
0.0
 10
104.6805412071
 20
22.4960419702
 30
0.0
 10
107.4560960673
 20
22.3609776012
 30
0.0
 10
110.2337433093
 20
22.2827560702
 30
0.0
 10
110.9281682751
 20
22.2691584504
 30
0.0
  0
SPLINE
  5
67C3
330
220
100
AcDbEntity
  8
DEFAULT_2
  6
HIDDEN
 62
     8
100
AcDbSpline
210
0.0
220
0.0
230
1.0
 70
     8
 71
     3
 72
     9
 73
     5
 74
     0
 42
0.0000001
 43
0.0000000001
 40
0.0
 40
0.0
 40
0.0
 40
0.0
 40
0.7500365620000001
 40
1.0
 40
1.0
 40
1.0
 40
1.0
 10
123.2473104989
 20
22.5645946097
 30
0.0
 10
121.1643576571
 20
22.4960419702
 30
0.0
 10
118.3888027969
 20
22.3609776012
 30
0.0
 10
115.6111555549
 20
22.2827560702
 30
0.0
 10
114.9167305891
 20
22.2691584504
 30
0.0
  0
SPLINE
  5
67C4
330
220
100
AcDbEntity
  8
DEFAULT_2
  6
HIDDEN
 62
     8
100
AcDbSpline
210
0.0
220
0.0
230
1.0
 70
     8
 71
     3
 72
    11
 73
     7
 74
     0
 42
0.0000001
 43
0.0000000001
 40
0.0
 40
0.0
 40
0.0
 40
0.0
 40
0.2511283217
 40
0.5015971782000001
 40
0.751130435
 40
1.0
 40
1.0
 40
1.0
 40
1.0
 10
111.6099494321
 20
38.9526746104
 30
0.0
 10
111.5733834823
 20
38.9526746104
 30
0.0
 10
111.4995587862
 20
38.9671192175
 30
0.0
 10
111.4060821499
 20
39.02899741530001
 30
0.0
 10
111.3433857112
 20
39.1215749533
 30
0.0
 10
111.3286994321
 20
39.1949504449
 30
0.0
 10
111.3286994321
 20
39.2311875048
 30
0.0
  0
SPLINE
  5
67C5
330
220
100
AcDbEntity
  8
DEFAULT_2
  6
HIDDEN
 62
     8
100
AcDbSpline
210
0.0
220
0.0
230
1.0
 70
     8
 71
     3
 72
     9
 73
     5
 74
     0
 42
0.0000001
 43
0.0000000001
 40
0.0
 40
0.0
 40
0.0
 40
0.0
 40
0.2466915017
 40
1.0
 40
1.0
 40
1.0
 40
1.0
 10
98.847706538
 20
43.17805140549999
 30
0.0
 10
98.85536847530001
 20
43.17700251459999
 30
0.0
 10
98.88633383690001
 20
43.1720860378
 30
0.0
 10
98.91690730909999
 20
43.1647631733
 30
0.0
 10
98.93954720190002
 20
43.15804704489999
 30
0.0
  0
SPLINE
  5
67C6
330
220
100
AcDbEntity
  8
DEFAULT_2
  6
HIDDEN
 62
     8
100
AcDbSpline
210
0.0
220
0.0
230
1.0
 70
     8
 71
     3
 72
     9
 73
     5
 74
     0
 42
0.0000001
 43
0.0000000001
 40
0.0
 40
0.0
 40
0.0
 40
0.0
 40
0.4695070421
 40
1.0
 40
1.0
 40
1.0
 40
1.0
 10
99.1370040097
 20
43.05876190270001
 30
0.0
 10
99.17737155330001
 20
43.0282972067
 30
0.0
 10
99.25584210010001
 20
42.9525107676
 30
0.0
 10
99.308011963
 20
42.85553726049999
 30
0.0
 10
99.3262963427
 20
42.8013993653
 30
0.0
  0
SPLINE
  5
67C7
330
220
100
AcDbEntity
  8
DEFAULT_2
  6
HIDDEN
 62
     8
100
AcDbSpline
210
0.0
220
0.0
230
1.0
 70
     8
 71
     3
 72
    11
 73
     7
 74
     0
 42
0.0000001
 43
0.0000000001
 40
0.0
 40
0.0
 40
0.0
 40
0.0
 40
0.2499945796
 40
0.4999920877
 40
0.7499940783
 40
1.0
 40
1.0
 40
1.0
 40
1.0
 10
123.7259986477
 20
22.9947117621
 30
0.0
 10
123.7179318311
 20
22.9373133795
 30
0.0
 10
123.6812932359
 20
22.82438045320001
 30
0.0
 10
123.5719009526
 20
22.6847878948
 30
0.0
 10
123.4214415992
 20
22.5908964887
 30
0.0
 10
123.3052442646
 20
22.5665002576
 30
0.0
 10
123.2473104985
 20
22.5645946207
 30
0.0
  0
LINE
  5
67C8
330
220
100
AcDbEntity
  8
DEFAULT_2
  6
HIDDEN
 62
     8
100
AcDbLine
 10
112.9224494329
 20
43.1148473697
 30
0.0
 11
128.2974454876
 21
43.1149356345
 31
0.0
  0
LINE
  5
67C9
330
220
100
AcDbEntity
  8
DEFAULT_2
  6
HIDDEN
 62
     8
100
AcDbLine
 10
128.2974454876
 20
43.1149356345
 30
0.0
 11
128.4224494321
 21
43.1150804504
 31
0.0
  0
SPLINE
  5
67CA
330
220
100
AcDbEntity
  8
DEFAULT_2
  6
HIDDEN
 62
     8
100
AcDbSpline
210
0.0
220
0.0
230
1.0
 70
     8
 71
     3
 72
    21
 73
    17
 74
     0
 42
0.0000001
 43
0.0000000001
 40
0.0
 40
0.0
 40
0.0
 40
0.0
 40
0.0156249983
 40
0.0312499984
 40
0.0624999984
 40
0.0937499985
 40
0.1249999985
 40
0.1874999986
 40
0.2499999987
 40
0.3124999988
 40
0.3749999989
 40
0.4999999992000001
 40
0.6249999994
 40
0.7499999996
 40
0.8749999998000001
 40
1.0
 40
1.0
 40
1.0
 40
1.0
 10
128.2974494321
 20
43.1100609159
 30
0.0
 10
128.217371472
 20
43.10990226619999
 30
0.0
 10
128.0572152387
 20
43.10972883669999
 30
0.0
 10
127.736902739
 20
43.1097920225
 30
0.0
 10
127.3365121112
 20
43.10976302119999
 30
0.0
 10
126.8560433546
 20
43.1097719476
 30
0.0
 10
126.2154183469
 20
43.1097683396
 30
0.0
 10
125.4146370869
 20
43.1097703265
 30
0.0
 10
124.453699575
 20
43.10977022489999
 30
0.0
 10
123.4927620631
 20
43.1097705063
 30
0.0
 10
122.2115120473
 20
43.1097704584
 30
0.0
 10
120.6099495275
 20
43.1097701913
 30
0.0
 10
118.6880745037
 20
43.10976983749999
 30
0.0
 10
116.76619948
 20
43.10976980109999
 30
0.0
 10
114.8443244562
 20
43.1097698904
 30
0.0
 10
113.5630744404
 20
43.1097699155
 30
0.0
 10
112.9224494324
 20
43.10976981279999
 30
0.0
  0
SPLINE
  5
67CB
330
220
100
AcDbEntity
  8
DEFAULT_2
  6
HIDDEN
 62
     8
100
AcDbSpline
210
0.0
220
0.0
230
1.0
 70
     8
 71
     3
 72
    21
 73
    17
 74
     0
 42
0.0000001
 43
0.0000000001
 40
0.0
 40
0.0
 40
0.0
 40
0.0
 40
0.1250000002
 40
0.2500000004
 40
0.3750000006
 40
0.5000000008
 40
0.6250000011
 40
0.6875000012000001
 40
0.7500000013000001
 40
0.8125000013999999
 40
0.8750000014999999
 40
0.9062500014999999
 40
0.9375000015999999
 40
0.9687500015999999
 40
0.9843750016999999
 40
1.0
 40
1.0
 40
1.0
 40
1.0
 10
112.9224494324
 20
43.10976981279999
 30
0.0
 10
112.2818244245
 20
43.1097699155
 30
0.0
 10
111.0005744086
 20
43.1097698904
 30
0.0
 10
109.0786993847
 20
43.10976980109999
 30
0.0
 10
107.1568243609
 20
43.10976983739999
 30
0.0
 10
105.234949337
 20
43.1097701913
 30
0.0
 10
103.6333868172
 20
43.1097704584
 30
0.0
 10
102.3521368013
 20
43.1097705063
 30
0.0
 10
101.3911992893
 20
43.10977022489999
 30
0.0
 10
100.4302617774
 20
43.1097703266
 30
0.0
 10
99.62948051739999
 20
43.1097683381
 30
0.0
 10
98.98885550959999
 20
43.109771951
 30
0.0
 10
98.508386753
 20
43.109763015
 30
0.0
 10
98.10799612510001
 20
43.1097920435
 30
0.0
 10
97.78768362540001
 20
43.1097288368
 30
0.0
 10
97.62752739219999
 20
43.10990226619999
 30
0.0
 10
97.54744943209999
 20
43.1100609159
 30
0.0
  0
SPLINE
  5
67CC
330
220
100
AcDbEntity
  8
0
  6
Continuous
 62
     7
100
AcDbSpline
210
0.0
220
0.0
230
1.0
 70
     8
 71
     3
 72
    19
 73
    15
 74
     0
 42
0.0000001
 43
0.0000000001
 40
0.0
 40
0.0
 40
0.0
 40
0.0
 40
0.0312500021
 40
0.0624999353
 40
0.0937499135
 40
0.124999916
 40
0.156249919
 40
0.187499922
 40
0.249999928
 40
0.37499994
 40
0.4999999520000001
 40
0.6249999640000001
 40
0.7499999759999999
 40
1.0
 40
1.0
 40
1.0
 40
1.0
 10
97.4224494321
 20
43.19436978859999
 30
0.0
 10
97.5838975089
 20
43.19249749539999
 30
0.0
 10
97.9067804277
 20
43.18777499409999
 30
0.0
 10
98.391143204
 20
43.1833544208
 30
0.0
 10
98.87552267250001
 20
43.1836635632
 30
0.0
 10
99.35989850989999
 20
43.18361815439999
 30
0.0
 10
99.84427554379999
 20
43.1836201602
 30
0.0
 10
100.4901112189
 20
43.1836592308
 30
0.0
 10
101.6203238263
 20
43.1836244799
 30
0.0
 10
103.2349131734
 20
43.18360988739999
 30
0.0
 10
105.1724204296
 20
43.1836182214
 30
0.0
 10
107.1099276751
 20
43.18363468859999
 30
0.0
 10
109.693270673
 20
43.1836373052
 30
0.0
 10
111.6307779205
 20
43.1836336067
 30
0.0
 10
112.9224494191
 20
43.1836336067
 30
0.0
  0
SPLINE
  5
67CD
330
220
100
AcDbEntity
  8
0
  6
Continuous
 62
     7
100
AcDbSpline
210
0.0
220
0.0
230
1.0
 70
     8
 71
     3
 72
    13
 73
     9
 74
     0
 42
0.0000001
 43
0.0000000001
 40
0.0
 40
0.0
 40
0.0
 40
0.0
 40
0.2499999961
 40
0.4999999915
 40
0.6249999915
 40
0.7499999867
 40
0.8749999843000001
 40
1.0
 40
1.0
 40
1.0
 40
1.0
 10
112.9224496159
 20
43.23995045359999
 30
0.0
 10
111.6618667252
 20
43.2399506557
 30
0.0
 10
109.1407009485
 20
43.2399341104
 30
0.0
 10
105.9892437121
 20
43.2399876443
 30
0.0
 10
103.4680779467
 20
43.2399173783
 30
0.0
 10
101.5772035973
 20
43.2399190734
 30
0.0
 10
99.6863292713
 20
43.2402690488
 30
0.0
 10
98.4257460899
 20
43.23936846529999
 30
0.0
 10
97.79545470409999
 20
43.23980129119999
 30
0.0
  0
LINE
  5
67CE
330
220
100
AcDbEntity
  8
0
  6
Continuous
 62
     7
100
AcDbLine
 10
97.79545470409999
 20
43.23980129119999
 30
0.0
 11
97.4224494321
 21
43.24017365329999
 31
0.0
  0
SPLINE
  5
67CF
330
220
100
AcDbEntity
  8
0
  6
Continuous
 62
     7
100
AcDbSpline
210
0.0
220
0.0
230
1.0
 70
     8
 71
     3
 72
    19
 73
    15
 74
     0
 42
0.0000001
 43
0.0000000001
 40
0.0
 40
0.0
 40
0.0
 40
0.0
 40
0.2500000269
 40
0.3750000403
 40
0.5000000537
 40
0.6250000672000001
 40
0.7500000806
 40
0.8125000872999999
 40
0.8437500906
 40
0.8750000938999999
 40
0.9062500959000001
 40
0.9375000731
 40
0.9687499990999999
 40
1.0
 40
1.0
 40
1.0
 40
1.0
 10
112.9224494191
 20
43.1836336067
 30
0.0
 10
114.2141209328
 20
43.1836336067
 30
0.0
 10
116.151628203
 20
43.1836372855
 30
0.0
 10
118.7349712312
 20
43.18363469829999
 30
0.0
 10
120.6724784994
 20
43.1836181805
 30
0.0
 10
122.6099857783
 20
43.18361003819999
 30
0.0
 10
124.2245751444
 20
43.1836240189
 30
0.0
 10
125.3547877648
 20
43.1836598004
 30
0.0
 10
126.0006234473
 20
43.1836191979
 30
0.0
 10
126.4850004814
 20
43.1836207755
 30
0.0
 10
126.969376316
 20
43.1836496409
 30
0.0
 10
127.4537557239
 20
43.1833613734
 30
0.0
 10
127.938118441
 20
43.1877772947
 30
0.0
 10
128.2610013613
 20
43.19249749539999
 30
0.0
 10
128.4224494321
 20
43.19436978859999
 30
0.0
  0
LINE
  5
67D0
330
220
100
AcDbEntity
  8
0
  6
Continuous
 62
     7
100
AcDbLine
 10
128.4224494321
 20
43.24017365329999
 30
0.0
 11
128.0494441626
 21
43.23980127489999
 31
0.0
  0
SPLINE
  5
67D1
330
220
100
AcDbEntity
  8
0
  6
Continuous
 62
     7
100
AcDbSpline
210
0.0
220
0.0
230
1.0
 70
     8
 71
     3
 72
    13
 73
     9
 74
     0
 42
0.0000001
 43
0.0000000001
 40
0.0
 40
0.0
 40
0.0
 40
0.0
 40
0.1250000157
 40
0.2500000133
 40
0.3750000085
 40
0.5000000085
 40
0.7500000039
 40
1.0
 40
1.0
 40
1.0
 40
1.0
 10
128.0494441626
 20
43.23980127489999
 30
0.0
 10
127.4191527921
 20
43.2393683988
 30
0.0
 10
126.158569641
 20
43.24026891069999
 30
0.0
 10
124.2676953607
 20
43.2399191104
 30
0.0
 10
122.3768210569
 20
43.2399173949
 30
0.0
 10
119.8556553523
 20
43.2399876347
 30
0.0
 10
116.704198192
 20
43.2399341152
 30
0.0
 10
114.1830324761
 20
43.2399506557
 30
0.0
 10
112.9224496159
 20
43.23995045359999
 30
0.0
  0
LINE
  5
67D2
330
220
100
AcDbEntity
  8
0
  6
Continuous
 62
     7
100
AcDbLine
 10
128.4224494321
 20
43.0693370058
 30
0.0
 11
128.2029882334
 21
43.0665823057
 31
0.0
  0
SPLINE
  5
67D3
330
220
100
AcDbEntity
  8
0
  6
Continuous
 62
     7
100
AcDbSpline
210
0.0
220
0.0
230
1.0
 70
     8
 71
     3
 72
    18
 73
    14
 74
     0
 42
0.0000001
 43
0.0000000001
 40
0.0
 40
0.0
 40
0.0
 40
0.0
 40
0.031249997
 40
0.0624999574
 40
0.093749944
 40
0.1249999446
 40
0.1874999487
 40
0.2499999526
 40
0.3749999604999999
 40
0.4999999684000001
 40
0.6249999763
 40
0.7499999842000001
 40
1.0
 40
1.0
 40
1.0
 40
1.0
 10
128.2029882334
 20
43.0665823057
 30
0.0
 10
128.0748122542
 20
43.06489961069999
 30
0.0
 10
127.8184612201
 20
43.0614499196
 30
0.0
 10
127.4339075922
 20
43.0585383513
 30
0.0
 10
127.0493453081
 20
43.05845674859999
 30
0.0
 10
126.5365976771
 20
43.0586751031
 30
0.0
 10
125.895662228
 20
43.0585284187
 30
0.0
 10
124.8701659643
 20
43.05862262989999
 30
0.0
 10
123.5882954762
 20
43.0585421035
 30
0.0
 10
122.0500509582
 20
43.05855475819999
 30
0.0
 10
120.5118064221
 20
43.05855843899999
 30
0.0
 10
118.4608137137
 20
43.0585767207
 30
0.0
 10
116.9225691809
 20
43.05857571999999
 30
0.0
 10
115.897072826
 20
43.05857482729999
 30
0.0
  0
LINE
  5
67D4
330
220
100
AcDbEntity
  8
0
  6
Continuous
 62
     7
100
AcDbLine
 10
115.897072826
 20
43.05857482729999
 30
0.0
 11
112.9224494321
 21
43.05857311879999
 31
0.0
  0
LINE
  5
67D5
330
220
100
AcDbEntity
  8
0
  6
Continuous
 62
     7
100
AcDbLine
 10
112.9224494321
 20
43.05857311879999
 30
0.0
 11
109.9544987922
 21
43.0585748209
 31
0.0
  0
SPLINE
  5
67D6
330
220
100
AcDbEntity
  8
0
  6
Continuous
 62
     7
100
AcDbSpline
210
0.0
220
0.0
230
1.0
 70
     8
 71
     3
 72
    15
 73
    11
 74
     0
 42
0.0000001
 43
0.0000000001
 40
0.0
 40
0.0
 40
0.0
 40
0.0
 40
0.2500000632999999
 40
0.5000001265999999
 40
0.6250001583
 40
0.7500001898999999
 40
0.8125002057999999
 40
0.8750002218999998
 40
0.9375001211
 40
1.0
 40
1.0
 40
1.0
 40
1.0
 10
109.9544987922
 20
43.0585748209
 30
0.0
 10
108.9173436702
 20
43.0585757225
 30
0.0
 10
106.8430333916
 20
43.0585705343
 30
0.0
 10
104.2501457155
 20
43.0585631789
 30
0.0
 10
102.1758352133
 20
43.0585317952
 30
0.0
 10
100.8793919667
 20
43.0586594938
 30
0.0
 10
99.84223549780001
 20
43.05846537369999
 30
0.0
 10
99.06437375160001
 20
43.05891043189999
 30
0.0
 10
98.286493024
 20
43.0575018043
 30
0.0
 10
97.76795765920001
 20
43.0650772213
 30
0.0
 10
97.50868947020002
 20
43.068299516
 30
0.0
  0
LINE
  5
67D7
330
220
100
AcDbEntity
  8
0
  6
Continuous
 62
     7
100
AcDbLine
 10
97.50868947020002
 20
43.068299516
 30
0.0
 11
97.4224494321
 21
43.06933701819999
 31
0.0
  0
LINE
  5
67D8
330
220
100
AcDbEntity
  8
0
  6
Continuous
 62
     7
100
AcDbLine
 10
97.4224494321
 20
43.0693370233
 30
0.0
 11
97.49733010219999
 21
43.0684400702
 31
0.0
  0
SPLINE
  5
67D9
330
220
100
AcDbEntity
  8
0
  6
Continuous
 62
     7
100
AcDbSpline
210
0.0
220
0.0
230
1.0
 70
     8
 71
     3
 72
    28
 73
    24
 74
     0
 42
0.0000001
 43
0.0000000001
 40
0.0
 40
0.0
 40
0.0
 40
0.0
 40
0.0156249999
 40
0.031249998
 40
0.04687499
 40
0.0624999805
 40
0.0781249761
 40
0.0937499765
 40
0.1093749767
 40
0.1249999771
 40
0.1562499779
 40
0.1874999787
 40
0.2187499796
 40
0.2499999804
 40
0.2812499812
 40
0.312499982
 40
0.3749999836
 40
0.4374999853000001
 40
0.4999999869
 40
0.6249999902000001
 40
0.7499999934999999
 40
0.8749999967
 40
1.0
 40
1.0
 40
1.0
 40
1.0
 10
97.49733010219999
 20
43.0684400702
 30
0.0
 10
97.5776634374
 20
43.06744990520001
 30
0.0
 10
97.7383275879
 20
43.0652727125
 30
0.0
 10
97.9793266835
 20
43.0622275501
 30
0.0
 10
98.22033416389999
 20
43.05988080619999
 30
0.0
 10
98.4613502592
 20
43.0586862835
 30
0.0
 10
98.702368653
 20
43.0583977251
 30
0.0
 10
98.94338687780001
 20
43.0586136703
 30
0.0
 10
99.1844052144
 20
43.0585937832
 30
0.0
 10
99.50576296290002
 20
43.05854027379999
 30
0.0
 10
99.90746016640001
 20
43.05857063149999
 30
0.0
 10
100.389496803
 20
43.058588315
 30
0.0
 10
100.8715334423
 20
43.0585856567
 30
0.0
 10
101.3535700808
 20
43.0585748165
 30
0.0
 10
101.8356067196
 20
43.05856553449999
 30
0.0
 10
102.4783222378
 20
43.0585571713
 30
0.0
 10
103.2817166358
 20
43.0585524089
 30
0.0
 10
104.2457899133
 20
43.05855358419999
 30
0.0
 10
105.53122095
 20
43.05856081299999
 30
0.0
 10
107.1380097459
 20
43.05857422439999
 30
0.0
 10
109.066156301
 20
43.0585764292
 30
0.0
 10
110.994302856
 20
43.0585732127
 30
0.0
 10
112.2797338927
 20
43.05857311879999
 30
0.0
 10
112.9224494111
 20
43.05857311879999
 30
0.0
  0
LINE
  5
67DA
330
220
100
AcDbEntity
  8
0
  6
Continuous
 62
     7
100
AcDbLine
 10
128.4224494321
 20
43.0693370108
 30
0.0
 11
128.347602482
 21
43.0684404704
 31
0.0
  0
SPLINE
  5
67DB
330
220
100
AcDbEntity
  8
0
  6
Continuous
 62
     7
100
AcDbSpline
210
0.0
220
0.0
230
1.0
 70
     8
 71
     3
 72
    28
 73
    24
 74
     0
 42
0.0000001
 43
0.0000000001
 40
0.0
 40
0.0
 40
0.0
 40
0.0
 40
0.0156249999
 40
0.031249998
 40
0.04687499
 40
0.0624999805
 40
0.078124976
 40
0.0937499764
 40
0.1093749767
 40
0.1249999771
 40
0.1562499779
 40
0.1874999787
 40
0.2187499795
 40
0.2499999804
 40
0.2812499812
 40
0.312499982
 40
0.3749999836
 40
0.4374999853000001
 40
0.4999999869
 40
0.6249999902000001
 40
0.7499999934999999
 40
0.8749999967
 40
1.0
 40
1.0
 40
1.0
 40
1.0
 10
128.347602482
 20
43.0684404704
 30
0.0
 10
128.2672689707
 20
43.0674503247
 30
0.0
 10
128.106604468
 20
43.065273176
 30
0.0
 10
127.8656048467
 20
43.0622278504
 30
0.0
 10
127.6245968374
 20
43.0598812744
 30
0.0
 10
127.3835802175
 20
43.05868638149999
 30
0.0
 10
127.1425612958
 20
43.05839739069999
 30
0.0
 10
126.9015425439
 20
43.058614873
 30
0.0
 10
126.6605236793
 20
43.05859341979999
 30
0.0
 10
126.3391652272
 20
43.0585406209
 30
0.0
 10
125.9374671444
 20
43.05857052899999
 30
0.0
 10
125.4554294526
 20
43.0585883431
 30
0.0
 10
124.9733917581
 20
43.058585651
 30
0.0
 10
124.4913540645
 20
43.0585748134
 30
0.0
 10
124.0093163707
 20
43.05856553439999
 30
0.0
 10
123.3665994455
 20
43.0585571723
 30
0.0
 10
122.563203289
 20
43.05855240859999
 30
0.0
 10
121.5991279012
 20
43.05855358419999
 30
0.0
 10
120.3136940508
 20
43.05856081259999
 30
0.0
 10
118.7069017379
 20
43.05857422579999
 30
0.0
 10
116.7787509623
 20
43.0585764288
 30
0.0
 10
114.8506001867
 20
43.0585732129
 30
0.0
 10
113.5651663363
 20
43.05857311879999
 30
0.0
 10
112.9224494111
 20
43.05857311879999
 30
0.0
  0
ENDSEC
  0
SECTION
  2
OBJECTS
  0
DICTIONARY
  5
C
330
0
100
AcDbDictionary
281
     1
  3
ACAD_CIP_PREVIOUS_PRODUCT_INFO
350
68A9
  3
ACAD_COLOR
350
6820
  3
ACAD_DETAILVIEWSTYLE
350
6839
  3
ACAD_GROUP
350
D
  3
ACAD_LAYOUT
350
1A
  3
ACAD_MATERIAL
350
67EE
  3
ACAD_MLEADERSTYLE
350
6835
  3
ACAD_MLINESTYLE
350
17
  3
ACAD_PLOTSETTINGS
350
19
  3
ACAD_PLOTSTYLENAME
350
E
  3
ACAD_SCALELIST
350
6823
  3
ACAD_SECTIONVIEWSTYLE
350
6837
  3
ACAD_TABLESTYLE
350
6821
  3
ACAD_VISUALSTYLE
350
6807
  3
ACDB_RECOMPOSE_DATA
350
6A18
  3
AcDbVariableDictionary
350
689A
  0
DICTIONARY
  5
683F
330
8
100
AcDbDictionary
280
     1
281
     1
  0
DICTIONARY
  5
6A0F
330
2
100
AcDbDictionary
280
     1
281
     1
  3
ACAD_LAYERSTATES
360
6A10
  0
DICTIONARY
  5
68AA
330
10
100
AcDbDictionary
280
     1
281
     1
  3
ADSK_XREC_LAYER_RECONCILED
360
68AB
  0
DICTIONARY
  5
68AC
330
1FA
100
AcDbDictionary
280
     1
281
     1
  3
ADSK_XREC_LAYER_RECONCILED
360
68AD
  0
DICTIONARY
  5
68AE
330
1FB
100
AcDbDictionary
280
     1
281
     1
  3
ADSK_XREC_LAYER_RECONCILED
360
68AF
  0
DICTIONARY
  5
68B0
330
1FC
100
AcDbDictionary
280
     1
281
     1
  3
ADSK_XREC_LAYER_RECONCILED
360
68B1
  0
DICTIONARY
  5
68B2
330
1FD
100
AcDbDictionary
280
     1
281
     1
  3
ADSK_XREC_LAYER_RECONCILED
360
68B3
  0
DICTIONARY
  5
68B4
330
1FE
100
AcDbDictionary
280
     1
281
     1
  3
ADSK_XREC_LAYER_RECONCILED
360
68B5
  0
DICTIONARY
  5
68B6
330
1FF
100
AcDbDictionary
280
     1
281
     1
  3
ADSK_XREC_LAYER_RECONCILED
360
68B7
  0
DICTIONARY
  5
68B8
330
200
100
AcDbDictionary
280
     1
281
     1
  3
ADSK_XREC_LAYER_RECONCILED
360
68B9
  0
DICTIONARY
  5
68BA
330
201
100
AcDbDictionary
280
     1
281
     1
  3
ADSK_XREC_LAYER_RECONCILED
360
68BB
  0
DICTIONARY
  5
68BC
330
202
100
AcDbDictionary
280
     1
281
     1
  3
ADSK_XREC_LAYER_RECONCILED
360
68BD
  0
DICTIONARY
  5
68BE
330
203
100
AcDbDictionary
280
     1
281
     1
  3
ADSK_XREC_LAYER_RECONCILED
360
68BF
  0
DICTIONARY
  5
68C0
330
204
100
AcDbDictionary
280
     1
281
     1
  3
ADSK_XREC_LAYER_RECONCILED
360
68C1
  0
DICTIONARY
  5
68C2
330
205
100
AcDbDictionary
280
     1
281
     1
  3
ADSK_XREC_LAYER_RECONCILED
360
68C3
  0
DICTIONARY
  5
68C4
330
206
100
AcDbDictionary
280
     1
281
     1
  3
ADSK_XREC_LAYER_RECONCILED
360
68C5
  0
DICTIONARY
  5
68C6
330
207
100
AcDbDictionary
280
     1
281
     1
  3
ADSK_XREC_LAYER_RECONCILED
360
68C7
  0
DICTIONARY
  5
68C8
330
208
100
AcDbDictionary
280
     1
281
     1
  3
ADSK_XREC_LAYER_RECONCILED
360
68C9
  0
DICTIONARY
  5
68CA
330
209
100
AcDbDictionary
280
     1
281
     1
  3
ADSK_XREC_LAYER_RECONCILED
360
68CB
  0
DICTIONARY
  5
68CC
330
20A
100
AcDbDictionary
280
     1
281
     1
  3
ADSK_XREC_LAYER_RECONCILED
360
68CD
  0
DICTIONARY
  5
68CE
330
20B
100
AcDbDictionary
280
     1
281
     1
  3
ADSK_XREC_LAYER_RECONCILED
360
68CF
  0
DICTIONARY
  5
68D0
330
20C
100
AcDbDictionary
280
     1
281
     1
  3
ADSK_XREC_LAYER_RECONCILED
360
68D1
  0
DICTIONARY
  5
68D2
330
20D
100
AcDbDictionary
280
     1
281
     1
  3
ADSK_XREC_LAYER_RECONCILED
360
68D3
  0
DICTIONARY
  5
68D4
330
20E
100
AcDbDictionary
280
     1
281
     1
  3
ADSK_XREC_LAYER_RECONCILED
360
68D5
  0
DICTIONARY
  5
68D6
330
20F
100
AcDbDictionary
280
     1
281
     1
  3
ADSK_XREC_LAYER_RECONCILED
360
68D7
  0
DICTIONARY
  5
68D8
330
210
100
AcDbDictionary
280
     1
281
     1
  3
ADSK_XREC_LAYER_RECONCILED
360
68D9
  0
DICTIONARY
  5
68DA
330
211
100
AcDbDictionary
280
     1
281
     1
  3
ADSK_XREC_LAYER_RECONCILED
360
68DB
  0
DICTIONARY
  5
68DC
330
212
100
AcDbDictionary
280
     1
281
     1
  3
ADSK_XREC_LAYER_RECONCILED
360
68DD
  0
DICTIONARY
  5
68DE
330
213
100
AcDbDictionary
280
     1
281
     1
  3
ADSK_XREC_LAYER_RECONCILED
360
68DF
  0
DICTIONARY
  5
68E0
330
214
100
AcDbDictionary
280
     1
281
     1
  3
ADSK_XREC_LAYER_RECONCILED
360
68E1
  0
DICTIONARY
  5
68E2
330
215
100
AcDbDictionary
280
     1
281
     1
  3
ADSK_XREC_LAYER_RECONCILED
360
68E3
  0
DICTIONARY
  5
68E4
330
216
100
AcDbDictionary
280
     1
281
     1
  3
ADSK_XREC_LAYER_RECONCILED
360
68E5
  0
DICTIONARY
  5
68E6
330
217
100
AcDbDictionary
280
     1
281
     1
  3
ADSK_XREC_LAYER_RECONCILED
360
68E7
  0
XRECORD
  5
68A9
102
{ACAD_REACTORS
330
C
102
}
330
C
100
AcDbXrecord
280
     1
300
ACDLT
300
2019
300
ACDLT_F_S
  0
DICTIONARY
  5
6820
102
{ACAD_REACTORS
330
C
102
}
330
C
100
AcDbDictionary
281
     1
  0
DICTIONARY
  5
6839
102
{ACAD_REACTORS
330
C
102
}
330
C
100
AcDbDictionary
281
     1
  3
Imperial24
350
683A
  0
DICTIONARY
  5
D
102
{ACAD_REACTORS
330
C
102
}
330
C
100
AcDbDictionary
281
     1
  0
DICTIONARY
  5
1A
102
{ACAD_REACTORS
330
C
102
}
330
C
100
AcDbDictionary
281
     1
  3
Layout1
350
67E9
  3
Model
350
67E8
  0
DICTIONARY
  5
67EE
102
{ACAD_REACTORS
330
C
102
}
330
C
100
AcDbDictionary
281
     1
  3
ByBlock
350
67F7
  3
ByLayer
350
67EF
  3
Global
350
67FF
  0
DICTIONARY
  5
6835
102
{ACAD_REACTORS
330
C
102
}
330
C
100
AcDbDictionary
281
     1
  3
Standard
350
6836
  0
DICTIONARY
  5
17
102
{ACAD_REACTORS
330
C
102
}
330
C
100
AcDbDictionary
281
     1
  3
Standard
350
18
  0
DICTIONARY
  5
19
102
{ACAD_REACTORS
330
C
102
}
330
C
100
AcDbDictionary
281
     1
  0
ACDBDICTIONARYWDFLT
  5
E
102
{ACAD_REACTORS
330
C
102
}
330
C
100
AcDbDictionary
281
     1
  3
Normal
350
F
100
AcDbDictionaryWithDefault
340
F
  0
DICTIONARY
  5
6823
102
{ACAD_REACTORS
330
C
102
}
330
C
100
AcDbDictionary
281
     1
  3
A0
350
6824
  3
A1
350
6825
  3
A2
350
6826
  3
A3
350
6827
  3
A4
350
6828
  3
A5
350
6829
  3
A6
350
682A
  3
A7
350
682B
  3
A8
350
682C
  3
A9
350
682D
  3
B0
350
682E
  3
B1
350
682F
  3
B2
350
6830
  3
B3
350
6831
  3
B4
350
6832
  3
B5
350
6833
  3
B6
350
6834
  0
DICTIONARY
  5
6837
102
{ACAD_REACTORS
330
C
102
}
330
C
100
AcDbDictionary
281
     1
  3
Imperial24
350
6838
  0
DICTIONARY
  5
6821
102
{ACAD_REACTORS
330
C
102
}
330
C
100
AcDbDictionary
281
     1
  3
Standard
350
6822
  0
DICTIONARY
  5
6807
102
{ACAD_REACTORS
330
C
102
}
330
C
100
AcDbDictionary
281
     1
  3
2dWireframe
350
680D
  3
Basic
350
680C
  3
Brighten
350
6813
  3
ColorChange
350
6817
  3
Conceptual
350
6810
  3
Dim
350
6812
  3
EdgeColorOff
350
681F
  3
Facepattern
350
6816
  3
Flat
350
6808
  3
FlatWithEdges
350
6809
  3
Gouraud
350
680A
  3
GouraudWithEdges
350
680B
  3
Hidden
350
680F
  3
JitterOff
350
681D
  3
Linepattern
350
6815
  3
OverhangOff
350
681E
  3
Realistic
350
6811
  3
Shaded
350
681C
  3
Shaded with edges
350
681B
  3
Shades of Gray
350
6818
  3
Sketchy
350
6819
  3
Thicken
350
6814
  3
Wireframe
350
680E
  3
X-Ray
350
681A
  0
XRECORD
  5
6A18
102
{ACAD_REACTORS
330
C
102
}
330
C
100
AcDbXrecord
280
     1
 90
        1
330
6822
  0
DICTIONARY
  5
689A
102
{ACAD_REACTORS
330
C
102
}
330
C
100
AcDbDictionary
281
     1
  3
CANNOSCALE
350
689F
  3
CMLEADERSTYLE
350
689C
  3
CTABLESTYLE
350
689B
  3
CVIEWDETAILSTYLE
350
689D
  3
CVIEWSECTIONSTYLE
350
689E
  3
DIMASSOC
350
68A2
  3
INDEXCTL
350
68A1
  3
LAYEREVAL
350
6A05
  3
LAYERNOTIFY
350
6A06
  3
LIGHTINGUNITS
350
6A04
  3
MSLTSCALE
350
6A03
  3
SORTENTS
350
68A0
  0
DICTIONARY
  5
6A10
102
{ACAD_REACTORS
330
6A0F
102
}
330
6A0F
100
AcDbDictionary
281
     1
  0
XRECORD
  5
68AB
102
{ACAD_REACTORS
330
68AA
102
}
330
68AA
100
AcDbXrecord
280
     1
290
     1
  0
XRECORD
  5
68AD
102
{ACAD_REACTORS
330
68AC
102
}
330
68AC
100
AcDbXrecord
280
     1
290
     1
  0
XRECORD
  5
68AF
102
{ACAD_REACTORS
330
68AE
102
}
330
68AE
100
AcDbXrecord
280
     1
290
     1
  0
XRECORD
  5
68B1
102
{ACAD_REACTORS
330
68B0
102
}
330
68B0
100
AcDbXrecord
280
     1
290
     1
  0
XRECORD
  5
68B3
102
{ACAD_REACTORS
330
68B2
102
}
330
68B2
100
AcDbXrecord
280
     1
290
     1
  0
XRECORD
  5
68B5
102
{ACAD_REACTORS
330
68B4
102
}
330
68B4
100
AcDbXrecord
280
     1
290
     1
  0
XRECORD
  5
68B7
102
{ACAD_REACTORS
330
68B6
102
}
330
68B6
100
AcDbXrecord
280
     1
290
     1
  0
XRECORD
  5
68B9
102
{ACAD_REACTORS
330
68B8
102
}
330
68B8
100
AcDbXrecord
280
     1
290
     1
  0
XRECORD
  5
68BB
102
{ACAD_REACTORS
330
68BA
102
}
330
68BA
100
AcDbXrecord
280
     1
290
     1
  0
XRECORD
  5
68BD
102
{ACAD_REACTORS
330
68BC
102
}
330
68BC
100
AcDbXrecord
280
     1
290
     1
  0
XRECORD
  5
68BF
102
{ACAD_REACTORS
330
68BE
102
}
330
68BE
100
AcDbXrecord
280
     1
290
     1
  0
XRECORD
  5
68C1
102
{ACAD_REACTORS
330
68C0
102
}
330
68C0
100
AcDbXrecord
280
     1
290
     1
  0
XRECORD
  5
68C3
102
{ACAD_REACTORS
330
68C2
102
}
330
68C2
100
AcDbXrecord
280
     1
290
     1
  0
XRECORD
  5
68C5
102
{ACAD_REACTORS
330
68C4
102
}
330
68C4
100
AcDbXrecord
280
     1
290
     1
  0
XRECORD
  5
68C7
102
{ACAD_REACTORS
330
68C6
102
}
330
68C6
100
AcDbXrecord
280
     1
290
     1
  0
XRECORD
  5
68C9
102
{ACAD_REACTORS
330
68C8
102
}
330
68C8
100
AcDbXrecord
280
     1
290
     1
  0
XRECORD
  5
68CB
102
{ACAD_REACTORS
330
68CA
102
}
330
68CA
100
AcDbXrecord
280
     1
290
     1
  0
XRECORD
  5
68CD
102
{ACAD_REACTORS
330
68CC
102
}
330
68CC
100
AcDbXrecord
280
     1
290
     1
  0
XRECORD
  5
68CF
102
{ACAD_REACTORS
330
68CE
102
}
330
68CE
100
AcDbXrecord
280
     1
290
     1
  0
XRECORD
  5
68D1
102
{ACAD_REACTORS
330
68D0
102
}
330
68D0
100
AcDbXrecord
280
     1
290
     1
  0
XRECORD
  5
68D3
102
{ACAD_REACTORS
330
68D2
102
}
330
68D2
100
AcDbXrecord
280
     1
290
     1
  0
XRECORD
  5
68D5
102
{ACAD_REACTORS
330
68D4
102
}
330
68D4
100
AcDbXrecord
280
     1
290
     1
  0
XRECORD
  5
68D7
102
{ACAD_REACTORS
330
68D6
102
}
330
68D6
100
AcDbXrecord
280
     1
290
     1
  0
XRECORD
  5
68D9
102
{ACAD_REACTORS
330
68D8
102
}
330
68D8
100
AcDbXrecord
280
     1
290
     1
  0
XRECORD
  5
68DB
102
{ACAD_REACTORS
330
68DA
102
}
330
68DA
100
AcDbXrecord
280
     1
290
     1
  0
XRECORD
  5
68DD
102
{ACAD_REACTORS
330
68DC
102
}
330
68DC
100
AcDbXrecord
280
     1
290
     1
  0
XRECORD
  5
68DF
102
{ACAD_REACTORS
330
68DE
102
}
330
68DE
100
AcDbXrecord
280
     1
290
     1
  0
XRECORD
  5
68E1
102
{ACAD_REACTORS
330
68E0
102
}
330
68E0
100
AcDbXrecord
280
     1
290
     1
  0
XRECORD
  5
68E3
102
{ACAD_REACTORS
330
68E2
102
}
330
68E2
100
AcDbXrecord
280
     1
290
     1
  0
XRECORD
  5
68E5
102
{ACAD_REACTORS
330
68E4
102
}
330
68E4
100
AcDbXrecord
280
     1
290
     1
  0
XRECORD
  5
68E7
102
{ACAD_REACTORS
330
68E6
102
}
330
68E6
100
AcDbXrecord
280
     1
290
     1
  0
ACDBDETAILVIEWSTYLE
  5
683A
102
{ACAD_REACTORS
330
6839
102
}
330
6839
100
AcDbModelDocViewStyle
 70
     0
  3
Imperial24
290
     0
300
Imperial24
 90
        0
100
AcDbDetailViewStyle
 70
     0
 71
     0
 90
        3
 71
     1
340
11
 62
   256
 40
0.24
340
0
 62
   256
 40
0.24
300

 40
0.36
280
     3
 71
     2
340
16
 90
       25
 62
   256
 71
     3
340
11
 62
   256
 40
0.24
 90
        1
 40
0.75
 90
        1
300
%<\AcVar ViewType \f "%tc1">% %<\AcVar ViewDetailId>%\PSCALE %<\AcVar ViewScale \f "%sn">%
 71
     4
340
16
 90
       25
 62
   256
340
16
 90
       25
 62
   256
280
     0
  0
LAYOUT
  5
67E9
102
{ACAD_REACTORS
330
1A
102
}
330
1A
100
AcDbPlotSettings
  1

  2
none_device
  4
ANSI_B_(17.00_x_11.00_Inches)
  6

 40
0.0
 41
0.0
 42
0.0
 43
0.0
 44
431.8
 45
279.4
 46
0.0
 47
0.0
 48
0.0
 49
0.0
140
0.0
141
0.0
142
1.0
143
1.0
 70
     0
 72
     0
 73
     0
 74
     0
  7

 75
     0
147
1.0
 76
     0
 77
     2
 78
   300
148
0.0
149
0.0
100
AcDbLayout
  1
Layout1
 70
     1
 71
     1
 10
0.0
 20
0.0
 11
12.0
 21
9.0
 12
0.0
 22
0.0
 32
0.0
 14
1.000000000000000E+20
 24
1.000000000000000E+20
 34
1.000000000000000E+20
 15
-1.000000000000000E+20
 25
-1.000000000000000E+20
 35
-1.000000000000000E+20
146
0.0
 13
0.0
 23
0.0
 33
0.0
 16
1.0
 26
0.0
 36
0.0
 17
0.0
 27
1.0
 37
0.0
 76
     0
330
221
  0
LAYOUT
  5
67E8
102
{ACAD_REACTORS
330
1A
102
}
330
1A
100
AcDbPlotSettings
  1

  2
none_device
  4
ANSI_B_(17.00_x_11.00_Inches)
  6

 40
0.0
 41
0.0
 42
0.0
 43
0.0
 44
431.8
 45
279.4
 46
0.0
 47
0.0
 48
0.0
 49
0.0
140
0.0
141
0.0
142
1.0
143
1.0
 70
  1024
 72
     0
 73
     0
 74
     0
  7

 75
     0
147
1.0
 76
     0
 77
     2
 78
   300
148
0.0
149
0.0
100
AcDbLayout
  1
Model
 70
     0
 71
     0
 10
0.0
 20
0.0
 11
17.0
 21
11.0
 12
0.0
 22
0.0
 32
0.0
 14
0.0
 24
0.0
 34
0.0
 15
0.0
 25
0.0
 35
0.0
146
0.0
 13
0.0
 23
0.0
 33
0.0
 16
1.0
 26
0.0
 36
0.0
 17
0.0
 27
1.0
 37
0.0
 76
     0
330
220
331
1F4
  0
MATERIAL
  5
67F7
102
{ACAD_XDICTIONARY
360
67F8
102
}
102
{ACAD_REACTORS
330
67EE
102
}
330
67EE
100
AcDbMaterial
  1
ByBlock
 72
     0
 43
0.0208333333333333
 43
0.0
 43
0.0
 43
0.0
 43
0.0
 43
0.0208333333333333
 43
0.0
 43
0.0
 43
0.0
 43
0.0
 43
1.0
 43
0.0
 43
0.0
 43
0.0
 43
0.0
 43
1.0
 77
     0
 47
0.0208333333333333
 47
0.0
 47
0.0
 47
0.0
 47
0.0
 47
0.0208333333333333
 47
0.0
 47
0.0
 47
0.0
 47
0.0
 47
1.0
 47
0.0
 47
0.0
 47
0.0
 47
0.0
 47
1.0
171
     0
 49
0.0208333333333333
 49
0.0
 49
0.0
 49
0.0
 49
0.0
 49
0.0208333333333333
 49
0.0
 49
0.0
 49
0.0
 49
0.0
 49
1.0
 49
0.0
 49
0.0
 49
0.0
 49
0.0
 49
1.0
175
     0
142
0.0208333333333333
142
0.0
142
0.0
142
0.0
142
0.0
142
0.0208333333333333
142
0.0
142
0.0
142
0.0
142
0.0
142
1.0
142
0.0
142
0.0
142
0.0
142
0.0
142
1.0
179
     0
144
0.0208333333333333
144
0.0
144
0.0
144
0.0
144
0.0
144
0.0208333333333333
144
0.0
144
0.0
144
0.0
144
0.0
144
1.0
144
0.0
144
0.0
144
0.0
144
0.0
144
1.0
147
0.0208333333333333
147
0.0
147
0.0
147
0.0
147
0.0
147
0.0208333333333333
147
0.0
147
0.0
147
0.0
147
0.0
147
1.0
147
0.0
147
0.0
147
0.0
147
0.0
147
1.0
  0
MATERIAL
  5
67EF
102
{ACAD_XDICTIONARY
360
67F0
102
}
102
{ACAD_REACTORS
330
67EE
102
}
330
67EE
100
AcDbMaterial
  1
ByLayer
 72
     0
 43
0.0208333333333333
 43
0.0
 43
0.0
 43
0.0
 43
0.0
 43
0.0208333333333333
 43
0.0
 43
0.0
 43
0.0
 43
0.0
 43
1.0
 43
0.0
 43
0.0
 43
0.0
 43
0.0
 43
1.0
 77
     0
 47
0.0208333333333333
 47
0.0
 47
0.0
 47
0.0
 47
0.0
 47
0.0208333333333333
 47
0.0
 47
0.0
 47
0.0
 47
0.0
 47
1.0
 47
0.0
 47
0.0
 47
0.0
 47
0.0
 47
1.0
171
     0
 49
0.0208333333333333
 49
0.0
 49
0.0
 49
0.0
 49
0.0
 49
0.0208333333333333
 49
0.0
 49
0.0
 49
0.0
 49
0.0
 49
1.0
 49
0.0
 49
0.0
 49
0.0
 49
0.0
 49
1.0
175
     0
142
0.0208333333333333
142
0.0
142
0.0
142
0.0
142
0.0
142
0.0208333333333333
142
0.0
142
0.0
142
0.0
142
0.0
142
1.0
142
0.0
142
0.0
142
0.0
142
0.0
142
1.0
179
     0
144
0.0208333333333333
144
0.0
144
0.0
144
0.0
144
0.0
144
0.0208333333333333
144
0.0
144
0.0
144
0.0
144
0.0
144
1.0
144
0.0
144
0.0
144
0.0
144
0.0
144
1.0
147
0.0208333333333333
147
0.0
147
0.0
147
0.0
147
0.0
147
0.0208333333333333
147
0.0
147
0.0
147
0.0
147
0.0
147
1.0
147
0.0
147
0.0
147
0.0
147
0.0
147
1.0
  0
MATERIAL
  5
67FF
102
{ACAD_XDICTIONARY
360
6800
102
}
102
{ACAD_REACTORS
330
67EE
102
}
330
67EE
100
AcDbMaterial
  1
Global
 72
     0
 43
0.0208333333333333
 43
0.0
 43
0.0
 43
0.0
 43
0.0
 43
0.0208333333333333
 43
0.0
 43
0.0
 43
0.0
 43
0.0
 43
1.0
 43
0.0
 43
0.0
 43
0.0
 43
0.0
 43
1.0
 77
     0
 47
0.0208333333333333
 47
0.0
 47
0.0
 47
0.0
 47
0.0
 47
0.0208333333333333
 47
0.0
 47
0.0
 47
0.0
 47
0.0
 47
1.0
 47
0.0
 47
0.0
 47
0.0
 47
0.0
 47
1.0
171
     0
 49
0.0208333333333333
 49
0.0
 49
0.0
 49
0.0
 49
0.0
 49
0.0208333333333333
 49
0.0
 49
0.0
 49
0.0
 49
0.0
 49
1.0
 49
0.0
 49
0.0
 49
0.0
 49
0.0
 49
1.0
175
     0
142
0.0208333333333333
142
0.0
142
0.0
142
0.0
142
0.0
142
0.0208333333333333
142
0.0
142
0.0
142
0.0
142
0.0
142
1.0
142
0.0
142
0.0
142
0.0
142
0.0
142
1.0
179
     0
144
0.0208333333333333
144
0.0
144
0.0
144
0.0
144
0.0
144
0.0208333333333333
144
0.0
144
0.0
144
0.0
144
0.0
144
1.0
144
0.0
144
0.0
144
0.0
144
0.0
144
1.0
147
0.0208333333333333
147
0.0
147
0.0
147
0.0
147
0.0
147
0.0208333333333333
147
0.0
147
0.0
147
0.0
147
0.0
147
1.0
147
0.0
147
0.0
147
0.0
147
0.0
147
1.0
  0
MLEADERSTYLE
  5
6836
102
{ACAD_REACTORS
330
6835
102
}
330
6835
100
AcDbMLeaderStyle
179
     2
170
     2
171
     1
172
     0
 90
        2
 40
0.0
 41
0.0
173
     1
 91
-1056964608
340
14
 92
       -2
290
     1
 42
0.09
291
     1
 43
0.36
  3
Standard
 44
0.18
300

342
11
174
     1
178
     6
175
     1
176
     0
 93
-1056964608
 45
0.18
292
     0
297
     0
 46
0.18
 94
-1056964608
 47
1.0
 49
1.0
140
1.0
293
     1
141
0.0
294
     1
177
     0
142
1.0
295
     0
296
     0
143
0.125
271
     0
272
     9
273
     9
298
     0
  0
MLINESTYLE
  5
18
102
{ACAD_REACTORS
330
17
102
}
330
17
100
AcDbMlineStyle
  2
STANDARD
 70
     0
  3

 62
   256
 51
90.0
 52
90.0
 71
     2
 49
0.5
 62
   256
  6
BYLAYER
 49
-0.5
 62
   256
  6
BYLAYER
  0
ACDBPLACEHOLDER
  5
F
102
{ACAD_REACTORS
330
E
102
}
330
E
  0
SCALE
  5
6824
102
{ACAD_REACTORS
330
6823
102
}
330
6823
100
AcDbScale
 70
     0
300
1:1
140
1.0
141
1.0
290
     1
  0
SCALE
  5
6825
102
{ACAD_REACTORS
330
6823
102
}
330
6823
100
AcDbScale
 70
     0
300
1/128" = 1'-0"
140
0.0078125
141
12.0
290
     0
  0
SCALE
  5
6826
102
{ACAD_REACTORS
330
6823
102
}
330
6823
100
AcDbScale
 70
     0
300
1/64" = 1'-0"
140
0.015625
141
12.0
290
     0
  0
SCALE
  5
6827
102
{ACAD_REACTORS
330
6823
102
}
330
6823
100
AcDbScale
 70
     0
300
1/32" = 1'-0"
140
0.03125
141
12.0
290
     0
  0
SCALE
  5
6828
102
{ACAD_REACTORS
330
6823
102
}
330
6823
100
AcDbScale
 70
     0
300
1/16" = 1'-0"
140
0.0625
141
12.0
290
     0
  0
SCALE
  5
6829
102
{ACAD_REACTORS
330
6823
102
}
330
6823
100
AcDbScale
 70
     0
300
3/32" = 1'-0"
140
0.09375
141
12.0
290
     0
  0
SCALE
  5
682A
102
{ACAD_REACTORS
330
6823
102
}
330
6823
100
AcDbScale
 70
     0
300
1/8" = 1'-0"
140
0.125
141
12.0
290
     0
  0
SCALE
  5
682B
102
{ACAD_REACTORS
330
6823
102
}
330
6823
100
AcDbScale
 70
     0
300
3/16" = 1'-0"
140
0.1875
141
12.0
290
     0
  0
SCALE
  5
682C
102
{ACAD_REACTORS
330
6823
102
}
330
6823
100
AcDbScale
 70
     0
300
1/4" = 1'-0"
140
0.25
141
12.0
290
     0
  0
SCALE
  5
682D
102
{ACAD_REACTORS
330
6823
102
}
330
6823
100
AcDbScale
 70
     0
300
3/8" = 1'-0"
140
0.375
141
12.0
290
     0
  0
SCALE
  5
682E
102
{ACAD_REACTORS
330
6823
102
}
330
6823
100
AcDbScale
 70
     0
300
1/2" = 1'-0"
140
0.5
141
12.0
290
     0
  0
SCALE
  5
682F
102
{ACAD_REACTORS
330
6823
102
}
330
6823
100
AcDbScale
 70
     0
300
3/4" = 1'-0"
140
0.75
141
12.0
290
     0
  0
SCALE
  5
6830
102
{ACAD_REACTORS
330
6823
102
}
330
6823
100
AcDbScale
 70
     0
300
1" = 1'-0"
140
1.0
141
12.0
290
     0
  0
SCALE
  5
6831
102
{ACAD_REACTORS
330
6823
102
}
330
6823
100
AcDbScale
 70
     0
300
1-1/2" = 1'-0"
140
1.5
141
12.0
290
     0
  0
SCALE
  5
6832
102
{ACAD_REACTORS
330
6823
102
}
330
6823
100
AcDbScale
 70
     0
300
3" = 1'-0"
140
3.0
141
12.0
290
     0
  0
SCALE
  5
6833
102
{ACAD_REACTORS
330
6823
102
}
330
6823
100
AcDbScale
 70
     0
300
6" = 1'-0"
140
6.0
141
12.0
290
     0
  0
SCALE
  5
6834
102
{ACAD_REACTORS
330
6823
102
}
330
6823
100
AcDbScale
 70
     0
300
1'-0" = 1'-0"
140
12.0
141
12.0
290
     0
  0
ACDBSECTIONVIEWSTYLE
  5
6838
102
{ACAD_REACTORS
330
6837
102
}
330
6837
100
AcDbModelDocViewStyle
 70
     0
  3
Imperial24
290
     0
300
Imperial24
 90
        0
100
AcDbSectionViewStyle
 70
     0
 71
     0
 90
       78
 71
     1
340
11
 62
   256
 40
0.24
340
0
340
0
 62
   256
 40
0.24
300
I, O, Q, S, X, Z
 40
0.48
 90
        3
 40
0.18
 90
        1
 71
     2
340
16
 90
       25
 62
   256
340
16
 90
       50
 62
   256
 40
0.24
 40
0.0
 40
0.24
 71
     3
340
11
 62
   256
 40
0.24
 90
        1
 40
0.75
 90
        1
300
%<\AcVar ViewType \f "%tc1">% %<\AcVar ViewSectionStartId>%-%<\AcVar ViewSectionEndId>%\PSCALE %<\AcVar ViewScale \f "%sn">%
 71
     4
 62
   256
 62
   257
300
ANSI31
 40
1.0
 90
        0
290
     0
290
     0
 90
        6
 40
0.0
 40
1.570796326794896
 40
0.2617993877991494
 40
1.308996938995747
 40
-0.2617993877991494
 40
1.832595714594046
  0
TABLESTYLE
  5
6822
102
{ACAD_XDICTIONARY
360
683C
102
}
102
{ACAD_REACTORS
330
6821
102
}
330
6821
100
AcDbTableStyle
280
     0
  3
Standard
 70
     0
 71
     0
 40
0.06
 41
0.06
280
     0
281
     0
  7
STANDARD
140
0.18
170
     2
 62
     0
 63
     7
283
     0
 90
      512
 91
        0
  1

274
    -2
284
     1
 64
     0
275
    -2
285
     1
 65
     0
276
    -2
286
     1
 66
     0
277
    -2
287
     1
 67
     0
278
    -2
288
     1
 68
     0
279
    -2
289
     1
 69
     0
  7
STANDARD
140
0.25
170
     5
 62
     0
 63
     7
283
     0
 90
      512
 91
        0
  1

274
    -2
284
     1
 64
     0
275
    -2
285
     1
 65
     0
276
    -2
286
     1
 66
     0
277
    -2
287
     1
 67
     0
278
    -2
288
     1
 68
     0
279
    -2
289
     1
 69
     0
  7
STANDARD
140
0.18
170
     5
 62
     0
 63
     7
283
     0
 90
      512
 91
        0
  1

274
    -2
284
     1
 64
     0
275
    -2
285
     1
 65
     0
276
    -2
286
     1
 66
     0
277
    -2
287
     1
 67
     0
278
    -2
288
     1
 68
     0
279
    -2
289
     1
 69
     0
  0
VISUALSTYLE
  5
680D
102
{ACAD_REACTORS
330
6807
102
}
330
6807
100
AcDbVisualStyle
  2
2dWireframe
 70
     4
177
     3
291
     0
 70
    58
 90
        0
176
     1
 90
        2
176
     1
 90
        0
176
     1
 90
        0
176
     1
 40
0.6
176
     1
 40
30.0
176
     1
 62
     7
176
     1
 90
        1
176
     1
 90
        4
176
     1
 62
     7
176
     1
 62
   257
176
     1
 90
        1
176
     1
 90
        1
176
     1
 40
1.0
176
     1
 90
        0
176
     1
 62
   257
176
     1
 40
1.0
176
     1
 90
        1
176
     1
 90
        6
176
     1
 90
        2
176
     1
 62
     7
176
     1
 90
        5
176
     1
 90
        0
176
     1
 90
        0
176
     1
290
     0
176
     1
 90
        1
176
     1
 40
0.0
176
     1
 90
        0
176
     1
290
     1
176
     1
290
     1
176
     1
290
     0
176
     1
290
     0
176
     1
290
     0
176
     1
290
     0
176
     1
290
     0
176
     1
290
     0
176
     1
290
     0
176
     1
 90
       50
176
     1
 40
0.0
176
     1
 40
1.0
176
     1
 90
        0
176
     1
 62
    18
420
        0
176
     1
 90
       50
176
     1
 90
        3
176
     1
 62
     5
420
      255
176
     1
290
     0
176
     1
 90
       50
176
     1
 90
       50
176
     1
 90
       50
176
     1
290
     0
176
     1
 90
       50
176
     1
 62
   256
176
     0
 40
1.0
176
     0
 90
        2
176
     1
  1
strokes_ogs.tif
176
     1
290
     0
176
     1
 40
1.0
176
     1
 40
1.0
176
     1
  0
VISUALSTYLE
  5
680C
102
{ACAD_REACTORS
330
6807
102
}
330
6807
100
AcDbVisualStyle
  2
Basic
 70
     7
177
     3
291
     1
 70
    58
 90
        1
176
     1
 90
        0
176
     1
 90
        1
176
     1
 90
        0
176
     1
 40
0.6
176
     1
 40
30.0
176
     1
 62
     7
176
     1
 90
        0
176
     1
 90
        4
176
     1
 62
     7
176
     1
 62
   257
176
     1
 90
        1
176
     1
 90
        1
176
     1
 40
1.0
176
     1
 90
        8
176
     1
 62
     7
176
     1
 40
1.0
176
     1
 90
        1
176
     1
 90
        6
176
     1
 90
        2
176
     1
 62
     7
176
     1
 90
        5
176
     1
 90
        0
176
     1
 90
        0
176
     1
290
     0
176
     1
 90
        1
176
     1
 40
0.0
176
     1
 90
        0
176
     1
290
     0
176
     1
290
     1
176
     1
290
     1
176
     1
290
     0
176
     1
290
     0
176
     1
290
     0
176
     1
290
     0
176
     1
290
     0
176
     1
290
     0
176
     1
 90
       50
176
     1
 40
0.0
176
     1
 40
1.0
176
     1
 90
        0
176
     1
 62
    18
420
        0
176
     1
 90
       50
176
     1
 90
        3
176
     1
 62
     5
420
      255
176
     1
290
     0
176
     1
 90
       50
176
     1
 90
       50
176
     1
 90
       50
176
     1
290
     0
176
     1
 90
       50
176
     1
 62
   256
176
     0
 40
1.0
176
     0
 90
        2
176
     1
  1
strokes_ogs.tif
176
     1
290
     0
176
     1
 40
1.0
176
     1
 40
1.0
176
     1
  0
VISUALSTYLE
  5
6813
102
{ACAD_REACTORS
330
6807
102
}
330
6807
100
AcDbVisualStyle
  2
Brighten
 70
    12
177
     3
291
     1
 70
    58
 90
        2
176
     1
 90
        2
176
     1
 90
        0
176
     1
 90
        0
176
     1
 40
0.6
176
     1
 40
30.0
176
     1
 62
     7
176
     1
 90
        1
176
     1
 90
        4
176
     1
 62
     7
176
     1
 62
   257
176
     1
 90
        1
176
     1
 90
        1
176
     1
 40
1.0
176
     1
 90
        8
176
     1
 62
     7
176
     1
 40
1.0
176
     1
 90
        1
176
     1
 90
        6
176
     1
 90
        2
176
     1
 62
     7
176
     1
 90
        5
176
     1
 90
        0
176
     1
 90
        0
176
     1
290
     0
176
     1
 90
        1
176
     1
 40
50.0
176
     1
 90
        0
176
     1
290
     0
176
     1
290
     1
176
     1
290
     1
176
     1
290
     0
176
     1
290
     0
176
     1
290
     0
176
     1
290
     0
176
     1
290
     0
176
     1
290
     0
176
     1
 90
       50
176
     1
 40
0.0
176
     1
 40
1.0
176
     1
 90
        0
176
     1
 62
    18
420
        0
176
     1
 90
       50
176
     1
 90
        3
176
     1
 62
     5
420
      255
176
     1
290
     0
176
     1
 90
       50
176
     1
 90
       50
176
     1
 90
       50
176
     1
290
     0
176
     1
 90
       50
176
     1
 62
   256
176
     0
 40
1.0
176
     0
 90
        2
176
     1
  1
strokes_ogs.tif
176
     1
290
     0
176
     1
 40
1.0
176
     1
 40
1.0
176
     1
  0
VISUALSTYLE
  5
6817
102
{ACAD_REACTORS
330
6807
102
}
330
6807
100
AcDbVisualStyle
  2
ColorChange
 70
    16
177
     3
291
     1
 70
    58
 90
        2
176
     1
 90
        2
176
     1
 90
        3
176
     1
 90
        0
176
     1
 40
0.6
176
     1
 40
30.0
176
     1
 62
     8
176
     1
 90
        1
176
     1
 90
        4
176
     1
 62
     7
176
     1
 62
   257
176
     1
 90
        1
176
     1
 90
        1
176
     1
 40
1.0
176
     1
 90
        8
176
     1
 62
     8
176
     1
 40
1.0
176
     1
 90
        1
176
     1
 90
        6
176
     1
 90
        2
176
     1
 62
     7
176
     1
 90
        5
176
     1
 90
        0
176
     1
 90
        0
176
     1
290
     0
176
     1
 90
        1
176
     1
 40
0.0
176
     1
 90
        0
176
     1
290
     0
176
     1
290
     1
176
     1
290
     1
176
     1
290
     0
176
     1
290
     0
176
     1
290
     0
176
     1
290
     0
176
     1
290
     0
176
     1
290
     0
176
     1
 90
       50
176
     1
 40
0.0
176
     1
 40
1.0
176
     1
 90
        0
176
     1
 62
    18
420
        0
176
     1
 90
       50
176
     1
 90
        3
176
     1
 62
     5
420
      255
176
     1
290
     0
176
     1
 90
       50
176
     1
 90
       50
176
     1
 90
       50
176
     1
290
     0
176
     1
 90
       50
176
     1
 62
   256
176
     0
 40
1.0
176
     0
 90
        2
176
     1
  1
strokes_ogs.tif
176
     1
290
     0
176
     1
 40
1.0
176
     1
 40
1.0
176
     1
  0
VISUALSTYLE
  5
6810
102
{ACAD_REACTORS
330
6807
102
}
330
6807
100
AcDbVisualStyle
  2
Conceptual
 70
     9
177
     3
291
     0
 70
    58
 90
        3
176
     1
 90
        2
176
     1
 90
        0
176
     1
 90
        0
176
     1
 40
0.6
176
     1
 40
30.0
176
     1
 62
     7
176
     1
 90
        2
176
     1
 90
        2
176
     1
 62
     7
176
     1
 62
   257
176
     1
 90
        1
176
     1
 90
        1
176
     1
 40
179.0
176
     1
 90
        8
176
     1
 62
     7
176
     1
 40
1.0
176
     1
 90
        1
176
     1
 90
        6
176
     1
 90
        2
176
     1
 62
     7
176
     1
 90
        3
176
     1
 90
        0
176
     1
 90
        0
176
     1
290
     0
176
     1
 90
        1
176
     1
 40
0.0
176
     1
 90
        0
176
     1
290
     0
176
     1
290
     1
176
     1
290
     1
176
     1
290
     0
176
     1
290
     0
176
     1
290
     0
176
     1
290
     0
176
     1
290
     0
176
     1
290
     0
176
     1
 90
       50
176
     1
 40
0.0
176
     1
 40
1.0
176
     1
 90
        0
176
     1
 62
    18
420
        0
176
     1
 90
       50
176
     1
 90
        3
176
     1
 62
     5
420
      255
176
     1
290
     0
176
     1
 90
       50
176
     1
 90
       50
176
     1
 90
       50
176
     1
290
     0
176
     1
 90
       50
176
     1
 62
   256
176
     0
 40
1.0
176
     0
 90
        2
176
     1
  1
strokes_ogs.tif
176
     1
290
     0
176
     1
 40
1.0
176
     1
 40
1.0
176
     1
  0
VISUALSTYLE
  5
6812
102
{ACAD_REACTORS
330
6807
102
}
330
6807
100
AcDbVisualStyle
  2
Dim
 70
    11
177
     3
291
     1
 70
    58
 90
        2
176
     1
 90
        2
176
     1
 90
        0
176
     1
 90
        0
176
     1
 40
0.6
176
     1
 40
30.0
176
     1
 62
     7
176
     1
 90
        1
176
     1
 90
        4
176
     1
 62
     7
176
     1
 62
   257
176
     1
 90
        1
176
     1
 90
        1
176
     1
 40
1.0
176
     1
 90
        8
176
     1
 62
     7
176
     1
 40
1.0
176
     1
 90
        1
176
     1
 90
        6
176
     1
 90
        2
176
     1
 62
     7
176
     1
 90
        5
176
     1
 90
        0
176
     1
 90
        0
176
     1
290
     0
176
     1
 90
        1
176
     1
 40
-50.0
176
     1
 90
        0
176
     1
290
     0
176
     1
290
     1
176
     1
290
     1
176
     1
290
     0
176
     1
290
     0
176
     1
290
     0
176
     1
290
     0
176
     1
290
     0
176
     1
290
     0
176
     1
 90
       50
176
     1
 40
0.0
176
     1
 40
1.0
176
     1
 90
        0
176
     1
 62
    18
420
        0
176
     1
 90
       50
176
     1
 90
        3
176
     1
 62
     5
420
      255
176
     1
290
     0
176
     1
 90
       50
176
     1
 90
       50
176
     1
 90
       50
176
     1
290
     0
176
     1
 90
       50
176
     1
 62
   256
176
     0
 40
1.0
176
     0
 90
        2
176
     1
  1
strokes_ogs.tif
176
     1
290
     0
176
     1
 40
1.0
176
     1
 40
1.0
176
     1
  0
VISUALSTYLE
  5
681F
102
{ACAD_REACTORS
330
6807
102
}
330
6807
100
AcDbVisualStyle
  2
EdgeColorOff
 70
    22
177
     3
291
     1
 70
    58
 90
        2
176
     0
 90
        2
176
     0
 90
        0
176
     0
 90
        0
176
     0
 40
0.6
176
     0
 40
30.0
176
     0
 62
     7
176
     0
 90
        1
176
     0
 90
        4
176
     0
 62
     7
176
     0
 62
   257
176
     0
 90
        1
176
     0
 90
        1
176
     0
 40
1.0
176
     0
 90
        8
176
     2
 62
     7
176
     0
 40
1.0
176
     0
 90
        1
176
     0
 90
        6
176
     0
 90
        2
176
     0
 62
     7
176
     0
 90
        5
176
     0
 90
        0
176
     0
 90
        0
176
     0
290
     0
176
     0
 90
        1
176
     0
 40
0.0
176
     0
 90
        0
176
     0
290
     0
176
     1
290
     1
176
     1
290
     1
176
     1
290
     0
176
     1
290
     0
176
     1
290
     0
176
     1
290
     0
176
     1
290
     0
176
     1
290
     0
176
     1
 90
       50
176
     0
 40
0.0
176
     0
 40
1.0
176
     0
 90
        0
176
     0
 62
    18
420
        0
176
     0
 90
       50
176
     0
 90
        3
176
     0
 62
     5
420
      255
176
     0
290
     0
176
     1
 90
       50
176
     0
 90
       50
176
     0
 90
       50
176
     0
290
     0
176
     1
 90
       50
176
     0
 62
   256
176
     0
 40
1.0
176
     0
 90
        2
176
     0
  1
strokes_ogs.tif
176
     0
290
     0
176
     1
 40
1.0
176
     0
 40
1.0
176
     0
  0
VISUALSTYLE
  5
6816
102
{ACAD_REACTORS
330
6807
102
}
330
6807
100
AcDbVisualStyle
  2
Facepattern
 70
    15
177
     3
291
     1
 70
    58
 90
        2
176
     1
 90
        2
176
     1
 90
        0
176
     1
 90
        0
176
     1
 40
0.6
176
     1
 40
30.0
176
     1
 62
     7
176
     1
 90
        1
176
     1
 90
        4
176
     1
 62
     7
176
     1
 62
   257
176
     1
 90
        1
176
     1
 90
        1
176
     1
 40
1.0
176
     1
 90
        8
176
     1
 62
     7
176
     1
 40
1.0
176
     1
 90
        1
176
     1
 90
        6
176
     1
 90
        2
176
     1
 62
     7
176
     1
 90
        5
176
     1
 90
        0
176
     1
 90
        0
176
     1
290
     0
176
     1
 90
        1
176
     1
 40
0.0
176
     1
 90
        0
176
     1
290
     0
176
     1
290
     1
176
     1
290
     1
176
     1
290
     0
176
     1
290
     0
176
     1
290
     0
176
     1
290
     0
176
     1
290
     0
176
     1
290
     0
176
     1
 90
       50
176
     1
 40
0.0
176
     1
 40
1.0
176
     1
 90
        0
176
     1
 62
    18
420
        0
176
     1
 90
       50
176
     1
 90
        3
176
     1
 62
     5
420
      255
176
     1
290
     0
176
     1
 90
       50
176
     1
 90
       50
176
     1
 90
       50
176
     1
290
     0
176
     1
 90
       50
176
     1
 62
   256
176
     0
 40
1.0
176
     0
 90
        2
176
     1
  1
strokes_ogs.tif
176
     1
290
     0
176
     1
 40
1.0
176
     1
 40
1.0
176
     1
  0
VISUALSTYLE
  5
6808
102
{ACAD_REACTORS
330
6807
102
}
330
6807
100
AcDbVisualStyle
  2
Flat
 70
     0
177
     3
291
     1
 70
    58
 90
        2
176
     1
 90
        1
176
     1
 90
        1
176
     1
 90
        2
176
     1
 40
0.6
176
     1
 40
30.0
176
     1
 62
     7
176
     1
 90
        0
176
     1
 90
        0
176
     1
 62
     7
176
     1
 62
   257
176
     1
 90
        1
176
     1
 90
        1
176
     1
 40
1.0
176
     1
 90
        8
176
     1
 62
     7
176
     1
 40
1.0
176
     1
 90
        1
176
     1
 90
        6
176
     1
 90
        2
176
     1
 62
     7
176
     1
 90
        5
176
     1
 90
        0
176
     1
 90
        0
176
     1
290
     0
176
     1
 90
       13
176
     1
 40
0.0
176
     1
 90
        0
176
     1
290
     0
176
     1
290
     1
176
     1
290
     1
176
     1
290
     0
176
     1
290
     0
176
     1
290
     0
176
     1
290
     0
176
     1
290
     0
176
     1
290
     0
176
     1
 90
       50
176
     1
 40
0.0
176
     1
 40
1.0
176
     1
 90
        0
176
     1
 62
    18
420
        0
176
     1
 90
       50
176
     1
 90
        3
176
     1
 62
     5
420
      255
176
     1
290
     0
176
     1
 90
       50
176
     1
 90
       50
176
     1
 90
       50
176
     1
290
     0
176
     1
 90
       50
176
     1
 62
   256
176
     0
 40
1.0
176
     0
 90
        2
176
     1
  1
strokes_ogs.tif
176
     1
290
     0
176
     1
 40
1.0
176
     1
 40
1.0
176
     1
  0
VISUALSTYLE
  5
6809
102
{ACAD_REACTORS
330
6807
102
}
330
6807
100
AcDbVisualStyle
  2
FlatWithEdges
 70
     1
177
     3
291
     1
 70
    58
 90
        2
176
     1
 90
        1
176
     1
 90
        1
176
     1
 90
        2
176
     1
 40
0.6
176
     1
 40
30.0
176
     1
 62
     7
176
     1
 90
        1
176
     1
 90
        0
176
     1
 62
     7
176
     1
 62
   257
176
     1
 90
        1
176
     1
 90
        1
176
     1
 40
1.0
176
     1
 90
        0
176
     1
 62
   257
176
     1
 40
1.0
176
     1
 90
        1
176
     1
 90
        6
176
     1
 90
        2
176
     1
 62
     7
176
     1
 90
        5
176
     1
 90
        0
176
     1
 90
        0
176
     1
290
     0
176
     1
 90
       13
176
     1
 40
0.0
176
     1
 90
        0
176
     1
290
     0
176
     1
290
     1
176
     1
290
     1
176
     1
290
     0
176
     1
290
     0
176
     1
290
     0
176
     1
290
     0
176
     1
290
     0
176
     1
290
     0
176
     1
 90
       50
176
     1
 40
0.0
176
     1
 40
1.0
176
     1
 90
        0
176
     1
 62
    18
420
        0
176
     1
 90
       50
176
     1
 90
        3
176
     1
 62
     5
420
      255
176
     1
290
     0
176
     1
 90
       50
176
     1
 90
       50
176
     1
 90
       50
176
     1
290
     0
176
     1
 90
       50
176
     1
 62
   256
176
     0
 40
1.0
176
     0
 90
        2
176
     1
  1
strokes_ogs.tif
176
     1
290
     0
176
     1
 40
1.0
176
     1
 40
1.0
176
     1
  0
VISUALSTYLE
  5
680A
102
{ACAD_REACTORS
330
6807
102
}
330
6807
100
AcDbVisualStyle
  2
Gouraud
 70
     2
177
     3
291
     1
 70
    58
 90
        2
176
     1
 90
        2
176
     1
 90
        1
176
     1
 90
        2
176
     1
 40
0.6
176
     1
 40
30.0
176
     1
 62
     7
176
     1
 90
        0
176
     1
 90
        0
176
     1
 62
     7
176
     1
 62
   257
176
     1
 90
        1
176
     1
 90
        1
176
     1
 40
1.0
176
     1
 90
        0
176
     1
 62
     7
176
     1
 40
1.0
176
     1
 90
        1
176
     1
 90
        6
176
     1
 90
        2
176
     1
 62
     7
176
     1
 90
        5
176
     1
 90
        0
176
     1
 90
        0
176
     1
290
     0
176
     1
 90
       13
176
     1
 40
0.0
176
     1
 90
        0
176
     1
290
     0
176
     1
290
     1
176
     1
290
     1
176
     1
290
     0
176
     1
290
     0
176
     1
290
     0
176
     1
290
     0
176
     1
290
     0
176
     1
290
     0
176
     1
 90
       50
176
     1
 40
0.0
176
     1
 40
1.0
176
     1
 90
        0
176
     1
 62
    18
420
        0
176
     1
 90
       50
176
     1
 90
        3
176
     1
 62
     5
420
      255
176
     1
290
     0
176
     1
 90
       50
176
     1
 90
       50
176
     1
 90
       50
176
     1
290
     0
176
     1
 90
       50
176
     1
 62
   256
176
     0
 40
1.0
176
     0
 90
        2
176
     1
  1
strokes_ogs.tif
176
     1
290
     0
176
     1
 40
1.0
176
     1
 40
1.0
176
     1
  0
VISUALSTYLE
  5
680B
102
{ACAD_REACTORS
330
6807
102
}
330
6807
100
AcDbVisualStyle
  2
GouraudWithEdges
 70
     3
177
     3
291
     1
 70
    58
 90
        2
176
     1
 90
        2
176
     1
 90
        1
176
     1
 90
        2
176
     1
 40
0.6
176
     1
 40
30.0
176
     1
 62
     7
176
     1
 90
        1
176
     1
 90
        0
176
     1
 62
     7
176
     1
 62
   257
176
     1
 90
        1
176
     1
 90
        1
176
     1
 40
1.0
176
     1
 90
        0
176
     1
 62
   257
176
     1
 40
1.0
176
     1
 90
        1
176
     1
 90
        6
176
     1
 90
        2
176
     1
 62
     7
176
     1
 90
        5
176
     1
 90
        0
176
     1
 90
        0
176
     1
290
     0
176
     1
 90
       13
176
     1
 40
0.0
176
     1
 90
        0
176
     1
290
     0
176
     1
290
     1
176
     1
290
     1
176
     1
290
     0
176
     1
290
     0
176
     1
290
     0
176
     1
290
     0
176
     1
290
     0
176
     1
290
     0
176
     1
 90
       50
176
     1
 40
0.0
176
     1
 40
1.0
176
     1
 90
        0
176
     1
 62
    18
420
        0
176
     1
 90
       50
176
     1
 90
        3
176
     1
 62
     5
420
      255
176
     1
290
     0
176
     1
 90
       50
176
     1
 90
       50
176
     1
 90
       50
176
     1
290
     0
176
     1
 90
       50
176
     1
 62
   256
176
     0
 40
1.0
176
     0
 90
        2
176
     1
  1
strokes_ogs.tif
176
     1
290
     0
176
     1
 40
1.0
176
     1
 40
1.0
176
     1
  0
VISUALSTYLE
  5
680F
102
{ACAD_REACTORS
330
6807
102
}
330
6807
100
AcDbVisualStyle
  2
Hidden
 70
     6
177
     3
291
     0
 70
    58
 90
        1
176
     1
 90
        2
176
     1
 90
        2
176
     1
 90
        0
176
     1
 40
0.6
176
     1
 40
30.0
176
     1
 62
     7
176
     1
 90
        2
176
     1
 90
        2
176
     1
 62
     7
176
     1
 62
   257
176
     1
 90
        2
176
     1
 90
        1
176
     1
 40
40.0
176
     1
 90
        0
176
     1
 62
   257
176
     1
 40
1.0
176
     1
 90
        1
176
     1
 90
        6
176
     1
 90
        2
176
     1
 62
     7
176
     1
 90
        3
176
     1
 90
        0
176
     1
 90
        0
176
     1
290
     0
176
     1
 90
        1
176
     1
 40
0.0
176
     1
 90
        0
176
     1
290
     0
176
     1
290
     1
176
     1
290
     1
176
     1
290
     0
176
     1
290
     0
176
     1
290
     0
176
     1
290
     0
176
     1
290
     0
176
     1
290
     0
176
     1
 90
       50
176
     1
 40
0.0
176
     1
 40
1.0
176
     1
 90
        0
176
     1
 62
    18
420
        0
176
     1
 90
       50
176
     1
 90
        3
176
     1
 62
     5
420
      255
176
     1
290
     0
176
     1
 90
       50
176
     1
 90
       50
176
     1
 90
       50
176
     1
290
     0
176
     1
 90
       50
176
     1
 62
   256
176
     0
 40
1.0
176
     0
 90
        2
176
     1
  1
strokes_ogs.tif
176
     1
290
     0
176
     1
 40
1.0
176
     1
 40
1.0
176
     1
  0
VISUALSTYLE
  5
681D
102
{ACAD_REACTORS
330
6807
102
}
330
6807
100
AcDbVisualStyle
  2
JitterOff
 70
    20
177
     3
291
     1
 70
    58
 90
        2
176
     0
 90
        2
176
     0
 90
        0
176
     0
 90
        0
176
     0
 40
0.6
176
     0
 40
30.0
176
     0
 62
     7
176
     0
 90
        1
176
     0
 90
        4
176
     0
 62
     7
176
     0
 62
   257
176
     0
 90
        1
176
     0
 90
        1
176
     0
 40
1.0
176
     0
 90
       10
176
     2
 62
     7
176
     0
 40
1.0
176
     0
 90
        1
176
     0
 90
        6
176
     0
 90
        2
176
     0
 62
     7
176
     0
 90
        5
176
     0
 90
        0
176
     0
 90
        0
176
     0
290
     0
176
     0
 90
        1
176
     0
 40
0.0
176
     0
 90
        0
176
     0
290
     0
176
     1
290
     1
176
     1
290
     1
176
     1
290
     0
176
     1
290
     0
176
     1
290
     0
176
     1
290
     0
176
     1
290
     0
176
     1
290
     0
176
     1
 90
       50
176
     0
 40
0.0
176
     0
 40
1.0
176
     0
 90
        0
176
     0
 62
    18
420
        0
176
     0
 90
       50
176
     0
 90
        3
176
     0
 62
     5
420
      255
176
     0
290
     0
176
     1
 90
       50
176
     0
 90
       50
176
     0
 90
       50
176
     0
290
     0
176
     1
 90
       50
176
     0
 62
   256
176
     0
 40
1.0
176
     0
 90
        2
176
     0
  1
strokes_ogs.tif
176
     0
290
     0
176
     1
 40
1.0
176
     0
 40
1.0
176
     0
  0
VISUALSTYLE
  5
6815
102
{ACAD_REACTORS
330
6807
102
}
330
6807
100
AcDbVisualStyle
  2
Linepattern
 70
    14
177
     3
291
     1
 70
    58
 90
        2
176
     1
 90
        2
176
     1
 90
        0
176
     1
 90
        0
176
     1
 40
0.6
176
     1
 40
30.0
176
     1
 62
     7
176
     1
 90
        1
176
     1
 90
        4
176
     1
 62
     7
176
     1
 62
   257
176
     1
 90
        7
176
     1
 90
        7
176
     1
 40
1.0
176
     1
 90
        8
176
     1
 62
     7
176
     1
 40
1.0
176
     1
 90
        1
176
     1
 90
        6
176
     1
 90
        2
176
     1
 62
     7
176
     1
 90
        5
176
     1
 90
        0
176
     1
 90
        0
176
     1
290
     0
176
     1
 90
        1
176
     1
 40
0.0
176
     1
 90
        0
176
     1
290
     0
176
     1
290
     1
176
     1
290
     1
176
     1
290
     0
176
     1
290
     0
176
     1
290
     0
176
     1
290
     0
176
     1
290
     0
176
     1
290
     0
176
     1
 90
       50
176
     1
 40
0.0
176
     1
 40
1.0
176
     1
 90
        0
176
     1
 62
    18
420
        0
176
     1
 90
       50
176
     1
 90
        3
176
     1
 62
     5
420
      255
176
     1
290
     0
176
     1
 90
       50
176
     1
 90
       50
176
     1
 90
       50
176
     1
290
     0
176
     1
 90
       50
176
     1
 62
   256
176
     0
 40
1.0
176
     0
 90
        2
176
     1
  1
strokes_ogs.tif
176
     1
290
     0
176
     1
 40
1.0
176
     1
 40
1.0
176
     1
  0
VISUALSTYLE
  5
681E
102
{ACAD_REACTORS
330
6807
102
}
330
6807
100
AcDbVisualStyle
  2
OverhangOff
 70
    21
177
     3
291
     1
 70
    58
 90
        2
176
     0
 90
        2
176
     0
 90
        0
176
     0
 90
        0
176
     0
 40
0.6
176
     0
 40
30.0
176
     0
 62
     7
176
     0
 90
        1
176
     0
 90
        4
176
     0
 62
     7
176
     0
 62
   257
176
     0
 90
        1
176
     0
 90
        1
176
     0
 40
1.0
176
     0
 90
        9
176
     2
 62
     7
176
     0
 40
1.0
176
     0
 90
        1
176
     0
 90
        6
176
     0
 90
        2
176
     0
 62
     7
176
     0
 90
        5
176
     0
 90
        0
176
     0
 90
        0
176
     0
290
     0
176
     0
 90
        1
176
     0
 40
0.0
176
     0
 90
        0
176
     0
290
     0
176
     1
290
     1
176
     1
290
     1
176
     1
290
     0
176
     1
290
     0
176
     1
290
     0
176
     1
290
     0
176
     1
290
     0
176
     1
290
     0
176
     1
 90
       50
176
     0
 40
0.0
176
     0
 40
1.0
176
     0
 90
        0
176
     0
 62
    18
420
        0
176
     0
 90
       50
176
     0
 90
        3
176
     0
 62
     5
420
      255
176
     0
290
     0
176
     1
 90
       50
176
     0
 90
       50
176
     0
 90
       50
176
     0
290
     0
176
     1
 90
       50
176
     0
 62
   256
176
     0
 40
1.0
176
     0
 90
        2
176
     0
  1
strokes_ogs.tif
176
     0
290
     0
176
     1
 40
1.0
176
     0
 40
1.0
176
     0
  0
VISUALSTYLE
  5
6811
102
{ACAD_REACTORS
330
6807
102
}
330
6807
100
AcDbVisualStyle
  2
Realistic
 70
     8
177
     3
291
     0
 70
    58
 90
        2
176
     1
 90
        2
176
     1
 90
        0
176
     1
 90
        2
176
     1
 40
0.6
176
     1
 40
30.0
176
     1
 62
     7
176
     1
 90
        0
176
     1
 90
        0
176
     1
 62
     7
176
     1
 62
   257
176
     1
 90
        1
176
     1
 90
        1
176
     1
 40
1.0
176
     1
 90
        8
176
     1
 62
   257
176
     1
 40
1.0
176
     1
 90
        1
176
     1
 90
        6
176
     1
 90
        2
176
     1
 62
     7
176
     1
 90
        3
176
     1
 90
        0
176
     1
 90
        0
176
     1
290
     0
176
     1
 90
       13
176
     1
 40
0.0
176
     1
 90
        0
176
     1
290
     0
176
     1
290
     1
176
     1
290
     1
176
     1
290
     0
176
     1
290
     0
176
     1
290
     0
176
     1
290
     0
176
     1
290
     0
176
     1
290
     0
176
     1
 90
       50
176
     1
 40
0.0
176
     1
 40
1.0
176
     1
 90
        0
176
     1
 62
    18
420
        0
176
     1
 90
       50
176
     1
 90
        3
176
     1
 62
     5
420
      255
176
     1
290
     0
176
     1
 90
       50
176
     1
 90
       50
176
     1
 90
       50
176
     1
290
     0
176
     1
 90
       50
176
     1
 62
   256
176
     0
 40
1.0
176
     0
 90
        2
176
     1
  1
strokes_ogs.tif
176
     1
290
     0
176
     1
 40
1.0
176
     1
 40
1.0
176
     1
  0
VISUALSTYLE
  5
681C
102
{ACAD_REACTORS
330
6807
102
}
330
6807
100
AcDbVisualStyle
  2
Shaded
 70
    27
177
     3
291
     0
 70
    58
 90
        2
176
     1
 90
        2
176
     1
 90
        1
176
     1
 90
        2
176
     1
 40
0.6
176
     1
 40
30.0
176
     1
 62
     7
176
     1
 90
        0
176
     1
 90
        4
176
     1
 62
     7
176
     1
 62
   257
176
     1
 90
        1
176
     1
 90
        1
176
     1
 40
1.0
176
     1
 90
        8
176
     1
 62
   257
176
     1
 40
1.0
176
     1
 90
        1
176
     1
 90
        6
176
     1
 90
        2
176
     1
 62
     8
176
     1
 90
        3
176
     1
 90
        0
176
     1
 90
        0
176
     1
290
     0
176
     1
 90
        5
176
     1
 40
0.0
176
     1
 90
        0
176
     1
290
     0
176
     1
290
     1
176
     1
290
     1
176
     1
290
     0
176
     1
290
     0
176
     1
290
     0
176
     1
290
     0
176
     1
290
     0
176
     1
290
     0
176
     1
 90
       50
176
     1
 40
0.0
176
     1
 40
1.0
176
     1
 90
        0
176
     1
 62
    18
420
        0
176
     1
 90
       50
176
     1
 90
        3
176
     1
 62
     5
420
      255
176
     1
290
     0
176
     1
 90
       50
176
     1
 90
       50
176
     1
 90
       50
176
     1
290
     0
176
     1
 90
       50
176
     1
 62
   256
176
     0
 40
1.0
176
     0
 90
        2
176
     1
  1
strokes_ogs.tif
176
     1
290
     0
176
     1
 40
1.0
176
     1
 40
1.0
176
     1
  0
VISUALSTYLE
  5
681B
102
{ACAD_REACTORS
330
6807
102
}
330
6807
100
AcDbVisualStyle
  2
Shaded with edges
 70
    26
177
     3
291
     0
 70
    58
 90
        2
176
     1
 90
        2
176
     1
 90
        1
176
     1
 90
        2
176
     1
 40
0.6
176
     1
 40
30.0
176
     1
 62
     7
176
     1
 90
        1
176
     1
 90
        2
176
     1
 62
     7
176
     1
 62
   257
176
     1
 90
        2
176
     1
 90
        1
176
     1
 40
1.0
176
     1
 90
        8
176
     1
 62
   257
176
     1
 40
1.0
176
     1
 90
        1
176
     1
 90
        6
176
     1
 90
        2
176
     1
 62
     7
176
     1
 90
        3
176
     1
 90
        0
176
     1
 90
        0
176
     1
290
     0
176
     1
 90
        5
176
     1
 40
0.0
176
     1
 90
        0
176
     1
290
     0
176
     1
290
     1
176
     1
290
     1
176
     1
290
     0
176
     1
290
     0
176
     1
290
     0
176
     1
290
     0
176
     1
290
     0
176
     1
290
     0
176
     1
 90
       50
176
     1
 40
0.0
176
     1
 40
1.0
176
     1
 90
        0
176
     1
 62
    18
420
        0
176
     1
 90
       50
176
     1
 90
        3
176
     1
 62
     5
420
      255
176
     1
290
     0
176
     1
 90
       50
176
     1
 90
       50
176
     1
 90
       50
176
     1
290
     0
176
     1
 90
       50
176
     1
 62
   256
176
     0
 40
1.0
176
     0
 90
        2
176
     1
  1
strokes_ogs.tif
176
     1
290
     0
176
     1
 40
1.0
176
     1
 40
1.0
176
     1
  0
VISUALSTYLE
  5
6818
102
{ACAD_REACTORS
330
6807
102
}
330
6807
100
AcDbVisualStyle
  2
Shades of Gray
 70
    23
177
     3
291
     0
 70
    58
 90
        2
176
     1
 90
        2
176
     1
 90
        3
176
     1
 90
        0
176
     1
 40
0.6
176
     1
 40
30.0
176
     1
 62
     7
176
     1
 90
        2
176
     1
 90
        2
176
     1
 62
     7
176
     1
 62
     7
176
     1
 90
        1
176
     1
 90
        1
176
     1
 40
40.0
176
     1
 90
        8
176
     1
 62
     7
176
     1
 40
1.0
176
     1
 90
        1
176
     1
 90
        6
176
     1
 90
        2
176
     1
 62
     7
176
     1
 90
        3
176
     1
 90
        0
176
     1
 90
        0
176
     1
290
     0
176
     1
 90
        1
176
     1
 40
0.0
176
     1
 90
        0
176
     1
290
     0
176
     1
290
     1
176
     1
290
     1
176
     1
290
     0
176
     1
290
     0
176
     1
290
     0
176
     1
290
     0
176
     1
290
     0
176
     1
290
     0
176
     1
 90
       50
176
     1
 40
0.0
176
     1
 40
1.0
176
     1
 90
        0
176
     1
 62
    18
420
        0
176
     1
 90
       50
176
     1
 90
        3
176
     1
 62
     5
420
      255
176
     1
290
     0
176
     1
 90
       50
176
     1
 90
       50
176
     1
 90
       50
176
     1
290
     0
176
     1
 90
       50
176
     1
 62
   256
176
     0
 40
1.0
176
     0
 90
        2
176
     1
  1
strokes_ogs.tif
176
     1
290
     0
176
     1
 40
1.0
176
     1
 40
1.0
176
     1
  0
VISUALSTYLE
  5
6819
102
{ACAD_REACTORS
330
6807
102
}
330
6807
100
AcDbVisualStyle
  2
Sketchy
 70
    24
177
     3
291
     0
 70
    58
 90
        1
176
     1
 90
        2
176
     1
 90
        2
176
     1
 90
        0
176
     1
 40
0.6
176
     1
 40
30.0
176
     1
 62
     7
176
     1
 90
        2
176
     1
 90
        2
176
     1
 62
     7
176
     1
 62
     7
176
     1
 90
        1
176
     1
 90
        1
176
     1
 40
40.0
176
     1
 90
       11
176
     1
 62
     7
176
     1
 40
1.0
176
     1
 90
        1
176
     1
 90
        6
176
     1
 90
        2
176
     1
 62
     7
176
     1
 90
        6
176
     1
 90
        0
176
     1
 90
        0
176
     1
290
     0
176
     1
 90
        1
176
     1
 40
0.0
176
     1
 90
        0
176
     1
290
     0
176
     1
290
     1
176
     1
290
     1
176
     1
290
     0
176
     1
290
     0
176
     1
290
     0
176
     1
290
     0
176
     1
290
     0
176
     1
290
     0
176
     1
 90
       50
176
     1
 40
0.0
176
     1
 40
1.0
176
     1
 90
        0
176
     1
 62
    18
420
        0
176
     1
 90
       50
176
     1
 90
        3
176
     1
 62
     5
420
      255
176
     1
290
     0
176
     1
 90
       50
176
     1
 90
       50
176
     1
 90
       50
176
     1
290
     0
176
     1
 90
       50
176
     1
 62
   256
176
     0
 40
1.0
176
     0
 90
        2
176
     1
  1
strokes_ogs.tif
176
     1
290
     0
176
     1
 40
1.0
176
     1
 40
1.0
176
     1
  0
VISUALSTYLE
  5
6814
102
{ACAD_REACTORS
330
6807
102
}
330
6807
100
AcDbVisualStyle
  2
Thicken
 70
    13
177
     3
291
     1
 70
    58
 90
        2
176
     1
 90
        2
176
     1
 90
        0
176
     1
 90
        0
176
     1
 40
0.6
176
     1
 40
30.0
176
     1
 62
     7
176
     1
 90
        1
176
     1
 90
        4
176
     1
 62
     7
176
     1
 62
   257
176
     1
 90
        1
176
     1
 90
        1
176
     1
 40
1.0
176
     1
 90
       12
176
     1
 62
     7
176
     1
 40
1.0
176
     1
 90
        1
176
     1
 90
        6
176
     1
 90
        2
176
     1
 62
     7
176
     1
 90
        5
176
     1
 90
        0
176
     1
 90
        0
176
     1
290
     0
176
     1
 90
        1
176
     1
 40
0.0
176
     1
 90
        0
176
     1
290
     0
176
     1
290
     1
176
     1
290
     1
176
     1
290
     0
176
     1
290
     0
176
     1
290
     0
176
     1
290
     0
176
     1
290
     0
176
     1
290
     0
176
     1
 90
       50
176
     1
 40
0.0
176
     1
 40
1.0
176
     1
 90
        0
176
     1
 62
    18
420
        0
176
     1
 90
       50
176
     1
 90
        3
176
     1
 62
     5
420
      255
176
     1
290
     0
176
     1
 90
       50
176
     1
 90
       50
176
     1
 90
       50
176
     1
290
     0
176
     1
 90
       50
176
     1
 62
   256
176
     0
 40
1.0
176
     0
 90
        2
176
     1
  1
strokes_ogs.tif
176
     1
290
     0
176
     1
 40
1.0
176
     1
 40
1.0
176
     1
  0
VISUALSTYLE
  5
680E
102
{ACAD_REACTORS
330
6807
102
}
330
6807
100
AcDbVisualStyle
  2
Wireframe
 70
     5
177
     3
291
     0
 70
    58
 90
        0
176
     1
 90
        2
176
     1
 90
        0
176
     1
 90
        0
176
     1
 40
0.6
176
     1
 40
30.0
176
     1
 62
     7
176
     1
 90
        1
176
     1
 90
        4
176
     1
 62
     7
176
     1
 62
   257
176
     1
 90
        1
176
     1
 90
        1
176
     1
 40
1.0
176
     1
 90
        0
176
     1
 62
   257
176
     1
 40
1.0
176
     1
 90
        1
176
     1
 90
        6
176
     1
 90
        2
176
     1
 62
     7
176
     1
 90
        3
176
     1
 90
        0
176
     1
 90
        0
176
     1
290
     0
176
     1
 90
        1
176
     1
 40
0.0
176
     1
 90
        0
176
     1
290
     0
176
     1
290
     1
176
     1
290
     1
176
     1
290
     0
176
     1
290
     0
176
     1
290
     0
176
     1
290
     0
176
     1
290
     0
176
     1
290
     0
176
     1
 90
       50
176
     1
 40
0.0
176
     1
 40
1.0
176
     1
 90
        0
176
     1
 62
    18
420
        0
176
     1
 90
       50
176
     1
 90
        3
176
     1
 62
     5
420
      255
176
     1
290
     0
176
     1
 90
       50
176
     1
 90
       50
176
     1
 90
       50
176
     1
290
     0
176
     1
 90
       50
176
     1
 62
   256
176
     0
 40
1.0
176
     0
 90
        2
176
     1
  1
strokes_ogs.tif
176
     1
290
     0
176
     1
 40
1.0
176
     1
 40
1.0
176
     1
  0
VISUALSTYLE
  5
681A
102
{ACAD_REACTORS
330
6807
102
}
330
6807
100
AcDbVisualStyle
  2
X-Ray
 70
    25
177
     3
291
     0
 70
    58
 90
        2
176
     1
 90
        2
176
     1
 90
        1
176
     1
 90
        1
176
     1
 40
0.5
176
     1
 40
30.0
176
     1
 62
     7
176
     1
 90
        1
176
     1
 90
        0
176
     1
 62
     7
176
     1
 62
   257
176
     1
 90
        1
176
     1
 90
        1
176
     1
 40
1.0
176
     1
 90
        8
176
     1
 62
     7
176
     1
 40
1.0
176
     1
 90
        1
176
     1
 90
        6
176
     1
 90
        2
176
     1
 62
     7
176
     1
 90
        3
176
     1
 90
        0
176
     1
 90
        0
176
     1
290
     0
176
     1
 90
       13
176
     1
 40
0.0
176
     1
 90
        0
176
     1
290
     0
176
     1
290
     1
176
     1
290
     1
176
     1
290
     0
176
     1
290
     0
176
     1
290
     0
176
     1
290
     0
176
     1
290
     0
176
     1
290
     0
176
     1
 90
       50
176
     1
 40
0.0
176
     1
 40
1.0
176
     1
 90
        0
176
     1
 62
    18
420
        0
176
     1
 90
       50
176
     1
 90
        3
176
     1
 62
     5
420
      255
176
     1
290
     0
176
     1
 90
       50
176
     1
 90
       50
176
     1
 90
       50
176
     1
290
     0
176
     1
 90
       50
176
     1
 62
   256
176
     0
 40
1.0
176
     0
 90
        2
176
     1
  1
strokes_ogs.tif
176
     1
290
     0
176
     1
 40
1.0
176
     1
 40
1.0
176
     1
  0
DICTIONARYVAR
  5
689F
102
{ACAD_REACTORS
330
689A
102
}
330
689A
100
DictionaryVariables
280
     0
  1
1:1
  0
DICTIONARYVAR
  5
689C
102
{ACAD_REACTORS
330
689A
102
}
330
689A
100
DictionaryVariables
280
     0
  1
STANDARD
  0
DICTIONARYVAR
  5
689B
102
{ACAD_REACTORS
330
689A
102
}
330
689A
100
DictionaryVariables
280
     0
  1
STANDARD
  0
DICTIONARYVAR
  5
689D
102
{ACAD_REACTORS
330
689A
102
}
330
689A
100
DictionaryVariables
280
     0
  1
Imperial24
  0
DICTIONARYVAR
  5
689E
102
{ACAD_REACTORS
330
689A
102
}
330
689A
100
DictionaryVariables
280
     0
  1
Imperial24
  0
DICTIONARYVAR
  5
68A2
102
{ACAD_REACTORS
330
689A
102
}
330
689A
100
DictionaryVariables
280
     0
  1
1
  0
DICTIONARYVAR
  5
68A1
102
{ACAD_REACTORS
330
689A
102
}
330
689A
100
DictionaryVariables
280
     0
  1
0
  0
DICTIONARYVAR
  5
6A05
102
{ACAD_REACTORS
330
689A
102
}
330
689A
100
DictionaryVariables
280
     0
  1
1
  0
DICTIONARYVAR
  5
6A06
102
{ACAD_REACTORS
330
689A
102
}
330
689A
100
DictionaryVariables
280
     0
  1
15
  0
DICTIONARYVAR
  5
6A04
102
{ACAD_REACTORS
330
689A
102
}
330
689A
100
DictionaryVariables
280
     0
  1
0
  0
DICTIONARYVAR
  5
6A03
102
{ACAD_REACTORS
330
689A
102
}
330
689A
100
DictionaryVariables
280
     0
  1
0
  0
DICTIONARYVAR
  5
68A0
102
{ACAD_REACTORS
330
689A
102
}
330
689A
100
DictionaryVariables
280
     0
  1
127
  0
DICTIONARY
  5
67F8
330
67F7
100
AcDbDictionary
280
     1
281
     1
  3
BUMPTILE
360
67FA
  3
DIFFUSETILE
360
67F9
  3
OPACITYTILE
360
67FD
  3
REFLECTIONTILE
360
67FC
  3
REFRACTIONTILE
360
67FE
  3
SPECULARTILE
360
67FB
  0
DICTIONARY
  5
67F0
330
67EF
100
AcDbDictionary
280
     1
281
     1
  3
BUMPTILE
360
67F2
  3
DIFFUSETILE
360
67F1
  3
OPACITYTILE
360
67F5
  3
REFLECTIONTILE
360
67F4
  3
REFRACTIONTILE
360
67F6
  3
SPECULARTILE
360
67F3
  0
DICTIONARY
  5
6800
330
67FF
100
AcDbDictionary
280
     1
281
     1
  3
BUMPTILE
360
6802
  3
DIFFUSETILE
360
6801
  3
OPACITYTILE
360
6805
  3
REFLECTIONTILE
360
6804
  3
REFRACTIONTILE
360
6806
  3
SPECULARTILE
360
6803
  0
DICTIONARY
  5
683C
330
6822
100
AcDbDictionary
280
     1
281
     1
  3
ACAD_ROUNDTRIP_2008_TABLESTYLE_CELLSTYLEMAP
360
6A17
  0
XRECORD
  5
67FA
102
{ACAD_REACTORS
330
67F8
102
}
330
67F8
100
AcDbXrecord
280
     1
270
     1
271
     1
  0
XRECORD
  5
67F9
102
{ACAD_REACTORS
330
67F8
102
}
330
67F8
100
AcDbXrecord
280
     1
270
     1
271
     1
  0
XRECORD
  5
67FD
102
{ACAD_REACTORS
330
67F8
102
}
330
67F8
100
AcDbXrecord
280
     1
270
     1
271
     1
  0
XRECORD
  5
67FC
102
{ACAD_REACTORS
330
67F8
102
}
330
67F8
100
AcDbXrecord
280
     1
270
     1
271
     1
  0
XRECORD
  5
67FE
102
{ACAD_REACTORS
330
67F8
102
}
330
67F8
100
AcDbXrecord
280
     1
270
     1
271
     1
  0
XRECORD
  5
67FB
102
{ACAD_REACTORS
330
67F8
102
}
330
67F8
100
AcDbXrecord
280
     1
270
     1
271
     1
  0
XRECORD
  5
67F2
102
{ACAD_REACTORS
330
67F0
102
}
330
67F0
100
AcDbXrecord
280
     1
270
     1
271
     1
  0
XRECORD
  5
67F1
102
{ACAD_REACTORS
330
67F0
102
}
330
67F0
100
AcDbXrecord
280
     1
270
     1
271
     1
  0
XRECORD
  5
67F5
102
{ACAD_REACTORS
330
67F0
102
}
330
67F0
100
AcDbXrecord
280
     1
270
     1
271
     1
  0
XRECORD
  5
67F4
102
{ACAD_REACTORS
330
67F0
102
}
330
67F0
100
AcDbXrecord
280
     1
270
     1
271
     1
  0
XRECORD
  5
67F6
102
{ACAD_REACTORS
330
67F0
102
}
330
67F0
100
AcDbXrecord
280
     1
270
     1
271
     1
  0
XRECORD
  5
67F3
102
{ACAD_REACTORS
330
67F0
102
}
330
67F0
100
AcDbXrecord
280
     1
270
     1
271
     1
  0
XRECORD
  5
6802
102
{ACAD_REACTORS
330
6800
102
}
330
6800
100
AcDbXrecord
280
     1
270
     1
271
     1
  0
XRECORD
  5
6801
102
{ACAD_REACTORS
330
6800
102
}
330
6800
100
AcDbXrecord
280
     1
270
     1
271
     1
  0
XRECORD
  5
6805
102
{ACAD_REACTORS
330
6800
102
}
330
6800
100
AcDbXrecord
280
     1
270
     1
271
     1
  0
XRECORD
  5
6804
102
{ACAD_REACTORS
330
6800
102
}
330
6800
100
AcDbXrecord
280
     1
270
     1
271
     1
  0
XRECORD
  5
6806
102
{ACAD_REACTORS
330
6800
102
}
330
6800
100
AcDbXrecord
280
     1
270
     1
271
     1
  0
XRECORD
  5
6803
102
{ACAD_REACTORS
330
6800
102
}
330
6800
100
AcDbXrecord
280
     1
270
     1
271
     1
  0
CELLSTYLEMAP
  5
6A17
102
{ACAD_REACTORS
330
683C
102
}
330
683C
100
AcDbCellStyleMap
 90
        3
300
CELLSTYLE
  1
TABLEFORMAT_BEGIN
 90
        5
170
     1
 91
        0
 92
    32768
 62
   257
 93
        1
300
CONTENTFORMAT
  1
CONTENTFORMAT_BEGIN
 90
        0
 91
        0
 92
      512
 93
        0
300

 40
0.0
140
1.0
 94
        5
 62
     0
340
11
144
0.25
309
CONTENTFORMAT_END
171
     0
 94
        0
309
TABLEFORMAT_END
  1
CELLSTYLE_BEGIN
 90
        1
 91
        1
300
_TITLE
309
CELLSTYLE_END
300
CELLSTYLE
  1
TABLEFORMAT_BEGIN
 90
        5
170
     1
 91
        0
 92
        0
 62
   257
 93
        1
300
CONTENTFORMAT
  1
CONTENTFORMAT_BEGIN
 90
        0
 91
        0
 92
      512
 93
        0
300

 40
0.0
140
1.0
 94
        5
 62
     0
340
11
144
0.18
309
CONTENTFORMAT_END
171
     0
 94
        0
309
TABLEFORMAT_END
  1
CELLSTYLE_BEGIN
 90
        2
 91
        1
300
_HEADER
309
CELLSTYLE_END
300
CELLSTYLE
  1
TABLEFORMAT_BEGIN
 90
        5
170
     1
 91
        0
 92
        0
 62
   257
 93
        1
300
CONTENTFORMAT
  1
CONTENTFORMAT_BEGIN
 90
        0
 91
        0
 92
      512
 93
        0
300

 40
0.0
140
1.0
 94
        2
 62
     0
340
11
144
0.18
309
CONTENTFORMAT_END
171
     0
 94
        0
309
TABLEFORMAT_END
  1
CELLSTYLE_BEGIN
 90
        3
 91
        2
300
_DATA
309
CELLSTYLE_END
  0
ENDSEC
  0
SECTION
  2
ACDSDATA
 70
     2
 71
     8
  0
ACDSSCHEMA
 90
        0
  1
AcDb_Thumbnail_Schema
  2
AcDbDs::ID
280
    10
 91
        8
  2
Thumbnail_Data
280
    15
 91
        0
101
ACDSRECORD
 95
        0
 90
        1
  2
AcDbDs::TreatedAsObjectData
280
     1
291
     1
101
ACDSRECORD
 95
        0
 90
        2
  2
AcDbDs::Legacy
280
     1
291
     1
101
ACDSRECORD
  1
AcDbDs::ID
 90
        3
  2
AcDs:Indexable
280
     1
291
     1
101
ACDSRECORD
  1
AcDbDs::ID
 90
        4
  2
AcDbDs::HandleAttribute
280
     7
282
     1
  0
ACDSSCHEMA
 90
        1
  1
AcDbDs::TreatedAsObjectDataSchema
  2
AcDbDs::TreatedAsObjectData
280
     1
 91
        0
  0
ACDSSCHEMA
 90
        2
  1
AcDbDs::LegacySchema
  2
AcDbDs::Legacy
280
     1
 91
        0
  0
ACDSSCHEMA
 90
        3
  1
AcDbDs::IndexedPropertySchema
  2
AcDs:Indexable
280
     1
 91
        0
  0
ACDSSCHEMA
 90
        4
  1
AcDbDs::HandleAttributeSchema
  2
AcDbDs::HandleAttribute
280
     7
 91
        1
284
     1
  0
ACDSRECORD
 90
        0
  2
AcDbDs::ID
280
    10
320
67E8
  2
Thumbnail_Data
280
    15
 94
     1163
310
89504E470D0A1A0A0000000D49484452000001000000008108030000001837949D00000300504C5445212830FFFFFF2128300000000000000000000000000000000000000000000000000000330000660000990000CC0000FF0033000033330033660033990033CC0033FF0066000066330066660066990066CC0066FF0099
310
000099330099660099990099CC0099FF00CC0000CC3300CC6600CC9900CCCC00CCFF00FF0000FF3300FF6600FF9900FFCC00FFFF3300003300333300663300993300CC3300FF3333003333333333663333993333CC3333FF3366003366333366663366993366CC3366FF3399003399333399663399993399CC3399FF33CC00
310
33CC3333CC6633CC9933CCCC33CCFF33FF0033FF3333FF6633FF9933FFCC33FFFF6600006600336600666600996600CC6600FF6633006633336633666633996633CC6633FF6666006666336666666666996666CC6666FF6699006699336699666699996699CC6699FF66CC0066CC3366CC6666CC9966CCCC66CCFF66FF0066
310
FF3366FF6666FF9966FFCC66FFFF9900009900339900669900999900CC9900FF9933009933339933669933999933CC9933FF9966009966339966669966999966CC9966FF9999009999339999669999999999CC9999FF99CC0099CC3399CC6699CC9999CCCC99CCFF99FF0099FF3399FF6699FF9999FFCC99FFFFCC0000CC00
310
33CC0066CC0099CC00CCCC00FFCC3300CC3333CC3366CC3399CC33CCCC33FFCC6600CC6633CC6666CC6699CC66CCCC66FFCC9900CC9933CC9966CC9999CC99CCCC99FFCCCC00CCCC33CCCC66CCCC99CCCCCCCCCCFFCCFF00CCFF33CCFF66CCFF99CCFFCCCCFFFFFF0000FF0033FF0066FF0099FF00CCFF00FFFF3300FF3333
310
FF3366FF3399FF33CCFF33FFFF6600FF6633FF6666FF6699FF66CCFF66FFFF9900FF9933FF9966FF9999FF99CCFF99FFFFCC00FFCC33FFCC66FFCC99FFCCCCFFCCFFFFFF00FFFF33FFFF66FFFF99FFFFCCFFFFFF0000000D0D0D1A1A1A2828283535354343435050505D5D5D6B6B6B787878868686939393A1A1A1AEAEAEBB
310
BBBBC9C9C9D6D6D6E4E4E4F1F1F1FFFFFF0000000000000000000000000000000000000000000000000000000000002E4550F1000001464944415478DAEDDCCD6AC3301085D179FF67BDDBEE4B700B81F42F251292E67C8BD24D3173628FED4553254992244992244992A46F7B9BDE6A00B71F49C61FE9E3184B02D484F901
310
A47A03A4560698720A0000D01A60F11DD07E098E3F05BA03A4001C0390EBD521F9D72BC409000FCFF72700D47367C0D3A7400E0238730700C89CF90134052800CD97600000581E2053E607D013A000745F82DD0102600780CC981F404B800200A0F75D2000F600C884F9017404687F09D801DDEF02DBEC000001307C7E001D
310
2F0100CDEF020100601B800C9F1F403F8002D07C090600808D00327A7E00ED000A40FBB7C1E60001B0174006CF0FA01BC07E4B30007A5F02005E2B900D01AEFF09FEB21FE6FCF35F6CFD20F430D6AF32E73D0AA7EE06BEFD96C1075CEEB69CCF6F50B83EFA5437006F83000000000000C03900DDBF56579224499224EDDD3B
310
856247E74FF3B6010000000049454E44AE426082
  0
ENDSEC
  0
EOF
