  0
SECTION
  2
HEADER
  9
$ACADVER
  1
AC1012
  9
$DWGCODEPAGE
  3
ANSI_1252
  9
$INSBASE
 10
0.0
 20
0.0
 30
0.0
  9
$EXTMIN
 10
-0.0000000000000071
 20
-0.000000000009126
 30
0.0
  9
$EXTMAX
 10
60.0
 20
30.00000000000001
 30
0.0
  9
$LIMMIN
 10
0.0
 20
0.0
  9
$LIMMAX
 10
272.0
 20
176.0
  9
$ORTHOMODE
 70
     1
  9
$REGENMODE
 70
     1
  9
$FILLMODE
 70
     1
  9
$QTEXTMODE
 70
     0
  9
$MIRRTEXT
 70
     0
  9
$DRAGMODE
 70
     2
  9
$LTSCALE
 40
14.96
  9
$OSMODE
 70
    37
  9
$ATTMODE
 70
     1
  9
$TEXTSIZE
 40
0.2
  9
$TRACEWID
 40
0.05
  9
$TEXTSTYLE
  7
STANDARD
  9
$CLAYER
  8
0
  9
$CELTYPE
  6
BYLAYER
  9
$CECOLOR
 62
   256
  9
$CELTSCALE
 40
1.0
  9
$DELOBJ
 70
     1
  9
$DISPSILH
 70
     0
  9
$DIMSCALE
 40
1.0
  9
$DIMASZ
 40
3.0
  9
$DIMEXO
 40
1.7
  9
$DIMDLI
 40
10.33599999999999
  9
$DIMRND
 40
0.0
  9
$DIMDLE
 40
0.0
  9
$DIMEXE
 40
4.895999999999999
  9
$DIMTP
 40
0.0
  9
$DIMTM
 40
0.0
  9
$DIMTXT
 40
2.0
  9
$DIMCEN
 40
2.447999999999999
  9
$DIMTSZ
 40
0.0
  9
$DIMTOL
 70
     0
  9
$DIMLIM
 70
     0
  9
$DIMTIH
 70
     1
  9
$DIMTOH
 70
     1
  9
$DIMSE1
 70
     0
  9
$DIMSE2
 70
     0
  9
$DIMTAD
 70
     0
  9
$DIMZIN
 70
     0
  9
$DIMBLK
  1
_FILLED
  9
$DIMASO
 70
     1
  9
$DIMSHO
 70
     1
  9
$DIMPOST
  1

  9
$DIMAPOST
  1

  9
$DIMALT
 70
     0
  9
$DIMALTD
 70
     2
  9
$DIMALTF
 40
25.4
  9
$DIMLFAC
 40
1.0
  9
$DIMTOFL
 70
     0
  9
$DIMTVP
 40
0.0
  9
$DIMTIX
 70
     0
  9
$DIMSOXD
 70
     0
  9
$DIMSAH
 70
     0
  9
$DIMBLK1
  1

  9
$DIMBLK2
  1

  9
$DIMSTYLE
  2
STANDARD
  9
$DIMCLRD
 70
     0
  9
$DIMCLRE
 70
     0
  9
$DIMCLRT
 70
     0
  9
$DIMTFAC
 40
1.0
  9
$DIMGAP
 40
0.09
  9
$DIMJUST
 70
     0
  9
$DIMSD1
 70
     0
  9
$DIMSD2
 70
     0
  9
$DIMTOLJ
 70
     1
  9
$DIMTZIN
 70
     0
  9
$DIMALTZ
 70
     0
  9
$DIMALTTZ
 70
     0
  9
$DIMFIT
 70
     3
  9
$DIMUPT
 70
     0
  9
$DIMUNIT
 70
     2
  9
$DIMDEC
 70
     4
  9
$DIMTDEC
 70
     4
  9
$DIMALTU
 70
     2
  9
$DIMALTTD
 70
     2
  9
$DIMTXSTY
  7
STANDARD
  9
$DIMAUNIT
 70
     0
  9
$LUNITS
 70
     2
  9
$LUPREC
 70
     4
  9
$SKETCHINC
 40
0.1
  9
$FILLETRAD
 40
0.25
  9
$AUNITS
 70
     0
  9
$AUPREC
 70
     0
  9
$MENU
  1
.
  9
$ELEVATION
 40
0.0
  9
$PELEVATION
 40
0.0
  9
$THICKNESS
 40
0.0
  9
$LIMCHECK
 70
     0
  9
$BLIPMODE
 70
     0
  9
$CHAMFERA
 40
0.0
  9
$CHAMFERB
 40
0.0
  9
$CHAMFERC
 40
0.0
  9
$CHAMFERD
 40
0.0
  9
$SKPOLY
 70
     0
  9
$TDCREATE
 40
2454867.666099629
  9
$TDUPDATE
 40
2454868.350292974
  9
$TDINDWG
 40
0.0552248264
  9
$TDUSRTIMER
 40
0.0552248264
  9
$USRTIMER
 70
     1
  9
$ANGBASE
 50
0.0
  9
$ANGDIR
 70
     0
  9
$PDMODE
 70
     3
  9
$PDSIZE
 40
0.3125
  9
$PLINEWID
 40
0.0
  9
$COORDS
 70
     2
  9
$SPLFRAME
 70
     0
  9
$SPLINETYPE
 70
     6
  9
$SPLINESEGS
 70
     8
  9
$ATTDIA
 70
     0
  9
$ATTREQ
 70
     1
  9
$HANDLING
 70
-16383
  9
$HANDSEED
  5
1E26
  9
$SURFTAB1
 70
     6
  9
$SURFTAB2
 70
     6
  9
$SURFTYPE
 70
     6
  9
$SURFU
 70
     6
  9
$SURFV
 70
     6
  9
$UCSNAME
  2

  9
$UCSORG
 10
0.0
 20
0.0
 30
0.0
  9
$UCSXDIR
 10
1.0
 20
0.0
 30
0.0
  9
$UCSYDIR
 10
0.0
 20
1.0
 30
0.0
  9
$PUCSNAME
  2

  9
$PUCSORG
 10
0.0
 20
0.0
 30
0.0
  9
$PUCSXDIR
 10
1.0
 20
0.0
 30
0.0
  9
$PUCSYDIR
 10
0.0
 20
1.0
 30
0.0
  9
$USERI1
 70
     0
  9
$USERI2
 70
     0
  9
$USERI3
 70
     0
  9
$USERI4
 70
     0
  9
$USERI5
 70
     0
  9
$USERR1
 40
0.0
  9
$USERR2
 40
0.0
  9
$USERR3
 40
0.0
  9
$USERR4
 40
0.0
  9
$USERR5
 40
0.0
  9
$WORLDVIEW
 70
     1
  9
$SHADEDGE
 70
     3
  9
$SHADEDIF
 70
    70
  9
$TILEMODE
 70
     1
  9
$MAXACTVP
 70
    64
  9
$PINSBASE
 10
0.0
 20
0.0
 30
0.0
  9
$PLIMCHECK
 70
     0
  9
$PEXTMIN
 10
1.000000000000000E+20
 20
1.000000000000000E+20
 30
1.000000000000000E+20
  9
$PEXTMAX
 10
-1.000000000000000E+20
 20
-1.000000000000000E+20
 30
-1.000000000000000E+20
  9
$PLIMMIN
 10
0.0
 20
0.0
  9
$PLIMMAX
 10
12.0
 20
9.0
  9
$UNITMODE
 70
     0
  9
$VISRETAIN
 70
     1
  9
$PLINEGEN
 70
     0
  9
$PSLTSCALE
 70
     1
  9
$TREEDEPTH
 70
  3020
  9
$PICKSTYLE
 70
     1
  9
$CMLSTYLE
  2
STANDARD
  9
$CMLJUST
 70
     0
  9
$CMLSCALE
 40
1.0
  9
$SAVEIMAGES
 70
     1
  0
ENDSEC
  0
SECTION
  2
CLASSES
  0
CLASS
  1
ACDBDICTIONARYWDFLT
  2
AcDbDictionaryWithDefault
  3
AutoCAD 2000
 90
    32768
280
     0
281
     0
  0
CLASS
  1
ACDBPLACEHOLDER
  2
AcDbPlaceHolder
  3
AutoCAD 2000
 90
    32768
280
     0
281
     0
  0
CLASS
  1
LAYOUT
  2
AcDbLayout
  3
AutoCAD 2000
 90
    32768
280
     0
281
     0
  0
CLASS
  1
MATERIAL
  2
AcDbMaterial
  3
ObjectDBX Classes
 90
    33921
280
     0
281
     0
  0
CLASS
  1
VISUALSTYLE
  2
AcDbVisualStyle
  3
ObjectDBX Classes
 90
    36863
280
     0
281
     0
  0
CLASS
  1
TABLESTYLE
  2
AcDbTableStyle
  3
ObjectDBX Classes
 90
    36863
280
     0
281
     0
  0
CLASS
  1
SCALE
  2
AcDbScale
  3
ObjectDBX Classes
 90
    33921
280
     0
281
     0
  0
CLASS
  1
MLEADERSTYLE
  2
AcDbMLeaderStyle
  3
ACDB_MLEADERSTYLE_CLASS
 90
    36863
280
     0
281
     0
  0
CLASS
  1
CELLSTYLEMAP
  2
AcDbCellStyleMap
  3
ObjectDBX Classes
 90
    33920
280
     0
281
     0
  0
CLASS
  1
DICTIONARYVAR
  2
AcDbDictionaryVar
  3
AutoCAD 2000
 90
    32768
280
     0
281
     0
  0
CLASS
  1
ACAD_PROXY_OBJECT_WRAPPER
  2
AcDbProxyObjectWrapper
  3
AutoCAD 2000
 90
    32768
280
     0
281
     0
  0
CLASS
  1
LONG_TRANSACTION
  2
AcDbLongTransaction
  3
AutoCAD 2000
 90
    32768
280
     0
281
     0
  0
CLASS
  1
LWPOLYLINE
  2
AcDbPolyline
  3
AutoCAD 2000
 90
    32768
280
     0
281
     1
  0
CLASS
  1
HATCH
  2
AcDbHatch
  3
AutoCAD 2000
 90
    32768
280
     0
281
     1
  0
CLASS
  1
XRECORD
  2
AcDbXrecord
  3
AutoCAD 2000
 90
    32768
280
     0
281
     0
  0
ENDSEC
  0
SECTION
  2
TABLES
  0
TABLE
  2
VPORT
  5
8
102
{ACAD_XDICTIONARY
360
16EE
102
}
330
0
100
AcDbSymbolTable
 70
     3
  0
VPORT
  5
1D19
330
8
100
AcDbSymbolTableRecord
100
AcDbViewportTableRecord
  2
*ACTIVE
 70
     0
 10
0.0
 20
0.0
 11
1.0
 21
1.0
 12
27.75975932796483
 22
14.8081636872081
 13
0.0
 23
0.0
 14
1.0
 24
1.0
 15
0.0
 25
0.0
 16
0.0
 26
0.0
 36
1.0
 17
0.0
 27
0.0
 37
0.0
 40
49.32735320381507
 41
1.573856209150326
 42
50.0
 43
0.0
 44
0.0
 50
0.0
 51
0.0
 71
     0
 72
   100
 73
     1
 74
     1
 75
     0
 76
     0
 77
     0
 78
     0
  0
ENDTAB
  0
TABLE
  2
LTYPE
  5
5
330
0
100
AcDbSymbolTable
 70
     2
  0
LTYPE
  5
14
330
5
100
AcDbSymbolTableRecord
100
AcDbLinetypeTableRecord
  2
BYBLOCK
 70
     0
  3

 72
    65
 73
     0
 40
0.0
  0
LTYPE
  5
15
330
5
100
AcDbSymbolTableRecord
100
AcDbLinetypeTableRecord
  2
BYLAYER
 70
     0
  3

 72
    65
 73
     0
 40
0.0
  0
LTYPE
  5
16
330
5
100
AcDbSymbolTableRecord
100
AcDbLinetypeTableRecord
  2
CONTINUOUS
 70
     0
  3
Solid line
 72
    65
 73
     0
 40
0.0
  0
LTYPE
  5
1F5
330
5
100
AcDbSymbolTableRecord
100
AcDbLinetypeTableRecord
  2
CENTER
 70
     0
  3
____ _ ____ _ ____ _ ____ _ ____ _ ____ _ ____
 72
    65
 73
     4
 40
0.6
 49
0.375
 74
     0
 49
-0.075
 74
     0
 49
0.075
 74
     0
 49
-0.075
 74
     0
  0
ENDTAB
  0
TABLE
  2
LAYER
  5
2
102
{ACAD_XDICTIONARY
360
174C
102
}
330
0
100
AcDbSymbolTable
 70
     2
  0
LAYER
  5
10
102
{ACAD_XDICTIONARY
360
16F0
102
}
330
2
100
AcDbSymbolTableRecord
100
AcDbLayerTableRecord
  2
0
 70
     0
 62
     7
  6
CONTINUOUS
  0
LAYER
  5
1750
330
2
100
AcDbSymbolTableRecord
100
AcDbLayerTableRecord
  2
CENTER
 70
     0
 62
     1
  6
CENTER
  0
ENDTAB
  0
TABLE
  2
STYLE
  5
3
330
0
100
AcDbSymbolTable
 70
     1
  0
STYLE
  5
11
330
3
100
AcDbSymbolTableRecord
100
AcDbTextStyleTableRecord
  2
STANDARD
 70
     0
 40
0.0
 41
0.8
 50
0.0
 71
     0
 42
0.2
  3
txt
  4

  0
ENDTAB
  0
TABLE
  2
VIEW
  5
6
330
0
100
AcDbSymbolTable
 70
     0
  0
ENDTAB
  0
TABLE
  2
UCS
  5
7
330
0
100
AcDbSymbolTable
 70
     0
  0
ENDTAB
  0
TABLE
  2
APPID
  5
9
330
0
100
AcDbSymbolTable
 70
     3
  0
APPID
  5
21F
330
9
100
AcDbSymbolTableRecord
100
AcDbRegAppTableRecord
  2
ACAD
 70
     0
  0
APPID
  5
16E8
330
9
100
AcDbSymbolTableRecord
100
AcDbRegAppTableRecord
  2
ACAD_MLEADERVER
 70
     0
  0
APPID
  5
1CC1
330
9
100
AcDbSymbolTableRecord
100
AcDbRegAppTableRecord
  2
DCO15
 70
     0
  0
ENDTAB
  0
TABLE
  2
DIMSTYLE
  5
A
330
0
100
AcDbSymbolTable
 70
     1
  0
DIMSTYLE
105
240
330
A
100
AcDbSymbolTableRecord
100
AcDbDimStyleTableRecord
  2
STANDARD
 70
     0
  3

  4

  5
_FILLED
  6
_FILLED
  7
_FILLED
 40
1.0
 41
0.1875
 42
0.0625
 43
0.38
 44
0.18
 45
0.0
 46
0.0
 47
0.00001
 48
0.00001
140
2.0
141
0.09
142
0.0
143
25.4
144
1.0
145
0.0
146
1.0
147
0.09
 71
     0
 72
     0
 73
     1
 74
     1
 75
     0
 76
     0
 77
     0
 78
     4
170
     0
171
     2
172
     0
173
     0
174
     0
175
     0
176
     0
177
     0
178
     0
270
     2
271
     5
272
     5
273
     2
274
     2
340
11
275
     0
280
     0
281
     0
282
     0
283
     1
284
     4
285
     0
286
     0
287
     3
288
     0
  0
ENDTAB
  0
TABLE
  2
BLOCK_RECORD
  5
1
330
0
100
AcDbSymbolTable
 70
     1
  0
BLOCK_RECORD
  5
220
102
{ACAD_XDICTIONARY
360
1D1A
102
}
330
1
100
AcDbSymbolTableRecord
100
AcDbBlockTableRecord
  2
*MODEL_SPACE
  0
BLOCK_RECORD
  5
221
102
{ACAD_XDICTIONARY
360
1D1C
102
}
330
1
100
AcDbSymbolTableRecord
100
AcDbBlockTableRecord
  2
*PAPER_SPACE
  0
BLOCK_RECORD
  5
222
330
1
100
AcDbSymbolTableRecord
100
AcDbBlockTableRecord
  2
_FILLED
  0
ENDTAB
  0
ENDSEC
  0
SECTION
  2
BLOCKS
  0
BLOCK
  5
20
330
220
100
AcDbEntity
  8
0
100
AcDbBlockBegin
  2
*MODEL_SPACE
 70
     0
 10
0.0
 20
0.0
 30
0.0
  3
*MODEL_SPACE
  1

1001
ACAD
1000
RTMaterial
1005
1698
  0
ENDBLK
  5
21
330
220
100
AcDbEntity
  8
0
100
AcDbBlockEnd
1001
ACAD
1000
RTMaterial
1005
1698
  0
BLOCK
  5
1C
330
221
100
AcDbEntity
 67
     1
  8
0
100
AcDbBlockBegin
  2
*PAPER_SPACE
 70
     0
 10
0.0
 20
0.0
 30
0.0
  3
*PAPER_SPACE
  1

1001
ACAD
1000
RTMaterial
1005
1698
  0
ENDBLK
  5
1D
330
221
100
AcDbEntity
 67
     1
  8
0
100
AcDbBlockEnd
1001
ACAD
1000
RTMaterial
1005
1698
  0
BLOCK
  5
32C
330
222
100
AcDbEntity
  8
0
100
AcDbBlockBegin
  2
_FILLED
 70
     0
 10
0.0
 20
0.0
 30
0.0
  3
_FILLED
  1

1001
ACAD
1000
RTMaterial
1005
1698
  0
SOLID
  5
32D
330
222
100
AcDbEntity
  8
0
  6
BYBLOCK
 62
     0
100
AcDbTrace
 10
0.0
 20
0.0
 30
0.0
 11
-1.0
 21
0.1666666667
 31
0.0
 12
-1.0
 22
-0.1666666667
 32
0.0
 13
-1.0
 23
-0.1666666667
 33
0.0
1001
ACAD
1000
RTMaterial
1005
1698
  0
ENDBLK
  5
32E
330
222
100
AcDbEntity
  8
0
  6
BYBLOCK
 62
     0
100
AcDbBlockEnd
1001
ACAD
1000
RTMaterial
1005
1698
  0
ENDSEC
  0
SECTION
  2
ENTITIES
  0
ELLIPSE
  5
1A3A
330
220
100
AcDbEntity
  8
0
100
AcDbEllipse
 10
0.1877573149000042
 20
29.8122426851
 30
0.0
 11
0.1329461706
 21
-0.1329461706
 31
0.0
210
0.0
220
0.0
230
0.9999999999999998
 40
0.9972646885999999
 41
2.3575640181
 42
3.9256212891
1001
ACAD
1000
RTMaterial
1005
0
  0
ELLIPSE
  5
1A3B
330
220
100
AcDbEntity
  8
0
100
AcDbEllipse
 10
59.81224268509998
 20
29.8122426851
 30
0.0
 11
0.1329461706
 21
0.1329461706
 31
0.0
210
0.0
220
0.0
230
0.9999999999999998
 40
0.9972646885999999
 41
-0.7840286355
 42
0.7840286355
1001
ACAD
1000
RTMaterial
1005
0
  0
ELLIPSE
  5
1A3C
330
220
100
AcDbEntity
  8
0
100
AcDbEllipse
 10
59.81224268509998
 20
0.1877573148000238
 30
0.0
 11
-0.1329461706
 21
0.1329461706
 31
0.0
210
0.0
220
0.0
230
0.9999999999999998
 40
0.9972646885999999
 41
2.3575640181
 42
3.9256212891
1001
ACAD
1000
RTMaterial
1005
0
  0
ELLIPSE
  5
1A3D
330
220
100
AcDbEntity
  8
0
100
AcDbEllipse
 10
0.1877573149000042
 20
0.1877573148000238
 30
0.0
 11
0.1329461706
 21
0.1329461706
 31
0.0
210
0.0
220
0.0
230
0.9999999999999998
 40
0.9972646885999999
 41
-3.9256212891
 42
-2.3575640181
1001
ACAD
1000
RTMaterial
1005
0
  0
CIRCLE
  5
1A3E
330
220
100
AcDbEntity
  8
0
100
AcDbCircle
 10
48.80682000000001
 20
15.00000000000001
 30
0.0
 40
1.0
1001
ACAD
1000
RTMaterial
1005
0
  0
CIRCLE
  5
1A3F
330
220
100
AcDbEntity
  8
0
100
AcDbCircle
 10
48.80682000000001
 20
15.00000000000001
 30
0.0
 40
1.448223304699999
1001
ACAD
1000
RTMaterial
1005
0
  0
LINE
  5
1A57
330
220
100
AcDbEntity
  8
0
100
AcDbLine
 10
60.0
 20
0.1872430377000143
 30
0.0
 11
60.0
 21
29.81275696220002
 31
0.0
1001
ACAD
1000
RTMaterial
1005
0
  0
POLYLINE
  5
1A58
330
220
100
AcDbEntity
  8
0
100
AcDb2dPolyline
 66
     1
 10
0.0
 20
0.0
 30
0.0
1001
ACAD
1000
RTMaterial
1005
0
  0
VERTEX
  5
1D1E
330
1A58
100
AcDbEntity
  8
0
100
AcDbVertex
100
AcDb2dVertex
 10
56.27667593479998
 20
16.08018799440002
 30
0.0
  0
VERTEX
  5
1D1F
330
1A58
100
AcDbEntity
  8
0
100
AcDbVertex
100
AcDb2dVertex
 10
56.31624866399999
 20
15.89745261950001
 30
0.0
  0
VERTEX
  5
1D20
330
1A58
100
AcDbEntity
  8
0
100
AcDbVertex
100
AcDb2dVertex
 10
56.34705343979998
 20
15.64201097070001
 30
0.0
  0
VERTEX
  5
1D21
330
1A58
100
AcDbEntity
  8
0
100
AcDbVertex
100
AcDb2dVertex
 10
56.36659464249998
 20
15.3345574112
 30
0.0
  0
VERTEX
  5
1D22
330
1A58
100
AcDbEntity
  8
0
100
AcDbVertex
100
AcDb2dVertex
 10
56.37328916000001
 20
15.00000000000001
 30
0.0
  0
SEQEND
  5
1D23
330
1A58
100
AcDbEntity
  8
0
  0
POLYLINE
  5
1A59
330
220
100
AcDbEntity
  8
0
100
AcDb2dPolyline
 66
     1
 10
0.0
 20
0.0
 30
0.0
1001
ACAD
1000
RTMaterial
1005
0
  0
VERTEX
  5
1D24
330
1A59
100
AcDbEntity
  8
0
100
AcDbVertex
100
AcDb2dVertex
 10
56.37328916000001
 20
15.00000000000001
 30
0.0
  0
VERTEX
  5
1D25
330
1A59
100
AcDbEntity
  8
0
100
AcDbVertex
100
AcDb2dVertex
 10
56.36659464249998
 20
14.6654425887
 30
0.0
  0
VERTEX
  5
1D26
330
1A59
100
AcDbEntity
  8
0
100
AcDbVertex
100
AcDb2dVertex
 10
56.34705343979998
 20
14.3579890292
 30
0.0
  0
VERTEX
  5
1D27
330
1A59
100
AcDbEntity
  8
0
100
AcDbVertex
100
AcDb2dVertex
 10
56.31624866399999
 20
14.10254738040002
 30
0.0
  0
VERTEX
  5
1D28
330
1A59
100
AcDbEntity
  8
0
100
AcDbVertex
100
AcDb2dVertex
 10
56.27667593479998
 20
13.91981200550002
 30
0.0
  0
SEQEND
  5
1D29
330
1A59
100
AcDbEntity
  8
0
  0
POLYLINE
  5
1A5A
330
220
100
AcDbEntity
  8
0
100
AcDb2dPolyline
 66
     1
 10
0.0
 20
0.0
 30
0.0
1001
ACAD
1000
RTMaterial
1005
0
  0
VERTEX
  5
1D2A
330
1A5A
100
AcDbEntity
  8
0
100
AcDbVertex
100
AcDb2dVertex
 10
56.13559067670001
 20
15.00000000000001
 30
0.0
  0
VERTEX
  5
1D2B
330
1A5A
100
AcDbEntity
  8
0
100
AcDbVertex
100
AcDb2dVertex
 10
56.14228519419998
 20
15.3345574112
 30
0.0
  0
VERTEX
  5
1D2C
330
1A5A
100
AcDbEntity
  8
0
100
AcDbVertex
100
AcDb2dVertex
 10
56.1618263969
 20
15.64201097070001
 30
0.0
  0
VERTEX
  5
1D2D
330
1A5A
100
AcDbEntity
  8
0
100
AcDbVertex
100
AcDb2dVertex
 10
56.1926311727
 20
15.89745261950001
 30
0.0
  0
VERTEX
  5
1D2E
330
1A5A
100
AcDbEntity
  8
0
100
AcDbVertex
100
AcDb2dVertex
 10
56.23220390189999
 20
16.08018799440002
 30
0.0
  0
SEQEND
  5
1D2F
330
1A5A
100
AcDbEntity
  8
0
  0
POLYLINE
  5
1A5B
330
220
100
AcDbEntity
  8
0
100
AcDb2dPolyline
 66
     1
 10
0.0
 20
0.0
 30
0.0
1001
ACAD
1000
RTMaterial
1005
0
  0
VERTEX
  5
1D30
330
1A5B
100
AcDbEntity
  8
0
100
AcDbVertex
100
AcDb2dVertex
 10
56.04275304520001
 20
15.00000000000001
 30
0.0
  0
VERTEX
  5
1D31
330
1A5B
100
AcDbEntity
  8
0
100
AcDbVertex
100
AcDb2dVertex
 10
56.04944756280001
 20
15.3345574112
 30
0.0
  0
VERTEX
  5
1D32
330
1A5B
100
AcDbEntity
  8
0
100
AcDbVertex
100
AcDb2dVertex
 10
56.06898876549998
 20
15.64201097070001
 30
0.0
  0
VERTEX
  5
1D33
330
1A5B
100
AcDbEntity
  8
0
100
AcDbVertex
100
AcDb2dVertex
 10
56.09979354129998
 20
15.89745261950001
 30
0.0
  0
VERTEX
  5
1D34
330
1A5B
100
AcDbEntity
  8
0
100
AcDbVertex
100
AcDb2dVertex
 10
56.13936627039998
 20
16.08018799440002
 30
0.0
  0
VERTEX
  5
1D35
330
1A5B
100
AcDbEntity
  8
0
100
AcDbVertex
100
AcDb2dVertex
 10
56.18450100579999
 20
16.17541296220001
 30
0.0
  0
VERTEX
  5
1D36
330
1A5B
100
AcDbEntity
  8
0
100
AcDbVertex
100
AcDb2dVertex
 10
56.20802110260001
 20
16.18731608320003
 30
0.0
  0
SEQEND
  5
1D37
330
1A5B
100
AcDbEntity
  8
0
  0
POLYLINE
  5
1A62
330
220
100
AcDbEntity
  8
0
100
AcDb2dPolyline
 66
     1
 10
0.0
 20
0.0
 30
0.0
1001
ACAD
1000
RTMaterial
1005
0
  0
VERTEX
  5
1D38
330
1A62
100
AcDbEntity
  8
0
100
AcDbVertex
100
AcDb2dVertex
 10
54.38199028510001
 20
23.9409046551
 30
0.0
  0
VERTEX
  5
1D39
330
1A62
100
AcDbEntity
  8
0
100
AcDbVertex
100
AcDb2dVertex
 10
54.34256188399999
 20
24.16856954150002
 30
0.0
  0
VERTEX
  5
1D3A
330
1A62
100
AcDbEntity
  8
0
100
AcDbVertex
100
AcDb2dVertex
 10
54.23575906519999
 20
24.37442385520002
 30
0.0
  0
VERTEX
  5
1D3B
330
1A62
100
AcDbEntity
  8
0
100
AcDbVertex
100
AcDb2dVertex
 10
54.07181366150001
 20
24.53874648230002
 30
0.0
  0
VERTEX
  5
1D3C
330
1A62
100
AcDbEntity
  8
0
100
AcDbVertex
100
AcDb2dVertex
 10
53.86643184549998
 20
24.6457950901
 30
0.0
  0
VERTEX
  5
1D3D
330
1A62
100
AcDbEntity
  8
0
100
AcDbVertex
100
AcDb2dVertex
 10
53.63928946259999
 20
24.68531426880001
 30
0.0
  0
SEQEND
  5
1D3E
330
1A62
100
AcDbEntity
  8
0
  0
POLYLINE
  5
1A63
330
220
100
AcDbEntity
  8
0
100
AcDb2dPolyline
 66
     1
 10
0.0
 20
0.0
 30
0.0
1001
ACAD
1000
RTMaterial
1005
0
  0
VERTEX
  5
1D3F
330
1A63
100
AcDbEntity
  8
0
100
AcDbVertex
100
AcDb2dVertex
 10
56.23220390189999
 20
13.91981200550002
 30
0.0
  0
VERTEX
  5
1D40
330
1A63
100
AcDbEntity
  8
0
100
AcDbVertex
100
AcDb2dVertex
 10
56.1926311727
 20
14.10254738040002
 30
0.0
  0
VERTEX
  5
1D41
330
1A63
100
AcDbEntity
  8
0
100
AcDbVertex
100
AcDb2dVertex
 10
56.1618263969
 20
14.3579890292
 30
0.0
  0
VERTEX
  5
1D42
330
1A63
100
AcDbEntity
  8
0
100
AcDbVertex
100
AcDb2dVertex
 10
56.14228519419998
 20
14.6654425887
 30
0.0
  0
VERTEX
  5
1D43
330
1A63
100
AcDbEntity
  8
0
100
AcDbVertex
100
AcDb2dVertex
 10
56.13559067670001
 20
15.00000000000001
 30
0.0
  0
SEQEND
  5
1D44
330
1A63
100
AcDbEntity
  8
0
  0
LINE
  5
1A64
330
220
100
AcDbEntity
  8
0
100
AcDbLine
 10
56.25443991829999
 20
13.87289860420001
 30
0.0
 11
56.23220390189999
 21
13.91981200550002
 31
0.0
1001
ACAD
1000
RTMaterial
1005
0
  0
POLYLINE
  5
1A65
330
220
100
AcDbEntity
  8
0
100
AcDb2dPolyline
 66
     1
 10
0.0
 20
0.0
 30
0.0
1001
ACAD
1000
RTMaterial
1005
0
  0
VERTEX
  5
1D45
330
1A65
100
AcDbEntity
  8
0
100
AcDbVertex
100
AcDb2dVertex
 10
56.27667593479998
 20
13.91981200550002
 30
0.0
  0
VERTEX
  5
1D46
330
1A65
100
AcDbEntity
  8
0
100
AcDbVertex
100
AcDb2dVertex
 10
56.23154119950001
 20
13.8245870377
 30
0.0
  0
VERTEX
  5
1D47
330
1A65
100
AcDbEntity
  8
0
100
AcDbVertex
100
AcDb2dVertex
 10
56.20802110260001
 20
13.81268391679999
 30
0.0
  0
SEQEND
  5
1D48
330
1A65
100
AcDbEntity
  8
0
  0
LINE
  5
1A66
330
220
100
AcDbEntity
  8
0
100
AcDbLine
 10
56.23220390189999
 20
16.08018799440002
 30
0.0
 11
56.25443991829999
 21
16.12710139580001
 31
0.0
1001
ACAD
1000
RTMaterial
1005
0
  0
LINE
  5
1A68
330
220
100
AcDbEntity
  8
0
100
AcDbLine
 10
54.3674213657
 20
18.39248195349999
 30
0.0
 11
54.38199051419999
 21
23.9409046551
 31
0.0
1001
ACAD
1000
RTMaterial
1005
0
  0
POLYLINE
  5
1A69
330
220
100
AcDbEntity
  8
0
100
AcDb2dPolyline
 66
     1
 10
0.0
 20
0.0
 30
0.0
1001
ACAD
1000
RTMaterial
1005
0
  0
VERTEX
  5
1D49
330
1A69
100
AcDbEntity
  8
0
100
AcDbVertex
100
AcDb2dVertex
 10
54.3630544117
 20
15.0011776719
 30
0.0
  0
VERTEX
  5
1D4A
330
1A69
100
AcDbEntity
  8
0
100
AcDbVertex
100
AcDb2dVertex
 10
54.36434594349997
 20
16.61666965420001
 30
0.0
  0
VERTEX
  5
1D4B
330
1A69
100
AcDbEntity
  8
0
100
AcDbVertex
100
AcDb2dVertex
 10
54.3674213657
 20
18.39248195349999
 30
0.0
  0
SEQEND
  5
1D4C
330
1A69
100
AcDbEntity
  8
0
  0
LINE
  5
1A74
330
220
100
AcDbEntity
  8
0
100
AcDbLine
 10
59.8127569622
 20
30.00000000000001
 30
0.0
 11
0.1872430377999805
 21
30.00000000000001
 31
0.0
1001
ACAD
1000
RTMaterial
1005
0
  0
POLYLINE
  5
1A75
330
220
100
AcDbEntity
  8
0
100
AcDb2dPolyline
 66
     1
 10
0.0
 20
0.0
 30
0.0
1001
ACAD
1000
RTMaterial
1005
0
  0
VERTEX
  5
1D4D
330
1A75
100
AcDbEntity
  8
0
100
AcDbVertex
100
AcDb2dVertex
 10
56.20802110260001
 20
16.18731608320003
 30
0.0
  0
VERTEX
  5
1D4E
330
1A75
100
AcDbEntity
  8
0
100
AcDbVertex
100
AcDb2dVertex
 10
56.23154119950001
 20
16.17541296220001
 30
0.0
  0
VERTEX
  5
1D4F
330
1A75
100
AcDbEntity
  8
0
100
AcDbVertex
100
AcDb2dVertex
 10
56.27667593479998
 20
16.08018799440002
 30
0.0
  0
SEQEND
  5
1D50
330
1A75
100
AcDbEntity
  8
0
  0
POLYLINE
  5
1A76
330
220
100
AcDbEntity
  8
0
100
AcDb2dPolyline
 66
     1
 10
0.0
 20
0.0
 30
0.0
1001
ACAD
1000
RTMaterial
1005
0
  0
VERTEX
  5
1D51
330
1A76
100
AcDbEntity
  8
0
100
AcDbVertex
100
AcDb2dVertex
 10
56.20802110260001
 20
13.81268391679999
 30
0.0
  0
VERTEX
  5
1D52
330
1A76
100
AcDbEntity
  8
0
100
AcDbVertex
100
AcDb2dVertex
 10
56.18450100579999
 20
13.8245870377
 30
0.0
  0
VERTEX
  5
1D53
330
1A76
100
AcDbEntity
  8
0
100
AcDbVertex
100
AcDb2dVertex
 10
56.13936627039998
 20
13.91981200550002
 30
0.0
  0
VERTEX
  5
1D54
330
1A76
100
AcDbEntity
  8
0
100
AcDbVertex
100
AcDb2dVertex
 10
56.09979354129998
 20
14.10254738040002
 30
0.0
  0
VERTEX
  5
1D55
330
1A76
100
AcDbEntity
  8
0
100
AcDbVertex
100
AcDb2dVertex
 10
56.06898876549998
 20
14.3579890292
 30
0.0
  0
VERTEX
  5
1D56
330
1A76
100
AcDbEntity
  8
0
100
AcDbVertex
100
AcDb2dVertex
 10
56.04944756280001
 20
14.6654425887
 30
0.0
  0
VERTEX
  5
1D57
330
1A76
100
AcDbEntity
  8
0
100
AcDbVertex
100
AcDb2dVertex
 10
56.04275304520001
 20
15.00000000000001
 30
0.0
  0
SEQEND
  5
1D58
330
1A76
100
AcDbEntity
  8
0
  0
POLYLINE
  5
1A77
330
220
100
AcDbEntity
  8
0
100
AcDb2dPolyline
 66
     1
 10
0.0
 20
0.0
 30
0.0
1001
ACAD
1000
RTMaterial
1005
0
  0
VERTEX
  5
1D59
330
1A77
100
AcDbEntity
  8
0
100
AcDbVertex
100
AcDb2dVertex
 10
4.337215258500002
 20
26.73541512430002
 30
0.0
  0
VERTEX
  5
1D5A
330
1A77
100
AcDbEntity
  8
0
100
AcDbVertex
100
AcDb2dVertex
 10
4.057523614300002
 20
26.7474853268
 30
0.0
  0
VERTEX
  5
1D5B
330
1A77
100
AcDbEntity
  8
0
100
AcDbVertex
100
AcDb2dVertex
 10
3.733825522199985
 20
26.77092124179999
 30
0.0
  0
VERTEX
  5
1D5C
330
1A77
100
AcDbEntity
  8
0
100
AcDbVertex
100
AcDb2dVertex
 10
3.363147554699985
 20
26.8060821154
 30
0.0
  0
VERTEX
  5
1D5D
330
1A77
100
AcDbEntity
  8
0
100
AcDbVertex
100
AcDb2dVertex
 10
2.939969997199987
 20
26.85341843130002
 30
0.0
  0
VERTEX
  5
1D5E
330
1A77
100
AcDbEntity
  8
0
100
AcDbVertex
100
AcDb2dVertex
 10
2.459052022000001
 20
26.91305806360002
 30
0.0
  0
VERTEX
  5
1D5F
330
1A77
100
AcDbEntity
  8
0
100
AcDbVertex
100
AcDb2dVertex
 10
1.911485614000007
 20
26.98496875230002
 30
0.0
  0
SEQEND
  5
1D60
330
1A77
100
AcDbEntity
  8
0
  0
POLYLINE
  5
1A81
330
220
100
AcDbEntity
  8
0
100
AcDb2dPolyline
 66
     1
 10
0.0
 20
0.0
 30
0.0
1001
ACAD
1000
RTMaterial
1005
0
  0
VERTEX
  5
1D61
330
1A81
100
AcDbEntity
  8
0
100
AcDbVertex
100
AcDb2dVertex
 10
4.3372152528
 20
26.73541566070001
 30
0.0
  0
VERTEX
  5
1D62
330
1A81
100
AcDbEntity
  8
0
100
AcDbVertex
100
AcDb2dVertex
 10
4.533717113399994
 20
26.71681978940002
 30
0.0
  0
VERTEX
  5
1D63
330
1A81
100
AcDbEntity
  8
0
100
AcDbVertex
100
AcDb2dVertex
 10
4.721106567899987
 20
26.69678428310003
 30
0.0
  0
VERTEX
  5
1D64
330
1A81
100
AcDbEntity
  8
0
100
AcDbVertex
100
AcDb2dVertex
 10
4.898674435100012
 20
26.67537688970002
 30
0.0
  0
VERTEX
  5
1D65
330
1A81
100
AcDbEntity
  8
0
100
AcDbVertex
100
AcDb2dVertex
 10
5.065750683400004
 20
26.65266998440002
 30
0.0
  0
VERTEX
  5
1D66
330
1A81
100
AcDbEntity
  8
0
100
AcDbVertex
100
AcDb2dVertex
 10
5.221685248299984
 20
26.62874340320003
 30
0.0
  0
VERTEX
  5
1D67
330
1A81
100
AcDbEntity
  8
0
100
AcDbVertex
100
AcDb2dVertex
 10
5.365917799700007
 20
26.6036733986
 30
0.0
  0
VERTEX
  5
1D68
330
1A81
100
AcDbEntity
  8
0
100
AcDbVertex
100
AcDb2dVertex
 10
5.497815224100001
 20
26.57756113660001
 30
0.0
  0
SEQEND
  5
1D69
330
1A81
100
AcDbEntity
  8
0
  0
POLYLINE
  5
1A82
330
220
100
AcDbEntity
  8
0
100
AcDb2dPolyline
 66
     1
 10
0.0
 20
0.0
 30
0.0
1001
ACAD
1000
RTMaterial
1005
0
  0
VERTEX
  5
1D6A
330
1A82
100
AcDbEntity
  8
0
100
AcDbVertex
100
AcDb2dVertex
 10
48.81538799100002
 20
24.55620969130002
 30
0.0
  0
VERTEX
  5
1D6B
330
1A82
100
AcDbEntity
  8
0
100
AcDbVertex
100
AcDb2dVertex
 10
13.7610573759
 20
24.60825722960002
 30
0.0
  0
VERTEX
  5
1D6C
330
1A82
100
AcDbEntity
  8
0
100
AcDbVertex
100
AcDb2dVertex
 10
13.6422136495
 20
24.60993663
 30
0.0
  0
VERTEX
  5
1D6D
330
1A82
100
AcDbEntity
  8
0
100
AcDbVertex
100
AcDb2dVertex
 10
13.52455788489998
 20
24.61260986579999
 30
0.0
  0
VERTEX
  5
1D6E
330
1A82
100
AcDbEntity
  8
0
100
AcDbVertex
100
AcDb2dVertex
 10
13.4086623333
 20
24.6162642835
 30
0.0
  0
VERTEX
  5
1D6F
330
1A82
100
AcDbEntity
  8
0
100
AcDbVertex
100
AcDb2dVertex
 10
13.29507685459997
 20
24.62088246320003
 30
0.0
  0
VERTEX
  5
1D70
330
1A82
100
AcDbEntity
  8
0
100
AcDbVertex
100
AcDb2dVertex
 10
13.18431447509998
 20
24.6264436167
 30
0.0
  0
VERTEX
  5
1D71
330
1A82
100
AcDbEntity
  8
0
100
AcDbVertex
100
AcDb2dVertex
 10
13.0768724224
 20
24.6329234388
 30
0.0
  0
VERTEX
  5
1D72
330
1A82
100
AcDbEntity
  8
0
100
AcDbVertex
100
AcDb2dVertex
 10
12.97325272709999
 20
24.64029274050001
 30
0.0
  0
VERTEX
  5
1D73
330
1A82
100
AcDbEntity
  8
0
100
AcDbVertex
100
AcDb2dVertex
 10
12.8739426305
 20
24.64851810210002
 30
0.0
  0
VERTEX
  5
1D74
330
1A82
100
AcDbEntity
  8
0
100
AcDbVertex
100
AcDb2dVertex
 10
12.7794124732
 20
24.6575618913
 30
0.0
  0
VERTEX
  5
1D75
330
1A82
100
AcDbEntity
  8
0
100
AcDbVertex
100
AcDb2dVertex
 10
12.6901234507
 20
24.66738109680001
 30
0.0
  0
VERTEX
  5
1D76
330
1A82
100
AcDbEntity
  8
0
100
AcDbVertex
100
AcDb2dVertex
 10
12.60650898159999
 20
24.67792866079999
 30
0.0
  0
VERTEX
  5
1D77
330
1A82
100
AcDbEntity
  8
0
100
AcDbVertex
100
AcDb2dVertex
 10
12.52895043279999
 20
24.68915718259999
 30
0.0
  0
VERTEX
  5
1D78
330
1A82
100
AcDbEntity
  8
0
100
AcDbVertex
100
AcDb2dVertex
 10
12.45779530479998
 20
24.70101823190002
 30
0.0
  0
VERTEX
  5
1D79
330
1A82
100
AcDbEntity
  8
0
100
AcDbVertex
100
AcDb2dVertex
 10
12.39339326209999
 20
24.71345617320001
 30
0.0
  0
VERTEX
  5
1D7A
330
1A82
100
AcDbEntity
  8
0
100
AcDbVertex
100
AcDb2dVertex
 10
12.33607317019998
 20
24.7264094375
 30
0.0
  0
VERTEX
  5
1D7B
330
1A82
100
AcDbEntity
  8
0
100
AcDbVertex
100
AcDb2dVertex
 10
12.28611333609998
 20
24.73981591280001
 30
0.0
  0
VERTEX
  5
1D7C
330
1A82
100
AcDbEntity
  8
0
100
AcDbVertex
100
AcDb2dVertex
 10
12.24375415269999
 20
24.753611652
 30
0.0
  0
SEQEND
  5
1D7D
330
1A82
100
AcDbEntity
  8
0
  0
LINE
  5
1A83
330
220
100
AcDbEntity
  8
0
100
AcDbLine
 10
52.39420033879997
 20
24.552890086
 30
0.0
 11
48.81538799100002
 21
24.55620969130002
 31
0.0
1001
ACAD
1000
RTMaterial
1005
0
  0
POLYLINE
  5
1A84
330
220
100
AcDbEntity
  8
0
100
AcDb2dPolyline
 66
     1
 10
0.0
 20
0.0
 30
0.0
1001
ACAD
1000
RTMaterial
1005
0
  0
VERTEX
  5
1D7E
330
1A84
100
AcDbEntity
  8
0
100
AcDbVertex
100
AcDb2dVertex
 10
53.63928946259999
 20
24.68531426880001
 30
0.0
  0
VERTEX
  5
1D7F
330
1A84
100
AcDbEntity
  8
0
100
AcDbVertex
100
AcDb2dVertex
 10
54.34586143329999
 20
25.28806576079999
 30
0.0
  0
VERTEX
  5
1D80
330
1A84
100
AcDbEntity
  8
0
100
AcDbVertex
100
AcDb2dVertex
 10
55.15721874789999
 20
25.95881024520001
 30
0.0
  0
VERTEX
  5
1D81
330
1A84
100
AcDbEntity
  8
0
100
AcDbVertex
100
AcDb2dVertex
 10
56.06748192679997
 20
26.70861058300001
 30
0.0
  0
SEQEND
  5
1D82
330
1A84
100
AcDbEntity
  8
0
  0
POLYLINE
  5
1A86
330
220
100
AcDbEntity
  8
0
100
AcDb2dPolyline
 66
     1
 10
0.0
 20
0.0
 30
0.0
1001
ACAD
1000
RTMaterial
1005
0
  0
VERTEX
  5
1D83
330
1A86
100
AcDbEntity
  8
0
100
AcDbVertex
100
AcDb2dVertex
 10
5.497815224100001
 20
26.57756113660001
 30
0.0
  0
VERTEX
  5
1D84
330
1A86
100
AcDbEntity
  8
0
100
AcDbVertex
100
AcDb2dVertex
 10
6.397209163599988
 20
26.38209261150002
 30
0.0
  0
VERTEX
  5
1D85
330
1A86
100
AcDbEntity
  8
0
100
AcDbVertex
100
AcDb2dVertex
 10
7.260002865799997
 20
26.18457138000001
 30
0.0
  0
VERTEX
  5
1D86
330
1A86
100
AcDbEntity
  8
0
100
AcDbVertex
100
AcDb2dVertex
 10
8.085747320699987
 20
25.98511603690001
 30
0.0
  0
VERTEX
  5
1D87
330
1A86
100
AcDbEntity
  8
0
100
AcDbVertex
100
AcDb2dVertex
 10
8.874103075899988
 20
25.78382629710002
 30
0.0
  0
VERTEX
  5
1D88
330
1A86
100
AcDbEntity
  8
0
100
AcDbVertex
100
AcDb2dVertex
 10
9.624725646899996
 20
25.58080867050001
 30
0.0
  0
VERTEX
  5
1D89
330
1A86
100
AcDbEntity
  8
0
100
AcDbVertex
100
AcDb2dVertex
 10
10.33729679109998
 20
25.3761690422
 30
0.0
  0
VERTEX
  5
1D8A
330
1A86
100
AcDbEntity
  8
0
100
AcDbVertex
100
AcDb2dVertex
 10
11.0115081357
 20
25.17001726630001
 30
0.0
  0
VERTEX
  5
1D8B
330
1A86
100
AcDbEntity
  8
0
100
AcDbVertex
100
AcDb2dVertex
 10
11.64709252379997
 20
24.96245760660001
 30
0.0
  0
VERTEX
  5
1D8C
330
1A86
100
AcDbEntity
  8
0
100
AcDbVertex
100
AcDb2dVertex
 10
12.24375415269999
 20
24.753611652
 30
0.0
  0
SEQEND
  5
1D8D
330
1A86
100
AcDbEntity
  8
0
  0
POLYLINE
  5
1A87
330
220
100
AcDbEntity
  8
0
100
AcDb2dPolyline
 66
     1
 10
0.0
 20
0.0
 30
0.0
1001
ACAD
1000
RTMaterial
1005
0
  0
VERTEX
  5
1D8E
330
1A87
100
AcDbEntity
  8
0
100
AcDbVertex
100
AcDb2dVertex
 10
53.63928946259999
 20
24.68531426880001
 30
0.0
  0
VERTEX
  5
1D8F
330
1A87
100
AcDbEntity
  8
0
100
AcDbVertex
100
AcDb2dVertex
 10
53.62353740459997
 20
24.6744101798
 30
0.0
  0
VERTEX
  5
1D90
330
1A87
100
AcDbEntity
  8
0
100
AcDbVertex
100
AcDb2dVertex
 10
53.6014454749
 20
24.66367090630003
 30
0.0
  0
VERTEX
  5
1D91
330
1A87
100
AcDbEntity
  8
0
100
AcDbVertex
100
AcDb2dVertex
 10
53.573145712
 20
24.65315950330001
 30
0.0
  0
VERTEX
  5
1D92
330
1A87
100
AcDbEntity
  8
0
100
AcDbVertex
100
AcDb2dVertex
 10
53.53880108480001
 20
24.6429323128
 30
0.0
  0
VERTEX
  5
1D93
330
1A87
100
AcDbEntity
  8
0
100
AcDbVertex
100
AcDb2dVertex
 10
53.49859675479998
 20
24.63304058960001
 30
0.0
  0
VERTEX
  5
1D94
330
1A87
100
AcDbEntity
  8
0
100
AcDbVertex
100
AcDb2dVertex
 10
53.45271839069999
 20
24.623528761
 30
0.0
  0
VERTEX
  5
1D95
330
1A87
100
AcDbEntity
  8
0
100
AcDbVertex
100
AcDb2dVertex
 10
53.4013824181
 20
24.61444295030001
 30
0.0
  0
VERTEX
  5
1D96
330
1A87
100
AcDbEntity
  8
0
100
AcDbVertex
100
AcDb2dVertex
 10
53.34487844719998
 20
24.60583518120002
 30
0.0
  0
VERTEX
  5
1D97
330
1A87
100
AcDbEntity
  8
0
100
AcDbVertex
100
AcDb2dVertex
 10
53.28355185439999
 20
24.59775622050001
 30
0.0
  0
VERTEX
  5
1D98
330
1A87
100
AcDbEntity
  8
0
100
AcDbVertex
100
AcDb2dVertex
 10
53.2177433223
 20
24.59024753940001
 30
0.0
  0
VERTEX
  5
1D99
330
1A87
100
AcDbEntity
  8
0
100
AcDbVertex
100
AcDb2dVertex
 10
53.14776192919998
 20
24.58334194970003
 30
0.0
  0
VERTEX
  5
1D9A
330
1A87
100
AcDbEntity
  8
0
100
AcDbVertex
100
AcDb2dVertex
 10
53.07391980409999
 20
24.5770699527
 30
0.0
  0
VERTEX
  5
1D9B
330
1A87
100
AcDbEntity
  8
0
100
AcDbVertex
100
AcDb2dVertex
 10
52.99657849179999
 20
24.5714632873
 30
0.0
  0
VERTEX
  5
1D9C
330
1A87
100
AcDbEntity
  8
0
100
AcDbVertex
100
AcDb2dVertex
 10
52.9161836197
 20
24.56655465570001
 30
0.0
  0
VERTEX
  5
1D9D
330
1A87
100
AcDbEntity
  8
0
100
AcDbVertex
100
AcDb2dVertex
 10
52.83321741280001
 20
24.56237200460002
 30
0.0
  0
VERTEX
  5
1D9E
330
1A87
100
AcDbEntity
  8
0
100
AcDbVertex
100
AcDb2dVertex
 10
52.7481200747
 20
24.55893497259999
 30
0.0
  0
VERTEX
  5
1D9F
330
1A87
100
AcDbEntity
  8
0
100
AcDbVertex
100
AcDb2dVertex
 10
52.6612393272
 20
24.55625637500002
 30
0.0
  0
VERTEX
  5
1DA0
330
1A87
100
AcDbEntity
  8
0
100
AcDbVertex
100
AcDb2dVertex
 10
52.57296355990001
 20
24.55434910390001
 30
0.0
  0
VERTEX
  5
1DA1
330
1A87
100
AcDbEntity
  8
0
100
AcDbVertex
100
AcDb2dVertex
 10
52.48376920949999
 20
24.55322477970002
 30
0.0
  0
VERTEX
  5
1DA2
330
1A87
100
AcDbEntity
  8
0
100
AcDbVertex
100
AcDb2dVertex
 10
52.39420033879997
 20
24.552890086
 30
0.0
  0
SEQEND
  5
1DA3
330
1A87
100
AcDbEntity
  8
0
  0
POLYLINE
  5
1A89
330
220
100
AcDbEntity
  8
0
100
AcDb2dPolyline
 66
     1
 10
0.0
 20
0.0
 30
0.0
1001
ACAD
1000
RTMaterial
1005
0
  0
VERTEX
  5
1DA4
330
1A89
100
AcDbEntity
  8
0
100
AcDbVertex
100
AcDb2dVertex
 10
57.189226235
 20
26.97956092350001
 30
0.0
  0
VERTEX
  5
1DA5
330
1A89
100
AcDbEntity
  8
0
100
AcDbVertex
100
AcDb2dVertex
 10
56.82895376089998
 20
26.889421498
 30
0.0
  0
VERTEX
  5
1DA6
330
1A89
100
AcDbEntity
  8
0
100
AcDbVertex
100
AcDb2dVertex
 10
56.67694739749998
 20
26.85220734580001
 30
0.0
  0
VERTEX
  5
1DA7
330
1A89
100
AcDbEntity
  8
0
100
AcDbVertex
100
AcDb2dVertex
 10
56.54220508280001
 20
26.8199654001
 30
0.0
  0
VERTEX
  5
1DA8
330
1A89
100
AcDbEntity
  8
0
100
AcDbVertex
100
AcDb2dVertex
 10
56.42401682669998
 20
26.79259174130002
 30
0.0
  0
VERTEX
  5
1DA9
330
1A89
100
AcDbEntity
  8
0
100
AcDbVertex
100
AcDb2dVertex
 10
56.32204226039998
 20
26.77008231520001
 30
0.0
  0
VERTEX
  5
1DAA
330
1A89
100
AcDbEntity
  8
0
100
AcDbVertex
100
AcDb2dVertex
 10
56.2363347767
 20
26.7525458235
 30
0.0
  0
VERTEX
  5
1DAB
330
1A89
100
AcDbEntity
  8
0
100
AcDbVertex
100
AcDb2dVertex
 10
56.16727794519999
 20
26.74015596350001
 30
0.0
  0
VERTEX
  5
1DAC
330
1A89
100
AcDbEntity
  8
0
100
AcDbVertex
100
AcDb2dVertex
 10
56.11544308739999
 20
26.73310464860001
 30
0.0
  0
SEQEND
  5
1DAD
330
1A89
100
AcDbEntity
  8
0
  0
POLYLINE
  5
1A8A
330
220
100
AcDbEntity
  8
0
100
AcDb2dPolyline
 66
     1
 10
0.0
 20
0.0
 30
0.0
1001
ACAD
1000
RTMaterial
1005
0
  0
VERTEX
  5
1DAE
330
1A8A
100
AcDbEntity
  8
0
100
AcDbVertex
100
AcDb2dVertex
 10
56.06748192679997
 20
26.70861058300001
 30
0.0
  0
VERTEX
  5
1DAF
330
1A8A
100
AcDbEntity
  8
0
100
AcDbVertex
100
AcDb2dVertex
 10
56.07945864319997
 20
26.71686259730002
 30
0.0
  0
VERTEX
  5
1DB0
330
1A8A
100
AcDbEntity
  8
0
100
AcDbVertex
100
AcDb2dVertex
 10
56.09547394969998
 20
26.72504460919999
 30
0.0
  0
VERTEX
  5
1DB1
330
1A8A
100
AcDbEntity
  8
0
100
AcDbVertex
100
AcDb2dVertex
 10
56.11544308809999
 20
26.73310464800001
 30
0.0
  0
SEQEND
  5
1DB2
330
1A8A
100
AcDbEntity
  8
0
  0
LINE
  5
1A9C
330
220
100
AcDbEntity
  8
0
100
AcDbLine
 10
59.8127569622
 20
0.0
 30
0.0
 11
0.1872430377999805
 21
0.0
 31
0.0
1001
ACAD
1000
RTMaterial
1005
0
  0
POLYLINE
  5
1A9F
330
220
100
AcDbEntity
  8
0
100
AcDb2dPolyline
 66
     1
 10
0.0
 20
0.0
 30
0.0
1001
ACAD
1000
RTMaterial
1005
0
  0
VERTEX
  5
1DB3
330
1A9F
100
AcDbEntity
  8
0
100
AcDbVertex
100
AcDb2dVertex
 10
11.53331115569999
 20
24.00920203830001
 30
0.0
  0
VERTEX
  5
1DB4
330
1A9F
100
AcDbEntity
  8
0
100
AcDbVertex
100
AcDb2dVertex
 10
11.5747623052
 20
24.23387017120002
 30
0.0
  0
VERTEX
  5
1DB5
330
1A9F
100
AcDbEntity
  8
0
100
AcDbVertex
100
AcDb2dVertex
 10
11.67850747609997
 20
24.43761804880002
 30
0.0
  0
VERTEX
  5
1DB6
330
1A9F
100
AcDbEntity
  8
0
100
AcDbVertex
100
AcDb2dVertex
 10
11.8348863056
 20
24.6014734267
 30
0.0
  0
VERTEX
  5
1DB7
330
1A9F
100
AcDbEntity
  8
0
100
AcDbVertex
100
AcDb2dVertex
 10
12.0293373814
 20
24.7101787044
 30
0.0
  0
VERTEX
  5
1DB8
330
1A9F
100
AcDbEntity
  8
0
100
AcDbVertex
100
AcDb2dVertex
 10
12.24375414489997
 20
24.75361165480002
 30
0.0
  0
SEQEND
  5
1DB9
330
1A9F
100
AcDbEntity
  8
0
  0
LINE
  5
1AA1
330
220
100
AcDbEntity
  8
0
100
AcDbLine
 10
11.53331115569999
 20
24.00920203830001
 30
0.0
 11
11.53919853450464
 21
15.00000000000001
 31
0.0
1001
ACAD
1000
RTMaterial
1005
0
  0
LINE
  5
1AA9
330
220
100
AcDbEntity
  8
0
100
AcDbLine
 10
-0.0000000000000071
 20
0.1872430377000143
 30
0.0
 11
-0.0000000000000071
 21
29.81275696220002
 31
0.0
1001
ACAD
1000
RTMaterial
1005
0
  0
LINE
  5
1CD5
330
220
100
AcDbEntity
  8
CENTER
 48
4.0
100
AcDbLine
 10
44.46248204108981
 20
15.00000000000001
 30
0.0
 11
57.98164356796129
 21
15.00000000000001
 31
0.0
  0
LINE
  5
1CD6
330
220
100
AcDbEntity
  8
CENTER
 48
4.0
100
AcDbLine
 10
48.80682000000001
 20
18.95973337718506
 30
0.0
 11
48.80682000000001
 21
11.04026662281494
 31
0.0
  0
LINE
  5
1CF1
330
220
100
AcDbEntity
  8
0
100
AcDbLine
 10
57.18924213540542
 20
26.9849686305
 30
0.0
 11
57.18924213540542
 21
3.015031369500022
 31
0.0
  0
LINE
  5
1CF2
330
220
100
AcDbEntity
  8
0
100
AcDbLine
 10
57.18924213540542
 20
26.9849686305
 30
0.0
 11
1.911485593900003
 21
26.9849686305
 31
0.0
  0
LINE
  5
1CF3
330
220
100
AcDbEntity
  8
0
100
AcDbLine
 10
1.911485593900003
 20
26.9849686305
 30
0.0
 11
1.911485593900003
 21
3.015031369500022
 31
0.0
  0
LINE
  5
1CF4
330
220
100
AcDbEntity
  8
0
100
AcDbLine
 10
57.18924213540542
 20
3.015031369500022
 30
0.0
 11
1.911485593900003
 21
3.015031369500022
 31
0.0
  0
POLYLINE
  5
1CF5
330
220
100
AcDbEntity
  8
0
100
AcDb2dPolyline
 66
     1
 10
0.0
 20
0.0
 30
0.0
1001
ACAD
1000
RTMaterial
1005
0
  0
VERTEX
  5
1DBA
330
1CF5
100
AcDbEntity
  8
0
100
AcDbVertex
100
AcDb2dVertex
 10
4.337215258500002
 20
3.264584875700009
 30
0.0
  0
VERTEX
  5
1DBB
330
1CF5
100
AcDbEntity
  8
0
100
AcDbVertex
100
AcDb2dVertex
 10
4.057523614300002
 20
3.252514673200025
 30
0.0
  0
VERTEX
  5
1DBC
330
1CF5
100
AcDbEntity
  8
0
100
AcDbVertex
100
AcDb2dVertex
 10
3.733825522199985
 20
3.229078758200031
 30
0.0
  0
VERTEX
  5
1DBD
330
1CF5
100
AcDbEntity
  8
0
100
AcDbVertex
100
AcDb2dVertex
 10
3.363147554699985
 20
3.193917884600026
 30
0.0
  0
VERTEX
  5
1DBE
330
1CF5
100
AcDbEntity
  8
0
100
AcDbVertex
100
AcDb2dVertex
 10
2.939969997199987
 20
3.1465815687
 30
0.0
  0
VERTEX
  5
1DBF
330
1CF5
100
AcDbEntity
  8
0
100
AcDbVertex
100
AcDb2dVertex
 10
2.459052022000001
 20
3.086941936400009
 30
0.0
  0
VERTEX
  5
1DC0
330
1CF5
100
AcDbEntity
  8
0
100
AcDbVertex
100
AcDb2dVertex
 10
1.911485614000007
 20
3.015031247700008
 30
0.0
  0
SEQEND
  5
1DC1
330
1CF5
100
AcDbEntity
  8
0
  0
POLYLINE
  5
1CF6
330
220
100
AcDbEntity
  8
0
100
AcDb2dPolyline
 66
     1
 10
0.0
 20
0.0
 30
0.0
1001
ACAD
1000
RTMaterial
1005
0
  0
VERTEX
  5
1DC2
330
1CF6
100
AcDbEntity
  8
0
100
AcDbVertex
100
AcDb2dVertex
 10
11.53331115569999
 20
5.99079796170001
 30
0.0
  0
VERTEX
  5
1DC3
330
1CF6
100
AcDbEntity
  8
0
100
AcDbVertex
100
AcDb2dVertex
 10
11.5747623052
 20
5.766129828800004
 30
0.0
  0
VERTEX
  5
1DC4
330
1CF6
100
AcDbEntity
  8
0
100
AcDbVertex
100
AcDb2dVertex
 10
11.67850747609997
 20
5.562381951200009
 30
0.0
  0
VERTEX
  5
1DC5
330
1CF6
100
AcDbEntity
  8
0
100
AcDbVertex
100
AcDb2dVertex
 10
11.8348863056
 20
5.398526573300031
 30
0.0
  0
VERTEX
  5
1DC6
330
1CF6
100
AcDbEntity
  8
0
100
AcDbVertex
100
AcDb2dVertex
 10
12.0293373814
 20
5.28982129560002
 30
0.0
  0
VERTEX
  5
1DC7
330
1CF6
100
AcDbEntity
  8
0
100
AcDbVertex
100
AcDb2dVertex
 10
12.24375414489997
 20
5.246388345200003
 30
0.0
  0
SEQEND
  5
1DC8
330
1CF6
100
AcDbEntity
  8
0
  0
POLYLINE
  5
1CF7
330
220
100
AcDbEntity
  8
0
100
AcDb2dPolyline
 66
     1
 10
0.0
 20
0.0
 30
0.0
1001
ACAD
1000
RTMaterial
1005
0
  0
VERTEX
  5
1DC9
330
1CF7
100
AcDbEntity
  8
0
100
AcDbVertex
100
AcDb2dVertex
 10
56.06748192679997
 20
3.291389417000019
 30
0.0
  0
VERTEX
  5
1DCA
330
1CF7
100
AcDbEntity
  8
0
100
AcDbVertex
100
AcDb2dVertex
 10
56.07945864319997
 20
3.283137402700006
 30
0.0
  0
VERTEX
  5
1DCB
330
1CF7
100
AcDbEntity
  8
0
100
AcDbVertex
100
AcDb2dVertex
 10
56.09547394969998
 20
3.27495539080003
 30
0.0
  0
VERTEX
  5
1DCC
330
1CF7
100
AcDbEntity
  8
0
100
AcDbVertex
100
AcDb2dVertex
 10
56.11544308809999
 20
3.26689535200002
 30
0.0
  0
SEQEND
  5
1DCD
330
1CF7
100
AcDbEntity
  8
0
  0
POLYLINE
  5
1CF8
330
220
100
AcDbEntity
  8
0
100
AcDb2dPolyline
 66
     1
 10
0.0
 20
0.0
 30
0.0
1001
ACAD
1000
RTMaterial
1005
0
  0
VERTEX
  5
1DCE
330
1CF8
100
AcDbEntity
  8
0
100
AcDbVertex
100
AcDb2dVertex
 10
57.189226235
 20
3.020439076500011
 30
0.0
  0
VERTEX
  5
1DCF
330
1CF8
100
AcDbEntity
  8
0
100
AcDbVertex
100
AcDb2dVertex
 10
56.82895376089998
 20
3.110578502000024
 30
0.0
  0
VERTEX
  5
1DD0
330
1CF8
100
AcDbEntity
  8
0
100
AcDbVertex
100
AcDb2dVertex
 10
56.67694739749998
 20
3.147792654200017
 30
0.0
  0
VERTEX
  5
1DD1
330
1CF8
100
AcDbEntity
  8
0
100
AcDbVertex
100
AcDb2dVertex
 10
56.54220508280001
 20
3.180034599900025
 30
0.0
  0
VERTEX
  5
1DD2
330
1CF8
100
AcDbEntity
  8
0
100
AcDbVertex
100
AcDb2dVertex
 10
56.42401682669998
 20
3.207408258699999
 30
0.0
  0
VERTEX
  5
1DD3
330
1CF8
100
AcDbEntity
  8
0
100
AcDbVertex
100
AcDb2dVertex
 10
56.32204226039998
 20
3.229917684800014
 30
0.0
  0
VERTEX
  5
1DD4
330
1CF8
100
AcDbEntity
  8
0
100
AcDbVertex
100
AcDb2dVertex
 10
56.2363347767
 20
3.247454176500028
 30
0.0
  0
VERTEX
  5
1DD5
330
1CF8
100
AcDbEntity
  8
0
100
AcDbVertex
100
AcDb2dVertex
 10
56.16727794519999
 20
3.259844036500012
 30
0.0
  0
VERTEX
  5
1DD6
330
1CF8
100
AcDbEntity
  8
0
100
AcDbVertex
100
AcDb2dVertex
 10
56.11544308739999
 20
3.266895351400009
 30
0.0
  0
SEQEND
  5
1DD7
330
1CF8
100
AcDbEntity
  8
0
  0
POLYLINE
  5
1CF9
330
220
100
AcDbEntity
  8
0
100
AcDb2dPolyline
 66
     1
 10
0.0
 20
0.0
 30
0.0
1001
ACAD
1000
RTMaterial
1005
0
  0
VERTEX
  5
1DD8
330
1CF9
100
AcDbEntity
  8
0
100
AcDbVertex
100
AcDb2dVertex
 10
53.63928946259999
 20
5.314685731200015
 30
0.0
  0
VERTEX
  5
1DD9
330
1CF9
100
AcDbEntity
  8
0
100
AcDbVertex
100
AcDb2dVertex
 10
53.62353740459997
 20
5.325589820200022
 30
0.0
  0
VERTEX
  5
1DDA
330
1CF9
100
AcDbEntity
  8
0
100
AcDbVertex
100
AcDb2dVertex
 10
53.6014454749
 20
5.336329093700001
 30
0.0
  0
VERTEX
  5
1DDB
330
1CF9
100
AcDbEntity
  8
0
100
AcDbVertex
100
AcDb2dVertex
 10
53.573145712
 20
5.346840496700011
 30
0.0
  0
VERTEX
  5
1DDC
330
1CF9
100
AcDbEntity
  8
0
100
AcDbVertex
100
AcDb2dVertex
 10
53.53880108480001
 20
5.357067687200029
 30
0.0
  0
VERTEX
  5
1DDD
330
1CF9
100
AcDbEntity
  8
0
100
AcDbVertex
100
AcDb2dVertex
 10
53.49859675479998
 20
5.366959410400014
 30
0.0
  0
VERTEX
  5
1DDE
330
1CF9
100
AcDbEntity
  8
0
100
AcDbVertex
100
AcDb2dVertex
 10
53.45271839069999
 20
5.376471239000025
 30
0.0
  0
VERTEX
  5
1DDF
330
1CF9
100
AcDbEntity
  8
0
100
AcDbVertex
100
AcDb2dVertex
 10
53.4013824181
 20
5.385557049700011
 30
0.0
  0
VERTEX
  5
1DE0
330
1CF9
100
AcDbEntity
  8
0
100
AcDbVertex
100
AcDb2dVertex
 10
53.34487844719998
 20
5.394164818800007
 30
0.0
  0
VERTEX
  5
1DE1
330
1CF9
100
AcDbEntity
  8
0
100
AcDbVertex
100
AcDb2dVertex
 10
53.28355185439999
 20
5.402243779500011
 30
0.0
  0
VERTEX
  5
1DE2
330
1CF9
100
AcDbEntity
  8
0
100
AcDbVertex
100
AcDb2dVertex
 10
53.2177433223
 20
5.409752460600017
 30
0.0
  0
VERTEX
  5
1DE3
330
1CF9
100
AcDbEntity
  8
0
100
AcDbVertex
100
AcDb2dVertex
 10
53.14776192919998
 20
5.4166580503
 30
0.0
  0
VERTEX
  5
1DE4
330
1CF9
100
AcDbEntity
  8
0
100
AcDbVertex
100
AcDb2dVertex
 10
53.07391980409999
 20
5.422930047300027
 30
0.0
  0
VERTEX
  5
1DE5
330
1CF9
100
AcDbEntity
  8
0
100
AcDbVertex
100
AcDb2dVertex
 10
52.99657849179999
 20
5.428536712700022
 30
0.0
  0
VERTEX
  5
1DE6
330
1CF9
100
AcDbEntity
  8
0
100
AcDbVertex
100
AcDb2dVertex
 10
52.9161836197
 20
5.433445344300011
 30
0.0
  0
VERTEX
  5
1DE7
330
1CF9
100
AcDbEntity
  8
0
100
AcDbVertex
100
AcDb2dVertex
 10
52.83321741280001
 20
5.437627995400006
 30
0.0
  0
VERTEX
  5
1DE8
330
1CF9
100
AcDbEntity
  8
0
100
AcDbVertex
100
AcDb2dVertex
 10
52.7481200747
 20
5.441065027400028
 30
0.0
  0
VERTEX
  5
1DE9
330
1CF9
100
AcDbEntity
  8
0
100
AcDbVertex
100
AcDb2dVertex
 10
52.6612393272
 20
5.44374362500001
 30
0.0
  0
VERTEX
  5
1DEA
330
1CF9
100
AcDbEntity
  8
0
100
AcDbVertex
100
AcDb2dVertex
 10
52.57296355990001
 20
5.445650896100019
 30
0.0
  0
VERTEX
  5
1DEB
330
1CF9
100
AcDbEntity
  8
0
100
AcDbVertex
100
AcDb2dVertex
 10
52.48376920949999
 20
5.446775220300011
 30
0.0
  0
VERTEX
  5
1DEC
330
1CF9
100
AcDbEntity
  8
0
100
AcDbVertex
100
AcDb2dVertex
 10
52.39420033879997
 20
5.447109914000023
 30
0.0
  0
SEQEND
  5
1DED
330
1CF9
100
AcDbEntity
  8
0
  0
POLYLINE
  5
1CFA
330
220
100
AcDbEntity
  8
0
100
AcDb2dPolyline
 66
     1
 10
0.0
 20
0.0
 30
0.0
1001
ACAD
1000
RTMaterial
1005
0
  0
VERTEX
  5
1DEE
330
1CFA
100
AcDbEntity
  8
0
100
AcDbVertex
100
AcDb2dVertex
 10
5.497815224100001
 20
3.422438863400017
 30
0.0
  0
VERTEX
  5
1DEF
330
1CFA
100
AcDbEntity
  8
0
100
AcDbVertex
100
AcDb2dVertex
 10
6.397209163599988
 20
3.6179073885
 30
0.0
  0
VERTEX
  5
1DF0
330
1CFA
100
AcDbEntity
  8
0
100
AcDbVertex
100
AcDb2dVertex
 10
7.260002865799997
 20
3.81542862000002
 30
0.0
  0
VERTEX
  5
1DF1
330
1CFA
100
AcDbEntity
  8
0
100
AcDbVertex
100
AcDb2dVertex
 10
8.085747320699987
 20
4.014883963100018
 30
0.0
  0
VERTEX
  5
1DF2
330
1CFA
100
AcDbEntity
  8
0
100
AcDbVertex
100
AcDb2dVertex
 10
8.874103075899988
 20
4.216173702900007
 30
0.0
  0
VERTEX
  5
1DF3
330
1CFA
100
AcDbEntity
  8
0
100
AcDbVertex
100
AcDb2dVertex
 10
9.624725646899996
 20
4.419191329500009
 30
0.0
  0
VERTEX
  5
1DF4
330
1CFA
100
AcDbEntity
  8
0
100
AcDbVertex
100
AcDb2dVertex
 10
10.33729679109998
 20
4.623830957800024
 30
0.0
  0
VERTEX
  5
1DF5
330
1CFA
100
AcDbEntity
  8
0
100
AcDbVertex
100
AcDb2dVertex
 10
11.0115081357
 20
4.82998273370002
 30
0.0
  0
VERTEX
  5
1DF6
330
1CFA
100
AcDbEntity
  8
0
100
AcDbVertex
100
AcDb2dVertex
 10
11.64709252379997
 20
5.037542393400016
 30
0.0
  0
VERTEX
  5
1DF7
330
1CFA
100
AcDbEntity
  8
0
100
AcDbVertex
100
AcDb2dVertex
 10
12.24375415269999
 20
5.246388348000024
 30
0.0
  0
SEQEND
  5
1DF8
330
1CFA
100
AcDbEntity
  8
0
  0
POLYLINE
  5
1CFB
330
220
100
AcDbEntity
  8
0
100
AcDb2dPolyline
 66
     1
 10
0.0
 20
0.0
 30
0.0
1001
ACAD
1000
RTMaterial
1005
0
  0
VERTEX
  5
1DF9
330
1CFB
100
AcDbEntity
  8
0
100
AcDbVertex
100
AcDb2dVertex
 10
53.63928946259999
 20
5.314685731200015
 30
0.0
  0
VERTEX
  5
1DFA
330
1CFB
100
AcDbEntity
  8
0
100
AcDbVertex
100
AcDb2dVertex
 10
54.34586143329999
 20
4.711934239200033
 30
0.0
  0
VERTEX
  5
1DFB
330
1CFB
100
AcDbEntity
  8
0
100
AcDbVertex
100
AcDb2dVertex
 10
55.15721874789999
 20
4.041189754800015
 30
0.0
  0
VERTEX
  5
1DFC
330
1CFB
100
AcDbEntity
  8
0
100
AcDbVertex
100
AcDb2dVertex
 10
56.06748192679997
 20
3.291389417000019
 30
0.0
  0
SEQEND
  5
1DFD
330
1CFB
100
AcDbEntity
  8
0
  0
LINE
  5
1CFC
330
220
100
AcDbEntity
  8
0
100
AcDbLine
 10
52.39420033879997
 20
5.447109914000023
 30
0.0
 11
48.81538799100002
 21
5.443790308700002
 31
0.0
1001
ACAD
1000
RTMaterial
1005
0
  0
POLYLINE
  5
1CFD
330
220
100
AcDbEntity
  8
0
100
AcDb2dPolyline
 66
     1
 10
0.0
 20
0.0
 30
0.0
1001
ACAD
1000
RTMaterial
1005
0
  0
VERTEX
  5
1DFE
330
1CFD
100
AcDbEntity
  8
0
100
AcDbVertex
100
AcDb2dVertex
 10
48.81538799100002
 20
5.443790308700002
 30
0.0
  0
VERTEX
  5
1DFF
330
1CFD
100
AcDbEntity
  8
0
100
AcDbVertex
100
AcDb2dVertex
 10
13.7610573759
 20
5.3917427704
 30
0.0
  0
VERTEX
  5
1E00
330
1CFD
100
AcDbEntity
  8
0
100
AcDbVertex
100
AcDb2dVertex
 10
13.6422136495
 20
5.390063370000021
 30
0.0
  0
VERTEX
  5
1E01
330
1CFD
100
AcDbEntity
  8
0
100
AcDbVertex
100
AcDb2dVertex
 10
13.52455788489998
 20
5.387390134200032
 30
0.0
  0
VERTEX
  5
1E02
330
1CFD
100
AcDbEntity
  8
0
100
AcDbVertex
100
AcDb2dVertex
 10
13.4086623333
 20
5.383735716500027
 30
0.0
  0
VERTEX
  5
1E03
330
1CFD
100
AcDbEntity
  8
0
100
AcDbVertex
100
AcDb2dVertex
 10
13.29507685459997
 20
5.379117536799995
 30
0.0
  0
VERTEX
  5
1E04
330
1CFD
100
AcDbEntity
  8
0
100
AcDbVertex
100
AcDb2dVertex
 10
13.18431447509998
 20
5.373556383300027
 30
0.0
  0
VERTEX
  5
1E05
330
1CFD
100
AcDbEntity
  8
0
100
AcDbVertex
100
AcDb2dVertex
 10
13.0768724224
 20
5.367076561200022
 30
0.0
  0
VERTEX
  5
1E06
330
1CFD
100
AcDbEntity
  8
0
100
AcDbVertex
100
AcDb2dVertex
 10
12.97325272709999
 20
5.359707259500012
 30
0.0
  0
VERTEX
  5
1E07
330
1CFD
100
AcDbEntity
  8
0
100
AcDbVertex
100
AcDb2dVertex
 10
12.8739426305
 20
5.351481897900001
 30
0.0
  0
VERTEX
  5
1E08
330
1CFD
100
AcDbEntity
  8
0
100
AcDbVertex
100
AcDb2dVertex
 10
12.7794124732
 20
5.342438108700022
 30
0.0
  0
VERTEX
  5
1E09
330
1CFD
100
AcDbEntity
  8
0
100
AcDbVertex
100
AcDb2dVertex
 10
12.6901234507
 20
5.332618903200014
 30
0.0
  0
VERTEX
  5
1E0A
330
1CFD
100
AcDbEntity
  8
0
100
AcDbVertex
100
AcDb2dVertex
 10
12.60650898159999
 20
5.322071339200036
 30
0.0
  0
VERTEX
  5
1E0B
330
1CFD
100
AcDbEntity
  8
0
100
AcDbVertex
100
AcDb2dVertex
 10
12.52895043279999
 20
5.310842817400029
 30
0.0
  0
VERTEX
  5
1E0C
330
1CFD
100
AcDbEntity
  8
0
100
AcDbVertex
100
AcDb2dVertex
 10
12.45779530479998
 20
5.298981768100006
 30
0.0
  0
VERTEX
  5
1E0D
330
1CFD
100
AcDbEntity
  8
0
100
AcDbVertex
100
AcDb2dVertex
 10
12.39339326209999
 20
5.286543826800013
 30
0.0
  0
VERTEX
  5
1E0E
330
1CFD
100
AcDbEntity
  8
0
100
AcDbVertex
100
AcDb2dVertex
 10
12.33607317019998
 20
5.273590562500018
 30
0.0
  0
VERTEX
  5
1E0F
330
1CFD
100
AcDbEntity
  8
0
100
AcDbVertex
100
AcDb2dVertex
 10
12.28611333609998
 20
5.260184087200016
 30
0.0
  0
VERTEX
  5
1E10
330
1CFD
100
AcDbEntity
  8
0
100
AcDbVertex
100
AcDb2dVertex
 10
12.24375415269999
 20
5.246388348000024
 30
0.0
  0
SEQEND
  5
1E11
330
1CFD
100
AcDbEntity
  8
0
  0
POLYLINE
  5
1CFE
330
220
100
AcDbEntity
  8
0
100
AcDb2dPolyline
 66
     1
 10
0.0
 20
0.0
 30
0.0
1001
ACAD
1000
RTMaterial
1005
0
  0
VERTEX
  5
1E12
330
1CFE
100
AcDbEntity
  8
0
100
AcDbVertex
100
AcDb2dVertex
 10
4.3372152528
 20
3.264584339300014
 30
0.0
  0
VERTEX
  5
1E13
330
1CFE
100
AcDbEntity
  8
0
100
AcDbVertex
100
AcDb2dVertex
 10
4.533717113399994
 20
3.283180210600008
 30
0.0
  0
VERTEX
  5
1E14
330
1CFE
100
AcDbEntity
  8
0
100
AcDbVertex
100
AcDb2dVertex
 10
4.721106567899987
 20
3.303215716899998
 30
0.0
  0
VERTEX
  5
1E15
330
1CFE
100
AcDbEntity
  8
0
100
AcDbVertex
100
AcDb2dVertex
 10
4.898674435100012
 20
3.324623110300009
 30
0.0
  0
VERTEX
  5
1E16
330
1CFE
100
AcDbEntity
  8
0
100
AcDbVertex
100
AcDb2dVertex
 10
5.065750683400004
 20
3.347330015600007
 30
0.0
  0
VERTEX
  5
1E17
330
1CFE
100
AcDbEntity
  8
0
100
AcDbVertex
100
AcDb2dVertex
 10
5.221685248299984
 20
3.371256596799995
 30
0.0
  0
VERTEX
  5
1E18
330
1CFE
100
AcDbEntity
  8
0
100
AcDbVertex
100
AcDb2dVertex
 10
5.365917799700007
 20
3.396326601400019
 30
0.0
  0
VERTEX
  5
1E19
330
1CFE
100
AcDbEntity
  8
0
100
AcDbVertex
100
AcDb2dVertex
 10
5.497815224100001
 20
3.422438863400017
 30
0.0
  0
SEQEND
  5
1E1A
330
1CFE
100
AcDbEntity
  8
0
  0
POLYLINE
  5
1CFF
330
220
100
AcDbEntity
  8
0
100
AcDb2dPolyline
 66
     1
 10
0.0
 20
0.0
 30
0.0
1001
ACAD
1000
RTMaterial
1005
0
  0
VERTEX
  5
1E1B
330
1CFF
100
AcDbEntity
  8
0
100
AcDbVertex
100
AcDb2dVertex
 10
54.38199028510001
 20
6.059095344900029
 30
0.0
  0
VERTEX
  5
1E1C
330
1CFF
100
AcDbEntity
  8
0
100
AcDbVertex
100
AcDb2dVertex
 10
54.34256188399999
 20
5.831430458500008
 30
0.0
  0
VERTEX
  5
1E1D
330
1CFF
100
AcDbEntity
  8
0
100
AcDbVertex
100
AcDb2dVertex
 10
54.23575906519999
 20
5.625576144800007
 30
0.0
  0
VERTEX
  5
1E1E
330
1CFF
100
AcDbEntity
  8
0
100
AcDbVertex
100
AcDb2dVertex
 10
54.07181366150001
 20
5.461253517700001
 30
0.0
  0
VERTEX
  5
1E1F
330
1CFF
100
AcDbEntity
  8
0
100
AcDbVertex
100
AcDb2dVertex
 10
53.86643184549998
 20
5.354204909900019
 30
0.0
  0
VERTEX
  5
1E20
330
1CFF
100
AcDbEntity
  8
0
100
AcDbVertex
100
AcDb2dVertex
 10
53.63928946259999
 20
5.314685731200015
 30
0.0
  0
SEQEND
  5
1E21
330
1CFF
100
AcDbEntity
  8
0
  0
LINE
  5
1D00
330
220
100
AcDbEntity
  8
0
100
AcDbLine
 10
54.3674213657
 20
11.60751804650003
 30
0.0
 11
54.38199051419999
 21
6.059095344900029
 31
0.0
1001
ACAD
1000
RTMaterial
1005
0
  0
POLYLINE
  5
1D01
330
220
100
AcDbEntity
  8
0
100
AcDb2dPolyline
 66
     1
 10
0.0
 20
0.0
 30
0.0
1001
ACAD
1000
RTMaterial
1005
0
  0
VERTEX
  5
1E22
330
1D01
100
AcDbEntity
  8
0
100
AcDbVertex
100
AcDb2dVertex
 10
54.3630544117
 20
14.99882232810001
 30
0.0
  0
VERTEX
  5
1E23
330
1D01
100
AcDbEntity
  8
0
100
AcDbVertex
100
AcDb2dVertex
 10
54.36434594349997
 20
13.38333034580001
 30
0.0
  0
VERTEX
  5
1E24
330
1D01
100
AcDbEntity
  8
0
100
AcDbVertex
100
AcDb2dVertex
 10
54.3674213657
 20
11.60751804650003
 30
0.0
  0
SEQEND
  5
1E25
330
1D01
100
AcDbEntity
  8
0
  0
LINE
  5
1D02
330
220
100
AcDbEntity
  8
0
100
AcDbLine
 10
11.53331115569999
 20
5.99079796170001
 30
0.0
 11
11.53919853450464
 21
15.00000000000001
 31
0.0
1001
ACAD
1000
RTMaterial
1005
0
  0
ENDSEC
  0
SECTION
  2
OBJECTS
  0
DICTIONARY
  5
C
330
0
100
AcDbDictionary
  3
ACAD_COLOR
350
16C1
  3
ACAD_GROUP
350
D
  3
ACAD_LAYOUT
350
1A
  3
ACAD_MATERIAL
350
1697
  3
ACAD_MLEADERSTYLE
350
16E6
  3
ACAD_MLINESTYLE
350
17
  3
ACAD_PLOTSETTINGS
350
19
  3
ACAD_SCALELIST
350
16C4
  3
ACAD_TABLESTYLE
350
16C2
  3
ACAD_VISUALSTYLE
350
16B0
  3
ACDB_RECOMPOSE_DATA
350
16ED
  3
ASE_INDEX_DICTIONARY
350
1CC0
1001
ACAD
1000
TREAT_AS_HARD
1070
     0
  0
DICTIONARY
  5
16EE
330
8
100
AcDbDictionary
  3
ACAD_XREC_ROUNDTRIP
350
16EF
1001
ACAD
1000
TREAT_AS_HARD
1070
     1
  0
DICTIONARY
  5
174C
330
2
100
AcDbDictionary
  3
ACAD_LAYERFILTERS
350
174D
1001
ACAD
1000
TREAT_AS_HARD
1070
     1
  0
DICTIONARY
  5
16F0
330
10
100
AcDbDictionary
  3
ACAD_XREC_ROUNDTRIP
350
16F1
1001
ACAD
1000
TREAT_AS_HARD
1070
     1
  0
DICTIONARY
  5
1D1A
330
220
100
AcDbDictionary
  3
ACAD_LAYOUTSELFREF
350
1D1B
  0
DICTIONARY
  5
1D1C
330
221
100
AcDbDictionary
  3
ACAD_LAYOUTSELFREF
350
1D1D
  0
DICTIONARY
  5
16C1
102
{ACAD_REACTORS
330
C
102
}
330
C
100
AcDbDictionary
1001
ACAD
1000
TREAT_AS_HARD
1070
     0
  0
DICTIONARY
  5
D
102
{ACAD_REACTORS
330
C
102
}
330
C
100
AcDbDictionary
1001
ACAD
1000
TREAT_AS_HARD
1070
     0
  0
DICTIONARY
  5
1A
102
{ACAD_REACTORS
330
C
102
}
330
C
100
AcDbDictionary
1001
ACAD
1000
TREAT_AS_HARD
1070
     0
  0
DICTIONARY
  5
1697
102
{ACAD_REACTORS
330
C
102
}
330
C
100
AcDbDictionary
  3
BYBLOCK
350
16A0
  3
BYLAYER
350
1698
  3
GLOBAL
350
16A8
1001
ACAD
1000
TREAT_AS_HARD
1070
     0
  0
DICTIONARY
  5
16E6
102
{ACAD_REACTORS
330
C
102
}
330
C
100
AcDbDictionary
  3
STANDARD
350
16E7
1001
ACAD
1000
TREAT_AS_HARD
1070
     0
  0
DICTIONARY
  5
17
102
{ACAD_REACTORS
330
C
102
}
330
C
100
AcDbDictionary
  3
STANDARD
350
18
1001
ACAD
1000
TREAT_AS_HARD
1070
     0
  0
DICTIONARY
  5
19
102
{ACAD_REACTORS
330
C
102
}
330
C
100
AcDbDictionary
1001
ACAD
1000
TREAT_AS_HARD
1070
     0
  0
DICTIONARY
  5
16C4
102
{ACAD_REACTORS
330
C
102
}
330
C
100
AcDbDictionary
  3
A0
350
16C5
  3
A1
350
16C6
  3
A2
350
16C7
  3
A3
350
16C8
  3
A4
350
16C9
  3
A5
350
16CA
  3
A6
350
16CB
  3
A7
350
16CC
  3
A8
350
16CD
  3
A9
350
16CE
  3
B0
350
16CF
  3
B1
350
16D0
  3
B2
350
16D1
  3
B3
350
16D2
  3
B4
350
16D3
  3
B5
350
16D4
  3
B6
350
16D5
  3
B7
350
16D6
  3
B8
350
16D7
  3
B9
350
16D8
  3
C0
350
16D9
  3
C1
350
16DA
  3
C2
350
16DB
  3
C3
350
16DC
  3
C4
350
16DD
  3
C5
350
16DE
  3
C6
350
16DF
  3
C7
350
16E0
  3
C8
350
16E1
  3
C9
350
16E2
  3
D0
350
16E3
  3
D1
350
16E4
  3
D2
350
16E5
1001
ACAD
1000
TREAT_AS_HARD
1070
     0
  0
DICTIONARY
  5
16C2
102
{ACAD_REACTORS
330
C
102
}
330
C
100
AcDbDictionary
  3
STANDARD
350
16C3
1001
ACAD
1000
TREAT_AS_HARD
1070
     0
  0
DICTIONARY
  5
16B0
102
{ACAD_REACTORS
330
C
102
}
330
C
100
AcDbDictionary
  3
2DWIREFRAME
350
16B6
  3
3D_HIDDEN
350
16B8
  3
3DWIREFRAME
350
16B7
  3
BASIC
350
16B5
  3
BRIGHTEN
350
16BC
  3
COLORCHANGE
350
16C0
  3
CONCEPTUAL
350
16B9
  3
DIM
350
16BB
  3
FACEPATTERN
350
16BF
  3
FLAT
350
16B1
  3
FLATWITHEDGES
350
16B2
  3
GOURAUD
350
16B3
  3
GOURAUDWITHEDGES
350
16B4
  3
LINEPATTERN
350
16BE
  3
REALISTIC
350
16BA
  3
THICKEN
350
16BD
1001
ACAD
1000
TREAT_AS_HARD
1070
     0
  0
XRECORD
  5
16ED
102
{ACAD_REACTORS
330
C
102
}
330
C
100
AcDbXrecord
 90
        1
330
16C3
  0
DICTIONARY
  5
1CC0
102
{ACAD_REACTORS
330
C
102
}
330
C
100
AcDbDictionary
  3
ASEBLOCKHIERARCHYINDEXRECORD
350
1CC2
1001
DCO15
1040
1647173098.138
1001
ACAD
1000
TREAT_AS_HARD
1070
     0
  0
XRECORD
  5
16EF
102
{ACAD_REACTORS
330
16EE
102
}
330
16EE
100
AcDbXrecord
102
VTR_0.000_0.000_1.000_1.000_VISUALSTYLE
340
16B6
102
VTR_0.000_0.000_1.000_1.000_GRIDDISPLAY
 70
     3
102
VTR_0.000_0.000_1.000_1.000_GRIDMAJOR
 70
     5
102
VTR_0.000_0.000_1.000_1.000_DEFAULTLIGHTING
280
     1
102
VTR_0.000_0.000_1.000_1.000_DEFAULTLIGHTINGTYPE
 70
     1
102
VTR_0.000_0.000_1.000_1.000_BRIGHTNESS
141
0.0
102
VTR_0.000_0.000_1.000_1.000_CONTRAST
142
0.0
  0
DICTIONARY
  5
174D
102
{ACAD_REACTORS
330
174C
102
}
330
174C
100
AcDbDictionary
  3
DIM-1_12
350
174E
  3
DIM-1_16
350
174F
1001
ACAD
1000
TREAT_AS_HARD
1070
     1
  0
XRECORD
  5
16F1
102
{ACAD_REACTORS
330
16F0
102
}
330
16F0
100
AcDbXrecord
102
MATERIAL
340
16A8
  0
XRECORD
  5
1D1B
102
{ACAD_REACTORS
330
1D1A
102
}
330
1D1A
100
AcDbXrecord
340
220
  0
XRECORD
  5
1D1D
102
{ACAD_REACTORS
330
1D1C
102
}
330
1D1C
100
AcDbXrecord
340
221
  0
ACAD_ZOMBIE_OBJECT
  5
16A0
102
{ACAD_XDICTIONARY
360
16A1
102
}
102
{ACAD_REACTORS
330
1697
102
}
330
1697
100
AcDbZombieObject
 90
      499
 91
      510
 93
     1340
310
42109E509B1BD8DAC02004014080404555555555555953FAA155555555555654FEA9AA400014080404555555555555953FAA155555555555654FEA9AA400000000000000E03F4080404555555555555953FAA155555555555654FEA9AA4014080404555555555555953FAA155555555555654FEA9AA4010201011555555555
310
55654FEA8555555555555953FAA6A9005020101155555555555654FEA8555555555555953FAA6A9000
 94
        0
1001
ACAD
1000
AcadProxyRoundTripData
1071
      503
1071
   655383
1070
     0
  0
ACAD_ZOMBIE_OBJECT
  5
1698
102
{ACAD_XDICTIONARY
360
1699
102
}
102
{ACAD_REACTORS
330
1697
102
}
330
1697
100
AcDbZombieObject
 90
      499
 91
      510
 93
     1340
310
42109E53185E595C802004014080404555555555555953FAA155555555555654FEA9AA400014080404555555555555953FAA155555555555654FEA9AA400000000000000E03F4080404555555555555953FAA155555555555654FEA9AA4014080404555555555555953FAA155555555555654FEA9AA4010201011555555555
310
55654FEA8555555555555953FAA6A9005020101155555555555654FEA8555555555555953FAA6A9000
 94
        0
1001
ACAD
1000
AcadProxyRoundTripData
1071
      503
1071
   655383
1070
     0
  0
ACAD_ZOMBIE_OBJECT
  5
16A8
102
{ACAD_XDICTIONARY
360
16A9
102
}
102
{ACAD_REACTORS
330
1697
102
}
330
1697
100
AcDbZombieObject
 90
      499
 91
      510
 93
     1332
310
41D1DB1BD8985B002004014080404555555555555953FAA155555555555654FEA9AA400014080404555555555555953FAA155555555555654FEA9AA400000000000000E03F4080404555555555555953FAA155555555555654FEA9AA4014080404555555555555953FAA155555555555654FEA9AA401020101155555555555
310
654FEA8555555555555953FAA6A9005020101155555555555654FEA8555555555555953FAA6A9000
 94
        0
1001
ACAD
1000
AcadProxyRoundTripData
1071
      503
1071
   655383
1070
     0
  0
ACAD_ZOMBIE_OBJECT
  5
16E7
102
{ACAD_REACTORS
330
16E6
102
}
330
16E6
100
AcDbZombieObject
 90
      499
 91
      510
 93
      618
310
40901902A4063FBFFFFFE056BD1B81E855B9FC0AD7A3703D0AD73F4254DD185B99185C990000AD7A3703D0AC73F90141901A02B5E8DC0F42B1CFC02B5E8DC0F42B1CFE5764000000000000300FC6
340
14
340
0
340
11
340
0
 94
        0
1001
ACAD_MLEADERVER
1070
     2
1001
ACAD
1000
AcadProxyRoundTripData
1071
      507
1071
   655383
1070
     0
  0
MLINESTYLE
  5
18
102
{ACAD_REACTORS
330
17
102
}
330
17
100
AcDbMlineStyle
  2
STANDARD
 70
     0
  3

 62
   256
 51
90.0
 52
90.0
 71
     2
 49
0.5
 62
   256
  6
BYLAYER
 49
-0.5
 62
   256
  6
BYLAYER
  0
ACAD_ZOMBIE_OBJECT
  5
16C5
102
{ACAD_REACTORS
330
16C4
102
}
330
16C4
100
AcDbZombieObject
 90
      499
 91
      510
 93
       49
310
904313A3100598
 94
        0
1001
ACAD
1000
AcadProxyRoundTripData
1071
      506
1071
   655383
1070
     0
  0
ACAD_ZOMBIE_OBJECT
  5
16C6
102
{ACAD_REACTORS
330
16C4
102
}
330
16C4
100
AcDbZombieObject
 90
      499
 91
      510
 93
      113
310
904313A3200400000000000000406B
 94
        0
1001
ACAD
1000
AcadProxyRoundTripData
1071
      506
1071
   655383
1070
     0
  0
ACAD_ZOMBIE_OBJECT
  5
16C7
102
{ACAD_REACTORS
330
16C4
102
}
330
16C4
100
AcDbZombieObject
 90
      499
 91
      510
 93
      113
310
904313A3400400000000000010406B
 94
        0
1001
ACAD
1000
AcadProxyRoundTripData
1071
      506
1071
   655383
1070
     0
  0
ACAD_ZOMBIE_OBJECT
  5
16C8
102
{ACAD_REACTORS
330
16C4
102
}
330
16C4
100
AcDbZombieObject
 90
      499
 91
      510
 93
      113
310
904313A3500400000000000014406B
 94
        0
1001
ACAD
1000
AcadProxyRoundTripData
1071
      506
1071
   655383
1070
     0
  0
ACAD_ZOMBIE_OBJECT
  5
16C9
102
{ACAD_REACTORS
330
16C4
102
}
330
16C4
100
AcDbZombieObject
 90
      499
 91
      510
 93
      113
310
904313A3800400000000000020406B
 94
        0
1001
ACAD
1000
AcadProxyRoundTripData
1071
      506
1071
   655383
1070
     0
  0
ACAD_ZOMBIE_OBJECT
  5
16CA
102
{ACAD_REACTORS
330
16C4
102
}
330
16C4
100
AcDbZombieObject
 90
      499
 91
      510
 93
      121
310
905313A3130004000000000000244051
 94
        0
1001
ACAD
1000
AcadProxyRoundTripData
1071
      506
1071
   655383
1070
     0
  0
ACAD_ZOMBIE_OBJECT
  5
16CB
102
{ACAD_REACTORS
330
16C4
102
}
330
16C4
100
AcDbZombieObject
 90
      499
 91
      510
 93
      121
310
905313A3136004000000000000304051
 94
        0
1001
ACAD
1000
AcadProxyRoundTripData
1071
      506
1071
   655383
1070
     0
  0
ACAD_ZOMBIE_OBJECT
  5
16CC
102
{ACAD_REACTORS
330
16C4
102
}
330
16C4
100
AcDbZombieObject
 90
      499
 91
      510
 93
      121
310
905313A3230004000000000000344051
 94
        0
1001
ACAD
1000
AcadProxyRoundTripData
1071
      506
1071
   655383
1070
     0
  0
ACAD_ZOMBIE_OBJECT
  5
16CD
102
{ACAD_REACTORS
330
16C4
102
}
330
16C4
100
AcDbZombieObject
 90
      499
 91
      510
 93
      121
310
905313A33300040000000000003E4051
 94
        0
1001
ACAD
1000
AcadProxyRoundTripData
1071
      506
1071
   655383
1070
     0
  0
ACAD_ZOMBIE_OBJECT
  5
16CE
102
{ACAD_REACTORS
330
16C4
102
}
330
16C4
100
AcDbZombieObject
 90
      499
 91
      510
 93
      121
310
905313A3430004000000000000444051
 94
        0
1001
ACAD
1000
AcadProxyRoundTripData
1071
      506
1071
   655383
1070
     0
  0
ACAD_ZOMBIE_OBJECT
  5
16CF
102
{ACAD_REACTORS
330
16C4
102
}
330
16C4
100
AcDbZombieObject
 90
      499
 91
      510
 93
      121
310
905313A3530004000000000000494051
 94
        0
1001
ACAD
1000
AcadProxyRoundTripData
1071
      506
1071
   655383
1070
     0
  0
ACAD_ZOMBIE_OBJECT
  5
16D0
102
{ACAD_REACTORS
330
16C4
102
}
330
16C4
100
AcDbZombieObject
 90
      499
 91
      510
 93
      129
310
906313A313030004000000000000594038
 94
        0
1001
ACAD
1000
AcadProxyRoundTripData
1071
      506
1071
   655383
1070
     0
  0
ACAD_ZOMBIE_OBJECT
  5
16D1
102
{ACAD_REACTORS
330
16C4
102
}
330
16C4
100
AcDbZombieObject
 90
      499
 91
      510
 93
      113
310
904323A31000000000000000010159
 94
        0
1001
ACAD
1000
AcadProxyRoundTripData
1071
      506
1071
   655383
1070
     0
  0
ACAD_ZOMBIE_OBJECT
  5
16D2
102
{ACAD_REACTORS
330
16C4
102
}
330
16C4
100
AcDbZombieObject
 90
      499
 91
      510
 93
      113
310
904343A31000000000000000410159
 94
        0
1001
ACAD
1000
AcadProxyRoundTripData
1071
      506
1071
   655383
1070
     0
  0
ACAD_ZOMBIE_OBJECT
  5
16D3
102
{ACAD_REACTORS
330
16C4
102
}
330
16C4
100
AcDbZombieObject
 90
      499
 91
      510
 93
      113
310
904383A31000000000000000810159
 94
        0
1001
ACAD
1000
AcadProxyRoundTripData
1071
      506
1071
   655383
1070
     0
  0
ACAD_ZOMBIE_OBJECT
  5
16D4
102
{ACAD_REACTORS
330
16C4
102
}
330
16C4
100
AcDbZombieObject
 90
      499
 91
      510
 93
      121
310
90531303A31000000000000000910140
 94
        0
1001
ACAD
1000
AcadProxyRoundTripData
1071
      506
1071
   655383
1070
     0
  0
ACAD_ZOMBIE_OBJECT
  5
16D5
102
{ACAD_REACTORS
330
16C4
102
}
330
16C4
100
AcDbZombieObject
 90
      499
 91
      510
 93
      129
310
9063130303A31000000000000001650138
 94
        0
1001
ACAD
1000
AcadProxyRoundTripData
1071
      506
1071
   655383
1070
     0
  0
ACAD_ZOMBIE_OBJECT
  5
16D6
102
{ACAD_REACTORS
330
16C4
102
}
330
16C4
100
AcDbZombieObject
 90
      499
 91
      510
 93
      265
310
90F312F31323822203D2031272D302200000000000000200FC00000000000028402B
 94
        0
1001
ACAD
1000
AcadProxyRoundTripData
1071
      506
1071
   655383
1070
     0
  0
ACAD_ZOMBIE_OBJECT
  5
16D7
102
{ACAD_REACTORS
330
16C4
102
}
330
16C4
100
AcDbZombieObject
 90
      499
 91
      510
 93
      257
310
90E312F363422203D2031272D302200000000000000240FC000000000000284040
 94
        0
1001
ACAD
1000
AcadProxyRoundTripData
1071
      506
1071
   655383
1070
     0
  0
ACAD_ZOMBIE_OBJECT
  5
16D8
102
{ACAD_REACTORS
330
16C4
102
}
330
16C4
100
AcDbZombieObject
 90
      499
 91
      510
 93
      257
310
90E312F333222203D2031272D302200000000000000280FC000000000000284040
 94
        0
1001
ACAD
1000
AcadProxyRoundTripData
1071
      506
1071
   655383
1070
     0
  0
ACAD_ZOMBIE_OBJECT
  5
16D9
102
{ACAD_REACTORS
330
16C4
102
}
330
16C4
100
AcDbZombieObject
 90
      499
 91
      510
 93
      257
310
90E312F313622203D2031272D3022000000000000002C0FC000000000000284040
 94
        0
1001
ACAD
1000
AcadProxyRoundTripData
1071
      506
1071
   655383
1070
     0
  0
ACAD_ZOMBIE_OBJECT
  5
16DA
102
{ACAD_REACTORS
330
16C4
102
}
330
16C4
100
AcDbZombieObject
 90
      499
 91
      510
 93
      257
310
90E332F333222203D2031272D3022000000000000002E0FC000000000000284040
 94
        0
1001
ACAD
1000
AcadProxyRoundTripData
1071
      506
1071
   655383
1070
     0
  0
ACAD_ZOMBIE_OBJECT
  5
16DB
102
{ACAD_REACTORS
330
16C4
102
}
330
16C4
100
AcDbZombieObject
 90
      499
 91
      510
 93
      249
310
90D312F3822203D2031272D302200000000000000300FC000000000000284040
 94
        0
1001
ACAD
1000
AcadProxyRoundTripData
1071
      506
1071
   655383
1070
     0
  0
ACAD_ZOMBIE_OBJECT
  5
16DC
102
{ACAD_REACTORS
330
16C4
102
}
330
16C4
100
AcDbZombieObject
 90
      499
 91
      510
 93
      257
310
90E332F313622203D2031272D302200000000000000320FC000000000000284040
 94
        0
1001
ACAD
1000
AcadProxyRoundTripData
1071
      506
1071
   655383
1070
     0
  0
ACAD_ZOMBIE_OBJECT
  5
16DD
102
{ACAD_REACTORS
330
16C4
102
}
330
16C4
100
AcDbZombieObject
 90
      499
 91
      510
 93
      249
310
90D312F3422203D2031272D302200000000000000340FC000000000000284040
 94
        0
1001
ACAD
1000
AcadProxyRoundTripData
1071
      506
1071
   655383
1070
     0
  0
ACAD_ZOMBIE_OBJECT
  5
16DE
102
{ACAD_REACTORS
330
16C4
102
}
330
16C4
100
AcDbZombieObject
 90
      499
 91
      510
 93
      249
310
90D332F3822203D2031272D302200000000000000360FC000000000000284040
 94
        0
1001
ACAD
1000
AcadProxyRoundTripData
1071
      506
1071
   655383
1070
     0
  0
ACAD_ZOMBIE_OBJECT
  5
16DF
102
{ACAD_REACTORS
330
16C4
102
}
330
16C4
100
AcDbZombieObject
 90
      499
 91
      510
 93
      249
310
90D312F3222203D2031272D302200000000000000380FC000000000000284040
 94
        0
1001
ACAD
1000
AcadProxyRoundTripData
1071
      506
1071
   655383
1070
     0
  0
ACAD_ZOMBIE_OBJECT
  5
16E0
102
{ACAD_REACTORS
330
16C4
102
}
330
16C4
100
AcDbZombieObject
 90
      499
 91
      510
 93
      249
310
90D332F3422203D2031272D3022000000000000003A0FC000000000000284040
 94
        0
1001
ACAD
1000
AcadProxyRoundTripData
1071
      506
1071
   655383
1070
     0
  0
ACAD_ZOMBIE_OBJECT
  5
16E1
102
{ACAD_REACTORS
330
16C4
102
}
330
16C4
100
AcDbZombieObject
 90
      499
 91
      510
 93
      169
310
90B3122203D2031272D3022004000000000000284020
 94
        0
1001
ACAD
1000
AcadProxyRoundTripData
1071
      506
1071
   655383
1070
     0
  0
ACAD_ZOMBIE_OBJECT
  5
16E2
102
{ACAD_REACTORS
330
16C4
102
}
330
16C4
100
AcDbZombieObject
 90
      499
 91
      510
 93
      265
310
90F312D312F3222203D2031272D3022000000000000003E0FC00000000000028402B
 94
        0
1001
ACAD
1000
AcadProxyRoundTripData
1071
      506
1071
   655383
1070
     0
  0
ACAD_ZOMBIE_OBJECT
  5
16E3
102
{ACAD_REACTORS
330
16C4
102
}
330
16C4
100
AcDbZombieObject
 90
      499
 91
      510
 93
      233
310
90B3322203D2031272D30220000000000000002100000000000000284000
 94
        0
1001
ACAD
1000
AcadProxyRoundTripData
1071
      506
1071
   655383
1070
     0
  0
ACAD_ZOMBIE_OBJECT
  5
16E4
102
{ACAD_REACTORS
330
16C4
102
}
330
16C4
100
AcDbZombieObject
 90
      499
 91
      510
 93
      233
310
90B3622203D2031272D30220000000000000006100000000000000284000
 94
        0
1001
ACAD
1000
AcadProxyRoundTripData
1071
      506
1071
   655383
1070
     0
  0
ACAD_ZOMBIE_OBJECT
  5
16E5
102
{ACAD_REACTORS
330
16C4
102
}
330
16C4
100
AcDbZombieObject
 90
      499
 91
      510
 93
      257
310
90E31272D3022203D2031272D3022000000000000000A100000000000000284040
 94
        0
1001
ACAD
1000
AcadProxyRoundTripData
1071
      506
1071
   655383
1070
     0
  0
ACAD_ZOMBIE_OBJECT
  5
16C3
102
{ACAD_XDICTIONARY
360
16EB
102
}
102
{ACAD_REACTORS
330
16C2
102
}
330
16C2
100
AcDbZombieObject
 90
      499
 91
      510
 93
     1849
310
4254DD185B99185C990028B81E85EB51B8AE3F2E07A17AD46E2B8FC02B5E8DC0F42B1CFD028000000C1008070000C3001FDFF8000000C1003FBFF000000182007F7FE00000030400FEFFC00000060801FDFF8000000C1003FBFF00000018200000000000000681FA0B0000001820100E000186003FBFF000000182007F7FE0
310
0000030400FEFFC00000060801FDFF8000000C1003FBFF000000182007F7FE000000304000AD7A3703D0AC73F4160000003040201C00030C007F7FE00000030400FEFFC00000060801FDFF8000000C1003FBFF000000182007F7FE00000030400FEFFC000000608000
340
11
340
11
340
11
 94
        0
1001
ACAD
1000
AcadProxyRoundTripData
1071
      505
1071
   655383
1070
     0
  0
ACAD_ZOMBIE_OBJECT
  5
16B6
102
{ACAD_REACTORS
330
16B0
102
}
330
16B0
100
AcDbZombieObject
 90
      499
 91
      510
 93
      444
310
430C9915DA5C99599C985B59401049028333333333333E3BF0000000000000FB0107901411070040501600405405064090741402480A0340
 94
        0
1001
ACAD
1000
AcDbSavedByObjectVersion
1070
     0
1000
AcadProxyRoundTripData
1071
      504
1071
   655383
1070
     0
  0
ACAD_ZOMBIE_OBJECT
  5
16B8
102
{ACAD_REACTORS
330
16B0
102
}
330
16B0
100
AcDbZombieObject
 90
      499
 91
      510
 93
      508
310
428CD108121A5919195B8010640502408333333333333E3BF0000000000000FB01079024090700405020000000000001110200405405064090740C02480A0340
 94
        0
1001
ACAD
1000
AcDbSavedByObjectVersion
1070
     0
1000
AcadProxyRoundTripData
1071
      504
1071
   655383
1070
     0
  0
ACAD_ZOMBIE_OBJECT
  5
16B7
102
{ACAD_REACTORS
330
16B0
102
}
330
16B0
100
AcDbZombieObject
 90
      499
 91
      510
 93
      444
310
430CD915DA5C99599C985B59401059028333333333333E3BF0000000000000FB0107901411070040501600405405064090741402480A0340
 94
        0
1001
ACAD
1000
AcDbSavedByObjectVersion
1070
     0
1000
AcadProxyRoundTripData
1071
      504
1071
   655383
1070
     0
  0
ACAD_ZOMBIE_OBJECT
  5
16B5
102
{ACAD_REACTORS
330
16B0
102
}
330
16B0
100
AcDbZombieObject
 90
      499
 91
      510
 93
      396
310
4190985CDA58C0107406404333333333333E3BF0000000000000FB0107A41107004050150841D405064090741402480A0356
 94
        0
1001
ACAD
1000
AcDbSavedByObjectVersion
1070
     0
1000
AcadProxyRoundTripData
1071
      504
1071
   655383
1070
     0
  0
ACAD_ZOMBIE_OBJECT
  5
16BC
102
{ACAD_REACTORS
330
16B0
102
}
330
16B0
100
AcDbZombieObject
 90
      499
 91
      510
 93
      436
310
42509C9A59DA1D195B8010C409028333333333333E3BF0000000000000FB010790141107004050150841D405064090741402480A029956
 94
        0
1001
ACAD
1000
AcDbSavedByObjectVersion
1070
     0
1000
AcadProxyRoundTripData
1071
      504
1071
   655383
1070
     0
  0
ACAD_ZOMBIE_OBJECT
  5
16C0
102
{ACAD_REACTORS
330
16B0
102
}
330
16B0
100
AcDbZombieObject
 90
      499
 91
      510
 93
      460
310
4310DBDB1BDC90DA185B99D9401104090240C333333333333E3BF0000000000000FB0108901411070040501508421405064090741402480A0354
 94
        0
1001
ACAD
1000
AcDbSavedByObjectVersion
1070
     0
1000
AcadProxyRoundTripData
1071
      504
1071
   655383
1070
     0
  0
ACAD_ZOMBIE_OBJECT
  5
16B9
102
{ACAD_REACTORS
330
16B0
102
}
330
16B0
100
AcDbZombieObject
 90
      499
 91
      510
 93
      508
310
42D0DBDB98D95C1D1D585B0010940D028333333333333E3BF0000000000000FB0107902409070040501000000000000111010841D405064090740C02480A0340
 94
        0
1001
ACAD
1000
AcDbSavedByObjectVersion
1070
     0
1000
AcadProxyRoundTripData
1071
      504
1071
   655383
1070
     0
  0
ACAD_ZOMBIE_OBJECT
  5
16BB
102
{ACAD_REACTORS
330
16B0
102
}
330
16B0
100
AcDbZombieObject
 90
      499
 91
      510
 93
      420
310
41111A5B4010B409028333333333333E3BF0000000000000FB010790141107004050150841D405064090741402480A02677FFFFFDB
 94
        0
1001
ACAD
1000
AcDbSavedByObjectVersion
1070
     0
1000
AcadProxyRoundTripData
1071
      504
1071
   655383
1070
     0
  0
ACAD_ZOMBIE_OBJECT
  5
16BF
102
{ACAD_REACTORS
330
16B0
102
}
330
16B0
100
AcDbZombieObject
 90
      499
 91
      510
 93
      452
310
43119858D95C185D1D195C9B8010F409028333333333333E3BF0000000000000FB010790141107004050150841D405064090741402480A0350
 94
        0
1001
ACAD
1000
AcDbSavedByObjectVersion
1070
     0
1000
AcadProxyRoundTripData
1071
      504
1071
   655383
1070
     0
  0
ACAD_ZOMBIE_OBJECT
  5
16B1
102
{ACAD_REACTORS
330
16B0
102
}
330
16B0
100
AcDbZombieObject
 90
      499
 91
      510
 93
      396
310
41519B185D00240901404333333333333E3BF0000000000000F9010740A41107004050150841D405064090741402480A1B55
 94
        0
1001
ACAD
1000
AcDbSavedByObjectVersion
1070
     0
1000
AcadProxyRoundTripData
1071
      504
1071
   655383
1070
     0
  0
ACAD_ZOMBIE_OBJECT
  5
16B2
102
{ACAD_REACTORS
330
16B0
102
}
330
16B0
100
AcDbZombieObject
 90
      499
 91
      510
 93
      484
310
43919B185D15DA5D1A115919D95CC010140901404333333333333E3BF0000000000000F9010740901411070040501600405405064090741402480A1B50
 94
        0
1001
ACAD
1000
AcDbSavedByObjectVersion
1070
     0
1000
AcadProxyRoundTripData
1071
      504
1071
   655383
1070
     0
  0
ACAD_ZOMBIE_OBJECT
  5
16B3
102
{ACAD_REACTORS
330
16B0
102
}
330
16B0
100
AcDbZombieObject
 90
      499
 91
      510
 93
      420
310
4211DBDD5C985D590010240902404333333333333E3BF0000000000000F9010740A411070040501641D405064090741402480A1B50
 94
        0
1001
ACAD
1000
AcDbSavedByObjectVersion
1070
     0
1000
AcadProxyRoundTripData
1071
      504
1071
   655383
1070
     0
  0
ACAD_ZOMBIE_OBJECT
  5
16B4
102
{ACAD_REACTORS
330
16B0
102
}
330
16B0
100
AcDbZombieObject
 90
      499
 91
      510
 93
      508
310
4451DBDD5C985D5915DA5D1A115919D95CC010340902404333333333333E3BF0000000000000F9010740901411070040501600405405064090741402480A1B50
 94
        0
1001
ACAD
1000
AcDbSavedByObjectVersion
1070
     0
1000
AcadProxyRoundTripData
1071
      504
1071
   655383
1070
     0
  0
ACAD_ZOMBIE_OBJECT
  5
16BE
102
{ACAD_REACTORS
330
16B0
102
}
330
16B0
100
AcDbZombieObject
 90
      499
 91
      510
 93
      452
310
43131A5B995C185D1D195C9B8010E409028333333333333E3BF0000000000000FB010790141107004050750841D405064090741402483A0350
 94
        0
1001
ACAD
1000
AcDbSavedByObjectVersion
1070
     0
1000
AcadProxyRoundTripData
1071
      504
1071
   655383
1070
     0
  0
ACAD_ZOMBIE_OBJECT
  5
16BA
102
{ACAD_REACTORS
330
16B0
102
}
330
16B0
100
AcDbZombieObject
 90
      499
 91
      510
 93
      428
310
429499585B1A5CDD1A58C0108409028333333333333E3BF0000000000000FB01079019070040501508421405064090741402480A1B45
 94
        0
1001
ACAD
1000
AcDbSavedByObjectVersion
1070
     0
1000
AcadProxyRoundTripData
1071
      504
1071
   655383
1070
     0
  0
ACAD_ZOMBIE_OBJECT
  5
16BD
102
{ACAD_REACTORS
330
16B0
102
}
330
16B0
100
AcDbZombieObject
 90
      499
 91
      510
 93
      420
310
42151A1A58DAD95B8010D409028333333333333E3BF0000000000000FB010790141107004050150C41D405064090741402480A0352
 94
        0
1001
ACAD
1000
AcDbSavedByObjectVersion
1070
     0
1000
AcadProxyRoundTripData
1071
      504
1071
   655383
1070
     0
  0
XRECORD
  5
1CC2
102
{ACAD_REACTORS
330
1CC0
102
}
330
1CC0
100
AcDbXrecord
330
0
330
0
330
0
330
0
330
0
330
0
330
0
330
0
330
0
330
0
330
0
330
0
330
0
330
0
330
0
330
0
330
0
330
0
330
0
330
0
330
0
330
0
330
0
330
0
330
0
330
0
330
0
330
0
330
0
330
0
330
0
330
0
330
0
330
0
330
0
330
0
330
0
330
0
  0
XRECORD
  5
174E
102
{ACAD_REACTORS
330
174D
102
}
330
174D
100
AcDbXrecord
  1
DIM-1_12
  1
DIM-1_12
  1
*
  1
*
 70
     0
  1
*
  1
*
  0
XRECORD
  5
174F
102
{ACAD_REACTORS
330
174D
102
}
330
174D
100
AcDbXrecord
  1
dim-1_16
  1
*
  1
*
  1
*
 70
     0
  1
*
  1
*
  0
DICTIONARY
  5
16A1
330
16A0
100
AcDbDictionary
  3
ACAD_XREC_ROUNDTRIP
350
172F
  3
BUMPTILE
350
16A3
  3
DIFFUSETILE
350
16A2
  3
OPACITYTILE
350
16A6
  3
REFLECTIONTILE
350
16A5
  3
REFRACTIONTILE
350
16A7
  3
SPECULARTILE
350
16A4
1001
ACAD
1000
TREAT_AS_HARD
1070
     1
  0
DICTIONARY
  5
1699
330
1698
100
AcDbDictionary
  3
ACAD_XREC_ROUNDTRIP
350
172E
  3
BUMPTILE
350
169B
  3
DIFFUSETILE
350
169A
  3
OPACITYTILE
350
169E
  3
REFLECTIONTILE
350
169D
  3
REFRACTIONTILE
350
169F
  3
SPECULARTILE
350
169C
1001
ACAD
1000
TREAT_AS_HARD
1070
     1
  0
DICTIONARY
  5
16A9
330
16A8
100
AcDbDictionary
  3
ACAD_XREC_ROUNDTRIP
350
1730
  3
BUMPTILE
350
16AB
  3
DIFFUSETILE
350
16AA
  3
OPACITYTILE
350
16AE
  3
REFLECTIONTILE
350
16AD
  3
REFRACTIONTILE
350
16AF
  3
SPECULARTILE
350
16AC
1001
ACAD
1000
TREAT_AS_HARD
1070
     1
  0
DICTIONARY
  5
16EB
330
16C3
100
AcDbDictionary
  3
ACAD_ROUNDTRIP_2008_TABLES
350
16EC
  3
ACAD_XREC_ROUNDTRIP
350
1731
1001
ACAD
1000
TREAT_AS_HARD
1070
     1
  0
XRECORD
  5
172F
102
{ACAD_REACTORS
330
16A1
102
}
330
16A1
100
AcDbXrecord
102
MATERIAL
148
0.0
149
0.0
149
0.0
 93
        0
 94
      127
282
     0
 72
     0
 77
     0
171
     0
175
     0
179
     0
273
     0
  0
XRECORD
  5
16A3
102
{ACAD_REACTORS
330
16A1
102
}
330
16A1
100
AcDbXrecord
270
     1
271
     1
  0
XRECORD
  5
16A2
102
{ACAD_REACTORS
330
16A1
102
}
330
16A1
100
AcDbXrecord
270
     1
271
     1
  0
XRECORD
  5
16A6
102
{ACAD_REACTORS
330
16A1
102
}
330
16A1
100
AcDbXrecord
270
     1
271
     1
  0
XRECORD
  5
16A5
102
{ACAD_REACTORS
330
16A1
102
}
330
16A1
100
AcDbXrecord
270
     1
271
     1
  0
XRECORD
  5
16A7
102
{ACAD_REACTORS
330
16A1
102
}
330
16A1
100
AcDbXrecord
270
     1
271
     1
  0
XRECORD
  5
16A4
102
{ACAD_REACTORS
330
16A1
102
}
330
16A1
100
AcDbXrecord
270
     1
271
     1
  0
XRECORD
  5
172E
102
{ACAD_REACTORS
330
1699
102
}
330
1699
100
AcDbXrecord
102
MATERIAL
148
0.0
149
0.0
149
0.0
 93
        0
 94
      127
282
     0
 72
     0
 77
     0
171
     0
175
     0
179
     0
273
     0
  0
XRECORD
  5
169B
102
{ACAD_REACTORS
330
1699
102
}
330
1699
100
AcDbXrecord
270
     1
271
     1
  0
XRECORD
  5
169A
102
{ACAD_REACTORS
330
1699
102
}
330
1699
100
AcDbXrecord
270
     1
271
     1
  0
XRECORD
  5
169E
102
{ACAD_REACTORS
330
1699
102
}
330
1699
100
AcDbXrecord
270
     1
271
     1
  0
XRECORD
  5
169D
102
{ACAD_REACTORS
330
1699
102
}
330
1699
100
AcDbXrecord
270
     1
271
     1
  0
XRECORD
  5
169F
102
{ACAD_REACTORS
330
1699
102
}
330
1699
100
AcDbXrecord
270
     1
271
     1
  0
XRECORD
  5
169C
102
{ACAD_REACTORS
330
1699
102
}
330
1699
100
AcDbXrecord
270
     1
271
     1
  0
XRECORD
  5
1730
102
{ACAD_REACTORS
330
16A9
102
}
330
16A9
100
AcDbXrecord
102
MATERIAL
148
0.0
149
0.0
149
0.0
 93
        0
 94
      127
282
     0
 72
     0
 77
     0
171
     0
175
     0
179
     0
273
     0
  0
XRECORD
  5
16AB
102
{ACAD_REACTORS
330
16A9
102
}
330
16A9
100
AcDbXrecord
270
     1
271
     1
  0
XRECORD
  5
16AA
102
{ACAD_REACTORS
330
16A9
102
}
330
16A9
100
AcDbXrecord
270
     1
271
     1
  0
XRECORD
  5
16AE
102
{ACAD_REACTORS
330
16A9
102
}
330
16A9
100
AcDbXrecord
270
     1
271
     1
  0
XRECORD
  5
16AD
102
{ACAD_REACTORS
330
16A9
102
}
330
16A9
100
AcDbXrecord
270
     1
271
     1
  0
XRECORD
  5
16AF
102
{ACAD_REACTORS
330
16A9
102
}
330
16A9
100
AcDbXrecord
270
     1
271
     1
  0
XRECORD
  5
16AC
102
{ACAD_REACTORS
330
16A9
102
}
330
16A9
100
AcDbXrecord
270
     1
271
     1
  0
ACAD_ZOMBIE_OBJECT
  5
16EC
102
{ACAD_REACTORS
330
16EB
102
}
330
16EB
100
AcDbZombieObject
 90
      499
 91
      510
 93
     1044
310
40D054060020000020000003200101A000080002A5058000000C100000000000000340FE901405075F5449544C450041501A8000000C800406800020000A9416000000304000AD7A3703D0AC73FA409014217D2115051115480105406A0000003200101A000080002A5028000000C10002B5E8DC0F42B1CFE903409065F444
310
15441004
340
11
340
11
340
11
 94
        0
1001
ACAD
1000
AcadProxyRoundTripData
1071
      508
1071
   655383
1070
     0
  0
XRECORD
  5
1731
102
{ACAD_REACTORS
330
16EB
102
}
330
16EB
100
AcDbXrecord
102
ACAD_ROUNDTRIP_PRE2007_TABLESTYLE
 90
      512
 91
        0
  1

 92
      512
 93
        0
  2

 94
      512
 95
        0
  3

  0
ENDSEC
  0
EOF
