  0
SECTION
  2
HEADER
  9
$ACADVER
  1
AC1014
  9
$ACADMAINTVER
 70
     9
  9
$DWGCODEPAGE
  3
ANSI_1252
  9
$INSBASE
 10
5.30878875
 20
2.90625
 30
0.0
  9
$EXTMIN
 10
-24.68588607180935
 20
-10.73293279689517
 30
-0.0015258207003583
  9
$EXTMAX
 10
35.57090347151989
 20
13.7747046661558
 30
0.0000000349246037
  9
$LIMMIN
 10
0.0
 20
0.0
  9
$LIMMAX
 10
17.0
 20
11.0
  9
$ORTHOMODE
 70
     1
  9
$REGENMODE
 70
     1
  9
$FILLMODE
 70
     1
  9
$QTEXTMODE
 70
     0
  9
$MIRRTEXT
 70
     1
  9
$DRAGMODE
 70
     2
  9
$LTSCALE
 40
2.0
  9
$OSMODE
 70
    55
  9
$ATTMODE
 70
     1
  9
$TEXTSIZE
 40
0.2
  9
$TRACEWID
 40
0.05
  9
$TEXTSTYLE
  7
STANDARD
  9
$CLAYER
  8
0
  9
$CELTYPE
  6
BYLAYER
  9
$CECOLOR
 62
   256
  9
$CELTSCALE
 40
1.0
  9
$DELOBJ
 70
     1
  9
$DISPSILH
 70
     0
  9
$DIMSCALE
 40
1.0
  9
$DIMASZ
 40
0.1875
  9
$DIMEXO
 40
0.0625
  9
$DIMDLI
 40
0.38
  9
$DIMRND
 40
0.0
  9
$DIMDLE
 40
0.0
  9
$DIMEXE
 40
0.18
  9
$DIMTP
 40
0.0
  9
$DIMTM
 40
0.0
  9
$DIMTXT
 40
0.125
  9
$DIMCEN
 40
0.09
  9
$DIMTSZ
 40
0.0
  9
$DIMTOL
 70
     0
  9
$DIMLIM
 70
     0
  9
$DIMTIH
 70
     1
  9
$DIMTOH
 70
     1
  9
$DIMSE1
 70
     0
  9
$DIMSE2
 70
     0
  9
$DIMTAD
 70
     0
  9
$DIMZIN
 70
     4
  9
$DIMBLK
  1
_FILLED
  9
$DIMASO
 70
     1
  9
$DIMSHO
 70
     1
  9
$DIMPOST
  1

  9
$DIMAPOST
  1
cm
  9
$DIMALT
 70
     1
  9
$DIMALTD
 70
     2
  9
$DIMALTF
 40
2.54
  9
$DIMLFAC
 40
16.0
  9
$DIMTOFL
 70
     0
  9
$DIMTVP
 40
0.0
  9
$DIMTIX
 70
     0
  9
$DIMSOXD
 70
     0
  9
$DIMSAH
 70
     0
  9
$DIMBLK1
  1

  9
$DIMBLK2
  1

  9
$DIMSTYLE
  2
STANDARD
  9
$DIMCLRD
 70
     0
  9
$DIMCLRE
 70
     0
  9
$DIMCLRT
 70
     0
  9
$DIMTFAC
 40
1.0
  9
$DIMGAP
 40
0.09
  9
$DIMJUST
 70
     0
  9
$DIMSD1
 70
     0
  9
$DIMSD2
 70
     0
  9
$DIMTOLJ
 70
     1
  9
$DIMTZIN
 70
     4
  9
$DIMALTZ
 70
     0
  9
$DIMALTTZ
 70
     0
  9
$DIMFIT
 70
     3
  9
$DIMUPT
 70
     0
  9
$DIMUNIT
 70
     5
  9
$DIMDEC
 70
     3
  9
$DIMTDEC
 70
     3
  9
$DIMALTU
 70
     2
  9
$DIMALTTD
 70
     2
  9
$DIMTXSTY
  7
STANDARD
  9
$DIMAUNIT
 70
     0
  9
$LUNITS
 70
     2
  9
$LUPREC
 70
     4
  9
$SKETCHINC
 40
0.1
  9
$FILLETRAD
 40
0.0
  9
$AUNITS
 70
     0
  9
$AUPREC
 70
     0
  9
$MENU
  1
acad
  9
$ELEVATION
 40
0.0
  9
$PELEVATION
 40
0.0
  9
$THICKNESS
 40
0.0
  9
$LIMCHECK
 70
     0
  9
$BLIPMODE
 70
     0
  9
$CHAMFERA
 40
0.0
  9
$CHAMFERB
 40
0.0
  9
$CHAMFERC
 40
0.0
  9
$CHAMFERD
 40
0.0
  9
$SKPOLY
 70
     0
  9
$TDCREATE
 40
2453676.879297951
  9
$TDUPDATE
 40
2453686.616719329
  9
$TDINDWG
 40
0.0726485301
  9
$TDUSRTIMER
 40
0.0726485301
  9
$USRTIMER
 70
     1
  9
$ANGBASE
 50
0.0
  9
$ANGDIR
 70
     0
  9
$PDMODE
 70
     3
  9
$PDSIZE
 40
0.3125
  9
$PLINEWID
 40
0.0
  9
$COORDS
 70
     1
  9
$SPLFRAME
 70
     0
  9
$SPLINETYPE
 70
     6
  9
$SPLINESEGS
 70
     8
  9
$ATTDIA
 70
     0
  9
$ATTREQ
 70
     1
  9
$HANDLING
 70
 22529
  9
$HANDSEED
  5
15F
  9
$SURFTAB1
 70
     6
  9
$SURFTAB2
 70
     6
  9
$SURFTYPE
 70
     6
  9
$SURFU
 70
     6
  9
$SURFV
 70
     6
  9
$UCSNAME
  2

  9
$UCSORG
 10
0.0
 20
0.0
 30
0.0
  9
$UCSXDIR
 10
1.0
 20
0.0
 30
0.0
  9
$UCSYDIR
 10
0.0
 20
1.0
 30
0.0
  9
$PUCSNAME
  2

  9
$PUCSORG
 10
0.0
 20
0.0
 30
0.0
  9
$PUCSXDIR
 10
1.0
 20
0.0
 30
0.0
  9
$PUCSYDIR
 10
0.0
 20
1.0
 30
0.0
  9
$USERI1
 70
     0
  9
$USERI2
 70
     0
  9
$USERI3
 70
     0
  9
$USERI4
 70
     0
  9
$USERI5
 70
     0
  9
$USERR1
 40
0.0
  9
$USERR2
 40
0.0
  9
$USERR3
 40
0.0
  9
$USERR4
 40
0.0
  9
$USERR5
 40
0.0
  9
$WORLDVIEW
 70
     1
  9
$SHADEDGE
 70
     3
  9
$SHADEDIF
 70
    70
  9
$TILEMODE
 70
     1
  9
$MAXACTVP
 70
    16
  9
$PINSBASE
 10
0.0
 20
0.0
 30
0.0
  9
$PLIMCHECK
 70
     0
  9
$PEXTMIN
 10
1.000000000000000E+20
 20
1.000000000000000E+20
 30
1.000000000000000E+20
  9
$PEXTMAX
 10
-1.000000000000000E+20
 20
-1.000000000000000E+20
 30
-1.000000000000000E+20
  9
$PLIMMIN
 10
0.0
 20
0.0
  9
$PLIMMAX
 10
12.0
 20
9.0
  9
$UNITMODE
 70
     0
  9
$VISRETAIN
 70
     0
  9
$PLINEGEN
 70
     1
  9
$PSLTSCALE
 70
     0
  9
$TREEDEPTH
 70
  3020
  9
$PICKSTYLE
 70
     1
  9
$CMLSTYLE
  2
STANDARD
  9
$CMLJUST
 70
     0
  9
$CMLSCALE
 40
1.0
  9
$PROXYGRAPHICS
 70
     0
  9
$MEASUREMENT
 70
     0
  0
ENDSEC
  0
SECTION
  2
CLASSES
  0
CLASS
  1
ACDBDICTIONARYWDFLT
  2
AcDbDictionaryWithDefault
  3
AutoCAD 2000
 90
        0
280
     0
281
     0
  0
CLASS
  1
ACDBPLACEHOLDER
  2
AcDbPlaceHolder
  3
AutoCAD 2000
 90
        0
280
     0
281
     0
  0
CLASS
  1
LAYOUT
  2
AcDbLayout
  3
AutoCAD 2000
 90
        0
280
     0
281
     0
  0
CLASS
  1
LWPOLYLINE
  2
AcDbPolyline
  3
AutoCAD 2000
 90
        0
280
     0
281
     1
  0
CLASS
  1
IMAGE
  2
AcDbRasterImage
  3
ISM
 90
      127
280
     0
281
     1
  0
CLASS
  1
OLE2FRAME
  2
AcDbOle2Frame
  3
AutoCAD 2000
 90
        0
280
     0
281
     1
  0
CLASS
  1
HATCH
  2
AcDbHatch
  3
AutoCAD 2000
 90
        0
280
     0
281
     1
  0
CLASS
  1
DICTIONARYVAR
  2
AcDbDictionaryVar
  3
AutoCAD 2000
 90
        0
280
     0
281
     0
  0
CLASS
  1
RASTERVARIABLES
  2
AcDbRasterVariables
  3
ISM
 90
        0
280
     0
281
     0
  0
CLASS
  1
IMAGEDEF
  2
AcDbRasterImageDef
  3
ISM
 90
        0
280
     0
281
     0
  0
CLASS
  1
IMAGEDEF_REACTOR
  2
AcDbRasterImageDefReactor
  3
ISM
 90
        1
280
     0
281
     0
  0
CLASS
  1
IDBUFFER
  2
AcDbIdBuffer
  3
AutoCAD 2000
 90
        0
280
     0
281
     0
  0
CLASS
  1
SPATIAL_FILTER
  2
AcDbSpatialFilter
  3
AutoCAD 2000
 90
        0
280
     0
281
     0
  0
CLASS
  1
XRECORD
  2
AcDbXrecord
  3
AutoCAD 2000
 90
        0
280
     0
281
     0
  0
CLASS
  1
SORTENTSTABLE
  2
AcDbSortentsTable
  3
AutoCAD 2000
 90
        0
280
     0
281
     0
  0
CLASS
  1
LAYER_INDEX
  2
AcDbLayerIndex
  3
AutoCAD 2000
 90
        0
280
     0
281
     0
  0
CLASS
  1
SPATIAL_INDEX
  2
AcDbSpatialIndex
  3
AutoCAD 2000
 90
        0
280
     0
281
     0
  0
CLASS
  1
OBJECT_PTR
  2
CAseDLPNTableRecord
  3
ASE-LPNTableRecord
 90
        1
280
     0
281
     0
  0
CLASS
  1
PLOTSETTINGS
  2
AcDbPlotSettings
  3
AutoCAD 2000
 90
        0
280
     0
281
     0
  0
CLASS
  1
VBA_PROJECT
  2
AcDbVbaProject
  3
acadvba
 90
        0
280
     0
281
     0
  0
CLASS
  1
WIPEOUT
  2
AcDbWipeout
  3
"WipeOut|Product Desc: Object Enabler for WipeOut entity^I^I^I^I^I^I|Company: Autodesk, Inc.^I^I^I^I^I^I|WEB Address: www.autodesk.com"
 90
      127
280
     0
281
     1
  0
CLASS
  1
WIPEOUTVARIABLES
  2
AcDbWipeoutVariables
  3
"WipeOut|Product Desc:     WipeOut Dbx Application|Company:          Autodesk, Inc.|WEB Address:      www.autodesk.com"
 90
        0
280
     0
281
     0
  0
CLASS
  1
RTEXT
  2
RText
  3
RText|AutoCAD Express Tool|expresstools@autodesk.com
 90
        0
280
     1
281
     1
  0
CLASS
  1
ARCALIGNEDTEXT
  2
AcDbArcAlignedText
  3
ATEXT|AutoCAD Express Tool|expresstools@autodesk.com
 90
        0
280
     1
281
     1
  0
CLASS
  1
TABLESTYLE
  2
AcDbTableStyle
  3
ObjectDBX Classes
 90
     2047
280
     0
281
     0
  0
CLASS
  1
ACAD_PROXY_OBJECT_WRAPPER
  2
AcDbProxyObjectWrapper
  3
AutoCAD 2000
 90
        0
280
     0
281
     0
  0
CLASS
  1
LONG_TRANSACTION
  2
AcDbLongTransaction
  3
AutoCAD 2000
 90
        0
280
     0
281
     0
  0
CLASS
  1
LWPOLYLINE
  2
AcDbPolyline
  3
AutoCAD 2000
 90
        0
280
     0
281
     1
  0
CLASS
  1
HATCH
  2
AcDbHatch
  3
AutoCAD 2000
 90
        0
280
     0
281
     1
  0
CLASS
  1
XRECORD
  2
AcDbXrecord
  3
AutoCAD 2000
 90
        0
280
     0
281
     0
  0
CLASS
  1
LONG_TRANSACTION
  2
AcDbLongTransaction
  3
AutoCAD 2000
 90
        0
280
     0
281
     0
  0
CLASS
  1
LWPOLYLINE
  2
AcDbPolyline
  3
AutoCAD 2000
 90
        0
280
     0
281
     1
  0
CLASS
  1
HATCH
  2
AcDbHatch
  3
AutoCAD 2000
 90
        0
280
     0
281
     1
  0
CLASS
  1
XRECORD
  2
AcDbXrecord
  3
AutoCAD 2000
 90
        0
280
     0
281
     0
  0
ENDSEC
  0
SECTION
  2
TABLES
  0
TABLE
  2
VPORT
  5
18
330
0
100
AcDbSymbolTable
 70
     3
  0
VPORT
  5
13B
330
18
100
AcDbSymbolTableRecord
100
AcDbViewportTableRecord
  2
*ACTIVE
 70
     0
 10
0.0
 20
0.0
 11
1.0
 21
1.0
 12
5.4425086228741
 22
1.520885890546445
 13
0.0
 23
0.0
 14
1.0
 24
1.0
 15
0.0
 25
0.0
 16
0.0
 26
0.0
 36
1.0
 17
0.0
 27
0.0
 37
0.0
 40
41.06341100428774
 41
1.786792452830188
 42
50.0
 43
0.0
 44
0.0
 50
0.0
 51
0.0
 71
     0
 72
   100
 73
     1
 74
     1
 75
     0
 76
     0
 77
     0
 78
     0
  0
ENDTAB
  0
TABLE
  2
LTYPE
  5
13
330
0
100
AcDbSymbolTable
 70
     3
  0
LTYPE
  5
14
330
13
100
AcDbSymbolTableRecord
100
AcDbLinetypeTableRecord
  2
BYBLOCK
 70
     0
  3

 72
    65
 73
     0
 40
0.0
  0
LTYPE
  5
15
330
13
100
AcDbSymbolTableRecord
100
AcDbLinetypeTableRecord
  2
BYLAYER
 70
     0
  3

 72
    65
 73
     0
 40
0.0
  0
LTYPE
  5
6
330
13
100
AcDbSymbolTableRecord
100
AcDbLinetypeTableRecord
  2
CONTINUOUS
 70
     0
  3
Solid line
 72
    65
 73
     0
 40
0.0
  0
LTYPE
  5
6B
330
13
100
AcDbSymbolTableRecord
100
AcDbLinetypeTableRecord
  2
CENTER
 70
     0
  3
____ _ ____ _ ____ _ ____ _ ____ _ ____ _ ____
 72
    65
 73
     4
 40
0.6
 49
0.375
 74
     0
 49
-0.075
 74
     0
 49
0.075
 74
     0
 49
-0.075
 74
     0
  0
LTYPE
  5
32
330
13
100
AcDbSymbolTableRecord
100
AcDbLinetypeTableRecord
  2
HIDDEN
 70
     0
  3
- - - - - - - - - - - - - - - - - - - -
 72
    65
 73
     2
 40
0.2
 49
0.1
 74
     0
 49
-0.1
 74
     0
  0
ENDTAB
  0
TABLE
  2
LAYER
  5
F
330
0
100
AcDbSymbolTable
 70
     2
  0
LAYER
  5
4
330
F
100
AcDbSymbolTableRecord
100
AcDbLayerTableRecord
  2
0
 70
     0
 62
     7
  6
CONTINUOUS
  0
LAYER
  5
6A
330
F
100
AcDbSymbolTableRecord
100
AcDbLayerTableRecord
  2
CENTER
 70
     0
 62
     1
  6
CENTER
  0
ENDTAB
  0
TABLE
  2
STYLE
  5
10
330
0
100
AcDbSymbolTable
 70
     1
  0
STYLE
  5
11
330
10
100
AcDbSymbolTableRecord
100
AcDbTextStyleTableRecord
  2
STANDARD
 70
     0
 40
0.0
 41
0.8
 50
0.0
 71
     0
 42
0.2
  3
txt
  4

  0
ENDTAB
  0
TABLE
  2
VIEW
  5
16
330
0
100
AcDbSymbolTable
 70
     0
  0
ENDTAB
  0
TABLE
  2
UCS
  5
17
330
0
100
AcDbSymbolTable
 70
     0
  0
ENDTAB
  0
TABLE
  2
APPID
  5
1A
330
0
100
AcDbSymbolTable
 70
     3
  0
APPID
  5
1B
330
1A
100
AcDbSymbolTableRecord
100
AcDbRegAppTableRecord
  2
ACAD
 70
     0
  0
APPID
  5
86
330
1A
100
AcDbSymbolTableRecord
100
AcDbRegAppTableRecord
  2
DCO15
 70
     0
  0
APPID
  5
8F
330
1A
100
AcDbSymbolTableRecord
100
AcDbRegAppTableRecord
  2
ACAD_DSTYLE_DIMTEXT_FILL
 70
     0
  0
ENDTAB
  0
TABLE
  2
DIMSTYLE
  5
1C
330
0
100
AcDbSymbolTable
 70
     1
  0
DIMSTYLE
105
1D
330
1C
100
AcDbSymbolTableRecord
100
AcDbDimStyleTableRecord
  2
STANDARD
 70
     0
  3

  4
cm
  5
_FILLED
  6

  7

 40
1.0
 41
0.1875
 42
0.0625
 43
0.38
 44
0.18
 45
0.0
 46
0.0
 47
0.0
 48
0.0
140
0.125
141
0.09
142
0.0
143
2.54
144
16.0
145
0.0
146
1.0
147
0.09
 71
     0
 72
     0
 73
     1
 74
     1
 75
     0
 76
     0
 77
     0
 78
     4
170
     1
171
     2
172
     0
173
     0
174
     0
175
     0
176
     0
177
     0
178
     0
270
     5
271
     3
272
     3
273
     2
274
     2
340
11
275
     0
280
     0
281
     0
282
     0
283
     1
284
     4
285
     0
286
     0
287
     3
288
     0
  0
ENDTAB
  0
TABLE
  2
BLOCK_RECORD
  5
1
330
0
100
AcDbSymbolTable
 70
     1
  0
BLOCK_RECORD
  5
2
102
{ACAD_XDICTIONARY
360
EC
102
}
330
1
100
AcDbSymbolTableRecord
100
AcDbBlockTableRecord
  2
*MODEL_SPACE
  0
BLOCK_RECORD
  5
B
102
{ACAD_XDICTIONARY
360
F2
102
}
330
1
100
AcDbSymbolTableRecord
100
AcDbBlockTableRecord
  2
*PAPER_SPACE
  0
BLOCK_RECORD
  5
1E
330
1
100
AcDbSymbolTableRecord
100
AcDbBlockTableRecord
  2
_FILLED
  0
ENDTAB
  0
ENDSEC
  0
SECTION
  2
BLOCKS
  0
BLOCK
  5
3
330
2
100
AcDbEntity
  8
0
100
AcDbBlockBegin
  2
*MODEL_SPACE
 70
     0
 10
0.0
 20
0.0
 30
0.0
  3
*MODEL_SPACE
  1

  0
ENDBLK
  5
7
330
2
100
AcDbEntity
  8
0
100
AcDbBlockEnd
  0
BLOCK
  5
C
330
B
100
AcDbEntity
 67
     1
  8
0
100
AcDbBlockBegin
  2
*PAPER_SPACE
 70
     0
 10
0.0
 20
0.0
 30
0.0
  3
*PAPER_SPACE
  1

  0
ENDBLK
  5
D
330
B
100
AcDbEntity
 67
     1
  8
0
100
AcDbBlockEnd
  0
BLOCK
  5
1F
330
1E
100
AcDbEntity
  8
0
100
AcDbBlockBegin
  2
_FILLED
 70
     0
 10
0.0
 20
0.0
 30
0.0
  3
_FILLED
  1

  0
SOLID
  5
20
330
1E
100
AcDbEntity
  8
0
  6
BYBLOCK
 62
     0
100
AcDbTrace
 10
0.0
 20
0.0
 30
0.0
 11
-1.0
 21
0.1666666667
 31
0.0
 12
-1.0
 22
-0.1666666667
 32
0.0
 13
-1.0
 23
-0.1666666667
 33
0.0
  0
ENDBLK
  5
21
330
1E
100
AcDbEntity
  8
0
  6
BYBLOCK
 62
     0
100
AcDbBlockEnd
  0
ENDSEC
  0
SECTION
  2
ENTITIES
  0
LINE
  5
2F
330
2
100
AcDbEntity
  8
0
100
AcDbLine
 10
-20.76471722136829
 20
12.44852142058825
 30
0.0
 11
-19.60279583416829
 21
10.30476606538825
 31
0.0
  0
LINE
  5
30
330
2
100
AcDbEntity
  8
0
100
AcDbLine
 10
-9.44973820435327
 20
-7.145341576302903
 30
0.0
 11
-9.524585045953269
 21
-6.481915525102905
 31
0.0
  0
LWPOLYLINE
  5
31
330
2
100
AcDbEntity
  8
0
  6
HIDDEN
 48
0.5
100
AcDbPolyline
 90
       52
 70
     0
 43
0.0
 10
9.190039926846729
 20
10.81532321249709
 10
9.18969717004672
 20
10.82684855169709
 10
9.188992912446728
 20
10.83836538689708
 10
9.187926672446728
 20
10.84986001249709
 10
9.186497963646722
 20
10.86131871649708
 10
9.184706304446727
 20
10.87272779169709
 10
9.182551210046717
 20
10.88407352929709
 10
9.180025806846721
 20
10.89537103969709
 10
9.17713692364672
 20
10.90657941569708
 10
9.17388684684672
 20
10.91768695809708
 10
9.170277866046724
 20
10.92868197089709
 10
9.166312267646723
 20
10.93955275649708
 10
9.161992338046722
 20
10.95028761729708
 10
9.157569941246727
 20
10.96033346529708
 10
9.152835435646728
 20
10.97023644129709
 10
9.147793429246725
 20
10.97998648449709
 10
9.142448534846728
 20
10.98957353569709
 10
9.136805360446722
 20
10.99898753089709
 10
9.130868518846718
 20
11.00821841249709
 10
9.124120730046719
 20
11.01798749569709
 10
9.117043368446722
 20
11.02751968129708
 10
9.109645186046726
 20
11.03680416929709
 10
9.101934938046717
 20
11.04583016129709
 10
9.093921374846722
 20
11.05458686049708
 10
9.08662806124672
 20
11.06205935969709
 10
9.079114155646728
 20
11.06930929569708
 10
9.071387030846729
 20
11.07633087649708
 10
9.063454059646723
 20
11.08311830689709
 10
9.055322618046723
 20
11.08966579169709
 10
9.046064696446727
 20
11.09665227329708
 10
9.036582240446726
 20
11.10332995169709
 10
9.026886605246723
 20
11.10969336289709
 10
9.016989147646718
 20
11.11573704609708
 10
9.00791921644673
 20
11.12089835169708
 10
8.998703776446724
 20
11.12579441729709
 10
8.989351566846728
 20
11.13042335809709
 10
8.979871325246726
 20
11.13478328929709
 10
8.971036165246722
 20
11.13855878689708
 10
8.962106837246729
 20
11.14210527969709
 10
8.953090325246726
 20
11.14542345569709
 10
8.943993606846724
 20
11.14851399809709
 10
8.932757227646725
 20
11.15199006689709
 10
8.921423733246719
 20
11.15513432769709
 10
8.910005765246729
 20
11.15795515969708
 10
8.899357933246726
 20
11.16029005569709
 10
8.888657845246719
 20
11.16237174049708
 10
8.877914952446722
 20
11.16421767489709
 10
8.867204213246729
 20
11.16583979329708
 10
8.856468165246717
 20
11.16728604289709
 10
8.84571444364672
 20
11.16859618689709
 10
8.830400862846722
 20
11.17029986529708
 10
8.815076610046723
 20
11.17190180769709
  0
LWPOLYLINE
  5
33
330
2
100
AcDbEntity
  8
0
  6
HIDDEN
 48
0.5
100
AcDbPolyline
 90
       50
 70
     0
 43
0.0
 10
1.815076610046723
 20
10.46881618209709
 10
1.81526996044672
 20
10.45690448929709
 10
1.81584902924672
 20
10.44499497729709
 10
1.816812346046724
 20
10.43310229569708
 10
1.818158437246722
 20
10.42124108929709
 10
1.819885832446722
 20
10.40942601089708
 10
1.821993058046722
 20
10.39767170529709
 10
1.82447864364672
 20
10.38599282049708
 10
1.827342862846727
 20
10.37439501249709
 10
1.830580214846726
 20
10.36289847969708
 10
1.834186392446724
 20
10.35151429729709
 10
1.838157093246721
 20
10.34025354049709
 10
1.842488011646722
 20
10.32912728289709
 10
1.847174843646726
 20
10.31814660129709
 10
1.852213285246726
 20
10.30732256929709
 10
1.857605878846726
 20
10.29665232929709
 10
1.863339829246726
 20
10.28616075329708
 10
1.869408272446726
 20
10.27585833889708
 10
1.875804352446721
 20
10.26575558529709
 10
1.882521206846725
 20
10.25586299169709
 10
1.889551978046725
 20
10.24619105729708
 10
1.896889803646722
 20
10.23675028129709
 10
1.904540158846721
 20
10.22753604609709
 10
1.912482778046722
 20
10.21857269729709
 10
1.92070874924672
 20
10.20986867809708
 10
1.929209162046724
 20
10.20143243169709
 10
1.937975102846721
 20
10.19327239809708
 10
1.946997664446726
 20
10.18539702209708
 10
1.956267934846721
 20
10.17781474689709
 10
1.965792318846723
 20
10.17052208769708
 10
1.975545573246726
 20
10.16353823969709
 10
1.985516989246725
 20
10.15686948929708
 10
1.995695866046723
 20
10.15052212609709
 10
2.006071496446722
 20
10.1445024364971
 10
2.016633179646724
 20
10.13881671169709
 10
2.027370208446725
 20
10.13347123809709
 10
2.038286072446723
 20
10.12846563969709
 10
2.049355997246721
 20
10.12381132129709
 10
2.060568976446724
 20
10.11951212289709
 10
2.071914000446724
 20
10.11557188449709
 10
2.083380061246721
 20
10.11199444609709
 10
2.094956149246726
 20
10.10878364609708
 10
2.106631259646725
 20
10.10594332769709
 10
2.118402304446725
 20
10.10347526689708
 10
2.13024715084672
 20
10.10138335809708
 10
2.142151462846726
 20
10.09966889569708
 10
2.154100901246721
 20
10.09833317089708
 10
2.16608113004672
 20
10.09737748129709
 10
2.178077811646723
 20
10.09680311809709
 10
2.190076610046723
 20
10.09661137569708
  0
LWPOLYLINE
  5
34
330
2
100
AcDbEntity
  8
0
  6
HIDDEN
 48
0.5
100
AcDbPolyline
 90
       49
 70
     0
 43
0.0
 10
8.065076610046723
 20
10.33686854529708
 10
8.065176179646719
 20
10.33000021249709
 10
8.06547446924673
 20
10.32313371329709
 10
8.065970845246717
 20
10.31627580289708
 10
8.066664675646727
 20
10.30943323169709
 10
8.067555330046722
 20
10.30261275489709
 10
8.068642174846722
 20
10.29582112609708
 10
8.069929654846724
 20
10.28903906529709
 10
8.07141234924672
 20
10.28229803329708
 10
8.073088413246729
 20
10.27560318529709
 10
8.074956003646725
 20
10.26895967809709
 10
8.077013277246727
 20
10.26237266529708
 10
8.079258392446725
 20
10.25584730369708
 10
8.081691565246721
 20
10.24938303169708
 10
8.084308226046722
 20
10.24299058209708
 10
8.08710553324672
 20
10.23667486049709
 10
8.090080650046722
 20
10.23044076449709
 10
8.09323073644672
 20
10.22429319649709
 10
8.096552955646721
 20
10.21823705889709
 10
8.100044749246727
 20
10.21227644129708
 10
8.103702312446721
 20
10.20641622529709
 10
8.10752208044672
 20
10.20066046049709
 10
8.111500491646729
 20
10.19501319329709
 10
8.115633982846723
 20
10.18947847329709
 10
8.11991899084672
 20
10.18406035169709
 10
8.12435294924672
 20
10.17876150689709
 10
8.128930923646727
 20
10.17358665249708
 10
8.133648910846723
 20
10.16853907489709
 10
8.138502902846717
 20
10.16362206209709
 10
8.143488893246718
 20
10.15883890049709
 10
8.148602877246723
 20
10.15419287809709
 10
8.153853171646723
 20
10.14967679649709
 10
8.159223645246719
 20
10.14530437729708
 10
8.164709910846717
 20
10.14107820769709
 10
8.170307582846724
 20
10.13700086369708
 10
8.176012274046719
 20
10.13307493249708
 10
8.181819597246722
 20
10.12930299329709
 10
8.187754163646722
 20
10.12567029409709
 10
8.19378361964673
 20
10.12219756449709
 10
8.199903645246727
 20
10.11888667649709
 10
8.206109923646728
 20
10.11573949729709
 10
8.21239814124673
 20
10.11275789409709
 10
8.21876397804673
 20
10.10994373889709
 10
8.225238738046719
 20
10.10728468129709
 10
8.231782022846722
 20
10.10479836289709
 10
8.238388237246716
 20
10.10248632769708
 10
8.245051787646723
 20
10.10035012129709
 10
8.251767082046718
 20
10.09839128929709
 10
8.258528526846724
 20
10.09661137569708
  0
LINE
  5
35
330
2
100
AcDbEntity
  8
0
  6
HIDDEN
 48
0.5
100
AcDbLine
 10
2.940076610046726
 20
10.84890035649709
 30
0.0
 11
2.940076610046726
 21
10.33686854529708
 31
0.0
  0
LINE
  5
36
330
2
100
AcDbEntity
  8
0
  6
HIDDEN
 48
0.5
100
AcDbLine
 10
8.065076610046727
 20
10.84890035649709
 30
0.0
 11
8.065076610046727
 21
10.33686854529708
 31
0.0
  0
LINE
  5
37
330
2
100
AcDbEntity
  8
0
  6
HIDDEN
 48
0.5
100
AcDbLine
 10
9.190076610046727
 20
10.71695271969709
 30
0.0
 11
9.190076610046727
 21
10.46881618209709
 31
0.0
  0
LINE
  5
38
330
2
100
AcDbEntity
  8
0
  6
HIDDEN
 48
0.5
100
AcDbLine
 10
1.815113293246727
 20
10.81532322209709
 30
0.0
 11
1.815076610046726
 21
10.46881618209709
 31
0.0
  0
LWPOLYLINE
  5
39
330
2
100
AcDbEntity
  8
0
  6
HIDDEN
 48
0.5
100
AcDbPolyline
 90
       49
 70
     0
 43
0.0
 10
8.065076610046723
 20
10.8587518364971
 10
8.065176179646719
 20
10.86562016769709
 10
8.06547446924673
 20
10.87248666689709
 10
8.065970845246717
 20
10.87934457889709
 10
8.066664675646727
 20
10.88618715009709
 10
8.067555330046722
 20
10.89300762529709
 10
8.068642174846722
 20
10.89979925409709
 10
8.069929654846724
 20
10.90658131649709
 10
8.07141234924672
 20
10.91332234849709
 10
8.073088413246729
 20
10.92001719489709
 10
8.074956003646725
 20
10.92666070209708
 10
8.077013277246727
 20
10.93324771489708
 10
8.079258392446725
 20
10.93977307809709
 10
8.081691565246721
 20
10.94623735009708
 10
8.084308226046722
 20
10.95262979809708
 10
8.08710553324672
 20
10.95894552129708
 10
8.090080650046722
 20
10.96517961569708
 10
8.09323073644672
 20
10.97132718369709
 10
8.096552955646721
 20
10.97738332289708
 10
8.100044749246727
 20
10.98334393889708
 10
8.103702312446721
 20
10.98920415489708
 10
8.10752208044672
 20
10.99495992129708
 10
8.111500491646729
 20
11.00060718849709
 10
8.115633982846723
 20
11.00614190689709
 10
8.11991899084672
 20
11.01156003009709
 10
8.12435294924672
 20
11.01685887329708
 10
8.128930923646727
 20
11.02203372769708
 10
8.133648910846723
 20
11.02708130529709
 10
8.138502902846717
 20
11.03199831809708
 10
8.143488893246718
 20
11.03678147969709
 10
8.148602877246723
 20
11.04142750209708
 10
8.153853171646723
 20
11.04594358529708
 10
8.159223645246719
 20
11.05031600289709
 10
8.164709910846717
 20
11.05454217409708
 10
8.170307582846724
 20
11.05861951649709
 10
8.176012274046719
 20
11.06254544929709
 10
8.181819597246722
 20
11.06631738849709
 10
8.187754163646722
 20
11.06995008769708
 10
8.19378361964673
 20
11.07342281569709
 10
8.199903645246727
 20
11.07673370369709
 10
8.206109923646728
 20
11.07988088449709
 10
8.21239814124673
 20
11.08286248609709
 10
8.21876397804673
 20
11.08567664129709
 10
8.225238738046719
 20
11.08833569889709
 10
8.231782022846722
 20
11.09082201889709
 10
8.238388237246716
 20
11.09313405409708
 10
8.245051787646723
 20
11.09527025889709
 10
8.251767082046718
 20
11.09722909249709
 10
8.258528526846724
 20
11.09900900609709
  0
LWPOLYLINE
  5
3A
330
2
100
AcDbEntity
  8
0
  6
HIDDEN
 48
0.5
100
AcDbPolyline
 90
       50
 70
     0
 43
0.0
 10
1.815076610046723
 20
10.72680419809709
 10
1.81526996044672
 20
10.73871589249709
 10
1.81584902924672
 20
10.75062540449709
 10
1.816812346046724
 20
10.76251808609709
 10
1.818158437246722
 20
10.77437929089709
 10
1.819885832446722
 20
10.78619437089708
 10
1.821993058046722
 20
10.79794867649709
 10
1.82447864364672
 20
10.80962755969709
 10
1.827342862846727
 20
10.82122536769708
 10
1.830580214846726
 20
10.83272190049709
 10
1.834186392446724
 20
10.84410608289709
 10
1.838157093246721
 20
10.85536684129709
 10
1.842488011646722
 20
10.86649309729708
 10
1.847174843646726
 20
10.87747378049709
 10
1.852213285246726
 20
10.88829781249709
 10
1.857605878846726
 20
10.89896805089708
 10
1.863339829246726
 20
10.90945962689709
 10
1.869408272446726
 20
10.91976204129709
 10
1.875804352446721
 20
10.92986479489709
 10
1.882521206846725
 20
10.93975738849709
 10
1.889551978046725
 20
10.94942932289709
 10
1.896889803646722
 20
10.95887010049708
 10
1.904540158846721
 20
10.96808433569709
 10
1.912482778046722
 20
10.97704768449708
 10
1.92070874924672
 20
10.98575170209709
 10
1.929209162046724
 20
10.99418795009709
 10
1.937975102846721
 20
11.0023479820971
 10
1.946997664446726
 20
11.01022335809708
 10
1.956267934846721
 20
11.01780563489709
 10
1.965792318846723
 20
11.02509829249709
 10
1.975545573246726
 20
11.03208214049708
 10
1.985516989246725
 20
11.03875089089709
 10
1.995695866046723
 20
11.04509825569709
 10
2.006071496446722
 20
11.05111794369708
 10
2.016633179646724
 20
11.05680366849709
 10
2.027370208446725
 20
11.06214914209709
 10
2.038286072446723
 20
11.06715474049709
 10
2.049355997246721
 20
11.07180905889709
 10
2.060568976446724
 20
11.07610825729708
 10
2.071914000446724
 20
11.08004849729709
 10
2.083380061246721
 20
11.08362593569709
 10
2.094956149246726
 20
11.08683673409709
 10
2.106631259646725
 20
11.08967705409708
 10
2.118402304446725
 20
11.09214511489708
 10
2.13024715084672
 20
11.09423702209709
 10
2.142151462846726
 20
11.09595148609708
 10
2.154100901246721
 20
11.09728720929708
 10
2.16608113004672
 20
11.09824290049709
 10
2.178077811646723
 20
11.09881726369709
 10
2.190076610046723
 20
11.09900900609709
  0
LWPOLYLINE
  5
3B
330
2
100
AcDbEntity
  8
0
  6
HIDDEN
 48
0.5
100
AcDbPolyline
 90
       26
 70
     0
 43
0.0
 10
8.258528526846724
 20
10.09661137569708
 10
8.241256938046724
 20
10.10478865569708
 10
8.223606136446726
 20
10.11213812449708
 10
8.20565399884672
 20
10.11878897569709
 10
8.187478402046728
 20
10.12487040609709
 10
8.169157221246727
 20
10.13051161249709
 10
8.136963224446724
 20
10.13960502049709
 10
8.104589170046729
 20
10.14787180609709
 10
8.072061726846719
 20
10.15543497249709
 10
8.039407555646725
 20
10.16241752609709
 10
7.997772530046724
 20
10.17061714529709
 10
7.95600311724673
 20
10.17816139169709
 10
7.914126462846716
 20
10.18513363969709
 10
7.872169715646727
 20
10.19161726209709
 10
7.805275048446723
 20
10.20109907489709
 10
7.738266102846729
 20
10.20967392929708
 10
7.671162741246725
 20
10.21746154529709
 10
7.594469347646729
 20
10.22552642849709
 10
7.517695157246727
 20
10.23280373089709
 10
7.440856533246723
 20
10.23937572449708
 10
7.356076128446723
 20
10.24589371169708
 10
7.271245394046722
 20
10.25170805089708
 10
7.186372443646725
 20
10.25687255169709
 10
7.095401442046728
 20
10.26174058529709
 10
7.004398139646717
 20
10.26595916129709
 10
6.913369382846717
 20
10.26956300449709
  0
LINE
  5
3C
330
2
100
AcDbEntity
  8
0
100
AcDbLine
 10
26.43702013164673
 20
-7.073025011502905
 30
0.0
 11
26.48515354764672
 21
-6.481915525102905
 31
0.0
  0
LINE
  5
3D
330
2
100
AcDbEntity
  8
0
100
AcDbLine
 10
31.91529169004672
 20
13.07949571009707
 30
0.0
 11
31.52145652684673
 21
10.27721291809708
 31
0.0
  0
LINE
  5
3E
330
2
100
AcDbEntity
  8
0
100
AcDbLine
 10
-8.999288034753273
 20
-7.471915525102899
 30
0.0
 11
25.99957930444672
 21
-7.471915525102899
 31
0.0
  0
LWPOLYLINE
  5
3F
330
2
100
AcDbEntity
  8
0
  6
HIDDEN
 48
0.5
100
AcDbPolyline
 90
       49
 70
     0
 43
0.0
 10
2.746624693246722
 20
11.09900900609709
 10
2.753409610046723
 20
11.09722257729709
 10
2.760148050046723
 20
11.09525598049709
 10
2.766834358846722
 20
11.09311077729709
 10
2.773462885246722
 20
11.09078852769709
 10
2.780027982846725
 20
11.08829079649709
 10
2.786523997246725
 20
11.08561914209709
 10
2.79291690604672
 20
11.08278830209709
 10
2.799231373246726
 20
11.07978853889709
 10
2.805463021246723
 20
11.07662175169709
 10
2.811607477246724
 20
11.07328983809708
 10
2.817660362046723
 20
11.06979469889709
 10
2.82361729804672
 20
11.06613823009708
 10
2.829443136446727
 20
11.06234308769709
 10
2.835165272446722
 20
11.05839282209709
 10
2.840779267646723
 20
11.05429005409708
 10
2.846280683646725
 20
11.05003740609709
 10
2.851665080446721
 20
11.04563749889708
 10
2.856928018046723
 20
11.04109295489708
 10
2.862040706046727
 20
11.03642940929709
 10
2.867024685246725
 20
11.03162852449708
 10
2.87187593644672
 20
11.02669361729709
 10
2.876590437246726
 20
11.02162799969709
 10
2.881164170046723
 20
11.01643498689709
 10
2.88559311404672
 20
11.01111789249709
 10
2.889857762046723
 20
11.00570049729709
 10
2.893971165246725
 20
11.00016726369708
 10
2.897929789246724
 20
10.99452222529709
 10
2.90173010284672
 20
10.98876942049708
 10
2.905368568446725
 20
10.98291288609708
 10
2.908841656446725
 20
10.97695665569708
 10
2.912137915646724
 20
10.97092012929709
 10
2.915263312446725
 20
10.96479326689709
 10
2.918215050046725
 20
10.95858091169709
 10
2.920990339646721
 20
10.95228791009709
 10
2.923586386046721
 20
10.94591910369708
 10
2.926000395646724
 20
10.93947934049709
 10
2.928227392446721
 20
10.93298068929708
 10
2.930268154046721
 20
10.92642115489709
 10
2.932120867646723
 20
10.91980582369709
 10
2.933783718846726
 20
10.91313978209709
 10
2.935254898046721
 20
10.90642811649708
 10
2.936532589246724
 20
10.89967591169709
 10
2.937612878846721
 20
10.89290439969709
 10
2.938498155646726
 20
10.88610429569708
 10
2.939187792446723
 20
10.87928229249708
 10
2.939681163646724
 20
10.87244508449709
 10
2.93997764364672
 20
10.86559936769709
 10
2.940076610046723
 20
10.8587518364971
  0
LWPOLYLINE
  5
40
330
2
100
AcDbEntity
  8
0
  6
HIDDEN
 48
0.5
100
AcDbPolyline
 90
       26
 70
     0
 43
0.0
 10
4.09178383724673
 20
10.26956300449709
 10
4.00075508044673
 20
10.26595916129709
 10
3.909751778046718
 20
10.26174058529709
 10
3.818780776446722
 20
10.25687255169709
 10
3.733907826046724
 20
10.25170805089708
 10
3.649077091646724
 20
10.24589371169708
 10
3.564296686846724
 20
10.23937572449708
 10
3.487458062846719
 20
10.23280373089709
 10
3.410683872446718
 20
10.22552642849709
 10
3.333990478846722
 20
10.21746154529709
 10
3.266887117246717
 20
10.20967392929708
 10
3.199878171646723
 20
10.20109907489709
 10
3.13298350444672
 20
10.19161726209709
 10
3.09102675724673
 20
10.18513363969709
 10
3.049150102846716
 20
10.17816139169709
 10
3.007380690046723
 20
10.17061714529709
 10
2.965745664446721
 20
10.16241752609709
 10
2.93309149324672
 20
10.15543497249709
 10
2.900564050046725
 20
10.14787180609709
 10
2.868189995646723
 20
10.13960502049709
 10
2.835995998846726
 20
10.13051161249709
 10
2.817674818046725
 20
10.12487040609709
 10
2.799499221246726
 20
10.11878897569709
 10
2.781547083646721
 20
10.11213812449708
 10
2.763896282046722
 20
10.10478865569708
 10
2.746624693246722
 20
10.09661137569708
  0
LWPOLYLINE
  5
41
330
2
100
AcDbEntity
  8
0
  6
HIDDEN
 48
0.5
100
AcDbPolyline
 90
       13
 70
     0
 43
0.0
 10
4.09178383724673
 20
10.26956300449709
 10
4.323208402046724
 20
10.27723205409709
 10
4.554677389246727
 20
10.28345623169709
 10
4.790529974846727
 20
10.28835948769708
 10
5.026407512446716
 20
10.29184431489709
 10
5.264487870846728
 20
10.29394947169709
 10
5.502576610046723
 20
10.29464905889708
 10
5.740665349246718
 20
10.29394947169709
 10
5.97874570764673
 20
10.29184431489709
 10
6.21462324524672
 20
10.28835948769708
 10
6.45047583084672
 20
10.28345623169709
 10
6.681944818046723
 20
10.27723205409709
 10
6.913369382846717
 20
10.26956300449709
  0
LWPOLYLINE
  5
42
330
2
100
AcDbEntity
  8
0
  6
HIDDEN
 48
0.5
100
AcDbPolyline
 90
       50
 70
     0
 43
0.0
 10
8.815076610046723
 20
10.09661137569708
 10
8.827075408446724
 20
10.09680311809709
 10
8.83907209004672
 20
10.09737748129709
 10
8.851052318846718
 20
10.09833317089708
 10
8.863001757246728
 20
10.09966889569708
 10
8.874906069246726
 20
10.10138335809708
 10
8.886750915646722
 20
10.10347526689708
 10
8.898521960446721
 20
10.10594332769709
 10
8.910197070846727
 20
10.10878364609708
 10
8.921773158846725
 20
10.11199444609709
 10
8.933239219646729
 20
10.11557188449709
 10
8.944584243646723
 20
10.11951212289709
 10
8.955797222846719
 20
10.12381132129709
 10
8.966867147646716
 20
10.12846563969709
 10
8.977783011646728
 20
10.13347123809709
 10
8.988520040446722
 20
10.13881671169709
 10
8.999081723646717
 20
10.1445024364971
 10
9.009457354046723
 20
10.15052212609709
 10
9.019636230846721
 20
10.15686948929708
 10
9.02960764684672
 20
10.16353823969709
 10
9.039360901246716
 20
10.17052208769708
 10
9.048885285246718
 20
10.17781474689709
 10
9.058155555646727
 20
10.18539702209708
 10
9.067178117246719
 20
10.19327239809708
 10
9.075944058046722
 20
10.20143243169709
 10
9.084444470846726
 20
10.20986867809708
 10
9.092670442046717
 20
10.21857269729709
 10
9.100613061246725
 20
10.22753604609709
 10
9.108263416446725
 20
10.23675028129709
 10
9.115601242046729
 20
10.24619105729708
 10
9.122632013246722
 20
10.25586299169709
 10
9.129348867646719
 20
10.26575558529709
 10
9.13574494764672
 20
10.27585833889708
 10
9.141813390846728
 20
10.28616075329708
 10
9.147547341246728
 20
10.29665232929709
 10
9.15293993484672
 20
10.30732256929709
 10
9.157978376446727
 20
10.31814660129709
 10
9.162665208446718
 20
10.32912728289709
 10
9.166996126846719
 20
10.34025354049709
 10
9.170966827646729
 20
10.35151429729709
 10
9.17457300524672
 20
10.36289847969708
 10
9.17781035724672
 20
10.37439501249709
 10
9.180674576446726
 20
10.38599282049708
 10
9.183160162046725
 20
10.39767170529709
 10
9.185267387646725
 20
10.40942601089708
 10
9.186994782846717
 20
10.42124108929709
 10
9.188340874046723
 20
10.43310229569708
 10
9.189304190846719
 20
10.44499497729709
 10
9.189883259646727
 20
10.45690448929709
 10
9.190076610046723
 20
10.46881618209709
  0
LINE
  5
43
330
2
100
AcDbEntity
  8
0
  6
HIDDEN
 48
0.5
100
AcDbLine
 10
8.815076610046727
 20
10.09661137569708
 30
0.0
 11
8.258528526846728
 21
10.09661137569708
 31
0.0
  0
LINE
  5
44
330
2
100
AcDbEntity
  8
0
  6
HIDDEN
 48
0.5
100
AcDbLine
 10
2.190076610046726
 20
10.09661137569708
 30
0.0
 11
2.746624693246725
 21
10.09661137569708
 31
0.0
  0
LINE
  5
45
330
2
100
AcDbEntity
  8
0
  6
HIDDEN
 48
0.5
100
AcDbLine
 10
8.815076610046727
 20
11.09900900609709
 30
0.0
 11
8.258528526846728
 21
11.09900900609709
 31
0.0
  0
LINE
  5
46
330
2
100
AcDbEntity
  8
0
  6
HIDDEN
 48
0.5
100
AcDbLine
 10
2.190076610046726
 20
11.09900900609709
 30
0.0
 11
2.746624693246725
 21
11.09900900609709
 31
0.0
  0
LWPOLYLINE
  5
47
330
2
100
AcDbEntity
  8
0
  6
HIDDEN
 48
0.5
100
AcDbPolyline
 90
       50
 70
     0
 43
0.0
 10
8.815076610046723
 20
11.09900900609709
 10
8.827075408446724
 20
11.09881726369709
 10
8.83907209004672
 20
11.09824290049709
 10
8.851052318846718
 20
11.09728720929708
 10
8.863001757246728
 20
11.09595148609708
 10
8.874906069246726
 20
11.09423702209709
 10
8.886750915646722
 20
11.09214511489708
 10
8.898521960446721
 20
11.08967705409708
 10
8.910197070846727
 20
11.08683673409709
 10
8.921773158846725
 20
11.08362593569709
 10
8.933239219646729
 20
11.08004849729709
 10
8.944584243646723
 20
11.07610825729708
 10
8.955797222846719
 20
11.07180905889709
 10
8.966867147646716
 20
11.06715474049709
 10
8.977783011646728
 20
11.06214914209709
 10
8.988520040446722
 20
11.05680366849709
 10
8.999081723646717
 20
11.05111794369708
 10
9.009457354046723
 20
11.04509825569709
 10
9.019636230846721
 20
11.03875089089709
 10
9.02960764684672
 20
11.03208214049708
 10
9.039360901246716
 20
11.02509829249709
 10
9.048885285246718
 20
11.01780563489709
 10
9.058155555646727
 20
11.01022335809708
 10
9.067178117246719
 20
11.0023479820971
 10
9.075944058046722
 20
10.99418795009709
 10
9.084444470846726
 20
10.98575170209709
 10
9.092670442046717
 20
10.97704768449708
 10
9.100613061246725
 20
10.96808433569709
 10
9.108263416446725
 20
10.95887010049708
 10
9.115601242046729
 20
10.94942932289709
 10
9.122632013246722
 20
10.93975738849709
 10
9.129348867646719
 20
10.92986479489709
 10
9.13574494764672
 20
10.91976204129709
 10
9.141813390846728
 20
10.90945962689709
 10
9.147547341246728
 20
10.89896805089708
 10
9.15293993484672
 20
10.88829781249709
 10
9.157978376446727
 20
10.87747378049709
 10
9.162665208446718
 20
10.86649309729708
 10
9.166996126846719
 20
10.85536684129709
 10
9.170966827646729
 20
10.84410608289709
 10
9.17457300524672
 20
10.83272190049709
 10
9.17781035724672
 20
10.82122536769708
 10
9.180674576446726
 20
10.80962755969709
 10
9.183160162046725
 20
10.79794867649709
 10
9.185267387646725
 20
10.78619437089708
 10
9.186994782846717
 20
10.77437929089709
 10
9.188340874046723
 20
10.76251808609709
 10
9.189304190846719
 20
10.75062540449709
 10
9.189883259646727
 20
10.73871589249709
 10
9.190076610046723
 20
10.72680419809709
  0
LWPOLYLINE
  5
48
330
2
100
AcDbEntity
  8
0
  6
HIDDEN
 48
0.5
100
AcDbPolyline
 90
       54
 70
     0
 43
0.0
 10
2.190076610046723
 20
11.17190180769709
 10
2.175574285246725
 20
11.17038717089709
 10
2.161080874046724
 20
11.16878585889708
 10
2.149048091646726
 20
11.16733134849709
 10
2.137037173246724
 20
11.16570825249709
 10
2.125058606846721
 20
11.16386167969708
 10
2.115260744446722
 20
11.16214403329709
 10
2.105499117246722
 20
11.16022749729709
 10
2.095781109246722
 20
11.15810063009708
 10
2.086114107646722
 20
11.15575199009709
 10
2.075918675646725
 20
11.15300570689709
 10
2.065798258046726
 20
11.14999304449708
 10
2.05576209644672
 20
11.14671030049709
 10
2.04581943724672
 20
11.14315377249709
 10
2.035463907646722
 20
11.13911076129709
 10
2.025233014846726
 20
11.13476105089709
 10
2.015137536446722
 20
11.13010544929709
 10
2.005188245246721
 20
11.12514476449708
 10
1.995086930046724
 20
11.11970783969709
 10
1.98516406284672
 20
11.11395119649709
 10
1.975430976446723
 20
11.10787906209709
 10
1.965899006846726
 20
11.10149566529708
 10
1.956396530046724
 20
11.09466977569709
 10
1.947126038846725
 20
11.08753171489708
 10
1.938098546046724
 20
11.08008866049708
 10
1.929325064446722
 20
11.07234779009709
 10
1.922259184446723
 20
11.06571694049709
 10
1.915380408446722
 20
11.05889194369709
 10
1.90869406924672
 20
11.05187799169708
 10
1.902205504446726
 20
11.04468027009709
 10
1.895920048446726
 20
11.03730397409709
 10
1.889006923646725
 20
11.02868147649709
 10
1.882371186046725
 20
11.01984281889709
 10
1.876019171646724
 20
11.01079730209709
 10
1.869957214846721
 20
11.00155423329709
 10
1.86419165004672
 20
10.99212291809708
 10
1.859214205246722
 20
10.98339675809709
 10
1.854489798846721
 20
10.97453067169708
 10
1.850021462846726
 20
10.96553251009709
 10
1.845812222846724
 20
10.95641012609709
 10
1.841865110846725
 20
10.94717137409708
 10
1.838183155646724
 20
10.93782410529708
 10
1.834626786046726
 20
10.92796330849709
 10
1.831363798846723
 20
10.91800159809708
 10
1.828395565246722
 20
10.90794766369709
 10
1.825723459646724
 20
10.89781019969709
 10
1.82334885644672
 20
10.88759789249709
 10
1.821273128446726
 20
10.87731943649709
 10
1.819510861246726
 20
10.86706983009708
 10
1.818043432446721
 20
10.85677368769709
 10
1.816870403646724
 20
10.84644098209708
 10
1.815991333246721
 20
10.83608168769709
 10
1.815405776446723
 20
10.82570577569709
 10
1.815113293246724
 20
10.81532322209709
  0
LWPOLYLINE
  5
49
330
2
100
AcDbEntity
  8
0
  6
HIDDEN
 48
0.5
100
AcDbPolyline
 90
       29
 70
     0
 43
0.0
 10
2.190076610046723
 20
11.17190180769709
 10
2.394310653246726
 20
11.19191733249709
 10
2.598730698046722
 20
11.20996490849709
 10
2.81761146444672
 20
11.22732482049709
 10
3.036629784446724
 20
11.24284433089709
 10
3.267940318846719
 20
11.25739893409708
 10
3.499354350846722
 20
11.27020855649708
 10
3.740762205246717
 20
11.28183255649708
 10
3.982244845246718
 20
11.29178247809709
 10
4.231316747646722
 20
11.30037785249708
 10
4.480439450046723
 20
11.30734921729709
 10
4.734666429246722
 20
11.31284673249708
 10
4.988922864446728
 20
11.31675229409709
 10
5.245744907646717
 20
11.31911290049709
 10
5.502576610046723
 20
11.31989719009708
 10
5.75940831244673
 20
11.31911290049709
 10
6.016230355646719
 20
11.31675229409709
 10
6.270486790846725
 20
11.31284673249708
 10
6.524713770046723
 20
11.30734921729709
 10
6.773836472446724
 20
11.30037785249708
 10
7.022908374846728
 20
11.29178247809709
 10
7.264391014846729
 20
11.28183255649708
 10
7.505798869246724
 20
11.27020855649708
 10
7.737212901246728
 20
11.25739893409708
 10
7.968523435646723
 20
11.24284433089709
 10
8.187541755646726
 20
11.22732482049709
 10
8.406422522046717
 20
11.20996490849709
 10
8.61084256684672
 20
11.19191733249709
 10
8.815076610046723
 20
11.17190180769709
  0
LWPOLYLINE
  5
4A
330
2
100
AcDbEntity
  8
0
  6
HIDDEN
 48
0.5
100
AcDbPolyline
 90
       49
 70
     0
 43
0.0
 10
2.746624693246722
 20
10.09661137569708
 10
2.753409610046723
 20
10.09839780449709
 10
2.760148050046723
 20
10.10036440129709
 10
2.766834358846722
 20
10.10250960449709
 10
2.773462885246722
 20
10.10483185249709
 10
2.780027982846725
 20
10.10732958369708
 10
2.786523997246725
 20
10.11000123809709
 10
2.79291690604672
 20
10.11283207969709
 10
2.799231373246726
 20
10.11583184289708
 10
2.805463021246723
 20
10.11899863009708
 10
2.811607477246724
 20
10.12233054209709
 10
2.817660362046723
 20
10.12582568289709
 10
2.82361729804672
 20
10.12948215169709
 10
2.829443136446727
 20
10.13327729249709
 10
2.835165272446722
 20
10.13722755809708
 10
2.840779267646723
 20
10.14133032609709
 10
2.846280683646725
 20
10.14558297569708
 10
2.851665080446721
 20
10.14998288129709
 10
2.856928018046723
 20
10.15452742529709
 10
2.862040706046727
 20
10.15919097249709
 10
2.867024685246725
 20
10.16399185569709
 10
2.87187593644672
 20
10.16892676289709
 10
2.876590437246726
 20
10.17399238049708
 10
2.881164170046723
 20
10.17918539329709
 10
2.88559311404672
 20
10.18450248769709
 10
2.889857762046723
 20
10.18991988289709
 10
2.893971165246725
 20
10.19545311809709
 10
2.897929789246724
 20
10.20109815489709
 10
2.90173010284672
 20
10.20685095969708
 10
2.905368568446725
 20
10.21270749569709
 10
2.908841656446725
 20
10.21866372449709
 10
2.912137915646724
 20
10.22470025089709
 10
2.915263312446725
 20
10.23082711489708
 10
2.918215050046725
 20
10.23703946849709
 10
2.920990339646721
 20
10.24333247169709
 10
2.923586386046721
 20
10.24970127649709
 10
2.926000395646724
 20
10.25614103969709
 10
2.928227392446721
 20
10.26263969249709
 10
2.930268154046721
 20
10.26919922529709
 10
2.932120867646723
 20
10.27581455649708
 10
2.933783718846726
 20
10.28248059809708
 10
2.935254898046721
 20
10.28919226369709
 10
2.936532589246724
 20
10.29594446849709
 10
2.937612878846721
 20
10.30271598049709
 10
2.938498155646726
 20
10.30951608609709
 10
2.939187792446723
 20
10.31633808929709
 10
2.939681163646724
 20
10.32317529729709
 10
2.93997764364672
 20
10.33002101409709
 10
2.940076610046723
 20
10.33686854529708
  0
LINE
  5
4B
330
2
100
AcDbEntity
  8
0
100
AcDbLine
 10
-24.68180338995325
 20
10.27808447489709
 30
0.0
 11
-24.41243964435325
 21
13.35692617729709
 31
0.0
  0
LINE
  5
4C
330
2
100
AcDbEntity
  8
0
100
AcDbLine
 10
22.49497330604672
 20
-6.981915525102905
 30
0.0
 11
25.14141991404673
 21
-6.981915525102905
 31
0.0
  0
LINE
  5
4D
330
2
100
AcDbEntity
  8
0
100
AcDbLine
 10
28.72277839084672
 20
-6.481915525102905
 30
0.0
 11
-10.71593777075327
 21
-6.481915525102905
 31
0.0
  0
LINE
  5
4E
330
2
100
AcDbEntity
  8
0
  6
HIDDEN
 48
0.5
100
AcDbLine
 10
2.377576610046726
 20
10.52808447489709
 30
0.0
 11
2.377576610046726
 21
10.58901914689709
 31
0.0
  0
LINE
  5
4F
330
2
100
AcDbEntity
  8
0
  6
HIDDEN
 48
0.5
100
AcDbLine
 10
2.627576610046726
 20
10.52808447489709
 30
0.0
 11
2.627576610046726
 21
10.58901914689709
 31
0.0
  0
LWPOLYLINE
  5
50
330
2
100
AcDbEntity
  8
0
  6
HIDDEN
 48
0.5
100
AcDbPolyline
 90
        9
 70
     0
 43
0.0
 10
2.627576610046723
 20
10.58901914689709
 10
2.622521744446721
 20
10.55409386529709
 10
2.60768567084672
 20
10.52186927009709
 10
2.584497971646726
 20
10.49530948769709
 10
2.554389986046722
 20
10.47611129889708
 10
2.520484610046722
 20
10.46623070209708
 10
2.484668610046725
 20
10.46623070209708
 10
2.450763234046725
 20
10.47611129889708
 10
2.42065524844672
 20
10.49530948769709
  0
LWPOLYLINE
  5
51
330
2
100
AcDbEntity
  8
0
  6
HIDDEN
 48
0.5
100
AcDbPolyline
 90
        9
 70
     0
 43
0.0
 10
2.627576610046723
 20
10.52808447489709
 10
2.622521744446721
 20
10.49315919329709
 10
2.60768567084672
 20
10.46093459809709
 10
2.584497971646726
 20
10.43437481569709
 10
2.554389986046722
 20
10.41517662849708
 10
2.520484610046722
 20
10.40529603169709
 10
2.484668610046725
 20
10.40529603169709
 10
2.450763234046725
 20
10.41517662849708
 10
2.42065524844672
 20
10.43437481569709
  0
LWPOLYLINE
  5
52
330
2
100
AcDbEntity
  8
0
  6
HIDDEN
 48
0.5
100
AcDbPolyline
 90
        4
 70
     0
 43
0.0
 10
2.377576610046723
 20
10.52808447489709
 10
2.382631475646725
 20
10.49315919329709
 10
2.397467549246727
 20
10.46093459809709
 10
2.42065524844672
 20
10.43437481569709
  0
LWPOLYLINE
  5
53
330
2
100
AcDbEntity
  8
0
  6
HIDDEN
 48
0.5
100
AcDbPolyline
 90
        4
 70
     0
 43
0.0
 10
2.377576610046723
 20
10.58901914689709
 10
2.382631475646725
 20
10.55409386529709
 10
2.397467549246727
 20
10.52186927009709
 10
2.42065524844672
 20
10.49530948769709
  0
LWPOLYLINE
  5
54
330
2
100
AcDbEntity
  8
0
  6
HIDDEN
 48
0.5
100
AcDbPolyline
 90
        9
 70
     0
 43
0.0
 10
8.627576610046723
 20
10.58901914689709
 10
8.622521744446721
 20
10.55409386529709
 10
8.607685670846727
 20
10.52186927009709
 10
8.584497971646719
 20
10.49530948769709
 10
8.554389986046722
 20
10.47611129889708
 10
8.520484610046729
 20
10.46623070209708
 10
8.484668610046718
 20
10.46623070209708
 10
8.450763234046725
 20
10.47611129889708
 10
8.420655248446728
 20
10.49530948769709
  0
LWPOLYLINE
  5
55
330
2
100
AcDbEntity
  8
0
  6
HIDDEN
 48
0.5
100
AcDbPolyline
 90
        9
 70
     0
 43
0.0
 10
8.627576610046723
 20
10.52808447489709
 10
8.622521744446721
 20
10.49315919329709
 10
8.607685670846727
 20
10.46093459809709
 10
8.584497971646719
 20
10.43437481569709
 10
8.554389986046722
 20
10.41517662849708
 10
8.520484610046729
 20
10.40529603169709
 10
8.484668610046718
 20
10.40529603169709
 10
8.450763234046725
 20
10.41517662849708
 10
8.420655248446728
 20
10.43437481569709
  0
LWPOLYLINE
  5
56
330
2
100
AcDbEntity
  8
0
  6
HIDDEN
 48
0.5
100
AcDbPolyline
 90
        4
 70
     0
 43
0.0
 10
2.584497971646726
 20
10.62179413409709
 10
2.60768567084672
 20
10.59523435169709
 10
2.622521744446721
 20
10.56300975649708
 10
2.627576610046723
 20
10.52808447489709
  0
LINE
  5
57
330
2
100
AcDbEntity
  8
0
  6
HIDDEN
 48
0.5
100
AcDbLine
 10
8.377576610046727
 20
10.52808447489709
 30
0.0
 11
8.377576610046727
 21
10.58901914689709
 31
0.0
  0
LINE
  5
58
330
2
100
AcDbEntity
  8
0
  6
HIDDEN
 48
0.5
100
AcDbLine
 10
8.627576610046727
 20
10.52808447489709
 30
0.0
 11
8.627576610046727
 21
10.58901914689709
 31
0.0
  0
LWPOLYLINE
  5
59
330
2
100
AcDbEntity
  8
0
  6
HIDDEN
 48
0.5
100
AcDbPolyline
 90
        9
 70
     0
 43
0.0
 10
2.584497971646726
 20
10.62179413409709
 10
2.554389986046722
 20
10.64099232129709
 10
2.520484610046722
 20
10.65087291809708
 10
2.484668610046725
 20
10.65087291809708
 10
2.450763234046725
 20
10.64099232129709
 10
2.42065524844672
 20
10.62179413409709
 10
2.397467549246727
 20
10.59523435169709
 10
2.382631475646725
 20
10.56300975649708
 10
2.377576610046723
 20
10.52808447489709
  0
LWPOLYLINE
  5
5A
330
2
100
AcDbEntity
  8
0
  6
HIDDEN
 48
0.5
100
AcDbPolyline
 90
        9
 70
     0
 43
0.0
 10
2.584497971646726
 20
10.68272880609709
 10
2.554389986046722
 20
10.70192699329708
 10
2.520484610046722
 20
10.71180759009708
 10
2.484668610046725
 20
10.71180759009708
 10
2.450763234046725
 20
10.70192699329708
 10
2.42065524844672
 20
10.68272880609709
 10
2.397467549246727
 20
10.65616902209709
 10
2.382631475646725
 20
10.62394442849708
 10
2.377576610046723
 20
10.58901914689709
  0
LINE
  5
5B
330
2
100
AcDbEntity
  8
0
100
AcDbLine
 10
22.39951389004672
 20
-6.942374941102904
 30
0.0
 11
22.00934884684673
 21
-6.552209897902904
 31
0.0
  0
LWPOLYLINE
  5
5C
330
2
100
AcDbEntity
  8
0
  6
HIDDEN
 48
0.5
100
AcDbPolyline
 90
        4
 70
     0
 43
0.0
 10
2.584497971646726
 20
10.68272880609709
 10
2.60768567084672
 20
10.65616902209709
 10
2.622521744446721
 20
10.62394442849708
 10
2.627576610046723
 20
10.58901914689709
  0
LWPOLYLINE
  5
5D
330
2
100
AcDbEntity
  8
0
  6
HIDDEN
 48
0.5
100
AcDbPolyline
 90
        4
 70
     0
 43
0.0
 10
8.377576610046723
 20
10.52808447489709
 10
8.382631475646725
 20
10.49315919329709
 10
8.397467549246719
 20
10.46093459809709
 10
8.420655248446728
 20
10.43437481569709
  0
LWPOLYLINE
  5
5E
330
2
100
AcDbEntity
  8
0
  6
HIDDEN
 48
0.5
100
AcDbPolyline
 90
        4
 70
     0
 43
0.0
 10
8.377576610046723
 20
10.58901914689709
 10
8.382631475646725
 20
10.55409386529709
 10
8.397467549246719
 20
10.52186927009709
 10
8.420655248446728
 20
10.49530948769709
  0
LWPOLYLINE
  5
67
330
2
100
AcDbEntity
  8
0
  6
HIDDEN
 48
0.5
100
AcDbPolyline
 90
        4
 70
     0
 43
0.0
 10
8.584497971646719
 20
10.62179413409709
 10
8.607685670846727
 20
10.59523435169709
 10
8.622521744446721
 20
10.56300975649708
 10
8.627576610046723
 20
10.52808447489709
  0
LWPOLYLINE
  5
68
330
2
100
AcDbEntity
  8
0
  6
HIDDEN
 48
0.5
100
AcDbPolyline
 90
        4
 70
     0
 43
0.0
 10
8.584497971646719
 20
10.68272880609709
 10
8.607685670846727
 20
10.65616902209709
 10
8.622521744446721
 20
10.62394442849708
 10
8.627576610046723
 20
10.58901914689709
  0
LINE
  5
69
330
2
100
AcDbEntity
  8
CENTER
 48
4.0
100
AcDbLine
 10
33.98985416369971
 20
9.164958010516768
 30
0.0
 11
28.84210142659771
 21
9.888427477436986
 31
0.0
  0
LWPOLYLINE
  5
6C
330
2
100
AcDbEntity
  8
0
  6
HIDDEN
 48
0.5
100
AcDbPolyline
 90
        9
 70
     0
 43
0.0
 10
8.584497971646719
 20
10.62179413409709
 10
8.554389986046722
 20
10.64099232129709
 10
8.520484610046729
 20
10.65087291809708
 10
8.484668610046718
 20
10.65087291809708
 10
8.450763234046725
 20
10.64099232129709
 10
8.420655248446728
 20
10.62179413409709
 10
8.397467549246719
 20
10.59523435169709
 10
8.382631475646725
 20
10.56300975649708
 10
8.377576610046723
 20
10.52808447489709
  0
LWPOLYLINE
  5
6D
330
2
100
AcDbEntity
  8
0
  6
HIDDEN
 48
0.5
100
AcDbPolyline
 90
        9
 70
     0
 43
0.0
 10
8.584497971646719
 20
10.68272880609709
 10
8.554389986046722
 20
10.70192699329708
 10
8.520484610046729
 20
10.71180759009708
 10
8.484668610046718
 20
10.71180759009708
 10
8.450763234046725
 20
10.70192699329708
 10
8.420655248446728
 20
10.68272880609709
 10
8.397467549246719
 20
10.65616902209709
 10
8.382631475646725
 20
10.62394442849708
 10
8.377576610046723
 20
10.58901914689709
  0
LINE
  5
6E
330
2
100
AcDbEntity
  8
0
100
AcDbLine
 10
35.11204635884674
 20
13.52808447489709
 30
0.0
 11
-24.22565313875325
 21
13.52808447489709
 31
0.0
  0
LINE
  5
6F
330
2
100
AcDbEntity
  8
0
100
AcDbLine
 10
35.17871814444673
 20
13.51583036289709
 30
0.0
 11
35.11204635884674
 21
13.52808447489709
 31
0.0
  0
LINE
  5
70
330
2
100
AcDbEntity
  8
0
100
AcDbLine
 10
25.23687933004673
 20
-6.942374941102904
 30
0.0
 11
25.62704437324673
 21
-6.552209897902904
 31
0.0
  0
LINE
  5
71
330
2
100
AcDbEntity
  8
0
100
AcDbLine
 10
31.52145652684673
 20
10.27721291809708
 30
0.0
 11
29.22781510604673
 21
-6.042893806702905
 31
0.0
  0
LINE
  5
72
330
2
100
AcDbEntity
  8
0
100
AcDbLine
 10
35.29883286444674
 20
13.35692617729709
 30
0.0
 11
35.56819661004674
 21
10.27808447489709
 31
0.0
  0
LWPOLYLINE
  5
73
330
2
100
AcDbEntity
  8
0
100
AcDbPolyline
 90
        3
 70
     0
 43
0.0
 10
35.28003381164674
 20
13.42386991009709
 10
35.23747280524673
 20
13.47995611329708
 10
35.17871814444673
 20
13.51583036289709
  0
LINE
  5
74
330
2
100
AcDbEntity
  8
0
100
AcDbLine
 10
35.29883286444674
 20
13.35692617729709
 30
0.0
 11
35.28003381164674
 21
13.42386991009709
 31
0.0
  0
ARC
  5
75
330
2
100
AcDbEntity
  8
0
100
AcDbCircle
 10
-22.491889385631
 20
11.6067011067661
 30
0.0
 40
1.921401863784371
100
AcDbArc
 50
25.98451290109952
 51
89.74860090278403
  0
ARC
  5
76
330
2
100
AcDbEntity
  8
0
100
AcDbCircle
 10
32.41851651724672
 20
13.02240931169708
 30
0.0
 40
0.5064524480000001
100
AcDbArc
 50
92.15046276169999
 51
173.5279693662
  0
ARC
  5
77
330
2
100
AcDbEntity
  8
0
100
AcDbCircle
 10
-8.999288034753273
 20
-6.997970955502899
 30
0.0
 40
0.4739445696
100
AcDbArc
 50
198.1161803268
 51
270.0
  0
ARC
  5
78
330
2
100
AcDbEntity
  8
0
100
AcDbCircle
 10
25.99957930444672
 20
-7.0326118723029
 30
0.0
 40
0.4393036544
100
AcDbArc
 50
270.0
 51
354.7216900886999
  0
ARC
  5
79
330
2
100
AcDbEntity
  8
0
100
AcDbCircle
 10
21.83964321964672
 20
-6.721915525102907
 30
0.0
 40
0.24
100
AcDbArc
 50
45.00000106489999
 51
67.49999996239999
  0
ARC
  5
7A
330
2
100
AcDbEntity
  8
0
100
AcDbCircle
 10
25.79675000044673
 20
-6.721915525102907
 30
0.0
 40
0.24
100
AcDbArc
 50
112.5000000376
 51
134.9999991276
  0
ARC
  5
7B
330
2
100
AcDbEntity
  8
0
100
AcDbCircle
 10
22.49497330604672
 20
-6.846915525102907
 30
0.0
 40
0.135
100
AcDbArc
 50
225.0000003714
 51
270.0
  0
ARC
  5
7C
330
2
100
AcDbEntity
  8
0
100
AcDbCircle
 10
-10.71593777075327
 20
-3.971915525102907
 30
0.0
 40
2.5
100
AcDbArc
 50
231.7810858356
 51
236.1567772489999
  0
ARC
  5
7D
330
2
100
AcDbEntity
  8
0
100
AcDbCircle
 10
25.14141991404673
 20
-6.846915525102907
 30
0.0
 40
0.135
100
AcDbArc
 50
270.0
 51
314.9999995945
  0
ARC
  5
7E
330
2
100
AcDbEntity
  8
0
100
AcDbCircle
 10
-10.71593777075327
 20
-3.971915525102907
 30
0.0
 40
2.5
100
AcDbArc
 50
248.8158179626
 51
270.0
  0
ARC
  5
7F
330
2
100
AcDbEntity
  8
0
100
AcDbCircle
 10
-24.22565313875325
 20
13.34058447489709
 30
0.0
 40
0.1875
100
AcDbArc
 50
90.0
 51
175.0
  0
ARC
  5
80
330
2
100
AcDbEntity
  8
0
100
AcDbCircle
 10
-94.01556651475328
 20
-30.75664720350291
 30
0.0
 40
84.99
100
AcDbArc
 50
17.8250300033
 51
28.89017739479999
  0
ARC
  5
81
330
2
100
AcDbEntity
  8
0
100
AcDbCircle
 10
-10.71593777075327
 20
-3.971915525102907
 30
0.0
 40
2.509999999999999
100
AcDbArc
 50
197.8250300032999
 51
270.0
  0
ARC
  5
82
330
2
100
AcDbEntity
  8
0
100
AcDbCircle
 10
28.72277839084672
 20
-5.971915525102907
 30
0.0
 40
0.51
100
AcDbArc
 50
270.0
 51
352.0
  0
LINE
  5
83
330
2
100
AcDbEntity
  8
CENTER
 48
4.0
100
AcDbLine
 10
23.94319661004673
 20
-4.211681013053558
 30
0.0
 11
23.94319661004673
 21
-10.73215003715224
 31
0.0
  0
LINE
  5
101
330
2
100
AcDbEntity
  8
0
100
AcDbLine
 10
-24.68180338995326
 20
10.2780844748971
 30
0.0
 11
35.56819661004674
 21
10.2780844748971
 31
0.0
  0
ENDSEC
  0
SECTION
  2
OBJECTS
  0
DICTIONARY
  5
A
330
0
100
AcDbDictionary
  3
ACAD_COLOR
350
2B
  3
ACAD_GROUP
350
26
  3
ACAD_LAYOUT
350
9
  3
ACAD_MATERIAL
350
2A
  3
ACAD_MLINESTYLE
350
27
  3
ACAD_PLOTSETTINGS
350
28
  3
ACAD_PLOTSTYLENAME
350
29
  3
ACAD_TABLESTYLE
350
2C
  3
ACDBHEADERROUNDTRIPXREC
350
13C
  3
ACDBVARIABLEDICTIONARY
350
88
  0
DICTIONARY
  5
EC
330
2
100
AcDbDictionary
280
     1
  3
ACAD_LAYOUTSELFREF
360
15D
  0
DICTIONARY
  5
F2
330
B
100
AcDbDictionary
280
     1
  3
ACAD_LAYOUTSELFREF
360
15E
  0
DICTIONARY
  5
2B
102
{ACAD_REACTORS
330
A
102
}
330
A
100
AcDbDictionary
  0
DICTIONARY
  5
26
102
{ACAD_REACTORS
330
A
102
}
330
A
100
AcDbDictionary
  0
DICTIONARY
  5
9
102
{ACAD_REACTORS
330
A
102
}
330
A
100
AcDbDictionary
  0
DICTIONARY
  5
2A
102
{ACAD_REACTORS
330
A
102
}
330
A
100
AcDbDictionary
  0
DICTIONARY
  5
27
102
{ACAD_REACTORS
330
A
102
}
330
A
100
AcDbDictionary
  3
STANDARD
350
2D
  0
DICTIONARY
  5
28
102
{ACAD_REACTORS
330
A
102
}
330
A
100
AcDbDictionary
  0
ACDBDICTIONARYWDFLT
  5
29
102
{ACAD_REACTORS
330
A
102
}
330
A
100
AcDbDictionary
281
     1
  3
Normal
350
5
100
AcDbDictionaryWithDefault
340
5
  0
DICTIONARY
  5
2C
102
{ACAD_REACTORS
330
A
102
}
330
A
100
AcDbDictionary
  3
STANDARD
350
2E
  0
DICTIONARY
  5
13C
102
{ACAD_REACTORS
330
A
102
}
330
A
100
AcDbDictionary
  3
CEPSNTYPE
350
146
  3
DIMSTYLEDATA
350
14A
  3
FINGERPRINTGUID
350
147
  3
HYPERLINKBASE
350
13F
  3
INSUNITS
350
145
  3
LAYOUTDICT
350
141
  3
LWETCUNION
350
144
  3
PLOTSETDICT
350
142
  3
PLOTSTYLNAMDICT
350
143
  3
PSVPSCALE
350
149
  3
PUCSBASE
350
14D
  3
PUCSORGBACK
350
153
  3
PUCSORGBOTTOM
350
14F
  3
PUCSORGFRONT
350
152
  3
PUCSORGLEFT
350
150
  3
PUCSORGRIGHT
350
151
  3
PUCSORGTOP
350
14E
  3
PUCSORTHOREF
350
14B
  3
PUCSORTHOVIEW
350
14C
  3
STYLESHEET
350
140
  3
TSTACKALIGN
350
13D
  3
TSTACKSIZE
350
13E
  3
UCSBASE
350
156
  3
UCSORGBACK
350
15C
  3
UCSORGBOTTOM
350
158
  3
UCSORGFRONT
350
15B
  3
UCSORGLEFT
350
159
  3
UCSORGRIGHT
350
15A
  3
UCSORGTOP
350
157
  3
UCSORTHOREF
350
154
  3
UCSORTHOVIEW
350
155
  3
VERSIONGUID
350
148
  0
DICTIONARY
  5
88
102
{ACAD_REACTORS
330
A
102
}
330
A
100
AcDbDictionary
  3
CTABLESTYLE
350
89
  3
DIMASSOC
350
BE
  3
HIDETEXT
350
BD
  3
PROJECTNAME
350
BF
  0
XRECORD
  5
15D
102
{ACAD_REACTORS
330
EC
102
}
330
EC
100
AcDbXrecord
340
2
  0
XRECORD
  5
15E
102
{ACAD_REACTORS
330
F2
102
}
330
F2
100
AcDbXrecord
340
B
  0
MLINESTYLE
  5
2D
102
{ACAD_REACTORS
330
27
102
}
330
27
100
AcDbMlineStyle
  2
STANDARD
 70
     0
  3

 62
   256
 51
90.0
 52
90.0
 71
     2
 49
0.5
 62
   256
  6
BYLAYER
 49
-0.5
 62
   256
  6
BYLAYER
  0
ACDBPLACEHOLDER
  5
5
102
{ACAD_REACTORS
330
29
102
}
330
0
100
AcDbPlaceHolder
280
     0
  0
ACAD_PROXY_OBJECT
  5
2E
102
{ACAD_REACTORS
330
2C
102
}
330
2C
100
AcDbProxyObject
 90
      499
 91
      525
 93
     1841
310
4214DD185B99185C9928B81E85EB51B8AE3F2E07A17AD46E2B8FC02B5E8DC0F42B1CFD028000000C1008070000C3001FDFF8000000C1003FBFF000000182007F7FE00000030400FEFFC00000060801FDFF8000000C1003FBFF00000018200000000000000681FA0B0000001820100E000186003FBFF000000182007F7FE000
310
00030400FEFFC00000060801FDFF8000000C1003FBFF000000182007F7FE000000304000AD7A3703D0AC73F4160000003040201C00030C007F7FE00000030400FEFFC00000060801FDFF8000000C1003FBFF000000182007F7FE00000030400FEFFC000000608018
340
11
340
11
340
11
 94
        0
1001
ACAD
1000
AcadProxyRoundTripData
1071
      524
1071
   851991
1070
     0
  0
XRECORD
  5
146
102
{ACAD_REACTORS
330
13C
102
}
330
13C
100
AcDbXrecord
 90
        0
  0
XRECORD
  5
14A
102
{ACAD_REACTORS
330
13C
102
}
330
13C
100
AcDbXrecord
1000
DSTYLE
1002
{
1070
   276
 70
     1
1070
   277
 70
     5
1070
   341
340
1E
1070
   342
340
1E
1002
}
  0
XRECORD
  5
147
102
{ACAD_REACTORS
330
13C
102
}
330
13C
100
AcDbXrecord
  1
{0D2D77A7-6691-4E6B-8AB4-0AC6B91CE6C1}
  0
XRECORD
  5
13F
102
{ACAD_REACTORS
330
13C
102
}
330
13C
100
AcDbXrecord
  1

  0
XRECORD
  5
145
102
{ACAD_REACTORS
330
13C
102
}
330
13C
100
AcDbXrecord
 90
        1
  0
XRECORD
  5
141
102
{ACAD_REACTORS
330
13C
102
}
330
13C
100
AcDbXrecord
340
9
  0
XRECORD
  5
144
102
{ACAD_REACTORS
330
13C
102
}
330
13C
100
AcDbXrecord
 90
    10781
  0
XRECORD
  5
142
102
{ACAD_REACTORS
330
13C
102
}
330
13C
100
AcDbXrecord
340
28
  0
XRECORD
  5
143
102
{ACAD_REACTORS
330
13C
102
}
330
13C
100
AcDbXrecord
340
29
  0
XRECORD
  5
149
102
{ACAD_REACTORS
330
13C
102
}
330
13C
100
AcDbXrecord
 40
0.0
  0
XRECORD
  5
14D
102
{ACAD_REACTORS
330
13C
102
}
330
13C
100
AcDbXrecord
340
0
  0
XRECORD
  5
153
102
{ACAD_REACTORS
330
13C
102
}
330
13C
100
AcDbXrecord
 10
0.0
 20
0.0
 30
0.0
  0
XRECORD
  5
14F
102
{ACAD_REACTORS
330
13C
102
}
330
13C
100
AcDbXrecord
 10
0.0
 20
0.0
 30
0.0
  0
XRECORD
  5
152
102
{ACAD_REACTORS
330
13C
102
}
330
13C
100
AcDbXrecord
 10
0.0
 20
0.0
 30
0.0
  0
XRECORD
  5
150
102
{ACAD_REACTORS
330
13C
102
}
330
13C
100
AcDbXrecord
 10
0.0
 20
0.0
 30
0.0
  0
XRECORD
  5
151
102
{ACAD_REACTORS
330
13C
102
}
330
13C
100
AcDbXrecord
 10
0.0
 20
0.0
 30
0.0
  0
XRECORD
  5
14E
102
{ACAD_REACTORS
330
13C
102
}
330
13C
100
AcDbXrecord
 10
0.0
 20
0.0
 30
0.0
  0
XRECORD
  5
14B
102
{ACAD_REACTORS
330
13C
102
}
330
13C
100
AcDbXrecord
340
0
  0
XRECORD
  5
14C
102
{ACAD_REACTORS
330
13C
102
}
330
13C
100
AcDbXrecord
 70
     0
  0
XRECORD
  5
140
102
{ACAD_REACTORS
330
13C
102
}
330
13C
100
AcDbXrecord
  1

  0
XRECORD
  5
13D
102
{ACAD_REACTORS
330
13C
102
}
330
13C
100
AcDbXrecord
 90
        1
  0
XRECORD
  5
13E
102
{ACAD_REACTORS
330
13C
102
}
330
13C
100
AcDbXrecord
 90
       70
  0
XRECORD
  5
156
102
{ACAD_REACTORS
330
13C
102
}
330
13C
100
AcDbXrecord
340
0
  0
XRECORD
  5
15C
102
{ACAD_REACTORS
330
13C
102
}
330
13C
100
AcDbXrecord
 10
0.0
 20
0.0
 30
0.0
  0
XRECORD
  5
158
102
{ACAD_REACTORS
330
13C
102
}
330
13C
100
AcDbXrecord
 10
0.0
 20
0.0
 30
0.0
  0
XRECORD
  5
15B
102
{ACAD_REACTORS
330
13C
102
}
330
13C
100
AcDbXrecord
 10
0.0
 20
0.0
 30
0.0
  0
XRECORD
  5
159
102
{ACAD_REACTORS
330
13C
102
}
330
13C
100
AcDbXrecord
 10
0.0
 20
0.0
 30
0.0
  0
XRECORD
  5
15A
102
{ACAD_REACTORS
330
13C
102
}
330
13C
100
AcDbXrecord
 10
0.0
 20
0.0
 30
0.0
  0
XRECORD
  5
157
102
{ACAD_REACTORS
330
13C
102
}
330
13C
100
AcDbXrecord
 10
0.0
 20
0.0
 30
0.0
  0
XRECORD
  5
154
102
{ACAD_REACTORS
330
13C
102
}
330
13C
100
AcDbXrecord
340
0
  0
XRECORD
  5
155
102
{ACAD_REACTORS
330
13C
102
}
330
13C
100
AcDbXrecord
 70
     0
  0
XRECORD
  5
148
102
{ACAD_REACTORS
330
13C
102
}
330
13C
100
AcDbXrecord
  1
{2ED911E9-280D-4B92-B42A-A4CC77078889}
  0
DICTIONARYVAR
  5
89
102
{ACAD_REACTORS
330
88
102
}
330
88
100
DictionaryVariables
280
     0
  1
STANDARD
  0
DICTIONARYVAR
  5
BE
102
{ACAD_REACTORS
330
88
102
}
330
88
100
DictionaryVariables
280
     0
  1
1
  0
DICTIONARYVAR
  5
BD
102
{ACAD_REACTORS
330
88
102
}
330
88
100
DictionaryVariables
280
     0
  1
1
  0
DICTIONARYVAR
  5
BF
102
{ACAD_REACTORS
330
88
102
}
330
88
100
DictionaryVariables
280
     0
  1

  0
ENDSEC
  0
EOF
