  0
SECTION
  2
HEADER
  9
$ACADVER
  1
AC1015
  9
$ACADMAINTVER
 70
    10
  9
$DWGCODEPAGE
  3
ANSI_1252
  9
$INSBASE
 10
0.0
 20
0.0
 30
0.0
  9
$EXTMIN
 10
0.0
 20
-0.1450596387599923
 30
0.0
  9
$EXTMAX
 10
66.0
 20
21.40495519396089
 30
0.0
  9
$LIMMIN
 10
0.0
 20
0.0
  9
$LIMMAX
 10
17.0
 20
11.0
  9
$ORTHOMODE
 70
     1
  9
$REGENMODE
 70
     1
  9
$FILLMODE
 70
     1
  9
$QTEXTMODE
 70
     0
  9
$MIRRTEXT
 70
     1
  9
$LTSCALE
 40
0.9350000000000001
  9
$ATTMODE
 70
     1
  9
$TEXTSIZE
 40
0.2
  9
$TRACEWID
 40
0.05
  9
$TEXTSTYLE
  7
STANDARD
  9
$CLAYER
  8
0
  9
$CELTYPE
  6
ByLayer
  9
$CECOLOR
 62
   256
  9
$CELTSCALE
 40
1.0
  9
$DISPSILH
 70
     0
  9
$DIMSCALE
 40
1.0
  9
$DIMASZ
 40
0.1875
  9
$DIMEXO
 40
0.10625
  9
$DIMDLI
 40
0.646
  9
$DIMRND
 40
0.0
  9
$DIMDLE
 40
0.0
  9
$DIMEXE
 40
0.306
  9
$DIMTP
 40
0.0
  9
$DIMTM
 40
0.0
  9
$DIMTXT
 40
0.125
  9
$DIMCEN
 40
0.153
  9
$DIMTSZ
 40
0.0
  9
$DIMTOL
 70
     0
  9
$DIMLIM
 70
     0
  9
$DIMTIH
 70
     1
  9
$DIMTOH
 70
     1
  9
$DIMSE1
 70
     0
  9
$DIMSE2
 70
     0
  9
$DIMTAD
 70
     0
  9
$DIMZIN
 70
     0
  9
$DIMBLK
  1
_FILLED
  9
$DIMASO
 70
     1
  9
$DIMSHO
 70
     1
  9
$DIMPOST
  1

  9
$DIMAPOST
  1

  9
$DIMALT
 70
     0
  9
$DIMALTD
 70
     2
  9
$DIMALTF
 40
25.4
  9
$DIMLFAC
 40
1.0
  9
$DIMTOFL
 70
     0
  9
$DIMTVP
 40
0.0
  9
$DIMTIX
 70
     0
  9
$DIMSOXD
 70
     0
  9
$DIMSAH
 70
     0
  9
$DIMBLK1
  1

  9
$DIMBLK2
  1

  9
$DIMSTYLE
  2
STANDARD
  9
$DIMCLRD
 70
     0
  9
$DIMCLRE
 70
     0
  9
$DIMCLRT
 70
     0
  9
$DIMTFAC
 40
1.0
  9
$DIMGAP
 40
0.09
  9
$DIMJUST
 70
     0
  9
$DIMSD1
 70
     0
  9
$DIMSD2
 70
     0
  9
$DIMTOLJ
 70
     1
  9
$DIMTZIN
 70
     0
  9
$DIMALTZ
 70
     0
  9
$DIMALTTZ
 70
     0
  9
$DIMUPT
 70
     0
  9
$DIMDEC
 70
     4
  9
$DIMTDEC
 70
     4
  9
$DIMALTU
 70
     2
  9
$DIMALTTD
 70
     2
  9
$DIMTXSTY
  7
STANDARD
  9
$DIMAUNIT
 70
     0
  9
$DIMADEC
 70
     0
  9
$DIMALTRND
 40
0.0
  9
$DIMAZIN
 70
     0
  9
$DIMDSEP
 70
     0
  9
$DIMATFIT
 70
     3
  9
$DIMFRAC
 70
     0
  9
$DIMLDRBLK
  1

  9
$DIMLUNIT
 70
     2
  9
$DIMLWD
 70
     0
  9
$DIMLWE
 70
     0
  9
$DIMTMOVE
 70
     0
  9
$LUNITS
 70
     2
  9
$LUPREC
 70
     4
  9
$SKETCHINC
 40
0.1
  9
$FILLETRAD
 40
0.0
  9
$AUNITS
 70
     0
  9
$AUPREC
 70
     0
  9
$MENU
  1
acad
  9
$ELEVATION
 40
0.0
  9
$PELEVATION
 40
0.0
  9
$THICKNESS
 40
0.0
  9
$LIMCHECK
 70
     0
  9
$CHAMFERA
 40
0.0
  9
$CHAMFERB
 40
0.0
  9
$CHAMFERC
 40
0.0
  9
$CHAMFERD
 40
0.0
  9
$SKPOLY
 70
     0
  9
$TDCREATE
 40
2454729.489233275
  9
$TDUCREATE
 40
2454729.655899942
  9
$TDUPDATE
 40
2454729.567554548
  9
$TDUUPDATE
 40
2454729.734221215
  9
$TDINDWG
 40
0.0736972222
  9
$TDUSRTIMER
 40
0.0736972222
  9
$USRTIMER
 70
     1
  9
$ANGBASE
 50
0.0
  9
$ANGDIR
 70
     0
  9
$PDMODE
 70
     3
  9
$PDSIZE
 40
0.3125
  9
$PLINEWID
 40
0.0
  9
$SPLFRAME
 70
     0
  9
$SPLINETYPE
 70
     6
  9
$SPLINESEGS
 70
     8
  9
$HANDSEED
  5
175F
  9
$SURFTAB1
 70
     6
  9
$SURFTAB2
 70
     6
  9
$SURFTYPE
 70
     6
  9
$SURFU
 70
     6
  9
$SURFV
 70
     6
  9
$UCSBASE
  2

  9
$UCSNAME
  2

  9
$UCSORG
 10
0.0
 20
0.0
 30
0.0
  9
$UCSXDIR
 10
1.0
 20
0.0
 30
0.0
  9
$UCSYDIR
 10
0.0
 20
1.0
 30
0.0
  9
$UCSORTHOREF
  2

  9
$UCSORTHOVIEW
 70
     0
  9
$UCSORGTOP
 10
0.0
 20
0.0
 30
0.0
  9
$UCSORGBOTTOM
 10
0.0
 20
0.0
 30
0.0
  9
$UCSORGLEFT
 10
0.0
 20
0.0
 30
0.0
  9
$UCSORGRIGHT
 10
0.0
 20
0.0
 30
0.0
  9
$UCSORGFRONT
 10
0.0
 20
0.0
 30
0.0
  9
$UCSORGBACK
 10
0.0
 20
0.0
 30
0.0
  9
$PUCSBASE
  2

  9
$PUCSNAME
  2

  9
$PUCSORG
 10
0.0
 20
0.0
 30
0.0
  9
$PUCSXDIR
 10
1.0
 20
0.0
 30
0.0
  9
$PUCSYDIR
 10
0.0
 20
1.0
 30
0.0
  9
$PUCSORTHOREF
  2

  9
$PUCSORTHOVIEW
 70
     0
  9
$PUCSORGTOP
 10
0.0
 20
0.0
 30
0.0
  9
$PUCSORGBOTTOM
 10
0.0
 20
0.0
 30
0.0
  9
$PUCSORGLEFT
 10
0.0
 20
0.0
 30
0.0
  9
$PUCSORGRIGHT
 10
0.0
 20
0.0
 30
0.0
  9
$PUCSORGFRONT
 10
0.0
 20
0.0
 30
0.0
  9
$PUCSORGBACK
 10
0.0
 20
0.0
 30
0.0
  9
$USERI1
 70
     0
  9
$USERI2
 70
     0
  9
$USERI3
 70
     0
  9
$USERI4
 70
     0
  9
$USERI5
 70
     0
  9
$USERR1
 40
0.0
  9
$USERR2
 40
0.0
  9
$USERR3
 40
0.0
  9
$USERR4
 40
0.0
  9
$USERR5
 40
0.0
  9
$WORLDVIEW
 70
     1
  9
$SHADEDGE
 70
     3
  9
$SHADEDIF
 70
    70
  9
$TILEMODE
 70
     1
  9
$MAXACTVP
 70
    16
  9
$PINSBASE
 10
0.0
 20
0.0
 30
0.0
  9
$PLIMCHECK
 70
     0
  9
$PEXTMIN
 10
1.000000000000000E+20
 20
1.000000000000000E+20
 30
1.000000000000000E+20
  9
$PEXTMAX
 10
-1.000000000000000E+20
 20
-1.000000000000000E+20
 30
-1.000000000000000E+20
  9
$PLIMMIN
 10
0.0
 20
0.0
  9
$PLIMMAX
 10
12.0
 20
9.0
  9
$UNITMODE
 70
     0
  9
$VISRETAIN
 70
     0
  9
$PLINEGEN
 70
     1
  9
$PSLTSCALE
 70
     0
  9
$TREEDEPTH
 70
  3020
  9
$CMLSTYLE
  2
Standard
  9
$CMLJUST
 70
     0
  9
$CMLSCALE
 40
1.0
  9
$PROXYGRAPHICS
 70
     0
  9
$MEASUREMENT
 70
     0
  9
$CELWEIGHT
370
     0
  9
$ENDCAPS
280
     0
  9
$JOINSTYLE
280
     0
  9
$LWDISPLAY
290
     0
  9
$INSUNITS
 70
     1
  9
$HYPERLINKBASE
  1

  9
$STYLESHEET
  1

  9
$XEDIT
290
     1
  9
$CEPSNTYPE
380
     0
  9
$PSTYLEMODE
290
     1
  9
$FINGERPRINTGUID
  2

  9
$VERSIONGUID
  2
{C4F34E17-52C3-4B49-B2D5-39246813911B}
  9
$EXTNAMES
290
     1
  9
$PSVPSCALE
 40
0.0
  9
$OLESTARTUP
290
     0
  0
ENDSEC
  0
SECTION
  2
CLASSES
  0
CLASS
  1
ACDBDICTIONARYWDFLT
  2
AcDbDictionaryWithDefault
  3
AutoCAD 2000
 90
        0
280
     0
281
     0
  0
CLASS
  1
ACDBPLACEHOLDER
  2
AcDbPlaceHolder
  3
AutoCAD 2000
 90
        0
280
     0
281
     0
  0
CLASS
  1
LAYOUT
  2
AcDbLayout
  3
AutoCAD 2000
 90
        0
280
     0
281
     0
  0
CLASS
  1
LWPOLYLINE
  2
AcDbPolyline
  3
AutoCAD 2000
 90
    32768
280
     0
281
     1
  0
CLASS
  1
IMAGE
  2
AcDbRasterImage
  3
ISM
 90
    32895
280
     0
281
     1
  0
CLASS
  1
OLE2FRAME
  2
AcDbOle2Frame
  3
AutoCAD 2000
 90
    32768
280
     0
281
     1
  0
CLASS
  1
HATCH
  2
AcDbHatch
  3
AutoCAD 2000
 90
    32768
280
     0
281
     1
  0
CLASS
  1
DICTIONARYVAR
  2
AcDbDictionaryVar
  3
AutoCAD 2000
 90
    32768
280
     0
281
     0
  0
CLASS
  1
RASTERVARIABLES
  2
AcDbRasterVariables
  3
ISM
 90
    32768
280
     0
281
     0
  0
CLASS
  1
IMAGEDEF
  2
AcDbRasterImageDef
  3
ISM
 90
    32768
280
     0
281
     0
  0
CLASS
  1
IMAGEDEF_REACTOR
  2
AcDbRasterImageDefReactor
  3
ISM
 90
    32769
280
     0
281
     0
  0
CLASS
  1
IDBUFFER
  2
AcDbIdBuffer
  3
AutoCAD 2000
 90
    32768
280
     0
281
     0
  0
CLASS
  1
SPATIAL_FILTER
  2
AcDbSpatialFilter
  3
AutoCAD 2000
 90
    32768
280
     0
281
     0
  0
CLASS
  1
XRECORD
  2
AcDbXrecord
  3
AutoCAD 2000
 90
    32768
280
     0
281
     0
  0
CLASS
  1
SORTENTSTABLE
  2
AcDbSortentsTable
  3
AutoCAD 2000
 90
    32768
280
     0
281
     0
  0
CLASS
  1
LAYER_INDEX
  2
AcDbLayerIndex
  3
AutoCAD 2000
 90
    32768
280
     0
281
     0
  0
CLASS
  1
SPATIAL_INDEX
  2
AcDbSpatialIndex
  3
AutoCAD 2000
 90
    32768
280
     0
281
     0
  0
CLASS
  1
OBJECT_PTR
  2
CAseDLPNTableRecord
  3
ASE-LPNTableRecord
 90
    32769
280
     0
281
     0
  0
CLASS
  1
PLOTSETTINGS
  2
AcDbPlotSettings
  3
AutoCAD 2000
 90
    32768
280
     0
281
     0
  0
CLASS
  1
VBA_PROJECT
  2
AcDbVbaProject
  3
acadvba
 90
    32768
280
     0
281
     0
  0
CLASS
  1
WIPEOUT
  2
AcDbWipeout
  3
WipeOut|AutoCAD Express Tool|expresstools@autodesk.com
 90
    32895
280
     0
281
     1
  0
CLASS
  1
WIPEOUTVARIABLES
  2
AcDbWipeoutVariables
  3
WipeOut|AutoCAD Express Tool|expresstools@autodesk.com
 90
    32768
280
     0
281
     0
  0
CLASS
  1
RTEXT
  2
RText
  3
RText|AutoCAD Express Tool|expresstools@autodesk.com
 90
    32768
280
     0
281
     1
  0
CLASS
  1
ARCALIGNEDTEXT
  2
AcDbArcAlignedText
  3
ATEXT|AutoCAD Express Tool|expresstools@autodesk.com
 90
    32768
280
     0
281
     1
  0
ENDSEC
  0
SECTION
  2
TABLES
  0
TABLE
  2
VPORT
  5
8
330
0
100
AcDbSymbolTable
 70
     2
  0
VPORT
  5
175E
330
8
100
AcDbSymbolTableRecord
100
AcDbViewportTableRecord
  2
*Active
 70
     0
 10
0.0
 20
0.0
 11
1.0
 21
1.0
 12
33.77747253165199
 22
12.21887601044561
 13
0.0
 23
0.0
 14
1.0
 24
1.0
 15
0.0
 25
0.0
 16
0.0
 26
0.0
 36
1.0
 17
0.0
 27
0.0
 37
0.0
 40
51.96329109631463
 41
1.868263473053892
 42
50.0
 43
0.0
 44
0.0
 50
0.0
 51
0.0
 71
     0
 72
   100
 73
     1
 74
     1
 75
     0
 76
     0
 77
     0
 78
     0
281
     0
 65
     0
110
0.0
120
0.0
130
0.0
111
1.0
121
0.0
131
0.0
112
0.0
122
1.0
132
0.0
 79
     0
146
0.0
  0
ENDTAB
  0
TABLE
  2
LTYPE
  5
5
330
0
100
AcDbSymbolTable
 70
     3
  0
LTYPE
  5
14
330
5
100
AcDbSymbolTableRecord
100
AcDbLinetypeTableRecord
  2
ByBlock
 70
     0
  3

 72
    65
 73
     0
 40
0.0
  0
LTYPE
  5
15
330
5
100
AcDbSymbolTableRecord
100
AcDbLinetypeTableRecord
  2
ByLayer
 70
     0
  3

 72
    65
 73
     0
 40
0.0
  0
LTYPE
  5
16
330
5
100
AcDbSymbolTableRecord
100
AcDbLinetypeTableRecord
  2
CONTINUOUS
 70
     0
  3
Solid line
 72
    65
 73
     0
 40
0.0
  0
LTYPE
  5
1F5
330
5
100
AcDbSymbolTableRecord
100
AcDbLinetypeTableRecord
  2
CENTER
 70
     0
  3
____ _ ____ _ ____ _ ____ _ ____ _ ____ _ ____
 72
    65
 73
     4
 40
0.6
 49
0.375
 74
     0
 49
-0.075
 74
     0
 49
0.075
 74
     0
 49
-0.075
 74
     0
  0
LTYPE
  5
1F6
330
5
100
AcDbSymbolTableRecord
100
AcDbLinetypeTableRecord
  2
HIDDEN
 70
     0
  3
- - - - - - - - - - - - - - - - - - - -
 72
    65
 73
     2
 40
0.2
 49
0.1
 74
     0
 49
-0.1
 74
     0
  0
ENDTAB
  0
TABLE
  2
LAYER
  5
2
102
{ACAD_XDICTIONARY
360
1671
102
}
330
0
100
AcDbSymbolTable
 70
     2
  0
LAYER
  5
10
330
2
100
AcDbSymbolTableRecord
100
AcDbLayerTableRecord
  2
0
 70
     0
 62
     7
  6
CONTINUOUS
370
    -3
390
F
  0
LAYER
  5
1675
330
2
100
AcDbSymbolTableRecord
100
AcDbLayerTableRecord
  2
CENTER
 70
     0
 62
     1
  6
CENTER
370
    13
390
F
  0
ENDTAB
  0
TABLE
  2
STYLE
  5
3
330
0
100
AcDbSymbolTable
 70
     2
  0
STYLE
  5
11
330
3
100
AcDbSymbolTableRecord
100
AcDbTextStyleTableRecord
  2
STANDARD
 70
     0
 40
0.0
 41
0.8
 50
0.0
 71
     0
 42
0.2
  3
txt
  4

  0
STYLE
  5
223
330
3
100
AcDbSymbolTableRecord
100
AcDbTextStyleTableRecord
  2
TEXTSTYLE_1
 70
     0
 40
0.0
 41
0.8
 50
0.0
 71
     0
 42
0.2
  3
txt
  4

  0
ENDTAB
  0
TABLE
  2
VIEW
  5
6
330
0
100
AcDbSymbolTable
 70
     0
  0
ENDTAB
  0
TABLE
  2
UCS
  5
7
330
0
100
AcDbSymbolTable
 70
     0
  0
ENDTAB
  0
TABLE
  2
APPID
  5
9
330
0
100
AcDbSymbolTable
 70
     2
  0
APPID
  5
227
330
9
100
AcDbSymbolTableRecord
100
AcDbRegAppTableRecord
  2
ACAD
 70
     0
  0
APPID
  5
165B
330
9
100
AcDbSymbolTableRecord
100
AcDbRegAppTableRecord
  2
DCO15
 70
     0
  0
ENDTAB
  0
TABLE
  2
DIMSTYLE
  5
A
330
0
100
AcDbSymbolTable
 70
     1
100
AcDbDimStyleTable
 71
     1
340
245
  0
DIMSTYLE
105
245
330
A
100
AcDbSymbolTableRecord
100
AcDbDimStyleTableRecord
  2
STANDARD
 70
     0
 41
0.1875
 47
0.001
 48
0.001
 78
     4
140
0.125
271
     3
272
     3
284
     4
340
11
341
228
342
228
343
228
344
228
  0
ENDTAB
  0
TABLE
  2
BLOCK_RECORD
  5
1
330
0
100
AcDbSymbolTable
 70
     1
  0
BLOCK_RECORD
  5
1F
330
1
100
AcDbSymbolTableRecord
100
AcDbBlockTableRecord
  2
*MODEL_SPACE
340
22
  0
BLOCK_RECORD
  5
1B
330
1
100
AcDbSymbolTableRecord
100
AcDbBlockTableRecord
  2
*PAPER_SPACE
340
1E
  0
BLOCK_RECORD
  5
228
330
1
100
AcDbSymbolTableRecord
100
AcDbBlockTableRecord
  2
_FILLED
340
0
  0
ENDTAB
  0
ENDSEC
  0
SECTION
  2
BLOCKS
  0
BLOCK
  5
20
330
1F
100
AcDbEntity
  8
0
100
AcDbBlockBegin
  2
*MODEL_SPACE
 70
     0
 10
0.0
 20
0.0
 30
0.0
  3
*MODEL_SPACE
  1

  0
ENDBLK
  5
21
330
1F
100
AcDbEntity
  8
0
100
AcDbBlockEnd
  0
BLOCK
  5
1C
330
1B
100
AcDbEntity
 67
     1
  8
0
100
AcDbBlockBegin
  2
*PAPER_SPACE
 70
     0
 10
0.0
 20
0.0
 30
0.0
  3
*PAPER_SPACE
  1

  0
ENDBLK
  5
1D
330
1B
100
AcDbEntity
 67
     1
  8
0
100
AcDbBlockEnd
  0
BLOCK
  5
1436
330
228
100
AcDbEntity
  8
0
100
AcDbBlockBegin
  2
_FILLED
 70
     0
 10
0.0
 20
0.0
 30
0.0
  3
_FILLED
  1

  0
SOLID
  5
1437
330
228
100
AcDbEntity
  8
0
  6
ByBlock
 62
     0
100
AcDbTrace
 10
0.0
 20
0.0
 30
0.0
 11
-1.0
 21
0.1666666667
 31
0.0
 12
-1.0
 22
-0.1666666667
 32
0.0
 13
-1.0
 23
-0.1666666667
 33
0.0
  0
ENDBLK
  5
1438
330
228
100
AcDbEntity
  8
0
  6
ByBlock
 62
     0
100
AcDbBlockEnd
  0
ENDSEC
  0
SECTION
  2
ENTITIES
  0
MTEXT
  5
14AE
330
1F
100
AcDbEntity
  8
0
  6
Continuous
 62
     2
100
AcDbMText
 10
15.84375
 20
2.3125
 30
0.0
 40
0.09375
 41
0.075
 71
     2
 72
     1
  1
 \P \P 
  7
TEXTSTYLE_1
 73
     1
 44
1.0
  0
LINE
  5
14EC
330
1F
100
AcDbEntity
  8
0
100
AcDbLine
 10
15.21329236159999
 20
0.6456664080000057
 30
0.0
 11
14.15631866659893
 21
2.583451517842629
 31
0.0
  0
LINE
  5
14ED
330
1F
100
AcDbEntity
  8
0
  6
HIDDEN
 62
     8
100
AcDbLine
 10
4.252927795200002
 20
19.15958461599998
 30
0.0
 11
4.987184507199999
 21
17.75673642559999
 31
0.0
  0
LINE
  5
1517
330
1F
100
AcDbEntity
  8
0
  6
HIDDEN
 62
     8
100
AcDbLine
 10
61.96666700479999
 20
17.75673642559999
 30
0.0
 11
62.3525829632
 21
20.50267115519999
 31
0.0
  0
LINE
  5
1519
330
1F
100
AcDbEntity
  8
0
100
AcDbLine
 10
55.62532778560001
 20
0.0000000000000018
 30
0.0
 11
16.1246720608
 21
0.0000000000000018
 31
0.0
  0
LWPOLYLINE
  5
151C
330
1F
100
AcDbEntity
  8
0
100
AcDbPolyline
 90
       46
 70
     0
 43
0.0
 10
60.1387407712
 20
3.852203384000002
 10
60.12886474239999
 20
3.788927731200001
 10
60.11706262719999
 20
3.725916191999996
 10
60.10335196959999
 20
3.663235857599996
 10
60.08775031359999
 20
3.600953815999996
 10
60.07027520479999
 20
3.539137159999999
 10
60.05094418879999
 20
3.477852979199997
 10
60.02977480959999
 20
3.417168363200001
 10
60.00678461119999
 20
3.357150401599998
 10
59.9819911376
 20
3.297866183999996
 10
59.95541598719999
 20
3.2393836912
 10
59.92708536
 20
3.181749278400001
 10
59.89702925279999
 20
3.125010303999996
 10
59.8652776608
 20
3.069214124800001
 10
59.83186058079999
 20
3.0144081024
 10
59.79680800959999
 20
2.960639595199996
 10
59.76014994239999
 20
2.907955961599999
 10
59.72191637439999
 20
2.856404561599998
 10
59.68213730399998
 20
2.806032753599996
 10
59.6408449088
 20
2.756886686399997
 10
59.5980808208
 20
2.7090085152
 10
59.55388885919999
 20
2.662439177599996
 10
59.50831284959999
 20
2.617219611199995
 10
59.4613966128
 20
2.573390756799998
 10
59.41318397119999
 20
2.530993550400001
 10
59.36371874719998
 20
2.490068929599996
 10
59.31304476159999
 20
2.450657833600001
 10
59.26120583999999
 20
2.4128012
 10
59.20824677119998
 20
2.376537635199998
 10
59.15421587999999
 20
2.341896174400002
 10
59.09916245279999
 20
2.308903527999998
 10
59.0431357792
 20
2.2775864032
 10
58.98618514879999
 20
2.247971510400002
 10
58.92835985119999
 20
2.220085555199997
 10
58.86970917279999
 20
2.193955247999998
 10
58.8102824048
 20
2.169607297599998
 10
58.7501288368
 20
2.147068409599999
 10
58.68930011519999
 20
2.126362748800001
 10
58.6278619776
 20
2.107505849599998
 10
58.5658825408
 20
2.090510652800002
 10
58.50342991999999
 20
2.075390100799996
 10
58.44057222879999
 20
2.062157134399999
 10
58.37737758239999
 20
2.050824697599995
 10
58.3139140944
 20
2.041405729599997
 10
58.25024988319999
 20
2.033913174400002
 10
58.1864530608
 20
2.0283599728
  0
LINE
  5
1522
330
1F
100
AcDbEntity
  8
0
100
AcDbLine
 10
56.49941747360001
 20
0.5550213792000012
 30
0.0
 11
57.15902485773785
 21
1.958583251751816
 31
0.0
  0
LINE
  5
1526
330
1F
100
AcDbEntity
  8
0
  6
HIDDEN
 62
     8
100
AcDbLine
 10
62.75828422719999
 20
20.89174666719999
 30
0.0
 11
65.40192225920001
 21
20.9893931072
 31
0.0
  0
LINE
  5
1579
330
1F
100
AcDbEntity
  8
0
100
AcDbLine
 10
0.0
 20
17.75673642559999
 30
0.0
 11
0.1575559987853525
 21
20.76308398899736
 31
0.0
  0
LINE
  5
1582
330
1F
100
AcDbEntity
  8
0
100
AcDbLine
 10
10.7336418112
 20
4.384512851199993
 30
0.0
 11
10.7327761488
 21
4.387076980799996
 31
0.0
  0
LWPOLYLINE
  5
1584
330
1F
100
AcDbEntity
  8
0
100
AcDbPolyline
 90
        4
 70
     0
 43
0.0
 10
56.83600872319999
 20
1.939332216
 10
56.80640720639999
 20
1.934010718399999
 10
56.77869000159999
 20
1.921626513599999
 10
56.754765352
 20
1.902915412800002
  0
LWPOLYLINE
  5
1586
330
1F
100
AcDbEntity
  8
0
100
AcDbPolyline
 90
        4
 70
     0
 43
0.0
 10
58.18647100159999
 20
2.028358574399998
 10
57.72537726239999
 20
1.995617513599999
 10
57.27431871679999
 20
1.965451734400001
 10
56.8356809712
 20
1.9393204576
  0
LINE
  5
1587
330
1F
100
AcDbEntity
  8
0
100
AcDbLine
 10
56.62717808479999
 20
1.933049692799997
 30
0.0
 11
56.77672211039999
 21
1.937807247999998
 31
0.0
  0
LINE
  5
1588
330
1F
100
AcDbEntity
  8
0
100
AcDbLine
 10
56.77672211039999
 20
1.937807247999998
 30
0.0
 11
56.83629213759999
 21
1.939347862399998
 31
0.0
  0
LINE
  5
1589
330
1F
100
AcDbEntity
  8
0
100
AcDbLine
 10
56.0780518704
 20
1.381736425599996
 30
0.0
 11
53.5356050832
 21
1.381736425599996
 31
0.0
  0
LWPOLYLINE
  5
158B
330
1F
100
AcDbEntity
  8
0
100
AcDbPolyline
 90
        9
 70
     0
 43
0.0
 10
54.96360340319998
 20
1.905948260799998
 10
55.13558939359999
 20
1.906286438399998
 10
55.32357537279999
 20
1.9072902704
 10
55.52747888479999
 20
1.909146033599999
 10
55.7455003376
 20
1.912029140799997
 10
55.97340184959999
 20
1.916045132799997
 10
56.2040951152
 20
1.921148236799997
 10
56.42748115359999
 20
1.9270523568
 10
56.62717808479999
 20
1.9330496928
  0
LINE
  5
158C
330
1F
100
AcDbEntity
  8
0
100
AcDbLine
 10
54.806462888
 20
1.906110479999995
 30
0.0
 11
54.96360340319999
 21
1.905948260799995
 31
0.0
  0
LWPOLYLINE
  5
158D
330
1F
100
AcDbEntity
  8
0
100
AcDbPolyline
 90
        8
 70
     0
 43
0.0
 10
52.80605292479999
 20
1.9059985984
 10
49.33699733119999
 20
1.961712191999996
 10
45.48357824639999
 20
2.0274440224
 10
41.32214544639999
 20
2.100226089599996
 10
36.49939574719999
 20
2.1857112448
 10
30.7690669824
 20
2.288024796799998
 10
24.5017308656
 20
2.400145068799997
 10
13.17423339207217
 20
2.600852715674836
  0
LINE
  5
158F
330
1F
100
AcDbEntity
  8
0
100
AcDbLine
 10
0.0
 20
17.75673642559999
 30
0.0
 11
66.0
 21
17.75673642559999
 31
0.0
  0
LWPOLYLINE
  5
1590
330
1F
100
AcDbEntity
  8
0
100
AcDbPolyline
 90
        4
 70
     0
 43
0.0
 10
52.8923740048
 20
1.869408039999999
 10
52.86702918559999
 20
1.888955950399999
 10
52.8375468816
 20
1.9014277616
 10
52.80602884959999
 20
1.905999907200001
  0
LINE
  5
1593
330
1F
100
AcDbEntity
  8
0
100
AcDbLine
 10
53.27020834719999
 20
1.491571383999996
 30
0.0
 11
52.89236368640001
 21
1.869416044799997
 31
0.0
  0
LINE
  5
1597
330
1F
100
AcDbEntity
  8
CENTER
 48
4.0
100
AcDbLine
 10
64.8640799088
 20
16.58471780319999
 30
0.0
 11
57.76859384959998
 21
17.58192333759999
 31
0.0
  0
LINE
  5
1599
330
1F
100
AcDbEntity
  8
CENTER
 48
4.0
100
AcDbLine
 10
54.80682
 20
4.558163225847124
 30
0.0
 11
54.80682000000001
 21
0.0000000000000036
 31
0.0
  0
LINE
  5
159A
330
1F
100
AcDbEntity
  8
0
100
AcDbLine
 10
56.75476038399999
 20
1.902900115199997
 30
0.0
 11
56.3434316528
 21
1.491571383999996
 31
0.0
  0
LINE
  5
159B
330
1F
100
AcDbEntity
  8
0
100
AcDbLine
 10
60.13992272959999
 20
3.860613452799995
 30
0.0
 11
62.09289545119998
 21
17.75673642559999
 31
0.0
  0
LINE
  5
159E
330
1F
100
AcDbEntity
  8
0
100
AcDbLine
 10
66.0
 20
17.75673642559999
 30
0.0
 11
65.8424440006559
 21
20.76308398904342
 31
0.0
  0
ARC
  5
1637
330
1F
100
AcDbEntity
  8
0
  6
HIDDEN
 62
     8
100
AcDbCircle
 10
1.236443763200001
 20
17.5807440384
 30
0.0
 40
3.404689924799999
100
AcDbArc
 50
27.6277515159
 51
89.90980734289999
  0
ARC
  5
1638
330
1F
100
AcDbEntity
  8
0
  6
HIDDEN
 62
     8
100
AcDbCircle
 10
62.80266135040001
 20
20.4394167632
 30
0.0
 40
0.4545015648
100
AcDbArc
 50
95.6032354076
 51
172.0
  0
ARC
  5
1643
330
1F
100
AcDbEntity
  8
0
100
AcDbCircle
 10
16.1246720608
 20
0.9660546448000051
 30
0.0
 40
0.9660546447999999
100
AcDbArc
 50
199.3687164083999
 51
270.0
  0
ARC
  5
1644
330
1F
100
AcDbEntity
  8
0
100
AcDbCircle
 10
55.62532778560001
 20
0.9658019968000051
 30
0.0
 40
0.9658019967999999
100
AcDbArc
 50
270.0
 51
334.828705489
  0
ARC
  5
1648
330
1F
100
AcDbEntity
  8
0
100
AcDbCircle
 10
-69.6680521072
 20
-22.8061701104
 30
0.0
 40
84.875
100
AcDbArc
 50
18.6936331873
 51
28.54921649055032
  0
ARC
  5
1649
330
1F
100
AcDbEntity
  8
0
100
AcDbCircle
 10
53.53537339039999
 20
1.756736425599996
 30
0.0
 40
0.375
100
AcDbArc
 50
225.0
 51
270.0
  0
ARC
  5
164A
330
1F
100
AcDbEntity
  8
0
100
AcDbCircle
 10
13.2202966304
 20
5.225448527999994
 30
0.0
 40
2.625
100
AcDbArc
 50
198.6845971274
 51
268.9945277657999
  0
ARC
  5
164B
330
1F
100
AcDbEntity
  8
0
100
AcDbCircle
 10
56.0782666096
 20
1.756736425599996
 30
0.0
 40
0.375
100
AcDbArc
 50
270.0
 51
315.0
  0
LINE
  5
1657
330
1F
100
AcDbEntity
  8
0
370
     0
100
AcDbLine
 10
0.4072133824773179
 20
21.0
 30
0.0
 11
65.59278661696635
 21
21.0
 31
0.0
  0
ARC
  5
165E
330
1F
100
AcDbEntity
  8
0
100
AcDbCircle
 10
65.59278661696635
 20
20.75
 30
0.0
 40
0.25
100
AcDbArc
 50
2.999999996028509
 51
90.0
  0
ARC
  5
165F
330
1F
100
AcDbEntity
  8
0
370
     0
100
AcDbCircle
 10
0.4072133824773179
 20
20.75
 30
0.0
 40
0.25
100
AcDbArc
 50
90.0
 51
177.000000014545
  0
LINE
  5
166E
330
1F
100
AcDbEntity
  8
0
100
AcDbLine
 10
54.807177112
 20
1.906110479999995
 30
0.0
 11
52.81941211270566
 21
1.904058471658524
 31
0.0
  0
ENDSEC
  0
SECTION
  2
OBJECTS
  0
DICTIONARY
  5
C
330
0
100
AcDbDictionary
281
     1
  3
ACAD_GROUP
350
D
  3
ACAD_LAYOUT
350
1A
  3
ACAD_MLINESTYLE
350
17
  3
ACAD_PLOTSETTINGS
350
19
  3
ACAD_PLOTSTYLENAME
350
E
  3
ASE_INDEX_DICTIONARY
350
165A
  0
DICTIONARY
  5
1671
330
2
100
AcDbDictionary
280
     1
281
     1
  3
ACAD_LAYERFILTERS
360
1672
  0
DICTIONARY
  5
D
102
{ACAD_REACTORS
330
C
102
}
330
C
100
AcDbDictionary
281
     1
  0
DICTIONARY
  5
1A
102
{ACAD_REACTORS
330
C
102
}
330
C
100
AcDbDictionary
281
     1
  3
Layout1
350
1E
  3
Model
350
22
  0
DICTIONARY
  5
17
102
{ACAD_REACTORS
330
C
102
}
330
C
100
AcDbDictionary
281
     1
  3
Standard
350
18
  0
DICTIONARY
  5
19
102
{ACAD_REACTORS
330
C
102
}
330
C
100
AcDbDictionary
281
     1
  0
ACDBDICTIONARYWDFLT
  5
E
102
{ACAD_REACTORS
330
C
102
}
330
C
100
AcDbDictionary
281
     1
  3
Normal
350
F
100
AcDbDictionaryWithDefault
340
F
  0
DICTIONARY
  5
165A
102
{ACAD_REACTORS
330
C
102
}
330
C
100
AcDbDictionary
281
     1
  3
ASEBlockHierarchyIndexRecord
350
165C
1001
DCO15
1040
1635236808.149
  0
DICTIONARY
  5
1672
102
{ACAD_REACTORS
330
1671
102
}
330
1671
100
AcDbDictionary
280
     1
281
     1
  3
DIM-1_12
360
1673
  3
dim-1_16
360
1674
  0
LAYOUT
  5
1E
102
{ACAD_REACTORS
330
1A
102
}
330
1A
100
AcDbPlotSettings
  1

  2

  4

  6

 40
0.0
 41
0.0
 42
0.0
 43
0.0
 44
0.0
 45
0.0
 46
0.0
 47
0.0
 48
0.0
 49
0.0
140
0.0
141
0.0
142
1.0
143
1.0
 70
     0
 72
     0
 73
     0
 74
     0
  7

 75
     0
147
1.0
148
0.0
149
0.0
100
AcDbLayout
  1
Layout1
 70
     0
 71
     1
 10
0.0
 20
0.0
 11
12.0
 21
9.0
 12
0.0
 22
0.0
 32
0.0
 14
1.000000000000000E+20
 24
1.000000000000000E+20
 34
1.000000000000000E+20
 15
-1.000000000000000E+20
 25
-1.000000000000000E+20
 35
-1.000000000000000E+20
146
0.0
 13
0.0
 23
0.0
 33
0.0
 16
1.0
 26
0.0
 36
0.0
 17
0.0
 27
1.0
 37
0.0
 76
     0
330
1B
  0
LAYOUT
  5
22
102
{ACAD_REACTORS
330
1A
102
}
330
1A
100
AcDbPlotSettings
  1

  2

  4

  6

 40
0.0
 41
0.0
 42
0.0
 43
0.0
 44
0.0
 45
0.0
 46
0.0
 47
0.0
 48
0.0
 49
0.0
140
0.0
141
0.0
142
1.0
143
1.0
 70
     0
 72
     0
 73
     0
 74
     0
  7

 75
     0
147
1.0
148
0.0
149
0.0
100
AcDbLayout
  1
Model
 70
     0
 71
     0
 10
0.0
 20
0.0
 11
0.0
 21
0.0
 12
0.0
 22
0.0
 32
0.0
 14
0.0
 24
0.0
 34
0.0
 15
0.0
 25
0.0
 35
0.0
146
0.0
 13
0.0
 23
0.0
 33
0.0
 16
0.0
 26
0.0
 36
0.0
 17
0.0
 27
0.0
 37
0.0
 76
     0
330
1F
  0
MLINESTYLE
  5
18
102
{ACAD_REACTORS
330
17
102
}
330
17
100
AcDbMlineStyle
  2
STANDARD
 70
     0
  3

 62
   256
 51
90.0
 52
90.0
 71
     2
 49
0.5
 62
   256
  6
BYLAYER
 49
-0.5
 62
   256
  6
BYLAYER
  0
ACDBPLACEHOLDER
  5
F
102
{ACAD_REACTORS
330
E
102
}
330
0
  0
XRECORD
  5
165C
102
{ACAD_REACTORS
330
165A
102
}
330
165A
100
AcDbXrecord
280
     1
330
0
330
0
330
0
330
0
330
0
330
0
330
0
330
0
330
0
330
0
330
0
330
0
330
0
330
0
330
0
330
0
330
0
330
0
330
0
330
0
330
0
330
0
330
0
330
0
330
0
330
0
330
0
330
0
330
0
330
0
330
0
330
0
330
0
330
0
330
0
330
0
  0
XRECORD
  5
1673
102
{ACAD_REACTORS
330
1672
102
}
330
1672
100
AcDbXrecord
280
     1
  1
DIM-1_12
  1
DIM-1_12
  1
*
  1
*
 70
     0
  1
*
  1
*
  0
XRECORD
  5
1674
102
{ACAD_REACTORS
330
1672
102
}
330
1672
100
AcDbXrecord
280
     1
  1
dim-1_16
  1
*
  1
*
  1
*
 70
     0
  1
*
  1
*
  0
ENDSEC
  0
EOF
