  0
SECTION
  2
HEADER
  9
$ACADVER
  1
AC1015
  9
$ACADMAINTVER
 70
    10
  9
$DWGCODEPAGE
  3
ANSI_1252
  9
$INSBASE
 10
0.0
 20
0.0
 30
0.0
  9
$EXTMIN
 10
-16.0
 20
-0.0950244345797429
 30
0.0
  9
$EXTMAX
 10
16.0
 20
20.93032449902833
 30
0.0
  9
$LIMMIN
 10
0.0
 20
0.0
  9
$LIMMAX
 10
17.0
 20
11.0
  9
$ORTHOMODE
 70
     1
  9
$REGENMODE
 70
     1
  9
$FILLMODE
 70
     1
  9
$QTEXTMODE
 70
     0
  9
$MIRRTEXT
 70
     1
  9
$LTSCALE
 40
0.9350000000000001
  9
$ATTMODE
 70
     1
  9
$TEXTSIZE
 40
0.2
  9
$TRACEWID
 40
0.05
  9
$TEXTSTYLE
  7
STANDARD
  9
$CLAYER
  8
0
  9
$CELTYPE
  6
ByLayer
  9
$CECOLOR
 62
   256
  9
$CELTSCALE
 40
1.0
  9
$DISPSILH
 70
     0
  9
$DIMSCALE
 40
1.0
  9
$DIMASZ
 40
0.1875
  9
$DIMEXO
 40
0.10625
  9
$DIMDLI
 40
0.646
  9
$DIMRND
 40
0.0
  9
$DIMDLE
 40
0.0
  9
$DIMEXE
 40
0.306
  9
$DIMTP
 40
0.0
  9
$DIMTM
 40
0.0
  9
$DIMTXT
 40
0.125
  9
$DIMCEN
 40
0.153
  9
$DIMTSZ
 40
0.0
  9
$DIMTOL
 70
     0
  9
$DIMLIM
 70
     0
  9
$DIMTIH
 70
     1
  9
$DIMTOH
 70
     1
  9
$DIMSE1
 70
     0
  9
$DIMSE2
 70
     0
  9
$DIMTAD
 70
     0
  9
$DIMZIN
 70
     0
  9
$DIMBLK
  1
_FILLED
  9
$DIMASO
 70
     1
  9
$DIMSHO
 70
     1
  9
$DIMPOST
  1

  9
$DIMAPOST
  1

  9
$DIMALT
 70
     0
  9
$DIMALTD
 70
     2
  9
$DIMALTF
 40
25.4
  9
$DIMLFAC
 40
1.0
  9
$DIMTOFL
 70
     0
  9
$DIMTVP
 40
0.0
  9
$DIMTIX
 70
     0
  9
$DIMSOXD
 70
     0
  9
$DIMSAH
 70
     0
  9
$DIMBLK1
  1

  9
$DIMBLK2
  1

  9
$DIMSTYLE
  2
STANDARD
  9
$DIMCLRD
 70
     0
  9
$DIMCLRE
 70
     0
  9
$DIMCLRT
 70
     0
  9
$DIMTFAC
 40
1.0
  9
$DIMGAP
 40
0.09
  9
$DIMJUST
 70
     0
  9
$DIMSD1
 70
     0
  9
$DIMSD2
 70
     0
  9
$DIMTOLJ
 70
     1
  9
$DIMTZIN
 70
     0
  9
$DIMALTZ
 70
     0
  9
$DIMALTTZ
 70
     0
  9
$DIMUPT
 70
     0
  9
$DIMDEC
 70
     4
  9
$DIMTDEC
 70
     4
  9
$DIMALTU
 70
     2
  9
$DIMALTTD
 70
     2
  9
$DIMTXSTY
  7
STANDARD
  9
$DIMAUNIT
 70
     0
  9
$DIMADEC
 70
     0
  9
$DIMALTRND
 40
0.0
  9
$DIMAZIN
 70
     0
  9
$DIMDSEP
 70
     0
  9
$DIMATFIT
 70
     3
  9
$DIMFRAC
 70
     0
  9
$DIMLDRBLK
  1

  9
$DIMLUNIT
 70
     2
  9
$DIMLWD
 70
     0
  9
$DIMLWE
 70
     0
  9
$DIMTMOVE
 70
     0
  9
$LUNITS
 70
     2
  9
$LUPREC
 70
     4
  9
$SKETCHINC
 40
0.1
  9
$FILLETRAD
 40
0.0
  9
$AUNITS
 70
     0
  9
$AUPREC
 70
     0
  9
$MENU
  1
acad
  9
$ELEVATION
 40
0.0
  9
$PELEVATION
 40
0.0
  9
$THICKNESS
 40
0.0
  9
$LIMCHECK
 70
     0
  9
$CHAMFERA
 40
0.0
  9
$CHAMFERB
 40
0.0
  9
$CHAMFERC
 40
0.0
  9
$CHAMFERD
 40
0.0
  9
$SKPOLY
 70
     0
  9
$TDCREATE
 40
2454729.489233275
  9
$TDUCREATE
 40
2454729.655899942
  9
$TDUPDATE
 40
2454729.567437558
  9
$TDUUPDATE
 40
2454729.734104224
  9
$TDINDWG
 40
0.0730712384
  9
$TDUSRTIMER
 40
0.0730712384
  9
$USRTIMER
 70
     1
  9
$ANGBASE
 50
0.0
  9
$ANGDIR
 70
     0
  9
$PDMODE
 70
     3
  9
$PDSIZE
 40
0.3125
  9
$PLINEWID
 40
0.0
  9
$SPLFRAME
 70
     0
  9
$SPLINETYPE
 70
     6
  9
$SPLINESEGS
 70
     8
  9
$HANDSEED
  5
175F
  9
$SURFTAB1
 70
     6
  9
$SURFTAB2
 70
     6
  9
$SURFTYPE
 70
     6
  9
$SURFU
 70
     6
  9
$SURFV
 70
     6
  9
$UCSBASE
  2

  9
$UCSNAME
  2

  9
$UCSORG
 10
0.0
 20
0.0
 30
0.0
  9
$UCSXDIR
 10
1.0
 20
0.0
 30
0.0
  9
$UCSYDIR
 10
0.0
 20
1.0
 30
0.0
  9
$UCSORTHOREF
  2

  9
$UCSORTHOVIEW
 70
     0
  9
$UCSORGTOP
 10
0.0
 20
0.0
 30
0.0
  9
$UCSORGBOTTOM
 10
0.0
 20
0.0
 30
0.0
  9
$UCSORGLEFT
 10
0.0
 20
0.0
 30
0.0
  9
$UCSORGRIGHT
 10
0.0
 20
0.0
 30
0.0
  9
$UCSORGFRONT
 10
0.0
 20
0.0
 30
0.0
  9
$UCSORGBACK
 10
0.0
 20
0.0
 30
0.0
  9
$PUCSBASE
  2

  9
$PUCSNAME
  2

  9
$PUCSORG
 10
0.0
 20
0.0
 30
0.0
  9
$PUCSXDIR
 10
1.0
 20
0.0
 30
0.0
  9
$PUCSYDIR
 10
0.0
 20
1.0
 30
0.0
  9
$PUCSORTHOREF
  2

  9
$PUCSORTHOVIEW
 70
     0
  9
$PUCSORGTOP
 10
0.0
 20
0.0
 30
0.0
  9
$PUCSORGBOTTOM
 10
0.0
 20
0.0
 30
0.0
  9
$PUCSORGLEFT
 10
0.0
 20
0.0
 30
0.0
  9
$PUCSORGRIGHT
 10
0.0
 20
0.0
 30
0.0
  9
$PUCSORGFRONT
 10
0.0
 20
0.0
 30
0.0
  9
$PUCSORGBACK
 10
0.0
 20
0.0
 30
0.0
  9
$USERI1
 70
     0
  9
$USERI2
 70
     0
  9
$USERI3
 70
     0
  9
$USERI4
 70
     0
  9
$USERI5
 70
     0
  9
$USERR1
 40
0.0
  9
$USERR2
 40
0.0
  9
$USERR3
 40
0.0
  9
$USERR4
 40
0.0
  9
$USERR5
 40
0.0
  9
$WORLDVIEW
 70
     1
  9
$SHADEDGE
 70
     3
  9
$SHADEDIF
 70
    70
  9
$TILEMODE
 70
     1
  9
$MAXACTVP
 70
    16
  9
$PINSBASE
 10
0.0
 20
0.0
 30
0.0
  9
$PLIMCHECK
 70
     0
  9
$PEXTMIN
 10
1.000000000000000E+20
 20
1.000000000000000E+20
 30
1.000000000000000E+20
  9
$PEXTMAX
 10
-1.000000000000000E+20
 20
-1.000000000000000E+20
 30
-1.000000000000000E+20
  9
$PLIMMIN
 10
0.0
 20
0.0
  9
$PLIMMAX
 10
12.0
 20
9.0
  9
$UNITMODE
 70
     0
  9
$VISRETAIN
 70
     0
  9
$PLINEGEN
 70
     1
  9
$PSLTSCALE
 70
     0
  9
$TREEDEPTH
 70
  3020
  9
$CMLSTYLE
  2
Standard
  9
$CMLJUST
 70
     0
  9
$CMLSCALE
 40
1.0
  9
$PROXYGRAPHICS
 70
     0
  9
$MEASUREMENT
 70
     0
  9
$CELWEIGHT
370
     0
  9
$ENDCAPS
280
     0
  9
$JOINSTYLE
280
     0
  9
$LWDISPLAY
290
     0
  9
$INSUNITS
 70
     1
  9
$HYPERLINKBASE
  1

  9
$STYLESHEET
  1

  9
$XEDIT
290
     1
  9
$CEPSNTYPE
380
     0
  9
$PSTYLEMODE
290
     1
  9
$FINGERPRINTGUID
  2

  9
$VERSIONGUID
  2
{ABA90D48-7A3A-4875-BB28-546BC55C5ECF}
  9
$EXTNAMES
290
     1
  9
$PSVPSCALE
 40
0.0
  9
$OLESTARTUP
290
     0
  0
ENDSEC
  0
SECTION
  2
CLASSES
  0
CLASS
  1
ACDBDICTIONARYWDFLT
  2
AcDbDictionaryWithDefault
  3
AutoCAD 2000
 90
        0
280
     0
281
     0
  0
CLASS
  1
ACDBPLACEHOLDER
  2
AcDbPlaceHolder
  3
AutoCAD 2000
 90
        0
280
     0
281
     0
  0
CLASS
  1
LAYOUT
  2
AcDbLayout
  3
AutoCAD 2000
 90
        0
280
     0
281
     0
  0
CLASS
  1
LWPOLYLINE
  2
AcDbPolyline
  3
AutoCAD 2000
 90
    32768
280
     0
281
     1
  0
CLASS
  1
IMAGE
  2
AcDbRasterImage
  3
ISM
 90
    32895
280
     0
281
     1
  0
CLASS
  1
OLE2FRAME
  2
AcDbOle2Frame
  3
AutoCAD 2000
 90
    32768
280
     0
281
     1
  0
CLASS
  1
HATCH
  2
AcDbHatch
  3
AutoCAD 2000
 90
    32768
280
     0
281
     1
  0
CLASS
  1
DICTIONARYVAR
  2
AcDbDictionaryVar
  3
AutoCAD 2000
 90
    32768
280
     0
281
     0
  0
CLASS
  1
RASTERVARIABLES
  2
AcDbRasterVariables
  3
ISM
 90
    32768
280
     0
281
     0
  0
CLASS
  1
IMAGEDEF
  2
AcDbRasterImageDef
  3
ISM
 90
    32768
280
     0
281
     0
  0
CLASS
  1
IMAGEDEF_REACTOR
  2
AcDbRasterImageDefReactor
  3
ISM
 90
    32769
280
     0
281
     0
  0
CLASS
  1
IDBUFFER
  2
AcDbIdBuffer
  3
AutoCAD 2000
 90
    32768
280
     0
281
     0
  0
CLASS
  1
SPATIAL_FILTER
  2
AcDbSpatialFilter
  3
AutoCAD 2000
 90
    32768
280
     0
281
     0
  0
CLASS
  1
XRECORD
  2
AcDbXrecord
  3
AutoCAD 2000
 90
    32768
280
     0
281
     0
  0
CLASS
  1
SORTENTSTABLE
  2
AcDbSortentsTable
  3
AutoCAD 2000
 90
    32768
280
     0
281
     0
  0
CLASS
  1
LAYER_INDEX
  2
AcDbLayerIndex
  3
AutoCAD 2000
 90
    32768
280
     0
281
     0
  0
CLASS
  1
SPATIAL_INDEX
  2
AcDbSpatialIndex
  3
AutoCAD 2000
 90
    32768
280
     0
281
     0
  0
CLASS
  1
OBJECT_PTR
  2
CAseDLPNTableRecord
  3
ASE-LPNTableRecord
 90
    32769
280
     0
281
     0
  0
CLASS
  1
PLOTSETTINGS
  2
AcDbPlotSettings
  3
AutoCAD 2000
 90
    32768
280
     0
281
     0
  0
CLASS
  1
VBA_PROJECT
  2
AcDbVbaProject
  3
acadvba
 90
    32768
280
     0
281
     0
  0
CLASS
  1
WIPEOUT
  2
AcDbWipeout
  3
WipeOut|AutoCAD Express Tool|expresstools@autodesk.com
 90
    32895
280
     0
281
     1
  0
CLASS
  1
WIPEOUTVARIABLES
  2
AcDbWipeoutVariables
  3
WipeOut|AutoCAD Express Tool|expresstools@autodesk.com
 90
    32768
280
     0
281
     0
  0
CLASS
  1
RTEXT
  2
RText
  3
RText|AutoCAD Express Tool|expresstools@autodesk.com
 90
    32768
280
     0
281
     1
  0
CLASS
  1
ARCALIGNEDTEXT
  2
AcDbArcAlignedText
  3
ATEXT|AutoCAD Express Tool|expresstools@autodesk.com
 90
    32768
280
     0
281
     1
  0
ENDSEC
  0
SECTION
  2
TABLES
  0
TABLE
  2
VPORT
  5
8
330
0
100
AcDbSymbolTable
 70
     2
  0
VPORT
  5
175E
330
8
100
AcDbSymbolTableRecord
100
AcDbViewportTableRecord
  2
*Active
 70
     0
 10
0.0
 20
0.0
 11
1.0
 21
1.0
 12
-0.6731288248664669
 22
10.55570607832431
 13
0.0
 23
0.0
 14
1.0
 24
1.0
 15
0.0
 25
0.0
 16
0.0
 26
0.0
 36
1.0
 17
0.0
 27
0.0
 37
0.0
 40
23.48114799945418
 41
1.868263473053892
 42
50.0
 43
0.0
 44
0.0
 50
0.0
 51
0.0
 71
     0
 72
   100
 73
     1
 74
     1
 75
     0
 76
     0
 77
     0
 78
     0
281
     0
 65
     0
110
0.0
120
0.0
130
0.0
111
1.0
121
0.0
131
0.0
112
0.0
122
1.0
132
0.0
 79
     0
146
0.0
  0
ENDTAB
  0
TABLE
  2
LTYPE
  5
5
330
0
100
AcDbSymbolTable
 70
     3
  0
LTYPE
  5
14
330
5
100
AcDbSymbolTableRecord
100
AcDbLinetypeTableRecord
  2
ByBlock
 70
     0
  3

 72
    65
 73
     0
 40
0.0
  0
LTYPE
  5
15
330
5
100
AcDbSymbolTableRecord
100
AcDbLinetypeTableRecord
  2
ByLayer
 70
     0
  3

 72
    65
 73
     0
 40
0.0
  0
LTYPE
  5
16
330
5
100
AcDbSymbolTableRecord
100
AcDbLinetypeTableRecord
  2
CONTINUOUS
 70
     0
  3
Solid line
 72
    65
 73
     0
 40
0.0
  0
LTYPE
  5
1F5
330
5
100
AcDbSymbolTableRecord
100
AcDbLinetypeTableRecord
  2
CENTER
 70
     0
  3
____ _ ____ _ ____ _ ____ _ ____ _ ____ _ ____
 72
    65
 73
     4
 40
0.6
 49
0.375
 74
     0
 49
-0.075
 74
     0
 49
0.075
 74
     0
 49
-0.075
 74
     0
  0
LTYPE
  5
1F6
330
5
100
AcDbSymbolTableRecord
100
AcDbLinetypeTableRecord
  2
HIDDEN
 70
     0
  3
- - - - - - - - - - - - - - - - - - - -
 72
    65
 73
     2
 40
0.2
 49
0.1
 74
     0
 49
-0.1
 74
     0
  0
ENDTAB
  0
TABLE
  2
LAYER
  5
2
102
{ACAD_XDICTIONARY
360
1671
102
}
330
0
100
AcDbSymbolTable
 70
     2
  0
LAYER
  5
10
330
2
100
AcDbSymbolTableRecord
100
AcDbLayerTableRecord
  2
0
 70
     0
 62
     7
  6
CONTINUOUS
370
    -3
390
F
  0
LAYER
  5
1675
330
2
100
AcDbSymbolTableRecord
100
AcDbLayerTableRecord
  2
CENTER
 70
     0
 62
     1
  6
CENTER
370
    13
390
F
  0
ENDTAB
  0
TABLE
  2
STYLE
  5
3
330
0
100
AcDbSymbolTable
 70
     2
  0
STYLE
  5
11
330
3
100
AcDbSymbolTableRecord
100
AcDbTextStyleTableRecord
  2
STANDARD
 70
     0
 40
0.0
 41
0.8
 50
0.0
 71
     0
 42
0.2
  3
txt
  4

  0
STYLE
  5
223
330
3
100
AcDbSymbolTableRecord
100
AcDbTextStyleTableRecord
  2
TEXTSTYLE_1
 70
     0
 40
0.0
 41
0.8
 50
0.0
 71
     0
 42
0.2
  3
txt
  4

  0
ENDTAB
  0
TABLE
  2
VIEW
  5
6
330
0
100
AcDbSymbolTable
 70
     0
  0
ENDTAB
  0
TABLE
  2
UCS
  5
7
330
0
100
AcDbSymbolTable
 70
     0
  0
ENDTAB
  0
TABLE
  2
APPID
  5
9
330
0
100
AcDbSymbolTable
 70
     2
  0
APPID
  5
227
330
9
100
AcDbSymbolTableRecord
100
AcDbRegAppTableRecord
  2
ACAD
 70
     0
  0
APPID
  5
165B
330
9
100
AcDbSymbolTableRecord
100
AcDbRegAppTableRecord
  2
DCO15
 70
     0
  0
ENDTAB
  0
TABLE
  2
DIMSTYLE
  5
A
330
0
100
AcDbSymbolTable
 70
     1
100
AcDbDimStyleTable
 71
     1
340
245
  0
DIMSTYLE
105
245
330
A
100
AcDbSymbolTableRecord
100
AcDbDimStyleTableRecord
  2
STANDARD
 70
     0
 41
0.1875
 47
0.001
 48
0.001
 78
     4
140
0.125
271
     3
272
     3
284
     4
340
11
341
228
342
228
343
228
344
228
  0
ENDTAB
  0
TABLE
  2
BLOCK_RECORD
  5
1
330
0
100
AcDbSymbolTable
 70
     1
  0
BLOCK_RECORD
  5
1F
330
1
100
AcDbSymbolTableRecord
100
AcDbBlockTableRecord
  2
*MODEL_SPACE
340
22
  0
BLOCK_RECORD
  5
1B
330
1
100
AcDbSymbolTableRecord
100
AcDbBlockTableRecord
  2
*PAPER_SPACE
340
1E
  0
BLOCK_RECORD
  5
228
330
1
100
AcDbSymbolTableRecord
100
AcDbBlockTableRecord
  2
_FILLED
340
0
  0
ENDTAB
  0
ENDSEC
  0
SECTION
  2
BLOCKS
  0
BLOCK
  5
20
330
1F
100
AcDbEntity
  8
0
100
AcDbBlockBegin
  2
*MODEL_SPACE
 70
     0
 10
0.0
 20
0.0
 30
0.0
  3
*MODEL_SPACE
  1

  0
ENDBLK
  5
21
330
1F
100
AcDbEntity
  8
0
100
AcDbBlockEnd
  0
BLOCK
  5
1C
330
1B
100
AcDbEntity
 67
     1
  8
0
100
AcDbBlockBegin
  2
*PAPER_SPACE
 70
     0
 10
0.0
 20
0.0
 30
0.0
  3
*PAPER_SPACE
  1

  0
ENDBLK
  5
1D
330
1B
100
AcDbEntity
 67
     1
  8
0
100
AcDbBlockEnd
  0
BLOCK
  5
1436
330
228
100
AcDbEntity
  8
0
100
AcDbBlockBegin
  2
_FILLED
 70
     0
 10
0.0
 20
0.0
 30
0.0
  3
_FILLED
  1

  0
SOLID
  5
1437
330
228
100
AcDbEntity
  8
0
  6
ByBlock
 62
     0
100
AcDbTrace
 10
0.0
 20
0.0
 30
0.0
 11
-1.0
 21
0.1666666667
 31
0.0
 12
-1.0
 22
-0.1666666667
 32
0.0
 13
-1.0
 23
-0.1666666667
 33
0.0
  0
ENDBLK
  5
1438
330
228
100
AcDbEntity
  8
0
  6
ByBlock
 62
     0
100
AcDbBlockEnd
  0
ENDSEC
  0
SECTION
  2
ENTITIES
  0
MTEXT
  5
14AE
330
1F
100
AcDbEntity
  8
0
  6
Continuous
 62
     2
100
AcDbMText
 10
15.84375
 20
2.3125
 30
0.0
 40
0.09375
 41
0.075
 71
     2
 72
     1
  1
 \P \P 
  7
TEXTSTYLE_1
 73
     1
 44
1.0
  0
LINE
  5
1527
330
1F
100
AcDbEntity
  8
0
  6
HIDDEN
 62
     8
100
AcDbLine
 10
12.58997307519999
 20
20.76833500479999
 30
0.0
 11
15.5147724624
 21
20.875828
 31
0.0
  0
LINE
  5
1536
330
1F
100
AcDbEntity
  8
0
  6
HIDDEN
 62
     8
100
AcDbLine
 10
-12.61436872800001
 20
20.7702484672
 30
0.0
 11
-15.47660514080001
 21
20.8753895216
 31
0.0
  0
LINE
  5
1545
330
1F
100
AcDbEntity
  8
0
100
AcDbLine
 10
-7.408801632000006
 20
0.6396208944000002
 30
0.0
 11
-7.889704969600018
 21
1.971353216
 31
0.0
  0
LINE
  5
1547
330
1F
100
AcDbEntity
  8
0
  6
HIDDEN
 62
     8
100
AcDbLine
 10
-12.02437489571401
 20
17.6372593264
 30
0.0
 11
-12.3825849504
 21
20.554646112
 31
0.0
  0
LINE
  5
1557
330
1F
100
AcDbEntity
  8
0
100
AcDbLine
 10
-5.688647384000006
 20
0.4361617904000035
 30
0.0
 11
-4.760499412800015
 21
1.846642889600001
 31
0.0
  0
LINE
  5
155C
330
1F
100
AcDbEntity
  8
0
  6
HIDDEN
 62
     8
100
AcDbLine
 10
12.384739416
 20
20.5721928336
 30
0.0
 11
12.02437489408271
 21
17.6372593264
 31
0.0
  0
LINE
  5
15A4
330
1F
100
AcDbEntity
  8
0
100
AcDbLine
 10
-16.0
 20
17.6372593264
 30
0.0
 11
-15.84244400088405
 21
20.64360688982462
 31
0.0
  0
LINE
  5
15A6
330
1F
100
AcDbEntity
  8
0
100
AcDbLine
 10
-10.27220093920002
 20
2.7153271952
 30
0.0
 11
-10.3560819296
 21
3.024414841600002
 31
0.0
  0
LINE
  5
15A7
330
1F
100
AcDbEntity
  8
0
100
AcDbLine
 10
-10.3560819328
 20
3.024414865600004
 30
0.0
 11
-12.150313624
 21
17.6372593264
 31
0.0
  0
LWPOLYLINE
  5
15A8
330
1F
100
AcDbEntity
  8
0
100
AcDbPolyline
 90
        5
 70
     0
 43
0.0
 10
9.258569812800004
 20
2.036683104000005
 10
9.574737316799996
 20
2.087640121600003
 10
9.864809779199987
 20
2.226334454400003
 10
10.103828464
 20
2.441446270400007
 10
10.27220093759999
 20
2.715327195200003
  0
LWPOLYLINE
  5
15AB
330
1F
100
AcDbEntity
  8
0
100
AcDbPolyline
 90
        7
 70
     0
 43
0.0
 10
6.959819356799982
 20
1.959173942400006
 10
7.469583030400002
 20
1.979360238400005
 10
7.940640363200003
 20
1.997455846400008
 10
8.347205595199994
 20
2.012284022400002
 10
8.661629822399987
 20
2.022853211200008
 10
8.868672491199987
 20
2.029009744000006
 10
8.981419801599997
 20
2.031820902400006
  0
LWPOLYLINE
  5
15AC
330
1F
100
AcDbEntity
  8
0
100
AcDbPolyline
 90
        9
 70
     0
 43
0.0
 10
1.96880244639999
 20
1.7819079504
 10
1.999327303922228
 20
1.7865091566536
 10
2.659723332799984
 20
1.802930409600008
 10
3.330302812799999
 20
1.822668166400006
 10
3.987128974399979
 20
1.844407196800005
 10
4.627613828799979
 20
1.867410758400005
 10
5.249269424000004
 20
1.891029414400009
 10
5.848078627199981
 20
1.914598508800004
 10
6.959819356799982
 20
1.959173942400006
  0
LINE
  5
15AD
330
1F
100
AcDbEntity
  8
0
100
AcDbLine
 10
1.27144660799999
 20
1.262259326400002
 30
0.0
 11
-1.27123696800001
 21
1.262259326400002
 31
0.0
  0
LWPOLYLINE
  5
15AE
330
1F
100
AcDbEntity
  8
0
100
AcDbPolyline
 90
        3
 70
     0
 43
0.0
 10
-1.998338185600005
 20
1.786492715200004
 10
-1.99521248160002
 20
1.786366952000008
 10
-1.985155054399996
 20
1.785364427200008
  0
LINE
  5
15AF
330
1F
100
AcDbEntity
  8
0
100
AcDbLine
 10
-2.000151420799994
 20
1.786633380800001
 30
0.0
 11
-1.998251489600022
 21
1.7864908144
 31
0.0
  0
LWPOLYLINE
  5
15B0
330
1F
100
AcDbEntity
  8
0
100
AcDbPolyline
 90
        5
 70
     0
 43
0.0
 10
-9.258569814400004
 20
2.036683104000005
 10
-9.574737318399996
 20
2.087640121600003
 10
-9.864809780800015
 20
2.226334454400003
 10
-10.1038284656
 20
2.441446270400007
 10
-10.27220093920002
 20
2.715327195200003
  0
LINE
  5
15B1
330
1F
100
AcDbEntity
  8
0
100
AcDbLine
 10
-1.985155054399996
 20
1.785364427200004
 30
0.0
 11
-1.963372312000018
 21
1.780222774399998
 31
0.0
  0
LWPOLYLINE
  5
15B3
330
1F
100
AcDbEntity
  8
0
100
AcDbPolyline
 90
        3
 70
     0
 43
0.0
 10
-1.963372312000018
 20
1.780222774400002
 10
-1.935910332800006
 20
1.767159668800005
 10
-1.914569224000018
 20
1.750051976000008
  0
LINE
  5
15B4
330
1F
100
AcDbEntity
  8
0
100
AcDbLine
 10
9.011235420799977
 20
2.032423840000003
 30
0.0
 11
9.258571163200002
 21
2.0366853296
 31
0.0
  0
LWPOLYLINE
  5
15B5
330
1F
100
AcDbEntity
  8
0
100
AcDbPolyline
 90
        5
 70
     0
 43
0.0
 10
0.0023613743999817
 20
1.908882873600006
 10
2.098175902399987
 20
1.921247352000008
 10
4.411401675199982
 20
1.950508832000004
 10
6.859536316799989
 20
1.992955200000004
 10
9.011235420799977
 20
2.032423840000006
  0
LWPOLYLINE
  5
15B6
330
1F
100
AcDbEntity
  8
0
100
AcDbPolyline
 90
        4
 70
     0
 43
0.0
 10
0.0019119455999999
 20
1.908877737600008
 10
-2.846443011200022
 20
1.929187486400003
 10
-6.044529855999996
 20
1.978024379200007
 10
-9.011114814400002
 20
2.032421848000005
  0
LINE
  5
15B7
330
1F
100
AcDbEntity
  8
0
100
AcDbLine
 10
-9.011114814400002
 20
2.032421848000002
 30
0.0
 11
-9.258571164800002
 21
2.0366853296
 31
0.0
  0
LWPOLYLINE
  5
15B8
330
1F
100
AcDbEntity
  8
0
100
AcDbPolyline
 90
       15
 70
     0
 43
0.0
 10
-8.981311632
 20
2.031818542400003
 10
-8.86956210400001
 20
2.029033952000006
 10
-8.666323843200018
 20
2.023001873600009
 10
-8.355417976000012
 20
2.012572412800004
 10
-7.947675896000021
 20
1.997719980800006
 10
-7.474060206399997
 20
1.979535340800005
 10
-6.958975956800003
 20
1.959140233600003
 10
-6.409144657599995
 20
1.937072883200002
 10
-5.829709660800006
 20
1.913867265600003
 10
-5.225115944000009
 20
1.890093006400007
 10
-4.600556385600015
 20
1.866408676800006
 10
-3.960111435200019
 20
1.843472830400003
 10
-3.305223064000017
 20
1.821881804800007
 10
-2.638104667199996
 20
1.802341972800007
 10
-1.998207472000018
 20
1.786481310400006
  0
LINE
  5
15BA
330
1F
100
AcDbEntity
  8
0
100
AcDbLine
 10
-1.536611652800019
 20
1.372094284800002
 30
0.0
 11
-1.914570406400002
 21
1.7500530384
 31
0.0
  0
LINE
  5
15C9
330
1F
100
AcDbEntity
  8
CENTER
 48
4.0
100
AcDbLine
 10
0.0
 20
0.0
 30
0.0
 11
0.0
 21
4.43868612664713
 31
0.0
  0
LINE
  5
15D6
330
1F
100
AcDbEntity
  8
0
100
AcDbLine
 10
1.914570406400002
 20
1.7500530384
 30
0.0
 11
1.53661165119999
 21
1.372094284800002
 31
0.0
  0
LINE
  5
15D7
330
1F
100
AcDbEntity
  8
0
100
AcDbLine
 10
-16.0
 20
17.6372593264
 30
0.0
 11
16.0
 21
17.6372593264
 31
0.0
  0
LINE
  5
15D8
330
1F
100
AcDbEntity
  8
0
100
AcDbLine
 10
1.914570926399989
 20
1.7500538032
 30
0.0
 11
1.939650467199982
 21
1.769447532800004
 31
0.0
  0
LINE
  5
15DA
330
1F
100
AcDbEntity
  8
0
100
AcDbLine
 10
1.939650467199982
 20
1.769447532800004
 30
0.0
 11
1.96880244639999
 21
1.7819079504
 31
0.0
  0
LINE
  5
15E1
330
1F
100
AcDbEntity
  8
0
100
AcDbLine
 10
12.15031362239997
 20
17.6372593264
 30
0.0
 11
10.35608193119998
 21
3.024414865600004
 31
0.0
  0
LINE
  5
15E2
330
1F
100
AcDbEntity
  8
0
100
AcDbLine
 10
10.27220093759999
 20
2.7153271952
 30
0.0
 11
10.35608192799998
 21
3.024414841600002
 31
0.0
  0
LINE
  5
15E4
330
1F
100
AcDbEntity
  8
0
100
AcDbLine
 10
16.0
 20
17.6372593264
 30
0.0
 11
15.84244399930727
 21
20.64360688995464
 31
0.0
  0
ARC
  5
1639
330
1F
100
AcDbEntity
  8
0
  6
HIDDEN
 62
     8
100
AcDbCircle
 10
-12.62662455039999
 20
20.5246818176
 30
0.0
 40
0.2458722944
100
AcDbArc
 50
7.0
 51
87.14283400300001
  0
ARC
  5
1642
330
1F
100
AcDbEntity
  8
0
  6
HIDDEN
 62
     8
100
AcDbCircle
 10
12.6071860496
 20
20.54487982079999
 30
0.0
 40
0.2241171696
100
AcDbArc
 50
94.40485177650002
 51
173.0
  0
ARC
  5
1645
330
1F
100
AcDbEntity
  8
0
100
AcDbCircle
 10
-6.497780379199994
 20
0.9686007920000001
 30
0.0
 40
0.9686007919999999
100
AcDbArc
 50
199.8552143693
 51
326.6536263357
  0
ARC
  5
164E
330
1F
100
AcDbEntity
  8
0
100
AcDbCircle
 10
1.271446608000005
 20
1.637259326400002
 30
0.0
 40
0.375
100
AcDbArc
 50
270.0
 51
315.0
  0
ARC
  5
164F
330
1F
100
AcDbEntity
  8
0
100
AcDbCircle
 10
-1.271446609600005
 20
1.637259326400002
 30
0.0
 40
0.375
100
AcDbArc
 50
225.0
 51
270.0
  0
LINE
  5
1660
330
1F
100
AcDbEntity
  8
0
370
     0
100
AcDbLine
 10
-15.59278661719352
 20
20.8805229008
 30
0.0
 11
15.59278661562356
 21
20.8805229008
 31
0.0
  0
ARC
  5
1661
330
1F
100
AcDbEntity
  8
0
370
     0
100
AcDbCircle
 10
-15.59278661719355
 20
20.6305229008
 30
0.0
 40
0.25
100
AcDbArc
 50
89.99999999999349
 51
177.0000000082884
  0
ARC
  5
1662
330
1F
100
AcDbEntity
  8
0
370
     0
100
AcDbCircle
 10
15.59278661562358
 20
20.6305229008
 30
0.0
 40
0.25
100
AcDbArc
 50
3.000000021550257
 51
90.00000000000325
  0
ARC
  5
1663
330
1F
100
AcDbEntity
  8
0
100
AcDbCircle
 10
6.497780379199994
 20
0.9686007920000001
 30
0.0
 40
0.9686007919999999
100
AcDbArc
 50
213.3463736643
 51
340.1447856307
  0
LINE
  5
1664
330
1F
100
AcDbEntity
  8
0
100
AcDbLine
 10
7.408801632000006
 20
0.6396208944000002
 30
0.0
 11
7.889704969600018
 21
1.971353216
 31
0.0
  0
LINE
  5
1665
330
1F
100
AcDbEntity
  8
0
100
AcDbLine
 10
5.688647384000006
 20
0.4361617904000035
 30
0.0
 11
4.760499412800015
 21
1.846642889600001
 31
0.0
  0
LINE
  5
174E
330
1F
100
AcDbEntity
  8
CENTER
 48
4.0
100
AcDbLine
 10
-0.0000000003246328
 20
13.56759630580598
 30
0.0
 11
-0.0000000003246328
 21
20.172129073394
 31
0.0
  0
LINE
  5
174F
330
1F
100
AcDbEntity
  8
CENTER
 48
4.0
100
AcDbLine
 10
2.808900703832136
 20
16.8698626896
 30
0.0
 11
-2.808900704481402
 21
16.8698626896
 31
0.0
  0
ELLIPSE
  5
1750
330
1F
100
AcDbEntity
  8
0
370
     0
100
AcDbEllipse
 10
-0.0000000003246328
 20
16.8872593264
 30
0.0
 11
1.187316082875383
 21
0.0000000003277723
 31
0.0
210
0.0
220
0.0
230
1.0
 40
0.9904214624568691
 41
3.156386964363042
 42
6.268390995848873
  0
ELLIPSE
  5
1751
330
1F
100
AcDbEntity
  8
0
370
     0
100
AcDbEllipse
 10
-0.0000000003246328
 20
16.8698626896
 30
0.0
 11
1.187316082875383
 21
0.0000000003277723
 31
0.0
210
0.0
220
0.0
230
1.0
 40
0.9904214624568691
 41
2.43060875430566
 42
6.994169205906277
  0
ELLIPSE
  5
1752
330
1F
100
AcDbEntity
  8
0
  6
HIDDEN
 62
     8
100
AcDbEllipse
 10
-0.0000000003246328
 20
16.8698626896
 30
0.0
 11
1.187316082875383
 21
0.0000000003277723
 31
0.0
210
0.0
220
0.0
230
1.0
 40
0.9904214624568691
 41
6.994169205906272
 42
8.713794061485241
  0
ENDSEC
  0
SECTION
  2
OBJECTS
  0
DICTIONARY
  5
C
330
0
100
AcDbDictionary
281
     1
  3
ACAD_GROUP
350
D
  3
ACAD_LAYOUT
350
1A
  3
ACAD_MLINESTYLE
350
17
  3
ACAD_PLOTSETTINGS
350
19
  3
ACAD_PLOTSTYLENAME
350
E
  3
ASE_INDEX_DICTIONARY
350
165A
  0
DICTIONARY
  5
1671
330
2
100
AcDbDictionary
280
     1
281
     1
  3
ACAD_LAYERFILTERS
360
1672
  0
DICTIONARY
  5
D
102
{ACAD_REACTORS
330
C
102
}
330
C
100
AcDbDictionary
281
     1
  0
DICTIONARY
  5
1A
102
{ACAD_REACTORS
330
C
102
}
330
C
100
AcDbDictionary
281
     1
  3
Layout1
350
1E
  3
Model
350
22
  0
DICTIONARY
  5
17
102
{ACAD_REACTORS
330
C
102
}
330
C
100
AcDbDictionary
281
     1
  3
Standard
350
18
  0
DICTIONARY
  5
19
102
{ACAD_REACTORS
330
C
102
}
330
C
100
AcDbDictionary
281
     1
  0
ACDBDICTIONARYWDFLT
  5
E
102
{ACAD_REACTORS
330
C
102
}
330
C
100
AcDbDictionary
281
     1
  3
Normal
350
F
100
AcDbDictionaryWithDefault
340
F
  0
DICTIONARY
  5
165A
102
{ACAD_REACTORS
330
C
102
}
330
C
100
AcDbDictionary
281
     1
  3
ASEBlockHierarchyIndexRecord
350
165C
1001
DCO15
1040
1635236670.043
  0
DICTIONARY
  5
1672
102
{ACAD_REACTORS
330
1671
102
}
330
1671
100
AcDbDictionary
280
     1
281
     1
  3
DIM-1_12
360
1673
  3
dim-1_16
360
1674
  0
LAYOUT
  5
1E
102
{ACAD_REACTORS
330
1A
102
}
330
1A
100
AcDbPlotSettings
  1

  2

  4

  6

 40
0.0
 41
0.0
 42
0.0
 43
0.0
 44
0.0
 45
0.0
 46
0.0
 47
0.0
 48
0.0
 49
0.0
140
0.0
141
0.0
142
1.0
143
1.0
 70
     0
 72
     0
 73
     0
 74
     0
  7

 75
     0
147
1.0
148
0.0
149
0.0
100
AcDbLayout
  1
Layout1
 70
     0
 71
     1
 10
0.0
 20
0.0
 11
12.0
 21
9.0
 12
0.0
 22
0.0
 32
0.0
 14
1.000000000000000E+20
 24
1.000000000000000E+20
 34
1.000000000000000E+20
 15
-1.000000000000000E+20
 25
-1.000000000000000E+20
 35
-1.000000000000000E+20
146
0.0
 13
0.0
 23
0.0
 33
0.0
 16
1.0
 26
0.0
 36
0.0
 17
0.0
 27
1.0
 37
0.0
 76
     0
330
1B
  0
LAYOUT
  5
22
102
{ACAD_REACTORS
330
1A
102
}
330
1A
100
AcDbPlotSettings
  1

  2

  4

  6

 40
0.0
 41
0.0
 42
0.0
 43
0.0
 44
0.0
 45
0.0
 46
0.0
 47
0.0
 48
0.0
 49
0.0
140
0.0
141
0.0
142
1.0
143
1.0
 70
     0
 72
     0
 73
     0
 74
     0
  7

 75
     0
147
1.0
148
0.0
149
0.0
100
AcDbLayout
  1
Model
 70
     0
 71
     0
 10
0.0
 20
0.0
 11
0.0
 21
0.0
 12
0.0
 22
0.0
 32
0.0
 14
0.0
 24
0.0
 34
0.0
 15
0.0
 25
0.0
 35
0.0
146
0.0
 13
0.0
 23
0.0
 33
0.0
 16
0.0
 26
0.0
 36
0.0
 17
0.0
 27
0.0
 37
0.0
 76
     0
330
1F
  0
MLINESTYLE
  5
18
102
{ACAD_REACTORS
330
17
102
}
330
17
100
AcDbMlineStyle
  2
STANDARD
 70
     0
  3

 62
   256
 51
90.0
 52
90.0
 71
     2
 49
0.5
 62
   256
  6
BYLAYER
 49
-0.5
 62
   256
  6
BYLAYER
  0
ACDBPLACEHOLDER
  5
F
102
{ACAD_REACTORS
330
E
102
}
330
0
  0
XRECORD
  5
165C
102
{ACAD_REACTORS
330
165A
102
}
330
165A
100
AcDbXrecord
280
     1
330
0
330
0
330
0
330
0
330
0
330
0
330
0
330
0
330
0
330
0
330
0
330
0
330
0
330
0
330
0
330
0
330
0
330
0
330
0
330
0
330
0
330
0
330
0
330
0
330
0
330
0
330
0
330
0
330
0
330
0
330
0
330
0
330
0
330
0
330
0
330
0
  0
XRECORD
  5
1673
102
{ACAD_REACTORS
330
1672
102
}
330
1672
100
AcDbXrecord
280
     1
  1
DIM-1_12
  1
DIM-1_12
  1
*
  1
*
 70
     0
  1
*
  1
*
  0
XRECORD
  5
1674
102
{ACAD_REACTORS
330
1672
102
}
330
1672
100
AcDbXrecord
280
     1
  1
dim-1_16
  1
*
  1
*
  1
*
 70
     0
  1
*
  1
*
  0
ENDSEC
  0
EOF
