  0
SECTION
  2
HEADER
  9
$ACADVER
  1
AC1014
  9
$ACADMAINTVER
 70
     9
  9
$DWGCODEPAGE
  3
ANSI_1252
  9
$INSBASE
 10
8.654605630202867
 20
2.656195527700003
 30
0.0
  9
$EXTMIN
 10
-9.408935518247233
 20
-1.593200659837108
 30
-0.0000000349181977
  9
$EXTMAX
 10
26.71762090050338
 20
25.22282413884861
 30
0.0000000814935717
  9
$LIMMIN
 10
0.0
 20
0.0
  9
$LIMMAX
 10
17.0
 20
11.0
  9
$ORTHOMODE
 70
     1
  9
$REGENMODE
 70
     1
  9
$FILLMODE
 70
     1
  9
$QTEXTMODE
 70
     0
  9
$MIRRTEXT
 70
     1
  9
$DRAGMODE
 70
     2
  9
$LTSCALE
 40
2.0
  9
$OSMODE
 70
    55
  9
$ATTMODE
 70
     1
  9
$TEXTSIZE
 40
0.0
  9
$TRACEWID
 40
0.05
  9
$TEXTSTYLE
  7
STANDARD
  9
$CLAYER
  8
0
  9
$CELTYPE
  6
BYLAYER
  9
$CECOLOR
 62
   256
  9
$CELTSCALE
 40
1.0
  9
$DELOBJ
 70
     1
  9
$DISPSILH
 70
     0
  9
$DIMSCALE
 40
16.0
  9
$DIMASZ
 40
0.18
  9
$DIMEXO
 40
0.0625
  9
$DIMDLI
 40
0.38
  9
$DIMRND
 40
0.0
  9
$DIMDLE
 40
0.0
  9
$DIMEXE
 40
0.18
  9
$DIMTP
 40
0.015625
  9
$DIMTM
 40
0.015625
  9
$DIMTXT
 40
0.125
  9
$DIMCEN
 40
0.09
  9
$DIMTSZ
 40
0.0
  9
$DIMTOL
 70
     0
  9
$DIMLIM
 70
     0
  9
$DIMTIH
 70
     1
  9
$DIMTOH
 70
     1
  9
$DIMSE1
 70
     0
  9
$DIMSE2
 70
     0
  9
$DIMTAD
 70
     0
  9
$DIMZIN
 70
     0
  9
$DIMBLK
  1

  9
$DIMASO
 70
     1
  9
$DIMSHO
 70
     1
  9
$DIMPOST
  1

  9
$DIMAPOST
  1
cm
  9
$DIMALT
 70
     1
  9
$DIMALTD
 70
     2
  9
$DIMALTF
 40
2.54
  9
$DIMLFAC
 40
1.0
  9
$DIMTOFL
 70
     0
  9
$DIMTVP
 40
0.0
  9
$DIMTIX
 70
     0
  9
$DIMSOXD
 70
     0
  9
$DIMSAH
 70
     0
  9
$DIMBLK1
  1

  9
$DIMBLK2
  1

  9
$DIMSTYLE
  2
STANDARD
  9
$DIMCLRD
 70
     0
  9
$DIMCLRE
 70
     0
  9
$DIMCLRT
 70
     0
  9
$DIMTFAC
 40
1.0
  9
$DIMGAP
 40
0.09
  9
$DIMJUST
 70
     0
  9
$DIMSD1
 70
     0
  9
$DIMSD2
 70
     0
  9
$DIMTOLJ
 70
     1
  9
$DIMTZIN
 70
     0
  9
$DIMALTZ
 70
     0
  9
$DIMALTTZ
 70
     0
  9
$DIMFIT
 70
     0
  9
$DIMUPT
 70
     0
  9
$DIMUNIT
 70
     5
  9
$DIMDEC
 70
     4
  9
$DIMTDEC
 70
     4
  9
$DIMALTU
 70
     2
  9
$DIMALTTD
 70
     2
  9
$DIMTXSTY
  7
STANDARD
  9
$DIMAUNIT
 70
     0
  9
$LUNITS
 70
     2
  9
$LUPREC
 70
     4
  9
$SKETCHINC
 40
0.1
  9
$FILLETRAD
 40
0.0
  9
$AUNITS
 70
     0
  9
$AUPREC
 70
     0
  9
$MENU
  1
acad
  9
$ELEVATION
 40
0.0
  9
$PELEVATION
 40
0.0
  9
$THICKNESS
 40
0.0
  9
$LIMCHECK
 70
     0
  9
$BLIPMODE
 70
     0
  9
$CHAMFERA
 40
0.0
  9
$CHAMFERB
 40
0.0
  9
$CHAMFERC
 40
0.0
  9
$CHAMFERD
 40
0.0
  9
$SKPOLY
 70
     0
  9
$TDCREATE
 40
2444971.833333333
  9
$TDUPDATE
 40
2453686.492408275
  9
$TDINDWG
 40
0.0282803704
  9
$TDUSRTIMER
 40
0.0282803704
  9
$USRTIMER
 70
     1
  9
$ANGBASE
 50
0.0
  9
$ANGDIR
 70
     0
  9
$PDMODE
 70
     0
  9
$PDSIZE
 40
0.0
  9
$PLINEWID
 40
0.0
  9
$COORDS
 70
     1
  9
$SPLFRAME
 70
     0
  9
$SPLINETYPE
 70
     6
  9
$SPLINESEGS
 70
     8
  9
$ATTDIA
 70
     0
  9
$ATTREQ
 70
     1
  9
$HANDLING
 70
 22529
  9
$HANDSEED
  5
122
  9
$SURFTAB1
 70
     6
  9
$SURFTAB2
 70
     6
  9
$SURFTYPE
 70
     6
  9
$SURFU
 70
     6
  9
$SURFV
 70
     6
  9
$UCSNAME
  2

  9
$UCSORG
 10
0.0
 20
0.0
 30
0.0
  9
$UCSXDIR
 10
1.0
 20
0.0
 30
0.0
  9
$UCSYDIR
 10
0.0
 20
1.0
 30
0.0
  9
$PUCSNAME
  2

  9
$PUCSORG
 10
0.0
 20
0.0
 30
0.0
  9
$PUCSXDIR
 10
1.0
 20
0.0
 30
0.0
  9
$PUCSYDIR
 10
0.0
 20
1.0
 30
0.0
  9
$USERI1
 70
     0
  9
$USERI2
 70
     0
  9
$USERI3
 70
     0
  9
$USERI4
 70
     0
  9
$USERI5
 70
     0
  9
$USERR1
 40
0.0
  9
$USERR2
 40
0.0
  9
$USERR3
 40
0.0
  9
$USERR4
 40
0.0
  9
$USERR5
 40
0.0
  9
$WORLDVIEW
 70
     1
  9
$SHADEDGE
 70
     3
  9
$SHADEDIF
 70
    70
  9
$TILEMODE
 70
     1
  9
$MAXACTVP
 70
    16
  9
$PINSBASE
 10
0.0
 20
0.0
 30
0.0
  9
$PLIMCHECK
 70
     0
  9
$PEXTMIN
 10
1.000000000000000E+20
 20
1.000000000000000E+20
 30
1.000000000000000E+20
  9
$PEXTMAX
 10
-1.000000000000000E+20
 20
-1.000000000000000E+20
 30
-1.000000000000000E+20
  9
$PLIMMIN
 10
0.0
 20
0.0
  9
$PLIMMAX
 10
12.0
 20
9.0
  9
$UNITMODE
 70
     0
  9
$VISRETAIN
 70
     0
  9
$PLINEGEN
 70
     1
  9
$PSLTSCALE
 70
     0
  9
$TREEDEPTH
 70
  3020
  9
$PICKSTYLE
 70
     1
  9
$CMLSTYLE
  2
STANDARD
  9
$CMLJUST
 70
     0
  9
$CMLSCALE
 40
1.0
  9
$PROXYGRAPHICS
 70
     1
  9
$MEASUREMENT
 70
     0
  0
ENDSEC
  0
SECTION
  2
CLASSES
  0
CLASS
  1
LWPOLYLINE
  2
AcDbPolyline
  3
AutoCAD 2000
 90
        0
280
     0
281
     1
  0
CLASS
  1
IMAGE
  2
AcDbRasterImage
  3
ISM
 90
      127
280
     0
281
     1
  0
CLASS
  1
OLE2FRAME
  2
AcDbOle2Frame
  3
AutoCAD 2000
 90
        0
280
     0
281
     1
  0
CLASS
  1
HATCH
  2
AcDbHatch
  3
AutoCAD 2000
 90
        0
280
     0
281
     1
  0
CLASS
  1
DICTIONARYVAR
  2
AcDbDictionaryVar
  3
AutoCAD 2000
 90
        0
280
     0
281
     0
  0
CLASS
  1
RASTERVARIABLES
  2
AcDbRasterVariables
  3
ISM
 90
        0
280
     0
281
     0
  0
CLASS
  1
IMAGEDEF
  2
AcDbRasterImageDef
  3
ISM
 90
        0
280
     0
281
     0
  0
CLASS
  1
IMAGEDEF_REACTOR
  2
AcDbRasterImageDefReactor
  3
ISM
 90
        1
280
     0
281
     0
  0
CLASS
  1
IDBUFFER
  2
AcDbIdBuffer
  3
AutoCAD 2000
 90
        0
280
     0
281
     0
  0
CLASS
  1
SPATIAL_FILTER
  2
AcDbSpatialFilter
  3
AutoCAD 2000
 90
        0
280
     0
281
     0
  0
CLASS
  1
XRECORD
  2
AcDbXrecord
  3
AutoCAD 2000
 90
        0
280
     0
281
     0
  0
CLASS
  1
SORTENTSTABLE
  2
AcDbSortentsTable
  3
AutoCAD 2000
 90
        0
280
     0
281
     0
  0
CLASS
  1
LAYER_INDEX
  2
AcDbLayerIndex
  3
AutoCAD 2000
 90
        0
280
     0
281
     0
  0
CLASS
  1
SPATIAL_INDEX
  2
AcDbSpatialIndex
  3
AutoCAD 2000
 90
        0
280
     0
281
     0
  0
CLASS
  1
OBJECT_PTR
  2
CAseDLPNTableRecord
  3
ASE-LPNTableRecord
 90
        1
280
     0
281
     0
  0
CLASS
  1
LAYOUT
  2
AcDbLayout
  3
AutoCAD 2000
 90
        0
280
     0
281
     0
  0
CLASS
  1
PLOTSETTINGS
  2
AcDbPlotSettings
  3
AutoCAD 2000
 90
        0
280
     0
281
     0
  0
CLASS
  1
ACDBDICTIONARYWDFLT
  2
AcDbDictionaryWithDefault
  3
AutoCAD 2000
 90
        0
280
     0
281
     0
  0
CLASS
  1
ACDBPLACEHOLDER
  2
AcDbPlaceHolder
  3
AutoCAD 2000
 90
        0
280
     0
281
     0
  0
CLASS
  1
VBA_PROJECT
  2
AcDbVbaProject
  3
acadvba
 90
        0
280
     0
281
     0
  0
CLASS
  1
WIPEOUT
  2
AcDbWipeout
  3
WipeOut|AutoCAD Express Tool|expresstools@autodesk.com
 90
        0
280
     1
281
     1
  0
CLASS
  1
WIPEOUTVARIABLES
  2
AcDbWipeoutVariables
  3
WipeOut|AutoCAD Express Tool|expresstools@autodesk.com
 90
        0
280
     1
281
     0
  0
CLASS
  1
RTEXT
  2
RText
  3
RText|AutoCAD Express Tool|expresstools@autodesk.com
 90
        0
280
     1
281
     1
  0
CLASS
  1
ARCALIGNEDTEXT
  2
AcDbArcAlignedText
  3
ATEXT|AutoCAD Express Tool|expresstools@autodesk.com
 90
        0
280
     1
281
     1
  0
CLASS
  1
LONG_TRANSACTION
  2
AcDbLongTransaction
  3
AutoCAD 2000
 90
        0
280
     0
281
     0
  0
CLASS
  1
LWPOLYLINE
  2
AcDbPolyline
  3
AutoCAD 2000
 90
        0
280
     0
281
     1
  0
CLASS
  1
HATCH
  2
AcDbHatch
  3
AutoCAD 2000
 90
        0
280
     0
281
     1
  0
CLASS
  1
XRECORD
  2
AcDbXrecord
  3
AutoCAD 2000
 90
        0
280
     0
281
     0
  0
CLASS
  1
LONG_TRANSACTION
  2
AcDbLongTransaction
  3
AutoCAD 2000
 90
        0
280
     0
281
     0
  0
CLASS
  1
LWPOLYLINE
  2
AcDbPolyline
  3
AutoCAD 2000
 90
        0
280
     0
281
     1
  0
CLASS
  1
HATCH
  2
AcDbHatch
  3
AutoCAD 2000
 90
        0
280
     0
281
     1
  0
CLASS
  1
XRECORD
  2
AcDbXrecord
  3
AutoCAD 2000
 90
        0
280
     0
281
     0
  0
ENDSEC
  0
SECTION
  2
TABLES
  0
TABLE
  2
VPORT
  5
1D
330
0
100
AcDbSymbolTable
 70
     3
  0
VPORT
  5
FE
330
1D
100
AcDbSymbolTableRecord
100
AcDbViewportTableRecord
  2
*ACTIVE
 70
     0
 10
0.0
 20
0.0
 11
1.0
 21
1.0
 12
8.654342685526422
 22
11.81481173311579
 13
0.0
 23
0.0
 14
1.0
 24
1.0
 15
0.0
 25
0.0
 16
0.0
 26
0.0
 36
1.0
 17
0.0
 27
0.0
 37
0.0
 40
35.25473995064577
 41
1.786792452830188
 42
50.0
 43
0.0
 44
0.0
 50
0.0
 51
0.0
 71
     0
 72
   100
 73
     1
 74
     1
 75
     0
 76
     0
 77
     0
 78
     0
  0
ENDTAB
  0
TABLE
  2
LTYPE
  5
18
330
0
100
AcDbSymbolTable
 70
     3
  0
LTYPE
  5
19
330
18
100
AcDbSymbolTableRecord
100
AcDbLinetypeTableRecord
  2
BYBLOCK
 70
     0
  3

 72
    65
 73
     0
 40
0.0
  0
LTYPE
  5
1A
330
18
100
AcDbSymbolTableRecord
100
AcDbLinetypeTableRecord
  2
BYLAYER
 70
     0
  3

 72
    65
 73
     0
 40
0.0
  0
LTYPE
  5
8
330
18
100
AcDbSymbolTableRecord
100
AcDbLinetypeTableRecord
  2
CONTINUOUS
 70
     0
  3
Solid line
 72
    65
 73
     0
 40
0.0
  0
LTYPE
  5
4D
330
18
100
AcDbSymbolTableRecord
100
AcDbLinetypeTableRecord
  2
CENTER
 70
     0
  3
____ _ ____ _ ____ _ ____ _ ____ _ ____ _ ____
 72
    65
 73
     4
 40
0.6
 49
0.375
 74
     0
 49
-0.075
 74
     0
 49
0.075
 74
     0
 49
-0.075
 74
     0
  0
LTYPE
  5
2B
330
18
100
AcDbSymbolTableRecord
100
AcDbLinetypeTableRecord
  2
HIDDEN
 70
     0
  3
- - - - - - - - - - - - - - - - - - - -
 72
    65
 73
     2
 40
0.2
 49
0.1
 74
     0
 49
-0.1
 74
     0
  0
ENDTAB
  0
TABLE
  2
LAYER
  5
10
102
{ACAD_XDICTIONARY
360
11
102
}
330
0
100
AcDbSymbolTable
 70
     3
  0
LAYER
  5
4
330
10
100
AcDbSymbolTableRecord
100
AcDbLayerTableRecord
  2
0
 70
     0
 62
     7
  6
CONTINUOUS
  0
LAYER
  5
4C
330
10
100
AcDbSymbolTableRecord
100
AcDbLayerTableRecord
  2
CENTER
 70
     0
 62
     1
  6
CENTER
  0
LAYER
  5
A5
330
10
100
AcDbSymbolTableRecord
100
AcDbLayerTableRecord
  2
DEFPOINTS
 70
     0
 62
     7
  6
CONTINUOUS
  0
ENDTAB
  0
TABLE
  2
STYLE
  5
15
330
0
100
AcDbSymbolTable
 70
     1
  0
STYLE
  5
16
330
15
100
AcDbSymbolTableRecord
100
AcDbTextStyleTableRecord
  2
STANDARD
 70
     0
 40
0.0
 41
1.0
 50
0.0
 71
     0
 42
0.0
  3
txt
  4

  0
ENDTAB
  0
TABLE
  2
VIEW
  5
1B
330
0
100
AcDbSymbolTable
 70
     0
  0
ENDTAB
  0
TABLE
  2
UCS
  5
1C
330
0
100
AcDbSymbolTable
 70
     0
  0
ENDTAB
  0
TABLE
  2
APPID
  5
1F
330
0
100
AcDbSymbolTable
 70
     1
  0
APPID
  5
20
330
1F
100
AcDbSymbolTableRecord
100
AcDbRegAppTableRecord
  2
ACAD
 70
     0
  0
ENDTAB
  0
TABLE
  2
DIMSTYLE
  5
21
330
0
100
AcDbSymbolTable
 70
     1
  0
DIMSTYLE
105
22
330
21
100
AcDbSymbolTableRecord
100
AcDbDimStyleTableRecord
  2
STANDARD
 70
     0
  3

  4
cm
  5

  6

  7

 40
16.0
 41
0.18
 42
0.0625
 43
0.38
 44
0.18
 45
0.0
 46
0.0
 47
0.015625
 48
0.015625
140
0.125
141
0.09
142
0.0
143
2.54
144
1.0
145
0.0
146
1.0
147
0.09
 71
     0
 72
     0
 73
     1
 74
     1
 75
     0
 76
     0
 77
     0
 78
     0
170
     1
171
     2
172
     0
173
     0
174
     0
175
     0
176
     0
177
     0
178
     0
270
     5
271
     4
272
     4
273
     2
274
     2
340
16
275
     0
280
     0
281
     0
282
     0
283
     1
284
     0
285
     0
286
     0
287
     0
288
     0
  0
ENDTAB
  0
TABLE
  2
BLOCK_RECORD
  5
1
330
0
100
AcDbSymbolTable
 70
     2
  0
BLOCK_RECORD
  5
2
102
{ACAD_XDICTIONARY
360
91
102
}
330
1
100
AcDbSymbolTableRecord
100
AcDbBlockTableRecord
  2
*MODEL_SPACE
  0
BLOCK_RECORD
  5
C
102
{ACAD_XDICTIONARY
360
97
102
}
330
1
100
AcDbSymbolTableRecord
100
AcDbBlockTableRecord
  2
*PAPER_SPACE
  0
BLOCK_RECORD
  5
A6
330
1
100
AcDbSymbolTableRecord
100
AcDbBlockTableRecord
  2
*D0
  0
BLOCK_RECORD
  5
BC
330
1
100
AcDbSymbolTableRecord
100
AcDbBlockTableRecord
  2
*D1
  0
ENDTAB
  0
ENDSEC
  0
SECTION
  2
BLOCKS
  0
BLOCK
  5
3
330
2
100
AcDbEntity
  8
0
100
AcDbBlockBegin
  2
*MODEL_SPACE
 70
     0
 10
0.0
 20
0.0
 30
0.0
  3
*MODEL_SPACE
  1

  0
ENDBLK
  5
9
330
2
100
AcDbEntity
  8
0
100
AcDbBlockEnd
  0
BLOCK
  5
D
330
C
100
AcDbEntity
 67
     1
  8
0
100
AcDbBlockBegin
  2
*PAPER_SPACE
 70
     0
 10
0.0
 20
0.0
 30
0.0
  3
*PAPER_SPACE
  1

  0
ENDBLK
  5
E
330
C
100
AcDbEntity
 67
     1
  8
0
100
AcDbBlockEnd
  0
BLOCK
  5
B1
330
A6
100
AcDbEntity
  8
0
100
AcDbBlockBegin
  2
*D0
 70
     1
 10
0.0
 20
0.0
 30
0.0
  3
*D0
  1

  0
LINE
  5
A7
330
A6
100
AcDbEntity
  8
0
 62
     0
100
AcDbLine
 10
7.495809802202867
 20
4.0311955277
 30
0.0
 11
6.460466727369544
 21
4.0311955277
 31
0.0
  0
LINE
  5
A8
330
A6
100
AcDbEntity
  8
0
 62
     0
100
AcDbLine
 10
8.103824380402867
 20
2.656195527700003
 30
0.0
 11
6.460466727369544
 21
2.656195527700003
 31
0.0
  0
LINE
  5
A9
330
A6
100
AcDbEntity
  8
0
 62
     0
100
AcDbLine
 10
6.640466727369544
 20
3.851195527699999
 30
0.0
 11
6.640466727369544
 21
3.496195527700001
 31
0.0
  0
LINE
  5
AA
330
A6
100
AcDbEntity
  8
0
 62
     0
100
AcDbLine
 10
6.640466727369544
 20
2.836195527700003
 30
0.0
 11
6.640466727369544
 21
3.191195527700001
 31
0.0
  0
SOLID
  5
AB
330
A6
100
AcDbEntity
  8
0
 62
     0
100
AcDbTrace
 10
6.610466727369543
 20
3.851195527699999
 30
0.0
 11
6.670466727369544
 21
3.851195527699999
 31
0.0
 12
6.640466727369544
 22
4.0311955277
 32
0.0
 13
6.640466727369544
 23
4.0311955277
 33
0.0
  0
SOLID
  5
AC
330
A6
100
AcDbEntity
  8
0
 62
     0
100
AcDbTrace
 10
6.610466727369543
 20
2.836195527700003
 30
0.0
 11
6.670466727369544
 21
2.836195527700003
 31
0.0
 12
6.640466727369544
 22
2.656195527700003
 32
0.0
 13
6.640466727369544
 23
2.656195527700003
 33
0.0
  0
MTEXT
  5
AD
330
A6
100
AcDbEntity
  8
0
 62
     0
100
AcDbMText
 10
6.640466727369543
 20
3.343695527700002
 30
0.0
 40
0.125
 41
0.0
 71
     5
 72
     1
  1
\A1;22 [55.88cm]
1001
ACAD
1000
MTEXTBEGIN
1070
    73
1070
     1
1070
    44
1040
1.0
1070
    74
1070
     0
1000
MTEXTEND
  0
POINT
  5
AE
330
A6
100
AcDbEntity
  8
DEFPOINTS
 62
     0
100
AcDbPoint
 10
7.558309802202867
 20
4.031195527699999
 30
0.0
  0
POINT
  5
AF
330
A6
100
AcDbEntity
  8
DEFPOINTS
 62
     0
100
AcDbPoint
 10
8.166324380402867
 20
2.656195527700003
 30
0.0
  0
POINT
  5
B0
330
A6
100
AcDbEntity
  8
DEFPOINTS
 62
     0
100
AcDbPoint
 10
6.640466727369544
 20
2.656195527700003
 30
0.0
  0
ENDBLK
  5
B2
330
A6
100
AcDbEntity
  8
0
100
AcDbBlockEnd
  0
BLOCK
  5
C7
330
BC
100
AcDbEntity
  8
0
100
AcDbBlockBegin
  2
*D1
 70
     1
 10
0.0
 20
0.0
 30
0.0
  3
*D1
  1

  0
LINE
  5
BD
330
BC
100
AcDbEntity
  8
0
 62
     0
100
AcDbLine
 10
-8.948627618547154
 20
24.65619552769994
 30
0.0
 11
-13.06339014041125
 21
24.65619552769994
 31
0.0
  0
LINE
  5
BE
330
BC
100
AcDbEntity
  8
0
 62
     0
100
AcDbLine
 10
0.7796056326528547
 20
2.656195527700003
 30
0.0
 11
-13.06339014041125
 21
2.656195527700007
 31
0.0
  0
LINE
  5
BF
330
BC
100
AcDbEntity
  8
0
 62
     0
100
AcDbLine
 10
-12.88339014041125
 20
24.47619552769994
 30
0.0
 11
-12.88339014041125
 21
13.80869552769997
 31
0.0
  0
LINE
  5
C0
330
BC
100
AcDbEntity
  8
0
 62
     0
100
AcDbLine
 10
-12.88339014041125
 20
2.836195527700006
 30
0.0
 11
-12.88339014041125
 21
13.50369552769997
 31
0.0
  0
SOLID
  5
C1
330
BC
100
AcDbEntity
  8
0
 62
     0
100
AcDbTrace
 10
-12.91339014041125
 20
24.47619552769994
 30
0.0
 11
-12.85339014041125
 21
24.47619552769994
 31
0.0
 12
-12.88339014041125
 22
24.65619552769994
 32
0.0
 13
-12.88339014041125
 23
24.65619552769994
 33
0.0
  0
SOLID
  5
C2
330
BC
100
AcDbEntity
  8
0
 62
     0
100
AcDbTrace
 10
-12.91339014041125
 20
2.836195527700006
 30
0.0
 11
-12.85339014041125
 21
2.836195527700006
 31
0.0
 12
-12.88339014041125
 22
2.656195527700006
 32
0.0
 13
-12.88339014041125
 23
2.656195527700006
 33
0.0
  0
MTEXT
  5
C3
330
BC
100
AcDbEntity
  8
0
 62
     0
100
AcDbMText
 10
-12.88339014041125
 20
13.65619552769997
 30
0.0
 40
0.125
 41
0.0
 71
     5
 72
     1
  1
\A1;22 [55.88cm]
1001
ACAD
1000
MTEXTBEGIN
1070
    73
1070
     1
1070
    44
1040
1.0
1070
    74
1070
     0
1000
MTEXTEND
  0
POINT
  5
C4
330
BC
100
AcDbEntity
  8
DEFPOINTS
 62
     0
100
AcDbPoint
 10
-8.886127618547154
 20
24.65619552769994
 30
0.0
  0
POINT
  5
C5
330
BC
100
AcDbEntity
  8
DEFPOINTS
 62
     0
100
AcDbPoint
 10
0.8421056326528546
 20
2.656195527700003
 30
0.0
  0
POINT
  5
C6
330
BC
100
AcDbEntity
  8
DEFPOINTS
 62
     0
100
AcDbPoint
 10
-12.88339014041125
 20
2.656195527700006
 30
0.0
  0
ENDBLK
  5
C8
330
BC
100
AcDbEntity
  8
0
100
AcDbBlockEnd
  0
ENDSEC
  0
SECTION
  2
ENTITIES
  0
ARC
  5
2A
330
2
100
AcDbEntity
  8
0
  6
HIDDEN
 48
0.5
100
AcDbCircle
 10
8.654615932733642
 20
20.51928507968888
 30
0.0
 40
1.30818605154458
100
AcDbArc
 50
5.969006623253147
 51
174.0309933355233
  0
ARC
  5
2C
330
2
100
AcDbEntity
  8
0
100
AcDbCircle
 10
8.654615932744727
 20
20.55004398052206
 30
0.0
 40
1.305345947262688
100
AcDbArc
 50
175.335520714782
 51
4.626097741535488
  0
LINE
  5
2D
330
2
100
AcDbEntity
  8
0
  6
CONTINUOUS
 62
     7
100
AcDbLine
 10
-9.221107872947149
 20
20.6561955277
 30
0.0
 11
26.53031913665286
 21
20.65619552769991
 31
0.0
  0
LINE
  5
2F
330
2
100
AcDbEntity
  8
0
  6
CONTINUOUS
 62
     7
100
AcDbLine
 10
7.331382324652858
 20
3.146195527699955
 30
0.0
 11
9.977828934252849
 21
3.146195527699955
 31
0.0
  0
LINE
  5
30
330
2
100
AcDbEntity
  8
0
  6
CONTINUOUS
 62
     7
100
AcDbLine
 10
9.904605630252868
 20
2.656195527700003
 30
0.0
 11
7.404605630252868
 21
2.656195527700003
 31
0.0
  0
LINE
  5
31
330
2
100
AcDbEntity
  8
0
  6
CONTINUOUS
 62
     7
100
AcDbLine
 10
-1.671938816947138
 20
3.646195527699955
 30
0.0
 11
18.98115008065284
 21
3.646195527699955
 31
0.0
  0
LINE
  5
32
330
2
100
AcDbEntity
  8
0
  6
CONTINUOUS
 62
     7
100
AcDbLine
 10
26.19533888225283
 20
24.65619552769991
 30
0.0
 11
-8.886127618547154
 21
24.65619552769994
 31
0.0
  0
LINE
  5
33
330
2
100
AcDbEntity
  8
0
  6
CONTINUOUS
 62
     7
100
AcDbLine
 10
-9.072914124147152
 20
24.48503723009999
 30
0.0
 11
-9.407894367347145
 21
20.6561955277
 31
0.0
  0
LINE
  5
34
330
2
100
AcDbEntity
  8
0
  6
HIDDEN
100
AcDbLine
 10
-4.997449048947137
 20
24.22578207809995
 30
0.0
 11
-4.495653885747165
 21
20.65532396929997
 31
0.0
  0
LINE
  5
35
330
2
100
AcDbEntity
  8
0
  6
CONTINUOUS
 62
     7
100
AcDbLine
 10
-4.505752160947158
 20
20.65532396929997
 30
0.0
 11
-2.176975530547158
 21
4.085217246099954
 31
0.0
  0
LINE
  5
36
330
2
100
AcDbEntity
  8
0
  6
CONTINUOUS
 62
     7
100
AcDbLine
 10
-0.4078943673471454
 20
2.656195527700003
 30
0.0
 11
2.092105632652854
 21
2.656195527700003
 31
0.0
  0
LINE
  5
37
330
2
100
AcDbEntity
  8
0
  6
CONTINUOUS
 62
     7
100
AcDbLine
 10
-0.6105921161471511
 20
2.831146756499958
 30
0.0
 11
-0.6683735257471622
 21
3.646195527699955
 31
0.0
  0
ARC
  5
38
330
2
100
AcDbEntity
  8
0
  6
CONTINUOUS
 62
     7
100
AcDbCircle
 10
-0.4078943673471738
 20
2.861093514899966
 30
0.0
 40
0.2048979872
100
AcDbArc
 50
188.4041383272004
 51
270.0000000000006
  0
ARC
  5
39
330
2
100
AcDbEntity
  8
0
  6
CONTINUOUS
 62
     7
100
AcDbCircle
 10
-1.671938816947138
 20
4.15619552770001
 30
0.0
 40
0.51
100
AcDbArc
 50
188.0000000000004
 51
270.0000000000006
  0
LINE
  5
3A
330
2
100
AcDbEntity
  8
0
  6
CONTINUOUS
 62
     7
100
AcDbLine
 10
7.235922908652876
 20
3.185736111699963
 30
0.0
 11
6.845757867052876
 21
3.575901154899963
 31
0.0
  0
LINE
  5
3B
330
2
100
AcDbEntity
  8
0
  6
CONTINUOUS
 62
     7
100
AcDbLine
 10
2.299489770252856
 20
2.836399612499985
 30
0.0
 11
2.362524035852837
 21
3.646195527699955
 31
0.0
  0
ARC
  5
3C
330
2
100
AcDbEntity
  8
0
  6
CONTINUOUS
 62
     7
100
AcDbCircle
 10
2.092105632652826
 20
2.865629439700018
 30
0.0
 40
0.209433912
100
AcDbArc
 50
270.0000000000006
 51
351.9772735525007
  0
ARC
  5
3D
330
2
100
AcDbEntity
  8
0
  6
CONTINUOUS
 62
     7
100
AcDbCircle
 10
7.40460563025284
 20
2.864633206100005
 30
0.0
 40
0.2084376784
100
AcDbArc
 50
190.2954204566004
 51
270.0000000000006
  0
ARC
  5
3E
330
2
100
AcDbEntity
  8
0
  6
CONTINUOUS
 62
     7
100
AcDbCircle
 10
7.331382324652858
 20
3.281195527700003
 30
0.0
 40
0.135
100
AcDbArc
 50
225.0000000000005
 51
270.0000000000006
  0
LINE
  5
3F
330
2
100
AcDbEntity
  8
0
  6
CONTINUOUS
 62
     7
100
AcDbLine
 10
7.199523937452861
 20
2.827380479699979
 30
0.0
 11
7.157298135852849
 21
3.25841836449997
 31
0.0
  0
ARC
  5
40
330
2
100
AcDbEntity
  8
0
  6
CONTINUOUS
 62
     7
100
AcDbCircle
 10
6.676052238252859
 20
3.406195527700003
 30
0.0
 40
0.24
100
AcDbArc
 50
45.00000000000009
 51
90.00000000000019
  0
SPLINE
  5
42
330
2
100
AcDbEntity
  8
0
  6
CONTINUOUS
 62
     7
100
AcDbSpline
210
0.0
220
0.0
230
1.0
 70
     8
 71
     3
 72
     9
 73
     5
 74
     3
 42
0.0000000001
 43
0.0000000001
 44
0.0000000001
 40
0.0
 40
0.0
 40
0.0
 40
0.0
 40
0.0005661892150491
 40
0.0006269414257385
 40
0.0006269414257385
 40
0.0006269414257385
 40
0.0006269414257385
 10
-9.40788241854716
 20
20.65619561569998
 30
0.0
 10
-9.404862802610665
 20
20.65621503253471
 30
0.0
 10
-9.401519181308685
 20
20.65623653279949
 30
0.0
 10
-9.398175520537392
 20
20.65624998276435
 30
0.0
 10
-9.39785151134717
 20
20.65625128609998
 30
0.0
 11
-9.40788241854716
 21
20.65619561569998
 31
0.0
 11
-9.398823538547162
 21
20.65624730049997
 31
0.0
 11
-9.39785151134717
 21
20.65625128609998
 31
0.0
  0
SPLINE
  5
43
330
2
100
AcDbEntity
  8
0
  6
CONTINUOUS
 62
     7
100
AcDbSpline
210
0.0
220
0.0
230
1.0
 70
     8
 71
     3
 72
    11
 73
     7
 74
     5
 42
0.0000000001
 43
0.0000000001
 44
0.0000000001
 40
0.0
 40
0.0
 40
0.0
 40
0.0
 40
0.0015960548609746
 40
0.0041820116609754
 40
0.0074441851671004
 40
0.0110464825203961
 40
0.0110464825203961
 40
0.0110464825203961
 40
0.0110464825203961
 10
-9.39785151134717
 20
20.65625128609998
 30
0.0
 10
-9.389339230858453
 20
20.65626662709455
 30
0.0
 10
-9.367035200379447
 20
20.65630682384452
 30
0.0
 10
-9.327332856088787
 20
20.65629250902696
 30
0.0
 10
-9.276930605315072
 20
20.65624519124216
 30
0.0
 10
-9.240320107334483
 20
20.65621262016282
 30
0.0
 10
-9.221107861747157
 20
20.6561955277
 30
0.0
 11
-9.39785151134717
 21
20.65625128609998
 31
0.0
 11
-9.372314663347168
 21
20.6562902829
 31
0.0
 11
-9.330939354547155
 21
20.6562902829
 31
0.0
 11
-9.278744596147163
 21
20.65624730049997
 31
0.0
 11
-9.221107861747157
 21
20.6561955277
 31
0.0
  0
LINE
  5
44
330
2
100
AcDbEntity
  8
0
  6
HIDDEN
100
AcDbLine
 10
-4.548306656947138
 20
21.25450842049998
 30
0.0
 11
-2.753445781747151
 21
21.5067596669
 31
0.0
  0
LINE
  5
45
330
2
100
AcDbEntity
  8
0
  6
HIDDEN
100
AcDbLine
 10
-4.687479757747146
 20
22.24477648929997
 30
0.0
 11
-2.892618882547159
 21
22.49702773569999
 31
0.0
  0
ARC
  5
46
330
2
100
AcDbEntity
  8
0
  6
CONTINUOUS
 62
     7
100
AcDbCircle
 10
-8.886127618547154
 20
24.4686955277
 30
0.0
 40
0.1875
100
AcDbArc
 50
90.00000000000019
 51
175.0000000000003
  0
ARC
  5
47
330
2
100
AcDbEntity
  8
0
  6
HIDDEN
100
AcDbCircle
 10
-5.492583082547147
 20
24.15619552770001
 30
0.0
 40
0.5
100
AcDbArc
 50
7.999999999999998
 51
89.99997750820019
  0
LINE
  5
48
330
2
100
AcDbEntity
  8
0
  6
HIDDEN
100
AcDbLine
 10
-2.531700164147158
 20
22.1743627725
 30
0.0
 11
-2.495446959347153
 21
21.91640781729996
 31
0.0
  0
ARC
  5
49
330
2
100
AcDbEntity
  8
0
  6
HIDDEN
100
AcDbCircle
 10
-2.903050688947152
 20
22.12217286049999
 30
0.0
 40
0.375
100
AcDbArc
 50
7.999999999999998
 51
88.40593177310017
  0
ARC
  5
4A
330
2
100
AcDbEntity
  8
0
  6
HIDDEN
 48
0.5
100
AcDbCircle
 10
-2.866797484147147
 20
21.86421790369998
 30
0.0
 40
0.375
100
AcDbArc
 50
287.5940682269007
 51
7.999999999999998
  0
LINE
  5
4B
330
2
100
AcDbEntity
  8
CENTER
 48
4.0
100
AcDbLine
 10
8.654605634652845
 20
25.22262162136359
 30
0.0
 11
8.654605635452861
 21
16.08802631723631
 31
0.0
  0
LINE
  5
4E
330
2
100
AcDbEntity
  8
0
  6
HIDDEN
100
AcDbLine
 10
21.80486514945284
 20
20.65532396929997
 30
0.0
 11
22.30666031265284
 21
24.22578207809995
 31
0.0
  0
LINE
  5
4F
330
2
100
AcDbEntity
  8
0
  6
CONTINUOUS
 62
     7
100
AcDbLine
 10
26.38212538785285
 20
24.48503723009995
 30
0.0
 11
26.71710563265285
 21
20.65619552769991
 31
0.0
  0
LINE
  5
50
330
2
100
AcDbEntity
  8
0
  6
CONTINUOUS
 62
     7
100
AcDbLine
 10
21.81496342465283
 20
20.65532396929997
 30
0.0
 11
19.48618679585283
 21
4.085217246099954
 31
0.0
  0
LINE
  5
51
330
2
100
AcDbEntity
  8
CENTER
 48
4.0
100
AcDbLine
 10
8.654605630252868
 20
6.905057332668329
 30
0.0
 11
8.654605630252868
 21
-1.592666277268323
 31
0.0
  0
LINE
  5
52
330
2
100
AcDbEntity
  8
0
  6
CONTINUOUS
 62
     7
100
AcDbLine
 10
10.07328835025286
 20
3.185736111699963
 30
0.0
 11
10.46345339345286
 21
3.575901154899963
 31
0.0
  0
ARC
  5
53
330
2
100
AcDbEntity
  8
0
  6
CONTINUOUS
 62
     7
100
AcDbCircle
 10
9.90460563025284
 20
2.853946167699984
 30
0.0
 40
0.19775064
100
AcDbArc
 50
270.0000000000006
 51
348.8455926042007
  0
LINE
  5
54
330
2
100
AcDbEntity
  8
0
  6
CONTINUOUS
 62
     7
100
AcDbLine
 10
10.09862064145287
 20
2.815690574099971
 30
0.0
 11
10.12655338385287
 21
3.238565193299972
 31
0.0
  0
ARC
  5
55
330
2
100
AcDbEntity
  8
0
  6
CONTINUOUS
 62
     7
100
AcDbCircle
 10
9.977828934252849
 20
3.281195527700003
 30
0.0
 40
0.135
100
AcDbArc
 50
270.0000000000006
 51
315.0000000000007
  0
ARC
  5
56
330
2
100
AcDbEntity
  8
0
  6
CONTINUOUS
 62
     7
100
AcDbCircle
 10
10.63315902065284
 20
3.406195527700003
 30
0.0
 40
0.24
100
AcDbArc
 50
90.00000000000019
 51
135.0000000000003
  0
LINE
  5
57
330
2
100
AcDbEntity
  8
0
  6
CONTINUOUS
 62
     7
100
AcDbLine
 10
17.90474176065286
 20
2.815911028499964
 30
0.0
 11
17.96299391105285
 21
3.646195527699955
 31
0.0
  0
LINE
  5
58
330
2
100
AcDbEntity
  8
0
  6
CONTINUOUS
 62
     7
100
AcDbLine
 10
15.02126032545283
 20
2.820765374099959
 30
0.0
 11
14.97757121185285
 21
3.646195527699955
 31
0.0
  0
LINE
  5
59
330
2
100
AcDbEntity
  8
0
  6
CONTINUOUS
 62
     7
100
AcDbLine
 10
15.21710563265285
 20
2.656195527699946
 30
0.0
 11
17.71710563265285
 21
2.656195527699946
 31
0.0
  0
ARC
  5
5A
330
2
100
AcDbEntity
  8
0
  6
CONTINUOUS
 62
     7
100
AcDbCircle
 10
15.21710563265282
 20
2.855012686100007
 30
0.0
 40
0.1988171584
100
AcDbArc
 50
189.9189739899004
 51
270.0000000000006
  0
ARC
  5
5B
330
2
100
AcDbEntity
  8
0
  6
CONTINUOUS
 62
     7
100
AcDbCircle
 10
17.71710563265282
 20
2.846272126099972
 30
0.0
 40
0.1900765984
100
AcDbArc
 50
270.0000000000006
 51
350.8087254065007
  0
ARC
  5
5C
330
2
100
AcDbEntity
  8
0
  6
CONTINUOUS
 62
     7
100
AcDbCircle
 10
18.98115249025284
 20
4.156212674899972
 30
0.0
 40
0.51
100
AcDbArc
 50
269.9997292805006
 51
351.9980547347008
  0
SPLINE
  5
5E
330
2
100
AcDbEntity
  8
0
  6
CONTINUOUS
 62
     7
100
AcDbSpline
210
0.0
220
0.0
230
1.0
 70
     8
 71
     3
 72
    11
 73
     7
 74
     5
 42
0.0000000001
 43
0.0000000001
 44
0.0000000001
 40
0.0
 40
0.0
 40
0.0
 40
0.0
 40
0.0036022973532939
 40
0.0068644708594206
 40
0.0094504276594197
 40
0.0110464825203943
 40
0.0110464825203943
 40
0.0110464825203943
 40
0.0110464825203943
 10
26.53031912545285
 20
20.65619552769992
 30
0.0
 10
26.54953137104019
 20
20.65621262016276
 30
0.0
 10
26.58614186902076
 20
20.65624519124215
 30
0.0
 10
26.63654411979448
 20
20.65629250902692
 30
0.0
 10
26.67624646408507
 20
20.65630682384449
 30
0.0
 10
26.6985504945641
 20
20.65626662709453
 30
0.0
 10
26.70706277505283
 20
20.65625128609995
 30
0.0
 11
26.53031912545285
 21
20.65619552769992
 31
0.0
 11
26.58795585985282
 21
20.65624730049994
 31
0.0
 11
26.64015061825284
 21
20.65629028289997
 31
0.0
 11
26.68152592705283
 21
20.65629028289997
 31
0.0
 11
26.70706277505283
 21
20.65625128609995
 31
0.0
  0
SPLINE
  5
5F
330
2
100
AcDbEntity
  8
0
  6
CONTINUOUS
 62
     7
100
AcDbSpline
210
0.0
220
0.0
230
1.0
 70
     8
 71
     3
 72
     9
 73
     5
 74
     3
 42
0.0000000001
 43
0.0000000001
 44
0.0000000001
 40
0.0
 40
0.0
 40
0.0
 40
0.0
 40
0.0000607522106911
 40
0.0006269414257402
 40
0.0006269414257402
 40
0.0006269414257402
 40
0.0006269414257402
 10
26.70706277505283
 20
20.65625128609995
 30
0.0
 10
26.70738678424305
 20
20.65624998276433
 30
0.0
 10
26.71073044501449
 20
20.65623653279947
 30
0.0
 10
26.71407406631641
 20
20.65621503253468
 30
0.0
 10
26.71709368225285
 20
20.65619561569995
 30
0.0
 11
26.70706277505283
 21
20.65625128609995
 31
0.0
 11
26.70803480225285
 21
20.65624730049994
 31
0.0
 11
26.71709368225285
 21
20.65619561569995
 31
0.0
  0
LINE
  5
60
330
2
100
AcDbEntity
  8
0
  6
HIDDEN
100
AcDbLine
 10
20.06265704545286
 20
21.50675966689994
 30
0.0
 11
21.85751792065284
 21
21.25450842049998
 31
0.0
  0
LINE
  5
61
330
2
100
AcDbEntity
  8
0
  6
HIDDEN
100
AcDbLine
 10
21.99669102145285
 20
22.24477648929997
 30
0.0
 11
20.20183014785283
 21
22.49702773569999
 31
0.0
  0
LINE
  5
62
330
2
100
AcDbEntity
  8
0
  6
HIDDEN
 48
0.5
100
AcDbLine
 10
19.84091142785283
 20
22.17436277249994
 30
0.0
 11
19.80465822305283
 21
21.91640781729996
 31
0.0
  0
ARC
  5
63
330
2
100
AcDbEntity
  8
0
  6
HIDDEN
100
AcDbCircle
 10
20.21226195265286
 20
22.12217286049998
 30
0.0
 40
0.375
100
AcDbArc
 50
91.59406822690021
 51
172.0000000000004
  0
ARC
  5
64
330
2
100
AcDbEntity
  8
0
  6
HIDDEN
 48
0.5
100
AcDbCircle
 10
20.17600874785285
 20
21.86421790369997
 30
0.0
 40
0.375
100
AcDbArc
 50
172.0000000000004
 51
252.4059317731005
  0
ARC
  5
65
330
2
100
AcDbEntity
  8
0
  6
HIDDEN
100
AcDbCircle
 10
22.80179434625285
 20
24.1561955277
 30
0.0
 40
0.5
100
AcDbArc
 50
90.00002249180017
 51
172.0000000000004
  0
ARC
  5
66
330
2
100
AcDbEntity
  8
0
  6
CONTINUOUS
 62
     7
100
AcDbCircle
 10
26.19533888225283
 20
24.4686955277
 30
0.0
 40
0.1875
100
AcDbArc
 50
4.999999999999994
 51
90.00000000000019
  0
ENDSEC
  0
SECTION
  2
OBJECTS
  0
DICTIONARY
  5
7
330
0
100
AcDbDictionary
  3
ACAD_GROUP
350
26
  3
ACAD_LAYOUT
350
B
  3
ACAD_MLINESTYLE
350
27
  3
ACAD_PLOTSETTINGS
350
28
  3
ACAD_PLOTSTYLENAME
350
6
  3
ACDBHEADERROUNDTRIPXREC
350
FF
  3
ACDBVARIABLEDICTIONARY
350
67
  0
DICTIONARY
  5
11
330
10
100
AcDbDictionary
280
     1
  3
ACAD_LAYERFILTERS
360
12
  0
DICTIONARY
  5
91
330
2
100
AcDbDictionary
280
     1
  3
ACAD_LAYOUTSELFREF
360
120
  0
DICTIONARY
  5
97
330
C
100
AcDbDictionary
280
     1
  3
ACAD_LAYOUTSELFREF
360
121
  0
DICTIONARY
  5
26
102
{ACAD_REACTORS
330
7
102
}
330
7
100
AcDbDictionary
  0
DICTIONARY
  5
B
102
{ACAD_REACTORS
330
7
102
}
330
7
100
AcDbDictionary
  0
DICTIONARY
  5
27
102
{ACAD_REACTORS
330
7
102
}
330
7
100
AcDbDictionary
  3
STANDARD
350
29
  0
DICTIONARY
  5
28
102
{ACAD_REACTORS
330
7
102
}
330
7
100
AcDbDictionary
  0
ACDBDICTIONARYWDFLT
  5
6
102
{ACAD_REACTORS
330
7
102
}
330
7
100
AcDbDictionary
281
     1
  3
Normal
350
5
100
AcDbDictionaryWithDefault
340
5
  0
DICTIONARY
  5
FF
102
{ACAD_REACTORS
330
7
102
}
330
7
100
AcDbDictionary
  3
CEPSNTYPE
350
109
  3
DIMSTYLEDATA
350
10D
  3
FINGERPRINTGUID
350
10A
  3
HYPERLINKBASE
350
102
  3
INSUNITS
350
108
  3
LAYOUTDICT
350
104
  3
LWETCUNION
350
107
  3
PLOTSETDICT
350
105
  3
PLOTSTYLNAMDICT
350
106
  3
PSVPSCALE
350
10C
  3
PUCSBASE
350
110
  3
PUCSORGBACK
350
116
  3
PUCSORGBOTTOM
350
112
  3
PUCSORGFRONT
350
115
  3
PUCSORGLEFT
350
113
  3
PUCSORGRIGHT
350
114
  3
PUCSORGTOP
350
111
  3
PUCSORTHOREF
350
10E
  3
PUCSORTHOVIEW
350
10F
  3
STYLESHEET
350
103
  3
TSTACKALIGN
350
100
  3
TSTACKSIZE
350
101
  3
UCSBASE
350
119
  3
UCSORGBACK
350
11F
  3
UCSORGBOTTOM
350
11B
  3
UCSORGFRONT
350
11E
  3
UCSORGLEFT
350
11C
  3
UCSORGRIGHT
350
11D
  3
UCSORGTOP
350
11A
  3
UCSORTHOREF
350
117
  3
UCSORTHOVIEW
350
118
  3
VERSIONGUID
350
10B
  0
DICTIONARY
  5
67
102
{ACAD_REACTORS
330
7
102
}
330
7
100
AcDbDictionary
  3
DIMASSOC
350
69
  3
HIDETEXT
350
68
  0
DICTIONARY
  5
12
102
{ACAD_REACTORS
330
11
102
}
330
11
100
AcDbDictionary
280
     1
  3
DIM-1_12
360
13
  3
DIM-1_16
360
14
  0
XRECORD
  5
120
102
{ACAD_REACTORS
330
91
102
}
330
91
100
AcDbXrecord
340
2
  0
XRECORD
  5
121
102
{ACAD_REACTORS
330
97
102
}
330
97
100
AcDbXrecord
340
C
  0
MLINESTYLE
  5
29
102
{ACAD_REACTORS
330
27
102
}
330
27
100
AcDbMlineStyle
  2
STANDARD
 70
     0
  3

 62
     0
 51
90.00000000000019
 52
90.00000000000019
 71
     2
 49
0.5
 62
   256
  6
BYLAYER
 49
-0.5
 62
   256
  6
BYLAYER
  0
ACDBPLACEHOLDER
  5
5
102
{ACAD_REACTORS
330
6
102
}
330
6
100
AcDbPlaceHolder
280
     0
  0
XRECORD
  5
109
102
{ACAD_REACTORS
330
FF
102
}
330
FF
100
AcDbXrecord
 90
        0
  0
XRECORD
  5
10D
102
{ACAD_REACTORS
330
FF
102
}
330
FF
100
AcDbXrecord
1000
DSTYLE
1002
{
1070
   276
 70
     1
1070
   277
 70
     5
1070
   289
 70
     0
1002
}
  0
XRECORD
  5
10A
102
{ACAD_REACTORS
330
FF
102
}
330
FF
100
AcDbXrecord
  1
{BB49E4DB-24F6-493D-A73D-E510C8469835}
  0
XRECORD
  5
102
102
{ACAD_REACTORS
330
FF
102
}
330
FF
100
AcDbXrecord
  1

  0
XRECORD
  5
108
102
{ACAD_REACTORS
330
FF
102
}
330
FF
100
AcDbXrecord
 90
        0
  0
XRECORD
  5
104
102
{ACAD_REACTORS
330
FF
102
}
330
FF
100
AcDbXrecord
340
B
  0
XRECORD
  5
107
102
{ACAD_REACTORS
330
FF
102
}
330
FF
100
AcDbXrecord
 90
    10781
  0
XRECORD
  5
105
102
{ACAD_REACTORS
330
FF
102
}
330
FF
100
AcDbXrecord
340
28
  0
XRECORD
  5
106
102
{ACAD_REACTORS
330
FF
102
}
330
FF
100
AcDbXrecord
340
6
  0
XRECORD
  5
10C
102
{ACAD_REACTORS
330
FF
102
}
330
FF
100
AcDbXrecord
 40
0.0
  0
XRECORD
  5
110
102
{ACAD_REACTORS
330
FF
102
}
330
FF
100
AcDbXrecord
340
0
  0
XRECORD
  5
116
102
{ACAD_REACTORS
330
FF
102
}
330
FF
100
AcDbXrecord
 10
0.0
 20
0.0
 30
0.0
  0
XRECORD
  5
112
102
{ACAD_REACTORS
330
FF
102
}
330
FF
100
AcDbXrecord
 10
0.0
 20
0.0
 30
0.0
  0
XRECORD
  5
115
102
{ACAD_REACTORS
330
FF
102
}
330
FF
100
AcDbXrecord
 10
0.0
 20
0.0
 30
0.0
  0
XRECORD
  5
113
102
{ACAD_REACTORS
330
FF
102
}
330
FF
100
AcDbXrecord
 10
0.0
 20
0.0
 30
0.0
  0
XRECORD
  5
114
102
{ACAD_REACTORS
330
FF
102
}
330
FF
100
AcDbXrecord
 10
0.0
 20
0.0
 30
0.0
  0
XRECORD
  5
111
102
{ACAD_REACTORS
330
FF
102
}
330
FF
100
AcDbXrecord
 10
0.0
 20
0.0
 30
0.0
  0
XRECORD
  5
10E
102
{ACAD_REACTORS
330
FF
102
}
330
FF
100
AcDbXrecord
340
0
  0
XRECORD
  5
10F
102
{ACAD_REACTORS
330
FF
102
}
330
FF
100
AcDbXrecord
 70
     0
  0
XRECORD
  5
103
102
{ACAD_REACTORS
330
FF
102
}
330
FF
100
AcDbXrecord
  1

  0
XRECORD
  5
100
102
{ACAD_REACTORS
330
FF
102
}
330
FF
100
AcDbXrecord
 90
        1
  0
XRECORD
  5
101
102
{ACAD_REACTORS
330
FF
102
}
330
FF
100
AcDbXrecord
 90
       70
  0
XRECORD
  5
119
102
{ACAD_REACTORS
330
FF
102
}
330
FF
100
AcDbXrecord
340
0
  0
XRECORD
  5
11F
102
{ACAD_REACTORS
330
FF
102
}
330
FF
100
AcDbXrecord
 10
0.0
 20
0.0
 30
0.0
  0
XRECORD
  5
11B
102
{ACAD_REACTORS
330
FF
102
}
330
FF
100
AcDbXrecord
 10
0.0
 20
0.0
 30
0.0
  0
XRECORD
  5
11E
102
{ACAD_REACTORS
330
FF
102
}
330
FF
100
AcDbXrecord
 10
0.0
 20
0.0
 30
0.0
  0
XRECORD
  5
11C
102
{ACAD_REACTORS
330
FF
102
}
330
FF
100
AcDbXrecord
 10
0.0
 20
0.0
 30
0.0
  0
XRECORD
  5
11D
102
{ACAD_REACTORS
330
FF
102
}
330
FF
100
AcDbXrecord
 10
0.0
 20
0.0
 30
0.0
  0
XRECORD
  5
11A
102
{ACAD_REACTORS
330
FF
102
}
330
FF
100
AcDbXrecord
 10
0.0
 20
0.0
 30
0.0
  0
XRECORD
  5
117
102
{ACAD_REACTORS
330
FF
102
}
330
FF
100
AcDbXrecord
340
0
  0
XRECORD
  5
118
102
{ACAD_REACTORS
330
FF
102
}
330
FF
100
AcDbXrecord
 70
     0
  0
XRECORD
  5
10B
102
{ACAD_REACTORS
330
FF
102
}
330
FF
100
AcDbXrecord
  1
{56D2CD00-B4B6-4595-830D-0C3B37648590}
  0
DICTIONARYVAR
  5
69
102
{ACAD_REACTORS
330
67
102
}
330
67
100
DictionaryVariables
280
     0
  1
1
  0
DICTIONARYVAR
  5
68
102
{ACAD_REACTORS
330
67
102
}
330
67
100
DictionaryVariables
280
     0
  1
1
  0
XRECORD
  5
13
102
{ACAD_REACTORS
330
12
102
}
330
12
100
AcDbXrecord
  1
DIM-1_12
  1
DIM-1_12
  1
*
  1
*
 70
     0
  1
*
  1
*
  0
XRECORD
  5
14
102
{ACAD_REACTORS
330
12
102
}
330
12
100
AcDbXrecord
  1
dim-1_16
  1
*
  1
*
  1
*
 70
     0
  1
*
  1
*
  0
ENDSEC
  0
EOF
