  0
SECTION
  2
HEADER
  9
$ACADVER
  1
AC1014
  9
$ACADMAINTVER
 70
     9
  9
$DWGCODEPAGE
  3
ANSI_1252
  9
$INSBASE
 10
8.749872576585431
 20
7.1572145658
 30
0.0
  9
$EXTMIN
 10
-11.72922549834829
 20
-6.173651041988549
 30
-0.0015258207003583
  9
$EXTMAX
 10
30.39862356210021
 20
18.67327060985348
 30
0.0000000349246037
  9
$LIMMIN
 10
0.0
 20
0.0
  9
$LIMMAX
 10
17.0
 20
11.0
  9
$ORTHOMODE
 70
     1
  9
$REGENMODE
 70
     1
  9
$FILLMODE
 70
     1
  9
$QTEXTMODE
 70
     0
  9
$MIRRTEXT
 70
     1
  9
$DRAGMODE
 70
     2
  9
$LTSCALE
 40
2.0
  9
$OSMODE
 70
    55
  9
$ATTMODE
 70
     1
  9
$TEXTSIZE
 40
0.2
  9
$TRACEWID
 40
0.05
  9
$TEXTSTYLE
  7
STANDARD
  9
$CLAYER
  8
0
  9
$CELTYPE
  6
BYLAYER
  9
$CECOLOR
 62
   256
  9
$CELTSCALE
 40
1.0
  9
$DELOBJ
 70
     1
  9
$DISPSILH
 70
     0
  9
$DIMSCALE
 40
16.0
  9
$DIMASZ
 40
0.1875
  9
$DIMEXO
 40
0.0625
  9
$DIMDLI
 40
0.38
  9
$DIMRND
 40
0.0
  9
$DIMDLE
 40
0.0
  9
$DIMEXE
 40
0.18
  9
$DIMTP
 40
0.0
  9
$DIMTM
 40
0.0
  9
$DIMTXT
 40
0.125
  9
$DIMCEN
 40
0.09
  9
$DIMTSZ
 40
0.0
  9
$DIMTOL
 70
     0
  9
$DIMLIM
 70
     0
  9
$DIMTIH
 70
     1
  9
$DIMTOH
 70
     1
  9
$DIMSE1
 70
     0
  9
$DIMSE2
 70
     0
  9
$DIMTAD
 70
     0
  9
$DIMZIN
 70
     4
  9
$DIMBLK
  1
_FILLED
  9
$DIMASO
 70
     1
  9
$DIMSHO
 70
     1
  9
$DIMPOST
  1

  9
$DIMAPOST
  1

  9
$DIMALT
 70
     0
  9
$DIMALTD
 70
     2
  9
$DIMALTF
 40
25.4
  9
$DIMLFAC
 40
1.0
  9
$DIMTOFL
 70
     0
  9
$DIMTVP
 40
0.0
  9
$DIMTIX
 70
     0
  9
$DIMSOXD
 70
     0
  9
$DIMSAH
 70
     0
  9
$DIMBLK1
  1

  9
$DIMBLK2
  1

  9
$DIMSTYLE
  2
STANDARD
  9
$DIMCLRD
 70
     0
  9
$DIMCLRE
 70
     0
  9
$DIMCLRT
 70
     0
  9
$DIMTFAC
 40
1.0
  9
$DIMGAP
 40
0.09
  9
$DIMJUST
 70
     0
  9
$DIMSD1
 70
     0
  9
$DIMSD2
 70
     0
  9
$DIMTOLJ
 70
     1
  9
$DIMTZIN
 70
     4
  9
$DIMALTZ
 70
     0
  9
$DIMALTTZ
 70
     0
  9
$DIMFIT
 70
     3
  9
$DIMUPT
 70
     0
  9
$DIMUNIT
 70
     5
  9
$DIMDEC
 70
     4
  9
$DIMTDEC
 70
     4
  9
$DIMALTU
 70
     2
  9
$DIMALTTD
 70
     2
  9
$DIMTXSTY
  7
STANDARD
  9
$DIMAUNIT
 70
     0
  9
$LUNITS
 70
     2
  9
$LUPREC
 70
     4
  9
$SKETCHINC
 40
0.1
  9
$FILLETRAD
 40
0.0
  9
$AUNITS
 70
     0
  9
$AUPREC
 70
     0
  9
$MENU
  1
acad
  9
$ELEVATION
 40
0.0
  9
$PELEVATION
 40
0.0
  9
$THICKNESS
 40
0.0
  9
$LIMCHECK
 70
     0
  9
$BLIPMODE
 70
     0
  9
$CHAMFERA
 40
0.0
  9
$CHAMFERB
 40
0.0
  9
$CHAMFERC
 40
0.0
  9
$CHAMFERD
 40
0.0
  9
$SKPOLY
 70
     0
  9
$TDCREATE
 40
2453676.875167638
  9
$TDUPDATE
 40
2453686.604160763
  9
$TDINDWG
 40
0.0197631250
  9
$TDUSRTIMER
 40
0.0197631250
  9
$USRTIMER
 70
     1
  9
$ANGBASE
 50
0.0
  9
$ANGDIR
 70
     0
  9
$PDMODE
 70
     3
  9
$PDSIZE
 40
0.3125
  9
$PLINEWID
 40
0.0
  9
$COORDS
 70
     1
  9
$SPLFRAME
 70
     0
  9
$SPLINETYPE
 70
     6
  9
$SPLINESEGS
 70
     8
  9
$ATTDIA
 70
     0
  9
$ATTREQ
 70
     1
  9
$HANDLING
 70
 22529
  9
$HANDSEED
  5
16B
  9
$SURFTAB1
 70
     6
  9
$SURFTAB2
 70
     6
  9
$SURFTYPE
 70
     6
  9
$SURFU
 70
     6
  9
$SURFV
 70
     6
  9
$UCSNAME
  2

  9
$UCSORG
 10
0.0
 20
0.0
 30
0.0
  9
$UCSXDIR
 10
1.0
 20
0.0
 30
0.0
  9
$UCSYDIR
 10
0.0
 20
1.0
 30
0.0
  9
$PUCSNAME
  2

  9
$PUCSORG
 10
0.0
 20
0.0
 30
0.0
  9
$PUCSXDIR
 10
1.0
 20
0.0
 30
0.0
  9
$PUCSYDIR
 10
0.0
 20
1.0
 30
0.0
  9
$USERI1
 70
     0
  9
$USERI2
 70
     0
  9
$USERI3
 70
     0
  9
$USERI4
 70
     0
  9
$USERI5
 70
     0
  9
$USERR1
 40
0.0
  9
$USERR2
 40
0.0
  9
$USERR3
 40
0.0
  9
$USERR4
 40
0.0
  9
$USERR5
 40
0.0
  9
$WORLDVIEW
 70
     1
  9
$SHADEDGE
 70
     3
  9
$SHADEDIF
 70
    70
  9
$TILEMODE
 70
     1
  9
$MAXACTVP
 70
    16
  9
$PINSBASE
 10
0.0
 20
0.0
 30
0.0
  9
$PLIMCHECK
 70
     0
  9
$PEXTMIN
 10
1.000000000000000E+20
 20
1.000000000000000E+20
 30
1.000000000000000E+20
  9
$PEXTMAX
 10
-1.000000000000000E+20
 20
-1.000000000000000E+20
 30
-1.000000000000000E+20
  9
$PLIMMIN
 10
0.0
 20
0.0
  9
$PLIMMAX
 10
12.0
 20
9.0
  9
$UNITMODE
 70
     0
  9
$VISRETAIN
 70
     0
  9
$PLINEGEN
 70
     1
  9
$PSLTSCALE
 70
     0
  9
$TREEDEPTH
 70
  3020
  9
$PICKSTYLE
 70
     1
  9
$CMLSTYLE
  2
STANDARD
  9
$CMLJUST
 70
     0
  9
$CMLSCALE
 40
1.0
  9
$PROXYGRAPHICS
 70
     0
  9
$MEASUREMENT
 70
     0
  0
ENDSEC
  0
SECTION
  2
CLASSES
  0
CLASS
  1
ACDBDICTIONARYWDFLT
  2
AcDbDictionaryWithDefault
  3
AutoCAD 2000
 90
        0
280
     0
281
     0
  0
CLASS
  1
ACDBPLACEHOLDER
  2
AcDbPlaceHolder
  3
AutoCAD 2000
 90
        0
280
     0
281
     0
  0
CLASS
  1
LAYOUT
  2
AcDbLayout
  3
AutoCAD 2000
 90
        0
280
     0
281
     0
  0
CLASS
  1
LWPOLYLINE
  2
AcDbPolyline
  3
AutoCAD 2000
 90
        0
280
     0
281
     1
  0
CLASS
  1
IMAGE
  2
AcDbRasterImage
  3
ISM
 90
      127
280
     0
281
     1
  0
CLASS
  1
OLE2FRAME
  2
AcDbOle2Frame
  3
AutoCAD 2000
 90
        0
280
     0
281
     1
  0
CLASS
  1
HATCH
  2
AcDbHatch
  3
AutoCAD 2000
 90
        0
280
     0
281
     1
  0
CLASS
  1
DICTIONARYVAR
  2
AcDbDictionaryVar
  3
AutoCAD 2000
 90
        0
280
     0
281
     0
  0
CLASS
  1
RASTERVARIABLES
  2
AcDbRasterVariables
  3
ISM
 90
        0
280
     0
281
     0
  0
CLASS
  1
IMAGEDEF
  2
AcDbRasterImageDef
  3
ISM
 90
        0
280
     0
281
     0
  0
CLASS
  1
IMAGEDEF_REACTOR
  2
AcDbRasterImageDefReactor
  3
ISM
 90
        1
280
     0
281
     0
  0
CLASS
  1
IDBUFFER
  2
AcDbIdBuffer
  3
AutoCAD 2000
 90
        0
280
     0
281
     0
  0
CLASS
  1
SPATIAL_FILTER
  2
AcDbSpatialFilter
  3
AutoCAD 2000
 90
        0
280
     0
281
     0
  0
CLASS
  1
XRECORD
  2
AcDbXrecord
  3
AutoCAD 2000
 90
        0
280
     0
281
     0
  0
CLASS
  1
SORTENTSTABLE
  2
AcDbSortentsTable
  3
AutoCAD 2000
 90
        0
280
     0
281
     0
  0
CLASS
  1
LAYER_INDEX
  2
AcDbLayerIndex
  3
AutoCAD 2000
 90
        0
280
     0
281
     0
  0
CLASS
  1
SPATIAL_INDEX
  2
AcDbSpatialIndex
  3
AutoCAD 2000
 90
        0
280
     0
281
     0
  0
CLASS
  1
OBJECT_PTR
  2
CAseDLPNTableRecord
  3
ASE-LPNTableRecord
 90
        1
280
     0
281
     0
  0
CLASS
  1
PLOTSETTINGS
  2
AcDbPlotSettings
  3
AutoCAD 2000
 90
        0
280
     0
281
     0
  0
CLASS
  1
VBA_PROJECT
  2
AcDbVbaProject
  3
acadvba
 90
        0
280
     0
281
     0
  0
CLASS
  1
WIPEOUT
  2
AcDbWipeout
  3
"WipeOut|Product Desc: Object Enabler for WipeOut entity^I^I^I^I^I^I|Company: Autodesk, Inc.^I^I^I^I^I^I|WEB Address: www.autodesk.com"
 90
      127
280
     0
281
     1
  0
CLASS
  1
WIPEOUTVARIABLES
  2
AcDbWipeoutVariables
  3
"WipeOut|Product Desc:     WipeOut Dbx Application|Company:          Autodesk, Inc.|WEB Address:      www.autodesk.com"
 90
        0
280
     0
281
     0
  0
CLASS
  1
RTEXT
  2
RText
  3
RText|AutoCAD Express Tool|expresstools@autodesk.com
 90
        0
280
     1
281
     1
  0
CLASS
  1
ARCALIGNEDTEXT
  2
AcDbArcAlignedText
  3
ATEXT|AutoCAD Express Tool|expresstools@autodesk.com
 90
        0
280
     1
281
     1
  0
CLASS
  1
TABLESTYLE
  2
AcDbTableStyle
  3
ObjectDBX Classes
 90
     2047
280
     0
281
     0
  0
CLASS
  1
ACAD_PROXY_OBJECT_WRAPPER
  2
AcDbProxyObjectWrapper
  3
AutoCAD 2000
 90
        0
280
     0
281
     0
  0
CLASS
  1
LONG_TRANSACTION
  2
AcDbLongTransaction
  3
AutoCAD 2000
 90
        0
280
     0
281
     0
  0
CLASS
  1
LWPOLYLINE
  2
AcDbPolyline
  3
AutoCAD 2000
 90
        0
280
     0
281
     1
  0
CLASS
  1
HATCH
  2
AcDbHatch
  3
AutoCAD 2000
 90
        0
280
     0
281
     1
  0
CLASS
  1
XRECORD
  2
AcDbXrecord
  3
AutoCAD 2000
 90
        0
280
     0
281
     0
  0
CLASS
  1
LONG_TRANSACTION
  2
AcDbLongTransaction
  3
AutoCAD 2000
 90
        0
280
     0
281
     0
  0
CLASS
  1
LWPOLYLINE
  2
AcDbPolyline
  3
AutoCAD 2000
 90
        0
280
     0
281
     1
  0
CLASS
  1
HATCH
  2
AcDbHatch
  3
AutoCAD 2000
 90
        0
280
     0
281
     1
  0
CLASS
  1
XRECORD
  2
AcDbXrecord
  3
AutoCAD 2000
 90
        0
280
     0
281
     0
  0
ENDSEC
  0
SECTION
  2
TABLES
  0
TABLE
  2
VPORT
  5
18
330
0
100
AcDbSymbolTable
 70
     3
  0
VPORT
  5
147
330
18
100
AcDbSymbolTableRecord
100
AcDbViewportTableRecord
  2
*ACTIVE
 70
     0
 10
0.0
 20
0.0
 11
1.0
 21
1.0
 12
9.334698938221013
 22
6.249809767126745
 13
0.0
 23
0.0
 14
1.0
 24
1.0
 15
0.0
 25
0.0
 16
0.0
 26
0.0
 36
1.0
 17
0.0
 27
0.0
 37
0.0
 40
30.65576690822303
 41
1.786792452830188
 42
50.0
 43
0.0
 44
0.0
 50
0.0
 51
0.0
 71
     0
 72
   100
 73
     1
 74
     1
 75
     0
 76
     0
 77
     0
 78
     0
  0
ENDTAB
  0
TABLE
  2
LTYPE
  5
13
330
0
100
AcDbSymbolTable
 70
     3
  0
LTYPE
  5
14
330
13
100
AcDbSymbolTableRecord
100
AcDbLinetypeTableRecord
  2
BYBLOCK
 70
     0
  3

 72
    65
 73
     0
 40
0.0
  0
LTYPE
  5
15
330
13
100
AcDbSymbolTableRecord
100
AcDbLinetypeTableRecord
  2
BYLAYER
 70
     0
  3

 72
    65
 73
     0
 40
0.0
  0
LTYPE
  5
6
330
13
100
AcDbSymbolTableRecord
100
AcDbLinetypeTableRecord
  2
CONTINUOUS
 70
     0
  3
Solid line
 72
    65
 73
     0
 40
0.0
  0
LTYPE
  5
52
330
13
100
AcDbSymbolTableRecord
100
AcDbLinetypeTableRecord
  2
CENTER
 70
     0
  3
____ _ ____ _ ____ _ ____ _ ____ _ ____ _ ____
 72
    65
 73
     4
 40
0.6
 49
0.375
 74
     0
 49
-0.075
 74
     0
 49
0.075
 74
     0
 49
-0.075
 74
     0
  0
LTYPE
  5
31
330
13
100
AcDbSymbolTableRecord
100
AcDbLinetypeTableRecord
  2
HIDDEN
 70
     0
  3
- - - - - - - - - - - - - - - - - - - -
 72
    65
 73
     2
 40
0.2
 49
0.1
 74
     0
 49
-0.1
 74
     0
  0
ENDTAB
  0
TABLE
  2
LAYER
  5
F
330
0
100
AcDbSymbolTable
 70
     3
  0
LAYER
  5
4
330
F
100
AcDbSymbolTableRecord
100
AcDbLayerTableRecord
  2
0
 70
     0
 62
     7
  6
CONTINUOUS
  0
LAYER
  5
51
330
F
100
AcDbSymbolTableRecord
100
AcDbLayerTableRecord
  2
CENTER
 70
     0
 62
     1
  6
CENTER
  0
LAYER
  5
A2
330
F
100
AcDbSymbolTableRecord
100
AcDbLayerTableRecord
  2
DEFPOINTS
 70
     0
 62
     7
  6
CONTINUOUS
  0
ENDTAB
  0
TABLE
  2
STYLE
  5
10
330
0
100
AcDbSymbolTable
 70
     1
  0
STYLE
  5
11
330
10
100
AcDbSymbolTableRecord
100
AcDbTextStyleTableRecord
  2
STANDARD
 70
     0
 40
0.0
 41
0.8
 50
0.0
 71
     0
 42
0.2
  3
txt
  4

  0
ENDTAB
  0
TABLE
  2
VIEW
  5
16
330
0
100
AcDbSymbolTable
 70
     0
  0
ENDTAB
  0
TABLE
  2
UCS
  5
17
330
0
100
AcDbSymbolTable
 70
     0
  0
ENDTAB
  0
TABLE
  2
APPID
  5
1A
330
0
100
AcDbSymbolTable
 70
     3
  0
APPID
  5
1B
330
1A
100
AcDbSymbolTableRecord
100
AcDbRegAppTableRecord
  2
ACAD
 70
     0
  0
APPID
  5
75
330
1A
100
AcDbSymbolTableRecord
100
AcDbRegAppTableRecord
  2
DCO15
 70
     0
  0
APPID
  5
7D
330
1A
100
AcDbSymbolTableRecord
100
AcDbRegAppTableRecord
  2
ACAD_DSTYLE_DIMTEXT_FILL
 70
     0
  0
ENDTAB
  0
TABLE
  2
DIMSTYLE
  5
1C
330
0
100
AcDbSymbolTable
 70
     1
  0
DIMSTYLE
105
1D
330
1C
100
AcDbSymbolTableRecord
100
AcDbDimStyleTableRecord
  2
STANDARD
 70
     0
  3

  4

  5
_FILLED
  6

  7

 40
1.0
 41
0.1875
 42
0.0625
 43
0.38
 44
0.18
 45
0.0
 46
0.0
 47
0.0
 48
0.0
140
0.125
141
0.09
142
0.0
143
25.4
144
16.0
145
0.0
146
1.0
147
0.09
 71
     0
 72
     0
 73
     1
 74
     1
 75
     0
 76
     0
 77
     0
 78
     4
170
     0
171
     2
172
     0
173
     0
174
     0
175
     0
176
     0
177
     0
178
     0
270
     5
271
     4
272
     4
273
     2
274
     2
340
11
275
     0
280
     0
281
     0
282
     0
283
     1
284
     4
285
     0
286
     0
287
     3
288
     0
  0
ENDTAB
  0
TABLE
  2
BLOCK_RECORD
  5
1
330
0
100
AcDbSymbolTable
 70
     4
  0
BLOCK_RECORD
  5
2
102
{ACAD_XDICTIONARY
360
DA
102
}
330
1
100
AcDbSymbolTableRecord
100
AcDbBlockTableRecord
  2
*MODEL_SPACE
  0
BLOCK_RECORD
  5
B
102
{ACAD_XDICTIONARY
360
E0
102
}
330
1
100
AcDbSymbolTableRecord
100
AcDbBlockTableRecord
  2
*PAPER_SPACE
  0
BLOCK_RECORD
  5
1E
330
1
100
AcDbSymbolTableRecord
100
AcDbBlockTableRecord
  2
_FILLED
  0
BLOCK_RECORD
  5
F4
330
1
100
AcDbSymbolTableRecord
100
AcDbBlockTableRecord
  2
*D2
  0
BLOCK_RECORD
  5
102
330
1
100
AcDbSymbolTableRecord
100
AcDbBlockTableRecord
  2
*D3
  0
ENDTAB
  0
ENDSEC
  0
SECTION
  2
BLOCKS
  0
BLOCK
  5
3
330
2
100
AcDbEntity
  8
0
100
AcDbBlockBegin
  2
*MODEL_SPACE
 70
     0
 10
0.0
 20
0.0
 30
0.0
  3
*MODEL_SPACE
  1

  0
ENDBLK
  5
7
330
2
100
AcDbEntity
  8
0
100
AcDbBlockEnd
  0
BLOCK
  5
C
330
B
100
AcDbEntity
 67
     1
  8
0
100
AcDbBlockBegin
  2
*PAPER_SPACE
 70
     0
 10
0.0
 20
0.0
 30
0.0
  3
*PAPER_SPACE
  1

  0
ENDBLK
  5
D
330
B
100
AcDbEntity
 67
     1
  8
0
100
AcDbBlockEnd
  0
BLOCK
  5
1F
330
1E
100
AcDbEntity
  8
0
100
AcDbBlockBegin
  2
_FILLED
 70
     0
 10
0.0
 20
0.0
 30
0.0
  3
_FILLED
  1

  0
SOLID
  5
20
330
1E
100
AcDbEntity
  8
0
  6
BYBLOCK
 62
     0
100
AcDbTrace
 10
0.0
 20
0.0
 30
0.0
 11
-1.0
 21
0.1666666667
 31
0.0
 12
-1.0
 22
-0.1666666667
 32
0.0
 13
-1.0
 23
-0.1666666667
 33
0.0
  0
ENDBLK
  5
21
330
1E
100
AcDbEntity
  8
0
  6
BYBLOCK
 62
     0
100
AcDbBlockEnd
  0
BLOCK
  5
FF
330
F4
100
AcDbEntity
  8
0
100
AcDbBlockBegin
  2
*D2
 70
     1
 10
0.0
 20
0.0
 30
0.0
  3
*D2
  1

  0
LINE
  5
F5
330
F4
100
AcDbEntity
  8
0
 62
     0
100
AcDbLine
 10
-11.72729541179025
 20
13.62994229091723
 30
0.0
 11
-11.72729541179025
 21
22.28243481813895
 31
0.0
  0
LINE
  5
F6
330
F4
100
AcDbEntity
  8
0
 62
     0
100
AcDbLine
 10
30.39770458820975
 20
13.62994229091723
 30
0.0
 11
30.39770458820975
 21
22.28243481813895
 31
0.0
  0
LINE
  5
F7
330
F4
100
AcDbEntity
  8
0
 62
     0
100
AcDbLine
 10
-11.53979541179025
 20
22.10243481813896
 30
0.0
 11
9.111871254876417
 21
22.10243481813896
 31
0.0
  0
LINE
  5
F8
330
F4
100
AcDbEntity
  8
0
 62
     0
100
AcDbLine
 10
30.21020458820975
 20
22.10243481813896
 30
0.0
 11
9.558537921543083
 21
22.10243481813896
 31
0.0
  0
INSERT
  5
F9
330
F4
100
AcDbEntity
  8
0
 62
     0
100
AcDbBlockReference
  2
_FILLED
 10
-11.72729541179025
 20
22.10243481813896
 30
0.0
 41
0.1875
 42
0.1875
 43
0.1875
 50
180.0
  0
INSERT
  5
FA
330
F4
100
AcDbEntity
  8
0
 62
     0
100
AcDbBlockReference
  2
_FILLED
 10
30.39770458820975
 20
22.10243481813896
 30
0.0
 41
0.1875
 42
0.1875
 43
0.1875
  0
MTEXT
  5
FB
330
F4
100
AcDbEntity
  8
0
 62
     0
100
AcDbMText
 10
9.33520458820975
 20
22.10243481813896
 30
0.0
 40
0.125
 41
0.0
 71
     5
 72
     1
  1
\A1;42{\H1.000000x;\S1/8;}
1001
ACAD
1000
MTEXTBEGIN
1070
    73
1070
     1
1070
    44
1040
1.0
1070
    74
1070
     0
1000
MTEXTEND
  0
POINT
  5
FC
330
F4
100
AcDbEntity
  8
DEFPOINTS
 62
     0
100
AcDbPoint
 10
-11.72729541179025
 20
13.56744229091723
 30
0.0
  0
POINT
  5
FD
330
F4
100
AcDbEntity
  8
DEFPOINTS
 62
     0
100
AcDbPoint
 10
30.39770458820975
 20
13.56744229091723
 30
0.0
  0
POINT
  5
FE
330
F4
100
AcDbEntity
  8
DEFPOINTS
 62
     0
100
AcDbPoint
 10
30.39770458820975
 20
22.10243481813896
 30
0.0
  0
ENDBLK
  5
100
330
F4
100
AcDbEntity
  8
0
100
AcDbBlockEnd
  0
BLOCK
  5
10D
330
102
100
AcDbEntity
  8
0
100
AcDbBlockBegin
  2
*D3
 70
     1
 10
0.0
 20
0.0
 30
0.0
  3
*D3
  1

  0
LINE
  5
103
330
102
100
AcDbEntity
  8
0
 62
     0
100
AcDbLine
 10
-12.11803999899025
 20
18.56744229091724
 30
0.0
 11
-20.03129389978221
 21
18.56744229091724
 31
0.0
  0
LINE
  5
104
330
102
100
AcDbEntity
  8
0
 62
     0
100
AcDbLine
 10
-1.464085411790236
 20
-3.432557709082761
 30
0.0
 11
-20.03129389978221
 21
-3.432557709082755
 31
0.0
  0
LINE
  5
105
330
102
100
AcDbEntity
  8
0
 62
     0
100
AcDbLine
 10
-17.15129389978221
 20
15.56744229091723
 30
0.0
 11
-17.15129389978221
 21
10.00744229091724
 31
0.0
  0
LINE
  5
106
330
102
100
AcDbEntity
  8
0
 62
     0
100
AcDbLine
 10
-17.15129389978221
 20
-0.4325577090827568
 30
0.0
 11
-17.15129389978221
 21
5.12744229091724
 31
0.0
  0
INSERT
  5
107
330
102
100
AcDbEntity
  8
0
 62
     0
100
AcDbBlockReference
  2
_FILLED
 10
-17.15129389978221
 20
18.56744229091724
 30
0.0
 41
3.0
 42
3.0
 43
3.0
 50
90.0
  0
INSERT
  5
108
330
102
100
AcDbEntity
  8
0
 62
     0
100
AcDbBlockReference
  2
_FILLED
 10
-17.15129389978221
 20
-3.432557709082756
 30
0.0
 41
3.0
 42
3.0
 43
3.0
 50
270.0
  0
MTEXT
  5
109
330
102
100
AcDbEntity
  8
0
 62
     0
100
AcDbMText
 10
-17.15129389978221
 20
7.567442290917237
 30
0.0
 40
2.0
 41
0.0
 71
     5
 72
     1
  1
\A1;22
1001
ACAD
1000
MTEXTBEGIN
1070
    73
1070
     1
1070
    44
1040
1.0
1070
    74
1070
     0
1000
MTEXTEND
  0
POINT
  5
10A
330
102
100
AcDbEntity
  8
DEFPOINTS
 62
     0
100
AcDbPoint
 10
-11.11803999899025
 20
18.56744229091724
 30
0.0
  0
POINT
  5
10B
330
102
100
AcDbEntity
  8
DEFPOINTS
 62
     0
100
AcDbPoint
 10
-0.4640854117902365
 20
-3.432557709082761
 30
0.0
  0
POINT
  5
10C
330
102
100
AcDbEntity
  8
DEFPOINTS
 62
     0
100
AcDbPoint
 10
-17.15129389978221
 20
-3.432557709082756
 30
0.0
  0
ENDBLK
  5
10E
330
102
100
AcDbEntity
  8
0
100
AcDbBlockEnd
  0
ENDSEC
  0
SECTION
  2
ENTITIES
  0
LINE
  5
2D
330
2
100
AcDbEntity
  8
0
100
AcDbLine
 10
20.28591458820976
 20
-3.432557709082761
 30
0.0
 11
17.78591458820976
 21
-3.432557709082761
 31
0.0
  0
LINE
  5
2E
330
2
100
AcDbEntity
  8
0
100
AcDbLine
 10
10.53591458820976
 20
-3.432557709082761
 30
0.0
 11
8.035914588209763
 21
-3.432557709082761
 31
0.0
  0
LINE
  5
2F
330
2
100
AcDbEntity
  8
0
100
AcDbLine
 10
-1.714085411790236
 20
-3.432557709082761
 30
0.0
 11
0.7859145882097636
 21
-3.432557709082761
 31
0.0
  0
LINE
  5
30
330
2
100
AcDbEntity
  8
0
  6
HIDDEN
100
AcDbLine
 10
24.45925689220977
 20
15.20859780291722
 30
0.0
 11
21.02174309380977
 21
15.20860046211721
 31
0.0
  0
LINE
  5
32
330
2
100
AcDbEntity
  8
0
  6
HIDDEN
100
AcDbLine
 10
21.02079710660977
 20
14.18679307011721
 30
0.0
 11
24.27563334020978
 21
13.90204833411722
 31
0.0
  0
LINE
  5
33
330
2
100
AcDbEntity
  8
0
100
AcDbLine
 10
-5.583143942990218
 20
13.55924307491725
 30
0.0
 11
-6.228004106190226
 21
18.14766155331725
 31
0.0
  0
LINE
  5
34
330
2
100
AcDbEntity
  8
0
100
AcDbLine
 10
-1.921365299790224
 20
-3.268553310682779
 30
0.0
 11
-2.003504438990219
 21
-2.448174155482764
 31
0.0
  0
LINE
  5
35
330
2
100
AcDbEntity
  8
0
100
AcDbLine
 10
0.9991374186097772
 20
-3.277679881882779
 30
0.0
 11
1.031662460209773
 21
-2.957046833882788
 31
0.0
  0
LINE
  5
36
330
2
100
AcDbEntity
  8
0
100
AcDbLine
 10
7.846948777009785
 20
-3.301534787482768
 30
0.0
 11
7.732287714609768
 21
-2.448174155482792
 31
0.0
  0
LINE
  5
37
330
2
100
AcDbEntity
  8
0
100
AcDbLine
 10
10.73804557220977
 20
-3.293344712282777
 30
0.0
 11
10.84451655940976
 21
-2.448174155482792
 31
0.0
  0
LINE
  5
38
330
2
100
AcDbEntity
  8
0
100
AcDbLine
 10
17.60066476580978
 20
-3.303011262682776
 30
0.0
 11
17.50387714500978
 21
-2.448174155482792
 31
0.0
  0
LINE
  5
39
330
2
100
AcDbEntity
  8
0
  6
HIDDEN
100
AcDbLine
 10
22.02175689220978
 20
14.95859780291722
 30
0.0
 11
22.02175689220978
 21
14.34853079331723
 31
0.0
  0
LINE
  5
3A
330
2
100
AcDbEntity
  8
0
  6
HIDDEN
100
AcDbLine
 10
20.77175689220978
 20
14.95859780291722
 30
0.0
 11
20.77113125700976
 21
14.45675869731722
 31
0.0
  0
LINE
  5
3B
330
2
100
AcDbEntity
  8
0
100
AcDbLine
 10
20.46706737220977
 20
-3.310456464282783
 30
0.0
 11
20.57353835940976
 21
-2.465285907482769
 31
0.0
  0
LINE
  5
3C
330
2
100
AcDbEntity
  8
0
100
AcDbLine
 10
24.15648778660976
 20
13.55998317411721
 30
0.0
 11
24.79545773700978
 21
18.10649060611721
 31
0.0
  0
LINE
  5
3D
330
2
100
AcDbEntity
  8
0
100
AcDbLine
 10
-11.30482650459025
 20
18.39628399171725
 30
0.0
 11
-11.72729541179025
 21
13.56744229091723
 31
0.0
  0
LINE
  5
3E
330
2
100
AcDbEntity
  8
0
100
AcDbLine
 10
-11.30482650459025
 20
18.39628399171725
 30
0.0
 11
-11.28602745179024
 21
18.46322772451723
 31
0.0
  0
LWPOLYLINE
  5
3F
330
2
100
AcDbEntity
  8
0
100
AcDbPolyline
 90
        3
 70
     0
 43
0.0
 10
-11.28602745179023
 20
18.46322772451723
 10
-11.24346644539022
 20
18.51931392771722
 10
-11.18471178459023
 20
18.55518817891725
  0
LINE
  5
41
330
2
100
AcDbEntity
  8
0
100
AcDbLine
 10
-0.8999556069902183
 20
-2.906994600282775
 30
0.0
 11
-1.290120650190218
 21
-2.516829558682776
 31
0.0
  0
LINE
  5
42
330
2
100
AcDbEntity
  8
0
100
AcDbLine
 10
-3.401248168590214
 20
-2.004318840282753
 30
0.0
 11
-5.589525086990235
 21
13.56608048131725
 31
0.0
  0
LINE
  5
44
330
2
100
AcDbEntity
  8
0
100
AcDbLine
 10
1.846174257009764
 20
-2.948182709082761
 30
0.0
 11
1.845927893809786
 21
-2.948182709082761
 31
0.0
  0
LINE
  5
45
330
2
100
AcDbEntity
  8
0
100
AcDbLine
 10
-0.8007650789902385
 20
-2.948182709082761
 30
0.0
 11
-0.8005187157902327
 21
-2.948182709082761
 31
0.0
  0
LINE
  5
46
330
2
100
AcDbEntity
  8
0
100
AcDbLine
 10
-0.8005187157902327
 20
-2.948182709082761
 30
0.0
 11
1.845927893809786
 21
-2.948182709082761
 31
0.0
  0
LINE
  5
47
330
2
100
AcDbEntity
  8
0
100
AcDbLine
 10
-2.890641195790223
 20
-2.448182709082761
 30
0.0
 11
21.46247037380978
 21
-2.448182709082761
 31
0.0
  0
LINE
  5
48
330
2
100
AcDbEntity
  8
0
100
AcDbLine
 10
1.945364785009772
 20
-2.906994600282775
 30
0.0
 11
2.335529826609771
 21
-2.516829558682776
 31
0.0
  0
LINE
  5
4F
330
2
100
AcDbEntity
  8
0
100
AcDbLine
 10
21.97307734660977
 20
-2.004318840282781
 30
0.0
 11
24.16135426340976
 21
13.56608048131722
 31
0.0
  0
LINE
  5
50
330
2
100
AcDbEntity
  8
CENTER
 48
4.0
100
AcDbLine
 10
-9.605681552480593
 20
13.89915225237108
 30
0.0
 11
-1.809480400814853
 21
14.99016489994943
 31
0.0
  0
LINE
  5
53
330
2
100
AcDbEntity
  8
0
100
AcDbLine
 10
29.80165917540974
 20
18.56744229091724
 30
0.0
 11
-11.11803999899025
 21
18.56744229091724
 31
0.0
  0
LINE
  5
55
330
2
100
AcDbEntity
  8
0
100
AcDbLine
 10
29.85512096260975
 20
18.55518817891721
 30
0.0
 11
29.78844917540975
 21
18.56744229091724
 31
0.0
  0
LINE
  5
56
330
2
100
AcDbEntity
  8
0
100
AcDbLine
 10
-11.18471178459024
 20
18.55518817891724
 30
0.0
 11
-11.11803999899025
 21
18.56744229091724
 31
0.0
  0
LINE
  5
58
330
2
100
AcDbEntity
  8
0
100
AcDbLine
 10
29.97523568100975
 20
18.39628399171722
 30
0.0
 11
30.39770458820975
 21
13.56744229091723
 31
0.0
  0
LINE
  5
59
330
2
100
AcDbEntity
  8
0
100
AcDbLine
 10
29.97523568100975
 20
18.39628399171722
 30
0.0
 11
29.95643662820974
 21
18.46322772451723
 31
0.0
  0
LWPOLYLINE
  5
5A
330
2
100
AcDbEntity
  8
0
100
AcDbPolyline
 90
        3
 70
     0
 43
0.0
 10
29.95643662820976
 20
18.46322772451723
 10
29.91387562340978
 20
18.51931392771722
 10
29.85512096260976
 20
18.55518817891722
  0
ARC
  5
5B
330
2
100
AcDbEntity
  8
0
100
AcDbCircle
 10
25.31722445920654
 20
18.0419829192088
 30
0.0
 40
0.5257392445624849
100
AcDbArc
 50
88.13038541166763
 51
172.9521038258708
  0
ARC
  5
5C
330
2
100
AcDbEntity
  8
0
100
AcDbCircle
 10
-6.767922090743741
 20
18.01771216142727
 30
0.0
 40
0.5553361817172239
100
AcDbArc
 50
13.53276047065774
 51
81.85193961381878
  0
ARC
  5
5D
330
2
100
AcDbEntity
  8
0
  6
HIDDEN
100
AcDbCircle
 10
21.22747580580976
 20
14.75287888771724
 30
0.0
 40
0.5
100
AcDbArc
 50
114.2951889453999
 51
155.7048110545999
  0
ARC
  5
5E
330
2
100
AcDbEntity
  8
0
  6
HIDDEN
100
AcDbCircle
 10
21.23895769700978
 20
14.63670846371722
 30
0.0
 40
0.5
100
AcDbArc
 50
200.8683150863999
 51
244.1316849136
  0
ARC
  5
5F
330
2
100
AcDbEntity
  8
0
  6
HIDDEN
100
AcDbCircle
 10
21.56603797860977
 20
14.75287888771724
 30
0.0
 40
0.5
100
AcDbArc
 50
24.29518894539997
 51
65.70481105459998
  0
ARC
  5
60
330
2
100
AcDbEntity
  8
0
  6
HIDDEN
100
AcDbCircle
 10
21.58907883300976
 20
14.59910951651722
 30
0.0
 40
0.5
100
AcDbArc
 50
287.9977788489
 51
329.9233943314
  0
ARC
  5
61
330
2
100
AcDbEntity
  8
0
100
AcDbCircle
 10
-1.713666715790239
 20
-3.219027467482778
 30
0.0
 40
0.213521688
100
AcDbArc
 50
193.4117621828
 51
270.0
  0
ARC
  5
62
330
2
100
AcDbEntity
  8
0
100
AcDbCircle
 10
0.7863332842097606
 20
-3.20890863068276
 30
0.0
 40
0.2236405264
100
AcDbArc
 50
270.0
 51
342.0908847330999
  0
ARC
  5
63
330
2
100
AcDbEntity
  8
0
100
AcDbCircle
 10
8.03633328420976
 20
-3.230161979482762
 30
0.0
 40
0.202387176
100
AcDbArc
 50
200.6497805452
 51
270.0
  0
ARC
  5
64
330
2
100
AcDbEntity
  8
0
100
AcDbCircle
 10
10.53633328420976
 20
-3.216802723482761
 30
0.0
 40
0.2157464336
100
AcDbArc
 50
270.0
 51
339.2201889242999
  0
ARC
  5
65
330
2
100
AcDbEntity
  8
0
100
AcDbCircle
 10
17.78633328420976
 20
-3.234719534682756
 30
0.0
 40
0.1978296208
100
AcDbArc
 50
200.1942955964
 51
270.0
  0
ARC
  5
66
330
2
100
AcDbEntity
  8
0
100
AcDbCircle
 10
20.28633328420976
 20
-3.237732270682773
 30
0.0
 40
0.1948168848
100
AcDbArc
 50
270.0
 51
338.0810199426999
  0
ARC
  5
67
330
2
100
AcDbEntity
  8
0
100
AcDbCircle
 10
2.501257978609785
 20
-2.682557709082761
 30
0.0
 40
0.234375
100
AcDbArc
 50
112.500000055
 51
135.0
  0
ARC
  5
68
330
2
100
AcDbEntity
  8
0
100
AcDbCircle
 10
-1.455848802190232
 20
-2.682557709082761
 30
0.0
 40
0.234375
100
AcDbArc
 50
44.99999999999999
 51
67.49999994499998
  0
ARC
  5
69
330
2
100
AcDbEntity
  8
0
100
AcDbCircle
 10
1.845927893809786
 20
-2.807557709082761
 30
0.0
 40
0.140625
100
AcDbArc
 50
270.0
 51
315.0
  0
ARC
  5
6A
330
2
100
AcDbEntity
  8
0
100
AcDbCircle
 10
29.78844917540975
 20
18.37994229091723
 30
0.0
 40
0.1875
100
AcDbArc
 50
4.999999999999994
 51
38.35274852969998
  0
ARC
  5
6B
330
2
100
AcDbEntity
  8
0
100
AcDbCircle
 10
29.78844917540975
 20
18.37994229091723
 30
0.0
 40
0.1875
100
AcDbArc
 50
64.70466701620001
 51
89.99999999999998
  0
ARC
  5
6C
330
2
100
AcDbEntity
  8
0
100
AcDbCircle
 10
-0.8005187157902327
 20
-2.807557709082761
 30
0.0
 40
0.140625
100
AcDbArc
 50
225.0
 51
270.0
  0
ARC
  5
6D
330
2
100
AcDbEntity
  8
0
100
AcDbCircle
 10
-11.11803999899025
 20
18.37994229091723
 30
0.0
 40
0.1875
100
AcDbArc
 50
149.5688120251
 51
175.0
  0
ARC
  5
6E
330
2
100
AcDbEntity
  8
0
100
AcDbCircle
 10
-11.11803999899025
 20
18.37994229091723
 30
0.0
 40
0.1875
100
AcDbArc
 50
123.0133293148
 51
129.3757370456
  0
ARC
  5
6F
330
2
100
AcDbEntity
  8
0
100
AcDbCircle
 10
-11.11803999899025
 20
18.37994229091723
 30
0.0
 40
0.1875
100
AcDbArc
 50
89.99999999999998
 51
103.0348525073999
  0
ARC
  5
70
330
2
100
AcDbEntity
  8
0
100
AcDbCircle
 10
-2.890643958990224
 20
-1.932538048282754
 30
0.0
 40
0.515625
100
AcDbArc
 50
188.002206324
 51
270.0003070491999
  0
ARC
  5
71
330
2
100
AcDbEntity
  8
0
100
AcDbCircle
 10
21.46247037380974
 20
-1.932557709082761
 30
0.0
 40
0.515625
100
AcDbArc
 50
270.0
 51
352.0
  0
LINE
  5
72
330
2
100
AcDbEntity
  8
CENTER
 48
4.0
100
AcDbLine
 10
0.5227045882097473
 20
-6.172334334417717
 30
0.0
 11
0.5227045882097484
 21
-0.6927810837478053
 31
0.0
  0
LINE
  5
F2
330
2
100
AcDbEntity
  8
0
100
AcDbLine
 10
-11.72729541179025
 20
13.56744229091723
 30
0.0
 11
30.39770458820974
 21
13.56744229091724
 31
0.0
  0
ENDSEC
  0
SECTION
  2
OBJECTS
  0
DICTIONARY
  5
A
330
0
100
AcDbDictionary
  3
ACAD_COLOR
350
29
  3
ACAD_GROUP
350
24
  3
ACAD_LAYOUT
350
9
  3
ACAD_MATERIAL
350
28
  3
ACAD_MLINESTYLE
350
25
  3
ACAD_PLOTSETTINGS
350
26
  3
ACAD_PLOTSTYLENAME
350
27
  3
ACAD_TABLESTYLE
350
2A
  3
ACDBHEADERROUNDTRIPXREC
350
148
  3
ACDBVARIABLEDICTIONARY
350
77
  0
DICTIONARY
  5
DA
330
2
100
AcDbDictionary
280
     1
  3
ACAD_LAYOUTSELFREF
360
169
  0
DICTIONARY
  5
E0
330
B
100
AcDbDictionary
280
     1
  3
ACAD_LAYOUTSELFREF
360
16A
  0
DICTIONARY
  5
29
102
{ACAD_REACTORS
330
A
102
}
330
A
100
AcDbDictionary
  0
DICTIONARY
  5
24
102
{ACAD_REACTORS
330
A
102
}
330
A
100
AcDbDictionary
  0
DICTIONARY
  5
9
102
{ACAD_REACTORS
330
A
102
}
330
A
100
AcDbDictionary
  0
DICTIONARY
  5
28
102
{ACAD_REACTORS
330
A
102
}
330
A
100
AcDbDictionary
  0
DICTIONARY
  5
25
102
{ACAD_REACTORS
330
A
102
}
330
A
100
AcDbDictionary
  3
STANDARD
350
2B
  0
DICTIONARY
  5
26
102
{ACAD_REACTORS
330
A
102
}
330
A
100
AcDbDictionary
  0
ACDBDICTIONARYWDFLT
  5
27
102
{ACAD_REACTORS
330
A
102
}
330
A
100
AcDbDictionary
281
     1
  3
Normal
350
5
100
AcDbDictionaryWithDefault
340
5
  0
DICTIONARY
  5
2A
102
{ACAD_REACTORS
330
A
102
}
330
A
100
AcDbDictionary
  3
STANDARD
350
2C
  0
DICTIONARY
  5
148
102
{ACAD_REACTORS
330
A
102
}
330
A
100
AcDbDictionary
  3
CEPSNTYPE
350
152
  3
DIMSTYLEDATA
350
156
  3
FINGERPRINTGUID
350
153
  3
HYPERLINKBASE
350
14B
  3
INSUNITS
350
151
  3
LAYOUTDICT
350
14D
  3
LWETCUNION
350
150
  3
PLOTSETDICT
350
14E
  3
PLOTSTYLNAMDICT
350
14F
  3
PSVPSCALE
350
155
  3
PUCSBASE
350
159
  3
PUCSORGBACK
350
15F
  3
PUCSORGBOTTOM
350
15B
  3
PUCSORGFRONT
350
15E
  3
PUCSORGLEFT
350
15C
  3
PUCSORGRIGHT
350
15D
  3
PUCSORGTOP
350
15A
  3
PUCSORTHOREF
350
157
  3
PUCSORTHOVIEW
350
158
  3
STYLESHEET
350
14C
  3
TSTACKALIGN
350
149
  3
TSTACKSIZE
350
14A
  3
UCSBASE
350
162
  3
UCSORGBACK
350
168
  3
UCSORGBOTTOM
350
164
  3
UCSORGFRONT
350
167
  3
UCSORGLEFT
350
165
  3
UCSORGRIGHT
350
166
  3
UCSORGTOP
350
163
  3
UCSORTHOREF
350
160
  3
UCSORTHOVIEW
350
161
  3
VERSIONGUID
350
154
  0
DICTIONARY
  5
77
102
{ACAD_REACTORS
330
A
102
}
330
A
100
AcDbDictionary
  3
CTABLESTYLE
350
78
  3
DIMASSOC
350
9C
  3
HIDETEXT
350
9B
  3
PROJECTNAME
350
9D
  0
XRECORD
  5
169
102
{ACAD_REACTORS
330
DA
102
}
330
DA
100
AcDbXrecord
340
2
  0
XRECORD
  5
16A
102
{ACAD_REACTORS
330
E0
102
}
330
E0
100
AcDbXrecord
340
B
  0
MLINESTYLE
  5
2B
102
{ACAD_REACTORS
330
25
102
}
330
25
100
AcDbMlineStyle
  2
STANDARD
 70
     0
  3

 62
   256
 51
90.0
 52
90.0
 71
     2
 49
0.5
 62
   256
  6
BYLAYER
 49
-0.5
 62
   256
  6
BYLAYER
  0
ACDBPLACEHOLDER
  5
5
102
{ACAD_REACTORS
330
27
102
}
330
0
100
AcDbPlaceHolder
280
     0
  0
ACAD_PROXY_OBJECT
  5
2C
102
{ACAD_REACTORS
330
2A
102
}
330
2A
100
AcDbProxyObject
 90
      499
 91
      525
 93
     1841
310
4214DD185B99185C9928B81E85EB51B8AE3F2E07A17AD46E2B8FC02B5E8DC0F42B1CFD028000000C1008070000C3001FDFF8000000C1003FBFF000000182007F7FE00000030400FEFFC00000060801FDFF8000000C1003FBFF00000018200000000000000681FA0B0000001820100E000186003FBFF000000182007F7FE000
310
00030400FEFFC00000060801FDFF8000000C1003FBFF000000182007F7FE000000304000AD7A3703D0AC73F4160000003040201C00030C007F7FE00000030400FEFFC00000060801FDFF8000000C1003FBFF000000182007F7FE00000030400FEFFC000000608018
340
11
340
11
340
11
 94
        0
1001
ACAD
1000
AcadProxyRoundTripData
1071
      524
1071
   851991
1070
     0
  0
XRECORD
  5
152
102
{ACAD_REACTORS
330
148
102
}
330
148
100
AcDbXrecord
 90
        0
  0
XRECORD
  5
156
102
{ACAD_REACTORS
330
148
102
}
330
148
100
AcDbXrecord
1000
DSTYLE
1002
{
1070
   277
 70
     5
1070
   341
340
1E
1070
   342
340
1E
1002
}
  0
XRECORD
  5
153
102
{ACAD_REACTORS
330
148
102
}
330
148
100
AcDbXrecord
  1
{C5973F2C-D3F2-441B-B5B8-7A81516CD034}
  0
XRECORD
  5
14B
102
{ACAD_REACTORS
330
148
102
}
330
148
100
AcDbXrecord
  1

  0
XRECORD
  5
151
102
{ACAD_REACTORS
330
148
102
}
330
148
100
AcDbXrecord
 90
        1
  0
XRECORD
  5
14D
102
{ACAD_REACTORS
330
148
102
}
330
148
100
AcDbXrecord
340
9
  0
XRECORD
  5
150
102
{ACAD_REACTORS
330
148
102
}
330
148
100
AcDbXrecord
 90
    10781
  0
XRECORD
  5
14E
102
{ACAD_REACTORS
330
148
102
}
330
148
100
AcDbXrecord
340
26
  0
XRECORD
  5
14F
102
{ACAD_REACTORS
330
148
102
}
330
148
100
AcDbXrecord
340
27
  0
XRECORD
  5
155
102
{ACAD_REACTORS
330
148
102
}
330
148
100
AcDbXrecord
 40
0.0
  0
XRECORD
  5
159
102
{ACAD_REACTORS
330
148
102
}
330
148
100
AcDbXrecord
340
0
  0
XRECORD
  5
15F
102
{ACAD_REACTORS
330
148
102
}
330
148
100
AcDbXrecord
 10
0.0
 20
0.0
 30
0.0
  0
XRECORD
  5
15B
102
{ACAD_REACTORS
330
148
102
}
330
148
100
AcDbXrecord
 10
0.0
 20
0.0
 30
0.0
  0
XRECORD
  5
15E
102
{ACAD_REACTORS
330
148
102
}
330
148
100
AcDbXrecord
 10
0.0
 20
0.0
 30
0.0
  0
XRECORD
  5
15C
102
{ACAD_REACTORS
330
148
102
}
330
148
100
AcDbXrecord
 10
0.0
 20
0.0
 30
0.0
  0
XRECORD
  5
15D
102
{ACAD_REACTORS
330
148
102
}
330
148
100
AcDbXrecord
 10
0.0
 20
0.0
 30
0.0
  0
XRECORD
  5
15A
102
{ACAD_REACTORS
330
148
102
}
330
148
100
AcDbXrecord
 10
0.0
 20
0.0
 30
0.0
  0
XRECORD
  5
157
102
{ACAD_REACTORS
330
148
102
}
330
148
100
AcDbXrecord
340
0
  0
XRECORD
  5
158
102
{ACAD_REACTORS
330
148
102
}
330
148
100
AcDbXrecord
 70
     0
  0
XRECORD
  5
14C
102
{ACAD_REACTORS
330
148
102
}
330
148
100
AcDbXrecord
  1

  0
XRECORD
  5
149
102
{ACAD_REACTORS
330
148
102
}
330
148
100
AcDbXrecord
 90
        1
  0
XRECORD
  5
14A
102
{ACAD_REACTORS
330
148
102
}
330
148
100
AcDbXrecord
 90
       70
  0
XRECORD
  5
162
102
{ACAD_REACTORS
330
148
102
}
330
148
100
AcDbXrecord
340
0
  0
XRECORD
  5
168
102
{ACAD_REACTORS
330
148
102
}
330
148
100
AcDbXrecord
 10
0.0
 20
0.0
 30
0.0
  0
XRECORD
  5
164
102
{ACAD_REACTORS
330
148
102
}
330
148
100
AcDbXrecord
 10
0.0
 20
0.0
 30
0.0
  0
XRECORD
  5
167
102
{ACAD_REACTORS
330
148
102
}
330
148
100
AcDbXrecord
 10
0.0
 20
0.0
 30
0.0
  0
XRECORD
  5
165
102
{ACAD_REACTORS
330
148
102
}
330
148
100
AcDbXrecord
 10
0.0
 20
0.0
 30
0.0
  0
XRECORD
  5
166
102
{ACAD_REACTORS
330
148
102
}
330
148
100
AcDbXrecord
 10
0.0
 20
0.0
 30
0.0
  0
XRECORD
  5
163
102
{ACAD_REACTORS
330
148
102
}
330
148
100
AcDbXrecord
 10
0.0
 20
0.0
 30
0.0
  0
XRECORD
  5
160
102
{ACAD_REACTORS
330
148
102
}
330
148
100
AcDbXrecord
340
0
  0
XRECORD
  5
161
102
{ACAD_REACTORS
330
148
102
}
330
148
100
AcDbXrecord
 70
     0
  0
XRECORD
  5
154
102
{ACAD_REACTORS
330
148
102
}
330
148
100
AcDbXrecord
  1
{9BF3BEF4-E9CE-4738-8F4C-1A3B9D8D218A}
  0
DICTIONARYVAR
  5
78
102
{ACAD_REACTORS
330
77
102
}
330
77
100
DictionaryVariables
280
     0
  1
STANDARD
  0
DICTIONARYVAR
  5
9C
102
{ACAD_REACTORS
330
77
102
}
330
77
100
DictionaryVariables
280
     0
  1
1
  0
DICTIONARYVAR
  5
9B
102
{ACAD_REACTORS
330
77
102
}
330
77
100
DictionaryVariables
280
     0
  1
1
  0
DICTIONARYVAR
  5
9D
102
{ACAD_REACTORS
330
77
102
}
330
77
100
DictionaryVariables
280
     0
  1

  0
ENDSEC
  0
EOF
