  0
SECTION
  2
HEADER
  9
$ACADVER
  1
AC1014
  9
$ACADMAINTVER
 70
     9
  9
$DWGCODEPAGE
  3
ANSI_1252
  9
$INSBASE
 10
4.300565447
 20
7.2197145658
 30
0.0
  9
$EXTMIN
 10
-31.76413546539572
 20
-5.031216420500769
 30
-0.0015258207003583
  9
$EXTMAX
 10
40.36526669525392
 20
37.09635468705934
 30
0.0000000349246037
  9
$LIMMIN
 10
0.0
 20
0.0
  9
$LIMMAX
 10
17.0
 20
11.0
  9
$ORTHOMODE
 70
     1
  9
$REGENMODE
 70
     1
  9
$FILLMODE
 70
     1
  9
$QTEXTMODE
 70
     0
  9
$MIRRTEXT
 70
     1
  9
$DRAGMODE
 70
     2
  9
$LTSCALE
 40
2.0
  9
$OSMODE
 70
    55
  9
$ATTMODE
 70
     1
  9
$TEXTSIZE
 40
0.2
  9
$TRACEWID
 40
0.05
  9
$TEXTSTYLE
  7
STANDARD
  9
$CLAYER
  8
0
  9
$CELTYPE
  6
BYLAYER
  9
$CECOLOR
 62
   256
  9
$CELTSCALE
 40
1.0
  9
$DELOBJ
 70
     1
  9
$DISPSILH
 70
     0
  9
$DIMSCALE
 40
1.0
  9
$DIMASZ
 40
0.1875
  9
$DIMEXO
 40
0.0625
  9
$DIMDLI
 40
0.38
  9
$DIMRND
 40
0.0
  9
$DIMDLE
 40
0.0
  9
$DIMEXE
 40
0.18
  9
$DIMTP
 40
0.0
  9
$DIMTM
 40
0.0
  9
$DIMTXT
 40
0.125
  9
$DIMCEN
 40
0.09
  9
$DIMTSZ
 40
0.0
  9
$DIMTOL
 70
     0
  9
$DIMLIM
 70
     0
  9
$DIMTIH
 70
     1
  9
$DIMTOH
 70
     1
  9
$DIMSE1
 70
     0
  9
$DIMSE2
 70
     0
  9
$DIMTAD
 70
     0
  9
$DIMZIN
 70
     4
  9
$DIMBLK
  1
_FILLED
  9
$DIMASO
 70
     1
  9
$DIMSHO
 70
     1
  9
$DIMPOST
  1

  9
$DIMAPOST
  1

  9
$DIMALT
 70
     0
  9
$DIMALTD
 70
     2
  9
$DIMALTF
 40
25.4
  9
$DIMLFAC
 40
16.0
  9
$DIMTOFL
 70
     0
  9
$DIMTVP
 40
0.0
  9
$DIMTIX
 70
     0
  9
$DIMSOXD
 70
     0
  9
$DIMSAH
 70
     0
  9
$DIMBLK1
  1

  9
$DIMBLK2
  1

  9
$DIMSTYLE
  2
STANDARD
  9
$DIMCLRD
 70
     0
  9
$DIMCLRE
 70
     0
  9
$DIMCLRT
 70
     0
  9
$DIMTFAC
 40
1.0
  9
$DIMGAP
 40
0.09
  9
$DIMJUST
 70
     0
  9
$DIMSD1
 70
     0
  9
$DIMSD2
 70
     0
  9
$DIMTOLJ
 70
     1
  9
$DIMTZIN
 70
     4
  9
$DIMALTZ
 70
     0
  9
$DIMALTTZ
 70
     0
  9
$DIMFIT
 70
     3
  9
$DIMUPT
 70
     0
  9
$DIMUNIT
 70
     5
  9
$DIMDEC
 70
     4
  9
$DIMTDEC
 70
     4
  9
$DIMALTU
 70
     2
  9
$DIMALTTD
 70
     2
  9
$DIMTXSTY
  7
STANDARD
  9
$DIMAUNIT
 70
     0
  9
$LUNITS
 70
     2
  9
$LUPREC
 70
     4
  9
$SKETCHINC
 40
0.1
  9
$FILLETRAD
 40
0.0
  9
$AUNITS
 70
     0
  9
$AUPREC
 70
     0
  9
$MENU
  1
acad
  9
$ELEVATION
 40
0.0
  9
$PELEVATION
 40
0.0
  9
$THICKNESS
 40
0.0
  9
$LIMCHECK
 70
     0
  9
$BLIPMODE
 70
     0
  9
$CHAMFERA
 40
0.0
  9
$CHAMFERB
 40
0.0
  9
$CHAMFERC
 40
0.0
  9
$CHAMFERD
 40
0.0
  9
$SKPOLY
 70
     0
  9
$TDCREATE
 40
2453676.875167638
  9
$TDUPDATE
 40
2453686.606917512
  9
$TDINDWG
 40
0.0180551273
  9
$TDUSRTIMER
 40
0.0180551273
  9
$USRTIMER
 70
     1
  9
$ANGBASE
 50
0.0
  9
$ANGDIR
 70
     0
  9
$PDMODE
 70
     3
  9
$PDSIZE
 40
0.3125
  9
$PLINEWID
 40
0.0
  9
$COORDS
 70
     1
  9
$SPLFRAME
 70
     0
  9
$SPLINETYPE
 70
     6
  9
$SPLINESEGS
 70
     8
  9
$ATTDIA
 70
     0
  9
$ATTREQ
 70
     1
  9
$HANDLING
 70
 22529
  9
$HANDSEED
  5
176
  9
$SURFTAB1
 70
     6
  9
$SURFTAB2
 70
     6
  9
$SURFTYPE
 70
     6
  9
$SURFU
 70
     6
  9
$SURFV
 70
     6
  9
$UCSNAME
  2

  9
$UCSORG
 10
0.0
 20
0.0
 30
0.0
  9
$UCSXDIR
 10
1.0
 20
0.0
 30
0.0
  9
$UCSYDIR
 10
0.0
 20
1.0
 30
0.0
  9
$PUCSNAME
  2

  9
$PUCSORG
 10
0.0
 20
0.0
 30
0.0
  9
$PUCSXDIR
 10
1.0
 20
0.0
 30
0.0
  9
$PUCSYDIR
 10
0.0
 20
1.0
 30
0.0
  9
$USERI1
 70
     0
  9
$USERI2
 70
     0
  9
$USERI3
 70
     0
  9
$USERI4
 70
     0
  9
$USERI5
 70
     0
  9
$USERR1
 40
0.0
  9
$USERR2
 40
0.0
  9
$USERR3
 40
0.0
  9
$USERR4
 40
0.0
  9
$USERR5
 40
0.0
  9
$WORLDVIEW
 70
     1
  9
$SHADEDGE
 70
     3
  9
$SHADEDIF
 70
    70
  9
$TILEMODE
 70
     1
  9
$MAXACTVP
 70
    16
  9
$PINSBASE
 10
0.0
 20
0.0
 30
0.0
  9
$PLIMCHECK
 70
     0
  9
$PEXTMIN
 10
1.000000000000000E+20
 20
1.000000000000000E+20
 30
1.000000000000000E+20
  9
$PEXTMAX
 10
-1.000000000000000E+20
 20
-1.000000000000000E+20
 30
-1.000000000000000E+20
  9
$PLIMMIN
 10
0.0
 20
0.0
  9
$PLIMMAX
 10
12.0
 20
9.0
  9
$UNITMODE
 70
     0
  9
$VISRETAIN
 70
     0
  9
$PLINEGEN
 70
     1
  9
$PSLTSCALE
 70
     0
  9
$TREEDEPTH
 70
  3020
  9
$PICKSTYLE
 70
     1
  9
$CMLSTYLE
  2
STANDARD
  9
$CMLJUST
 70
     0
  9
$CMLSCALE
 40
1.0
  9
$PROXYGRAPHICS
 70
     0
  9
$MEASUREMENT
 70
     0
  0
ENDSEC
  0
SECTION
  2
CLASSES
  0
CLASS
  1
ACDBDICTIONARYWDFLT
  2
AcDbDictionaryWithDefault
  3
AutoCAD 2000
 90
        0
280
     0
281
     0
  0
CLASS
  1
ACDBPLACEHOLDER
  2
AcDbPlaceHolder
  3
AutoCAD 2000
 90
        0
280
     0
281
     0
  0
CLASS
  1
LAYOUT
  2
AcDbLayout
  3
AutoCAD 2000
 90
        0
280
     0
281
     0
  0
CLASS
  1
LWPOLYLINE
  2
AcDbPolyline
  3
AutoCAD 2000
 90
        0
280
     0
281
     1
  0
CLASS
  1
IMAGE
  2
AcDbRasterImage
  3
ISM
 90
      127
280
     0
281
     1
  0
CLASS
  1
OLE2FRAME
  2
AcDbOle2Frame
  3
AutoCAD 2000
 90
        0
280
     0
281
     1
  0
CLASS
  1
HATCH
  2
AcDbHatch
  3
AutoCAD 2000
 90
        0
280
     0
281
     1
  0
CLASS
  1
DICTIONARYVAR
  2
AcDbDictionaryVar
  3
AutoCAD 2000
 90
        0
280
     0
281
     0
  0
CLASS
  1
RASTERVARIABLES
  2
AcDbRasterVariables
  3
ISM
 90
        0
280
     0
281
     0
  0
CLASS
  1
IMAGEDEF
  2
AcDbRasterImageDef
  3
ISM
 90
        0
280
     0
281
     0
  0
CLASS
  1
IMAGEDEF_REACTOR
  2
AcDbRasterImageDefReactor
  3
ISM
 90
        1
280
     0
281
     0
  0
CLASS
  1
IDBUFFER
  2
AcDbIdBuffer
  3
AutoCAD 2000
 90
        0
280
     0
281
     0
  0
CLASS
  1
SPATIAL_FILTER
  2
AcDbSpatialFilter
  3
AutoCAD 2000
 90
        0
280
     0
281
     0
  0
CLASS
  1
XRECORD
  2
AcDbXrecord
  3
AutoCAD 2000
 90
        0
280
     0
281
     0
  0
CLASS
  1
SORTENTSTABLE
  2
AcDbSortentsTable
  3
AutoCAD 2000
 90
        0
280
     0
281
     0
  0
CLASS
  1
LAYER_INDEX
  2
AcDbLayerIndex
  3
AutoCAD 2000
 90
        0
280
     0
281
     0
  0
CLASS
  1
SPATIAL_INDEX
  2
AcDbSpatialIndex
  3
AutoCAD 2000
 90
        0
280
     0
281
     0
  0
CLASS
  1
OBJECT_PTR
  2
CAseDLPNTableRecord
  3
ASE-LPNTableRecord
 90
        1
280
     0
281
     0
  0
CLASS
  1
PLOTSETTINGS
  2
AcDbPlotSettings
  3
AutoCAD 2000
 90
        0
280
     0
281
     0
  0
CLASS
  1
VBA_PROJECT
  2
AcDbVbaProject
  3
acadvba
 90
        0
280
     0
281
     0
  0
CLASS
  1
WIPEOUT
  2
AcDbWipeout
  3
"WipeOut|Product Desc: Object Enabler for WipeOut entity^I^I^I^I^I^I|Company: Autodesk, Inc.^I^I^I^I^I^I|WEB Address: www.autodesk.com"
 90
      127
280
     0
281
     1
  0
CLASS
  1
WIPEOUTVARIABLES
  2
AcDbWipeoutVariables
  3
"WipeOut|Product Desc:     WipeOut Dbx Application|Company:          Autodesk, Inc.|WEB Address:      www.autodesk.com"
 90
        0
280
     0
281
     0
  0
CLASS
  1
RTEXT
  2
RText
  3
RText|AutoCAD Express Tool|expresstools@autodesk.com
 90
        0
280
     1
281
     1
  0
CLASS
  1
ARCALIGNEDTEXT
  2
AcDbArcAlignedText
  3
ATEXT|AutoCAD Express Tool|expresstools@autodesk.com
 90
        0
280
     1
281
     1
  0
CLASS
  1
TABLESTYLE
  2
AcDbTableStyle
  3
ObjectDBX Classes
 90
     2047
280
     0
281
     0
  0
CLASS
  1
ACAD_PROXY_OBJECT_WRAPPER
  2
AcDbProxyObjectWrapper
  3
AutoCAD 2000
 90
        0
280
     0
281
     0
  0
CLASS
  1
LONG_TRANSACTION
  2
AcDbLongTransaction
  3
AutoCAD 2000
 90
        0
280
     0
281
     0
  0
CLASS
  1
LWPOLYLINE
  2
AcDbPolyline
  3
AutoCAD 2000
 90
        0
280
     0
281
     1
  0
CLASS
  1
HATCH
  2
AcDbHatch
  3
AutoCAD 2000
 90
        0
280
     0
281
     1
  0
CLASS
  1
XRECORD
  2
AcDbXrecord
  3
AutoCAD 2000
 90
        0
280
     0
281
     0
  0
CLASS
  1
LONG_TRANSACTION
  2
AcDbLongTransaction
  3
AutoCAD 2000
 90
        0
280
     0
281
     0
  0
CLASS
  1
LWPOLYLINE
  2
AcDbPolyline
  3
AutoCAD 2000
 90
        0
280
     0
281
     1
  0
CLASS
  1
HATCH
  2
AcDbHatch
  3
AutoCAD 2000
 90
        0
280
     0
281
     1
  0
CLASS
  1
XRECORD
  2
AcDbXrecord
  3
AutoCAD 2000
 90
        0
280
     0
281
     0
  0
ENDSEC
  0
SECTION
  2
TABLES
  0
TABLE
  2
VPORT
  5
18
330
0
100
AcDbSymbolTable
 70
     4
  0
VPORT
  5
152
330
18
100
AcDbSymbolTableRecord
100
AcDbViewportTableRecord
  2
*ACTIVE
 70
     0
 10
0.0
 20
0.0
 11
1.0
 21
1.0
 12
4.30056551385968
 22
16.03256914673675
 13
0.0
 23
0.0
 14
1.0
 24
1.0
 15
0.0
 25
0.0
 16
0.0
 26
0.0
 36
1.0
 17
0.0
 27
0.0
 37
0.0
 40
51.124306800814
 41
1.786792452830188
 42
50.0
 43
0.0
 44
0.0
 50
0.0
 51
0.0
 71
     0
 72
   100
 73
     1
 74
     1
 75
     0
 76
     0
 77
     0
 78
     0
  0
ENDTAB
  0
TABLE
  2
LTYPE
  5
13
330
0
100
AcDbSymbolTable
 70
     2
  0
LTYPE
  5
14
330
13
100
AcDbSymbolTableRecord
100
AcDbLinetypeTableRecord
  2
BYBLOCK
 70
     0
  3

 72
    65
 73
     0
 40
0.0
  0
LTYPE
  5
15
330
13
100
AcDbSymbolTableRecord
100
AcDbLinetypeTableRecord
  2
BYLAYER
 70
     0
  3

 72
    65
 73
     0
 40
0.0
  0
LTYPE
  5
6
330
13
100
AcDbSymbolTableRecord
100
AcDbLinetypeTableRecord
  2
CONTINUOUS
 70
     0
  3
Solid line
 72
    65
 73
     0
 40
0.0
  0
LTYPE
  5
4C
330
13
100
AcDbSymbolTableRecord
100
AcDbLinetypeTableRecord
  2
CENTER
 70
     0
  3
____ _ ____ _ ____ _ ____ _ ____ _ ____ _ ____
 72
    65
 73
     4
 40
0.6
 49
0.375
 74
     0
 49
-0.075
 74
     0
 49
0.075
 74
     0
 49
-0.075
 74
     0
  0
ENDTAB
  0
TABLE
  2
LAYER
  5
F
330
0
100
AcDbSymbolTable
 70
     2
  0
LAYER
  5
4
330
F
100
AcDbSymbolTableRecord
100
AcDbLayerTableRecord
  2
0
 70
     0
 62
     7
  6
CONTINUOUS
  0
LAYER
  5
4B
330
F
100
AcDbSymbolTableRecord
100
AcDbLayerTableRecord
  2
CENTER
 70
     0
 62
     1
  6
CENTER
  0
ENDTAB
  0
TABLE
  2
STYLE
  5
10
330
0
100
AcDbSymbolTable
 70
     1
  0
STYLE
  5
11
330
10
100
AcDbSymbolTableRecord
100
AcDbTextStyleTableRecord
  2
STANDARD
 70
     0
 40
0.0
 41
0.8
 50
0.0
 71
     0
 42
0.2
  3
txt
  4

  0
ENDTAB
  0
TABLE
  2
VIEW
  5
16
330
0
100
AcDbSymbolTable
 70
     0
  0
ENDTAB
  0
TABLE
  2
UCS
  5
17
330
0
100
AcDbSymbolTable
 70
     0
  0
ENDTAB
  0
TABLE
  2
APPID
  5
1A
330
0
100
AcDbSymbolTable
 70
     3
  0
APPID
  5
1B
330
1A
100
AcDbSymbolTableRecord
100
AcDbRegAppTableRecord
  2
ACAD
 70
     0
  0
APPID
  5
79
330
1A
100
AcDbSymbolTableRecord
100
AcDbRegAppTableRecord
  2
DCO15
 70
     0
  0
APPID
  5
81
330
1A
100
AcDbSymbolTableRecord
100
AcDbRegAppTableRecord
  2
ACAD_DSTYLE_DIMTEXT_FILL
 70
     0
  0
ENDTAB
  0
TABLE
  2
DIMSTYLE
  5
1C
330
0
100
AcDbSymbolTable
 70
     1
  0
DIMSTYLE
105
1D
330
1C
100
AcDbSymbolTableRecord
100
AcDbDimStyleTableRecord
  2
STANDARD
 70
     0
  3

  4

  5
_FILLED
  6

  7

 40
1.0
 41
0.1875
 42
0.0625
 43
0.38
 44
0.18
 45
0.0
 46
0.0
 47
0.0
 48
0.0
140
0.125
141
0.09
142
0.0
143
25.4
144
16.0
145
0.0
146
1.0
147
0.09
 71
     0
 72
     0
 73
     1
 74
     1
 75
     0
 76
     0
 77
     0
 78
     4
170
     0
171
     2
172
     0
173
     0
174
     0
175
     0
176
     0
177
     0
178
     0
270
     5
271
     4
272
     4
273
     2
274
     2
340
11
275
     0
280
     0
281
     0
282
     0
283
     1
284
     4
285
     0
286
     0
287
     3
288
     0
  0
ENDTAB
  0
TABLE
  2
BLOCK_RECORD
  5
1
330
0
100
AcDbSymbolTable
 70
     1
  0
BLOCK_RECORD
  5
2
102
{ACAD_XDICTIONARY
360
CD
102
}
330
1
100
AcDbSymbolTableRecord
100
AcDbBlockTableRecord
  2
*MODEL_SPACE
  0
BLOCK_RECORD
  5
B
102
{ACAD_XDICTIONARY
360
D3
102
}
330
1
100
AcDbSymbolTableRecord
100
AcDbBlockTableRecord
  2
*PAPER_SPACE
  0
BLOCK_RECORD
  5
1E
330
1
100
AcDbSymbolTableRecord
100
AcDbBlockTableRecord
  2
_FILLED
  0
ENDTAB
  0
ENDSEC
  0
SECTION
  2
BLOCKS
  0
BLOCK
  5
3
330
2
100
AcDbEntity
  8
0
100
AcDbBlockBegin
  2
*MODEL_SPACE
 70
     0
 10
0.0
 20
0.0
 30
0.0
  3
*MODEL_SPACE
  1

  0
ENDBLK
  5
7
330
2
100
AcDbEntity
  8
0
100
AcDbBlockEnd
  0
BLOCK
  5
C
330
B
100
AcDbEntity
 67
     1
  8
0
100
AcDbBlockBegin
  2
*PAPER_SPACE
 70
     0
 10
0.0
 20
0.0
 30
0.0
  3
*PAPER_SPACE
  1

  0
ENDBLK
  5
D
330
B
100
AcDbEntity
 67
     1
  8
0
100
AcDbBlockEnd
  0
BLOCK
  5
1F
330
1E
100
AcDbEntity
  8
0
100
AcDbBlockBegin
  2
_FILLED
 70
     0
 10
0.0
 20
0.0
 30
0.0
  3
_FILLED
  1

  0
SOLID
  5
20
330
1E
100
AcDbEntity
  8
0
  6
BYBLOCK
 62
     0
100
AcDbTrace
 10
0.0
 20
0.0
 30
0.0
 11
-1.0
 21
0.1666666667
 31
0.0
 12
-1.0
 22
-0.1666666667
 32
0.0
 13
-1.0
 23
-0.1666666667
 33
0.0
  0
ENDBLK
  5
21
330
1E
100
AcDbEntity
  8
0
  6
BYBLOCK
 62
     0
100
AcDbBlockEnd
  0
ENDSEC
  0
SECTION
  2
ENTITIES
  0
LWPOLYLINE
  5
2D
330
2
100
AcDbEntity
  8
0
100
AcDbPolyline
 90
        5
 70
     0
 43
0.0
 10
-31.76193455300001
 20
36.90792805860001
 10
-31.74731121380001
 20
36.97908236900001
 10
-31.70672725220001
 20
37.03950726340001
 10
-31.64630235780001
 20
37.080091225
 10
-31.5751480474
 20
37.0947145658
  0
LWPOLYLINE
  5
2E
330
2
100
AcDbEntity
  8
0
100
AcDbPolyline
 90
        4
 70
     0
 43
0.0
 10
-31.33946564580001
 20
36.48545915300001
 10
-31.31397062500001
 20
36.57844519780001
 10
-31.245665185
 20
36.64675063780002
 10
-31.1526791402
 20
36.6722456586
  0
LWPOLYLINE
  5
2F
330
2
100
AcDbEntity
  8
0
100
AcDbPolyline
 90
        4
 70
     0
 43
0.0
 10
-31.33946564580001
 20
-4.4210300214
 10
-31.31397062500001
 20
-4.5140160678
 10
-31.245665185
 20
-4.582321506200003
 10
-31.1526791402
 20
-4.607816528599997
  0
LWPOLYLINE
  5
30
330
2
100
AcDbEntity
  8
0
100
AcDbPolyline
 90
        5
 70
     0
 43
0.0
 10
-31.76193455300001
 20
-4.843498928599998
 10
-31.74731121380001
 20
-4.914653239000003
 10
-31.70672725220001
 20
-4.975078133400003
 10
-31.64630235780001
 20
-5.015662094999996
 10
-31.5751480474
 20
-5.030285435799996
  0
LINE
  5
31
330
2
100
AcDbEntity
  8
0
100
AcDbLine
 10
-31.761934553
 20
-4.843498939800003
 30
0.0
 11
-31.761934553
 21
36.90792806980001
 31
0.0
  0
LINE
  5
32
330
2
100
AcDbEntity
  8
0
100
AcDbLine
 10
-31.3394656458
 20
-4.421030021400003
 30
0.0
 11
-31.3394656458
 21
36.48545915300001
 31
0.0
  0
LINE
  5
33
330
2
100
AcDbEntity
  8
0
100
AcDbLine
 10
-28.7304703978
 20
-0.0274854854000104
 30
0.0
 11
-28.7304703978
 21
32.091914617
 31
0.0
  0
LWPOLYLINE
  5
34
330
2
100
AcDbEntity
  8
0
100
AcDbPolyline
 90
        4
 70
     0
 43
0.0
 10
39.75381003419999
 20
-4.607816528599997
 10
39.84679607899998
 20
-4.582321506200003
 10
39.91510151899999
 20
-4.5140160678
 10
39.94059653979999
 20
-4.4210300214
  0
LWPOLYLINE
  5
35
330
2
100
AcDbEntity
  8
0
100
AcDbPolyline
 90
        5
 70
     0
 43
0.0
 10
40.17627894139998
 20
-5.030285434199996
 10
40.24743325019999
 20
-5.015662094999996
 10
40.30785814459998
 20
-4.975078133400003
 10
40.3484421062
 20
-4.914653239000003
 10
40.36306544699999
 20
-4.843498928599998
  0
LINE
  5
36
330
2
100
AcDbEntity
  8
0
100
AcDbLine
 10
-18.5044971834
 20
3.596417952999996
 30
0.0
 11
-18.5044971834
 21
28.468011177
 31
0.0
  0
LWPOLYLINE
  5
37
330
2
100
AcDbEntity
  8
0
100
AcDbPolyline
 90
        5
 70
     0
 43
0.0
 10
-18.50447465540001
 20
28.46801117860001
 10
-18.4626166218
 20
28.65286018660002
 10
-18.35795556260001
 20
28.81102790020001
 10
-18.2055984346
 20
28.9196841162
 10
-18.02753672580001
 20
28.96314521060002
  0
LINE
  5
38
330
2
100
AcDbEntity
  8
0
100
AcDbLine
 10
40.17627894299998
 20
-5.030285434199999
 30
0.0
 11
-31.5751480506
 21
-5.030285434199999
 31
0.0
  0
LINE
  5
39
330
2
100
AcDbEntity
  8
0
100
AcDbLine
 10
-31.1526791402
 20
-4.6078165286
 30
0.0
 11
39.75381003419999
 21
-4.6078165286
 31
0.0
  0
LWPOLYLINE
  5
3A
330
2
100
AcDbEntity
  8
0
100
AcDbPolyline
 90
        5
 70
     0
 43
0.0
 10
-18.50447465540001
 20
3.596417952999999
 10
-18.4626166218
 20
3.411568943399998
 10
-18.35795556260001
 20
3.25340122979999
 10
-18.2055984346
 20
3.14474501379999
 10
-18.02753672580001
 20
3.101283919400003
  0
LINE
  5
3B
330
2
100
AcDbEntity
  8
0
100
AcDbLine
 10
37.33160129179999
 20
-0.0274854854000104
 30
0.0
 11
-28.7304703978
 21
-0.0274854854000104
 31
0.0
  0
LINE
  5
3C
330
2
100
AcDbEntity
  8
0
100
AcDbLine
 10
5.261273126999999
 20
0.8897466985999891
 30
0.0
 11
5.429945059799994
 21
0.9358181881999989
 31
0.0
  0
LWPOLYLINE
  5
3D
330
2
100
AcDbEntity
  8
0
100
AcDbPolyline
 90
        3
 70
     0
 43
0.0
 10
3.339857005399991
 20
1.068557868200002
 10
3.171185731799994
 20
1.022486482600001
 10
3.121869846999985
 20
0.979152359400004
  0
LWPOLYLINE
  5
3E
330
2
100
AcDbEntity
  8
0
100
AcDbPolyline
 90
        3
 70
     0
 43
0.0
 10
3.339857765399997
 20
1.084030952999995
 10
3.171185834199988
 20
1.037959465
 10
3.113065446999996
 20
0.9868888265999942
  0
LINE
  5
3F
330
2
100
AcDbEntity
  8
0
100
AcDbLine
 10
-16.1196948922
 20
3.298024746599988
 30
0.0
 11
24.7208257862
 21
3.298024746599988
 31
0.0
  0
LWPOLYLINE
  5
40
330
2
100
AcDbEntity
  8
0
100
AcDbPolyline
 90
        7
 70
     0
 43
0.0
 10
3.339857765399997
 20
0.8897466985999926
 10
3.602570459799991
 20
0.8531841594000013
 10
3.933607765399997
 20
0.8297095626000015
 10
4.300565446999996
 20
0.8216207689999919
 10
4.667523126999995
 20
0.8297095626000015
 10
4.998560434199987
 20
0.8531841594000013
 10
5.261273126999995
 20
0.8897466985999926
  0
LWPOLYLINE
  5
41
330
2
100
AcDbEntity
  8
0
100
AcDbPolyline
 90
        7
 70
     0
 43
0.0
 10
5.261273886999987
 20
1.068557868200002
 10
4.998560853399993
 20
1.105120511400002
 10
4.667523837399997
 20
1.128595117800003
 10
4.300565446999996
 20
1.136683945000001
 10
3.933607056599996
 20
1.128595117800003
 10
3.602570040599985
 20
1.105120511400002
 10
3.339857005399991
 20
1.068557868200002
  0
LWPOLYLINE
  5
42
330
2
100
AcDbEntity
  8
0
100
AcDbPolyline
 90
        7
 70
     0
 43
0.0
 10
5.261273126999995
 20
1.084030952999995
 10
4.998560434199987
 20
1.120593492200001
 10
4.667523126999995
 20
1.144068089000001
 10
4.300565446999996
 20
1.152156882599996
 10
3.933607765399997
 20
1.144068089000001
 10
3.602570459799991
 20
1.120593492200001
 10
3.339857765399997
 20
1.084030952999995
  0
LWPOLYLINE
  5
43
330
2
100
AcDbEntity
  8
0
100
AcDbPolyline
 90
        3
 70
     0
 43
0.0
 10
-26.6271543386
 20
0.4676485482000033
 10
-26.3712437418
 20
0.5078505898000003
 10
-26.15384113700001
 20
0.5523418953999908
  0
LWPOLYLINE
  5
44
330
2
100
AcDbEntity
  8
0
100
AcDbPolyline
 90
        7
 70
     0
 43
0.0
 10
24.72082578619999
 20
3.298024746599992
 10
25.13679686779998
 20
3.291878442599994
 10
25.53645224699998
 20
3.273588629800002
 10
25.90199918619998
 20
3.243768722599995
 10
26.21521899579998
 20
3.203750068199994
 10
26.46091057179998
 20
3.155510644199992
 10
26.6286676182
 20
3.101283919400003
  0
LWPOLYLINE
  5
45
330
2
100
AcDbEntity
  8
0
100
AcDbPolyline
 90
        8
 70
     0
 43
0.0
 10
35.22828523259998
 20
0.4676485482000033
 10
35.42942846619999
 20
0.4462490025999984
 10
35.66135757019999
 20
0.4078010522
 10
35.92256101499998
 20
0.353118913000003
 10
36.21741872859999
 20
0.2819935833999949
 10
36.54933709819999
 20
0.1943243834000015
 10
36.91999185019999
 20
0.0907706489999925
 10
37.33160129179999
 20
-0.0274854854000068
  0
LWPOLYLINE
  5
46
330
2
100
AcDbEntity
  8
0
100
AcDbPolyline
 90
        3
 70
     0
 43
0.0
 10
3.113065446999996
 20
0.9868888265999942
 10
3.171185834199988
 20
0.9358181882000025
 10
3.339857765399997
 20
0.8897466985999926
  0
LWPOLYLINE
  5
47
330
2
100
AcDbEntity
  8
0
100
AcDbPolyline
 90
        3
 70
     0
 43
0.0
 10
5.479261045399994
 20
0.979152359400004
 10
5.429945160599984
 20
1.022486482600001
 10
5.261273886999987
 20
1.068557868200002
  0
LWPOLYLINE
  5
48
330
2
100
AcDbEntity
  8
0
100
AcDbPolyline
 90
        3
 70
     0
 43
0.0
 10
5.488065446999996
 20
0.9868888265999942
 10
5.42994505979999
 20
1.037959465
 10
5.261273126999995
 20
1.084030952999995
  0
LWPOLYLINE
  5
49
330
2
100
AcDbEntity
  8
0
100
AcDbPolyline
 90
        4
 70
     0
 43
0.0
 10
-26.15384113700001
 20
0.5523418953999908
 10
-22.9790467098
 20
1.371200728999994
 10
-20.26399524420001
 20
2.222769666600001
 10
-18.02753672580001
 20
3.101283919400003
  0
LINE
  5
4D
330
2
100
AcDbEntity
  8
CENTER
 48
4.0
100
AcDbLine
 10
0.9140146202877454
 20
7.2197145658
 30
0.0
 11
7.687116273712255
 21
7.2197145658
 31
0.0
  0
LWPOLYLINE
  5
4E
330
2
100
AcDbEntity
  8
0
100
AcDbPolyline
 90
        3
 70
     0
 43
0.0
 10
34.75497203099999
 20
0.5523418953999908
 10
34.97237463739999
 20
0.5078505898000003
 10
35.22828523259998
 20
0.4676485482000033
  0
LWPOLYLINE
  5
4F
330
2
100
AcDbEntity
  8
0
100
AcDbPolyline
 90
        4
 70
     0
 43
0.0
 10
26.6286676182
 20
3.101283919400003
 10
28.865138343
 20
2.222765431399992
 10
31.58019196379999
 20
1.371196631399996
 10
34.75497203099999
 20
0.5523418953999908
  0
LINE
  5
50
330
2
100
AcDbEntity
  8
CENTER
 48
4.0
100
AcDbLine
 10
4.300565447
 20
3.270232546276798
 30
0.0
 11
4.300565447
 21
11.1691965853232
 31
0.0
  0
LWPOLYLINE
  5
51
330
2
100
AcDbEntity
  8
0
100
AcDbPolyline
 90
        4
 70
     0
 43
0.0
 10
26.6286676182
 20
28.96314521220002
 10
28.865138343
 20
29.84166369860001
 10
31.58019196379999
 20
30.69323249860001
 10
34.75497203099999
 20
31.5120872346
  0
LWPOLYLINE
  5
52
330
2
100
AcDbEntity
  8
0
100
AcDbPolyline
 90
        8
 70
     0
 43
0.0
 10
-28.7304703978
 20
32.091914617
 10
-28.3188609578
 20
31.97365848100001
 10
-27.9482062042
 20
31.8701047466
 10
-27.6162878362
 20
31.78243554660001
 10
-27.3214301226
 20
31.71131021700002
 10
-27.06022667780001
 20
31.65662807620002
 10
-26.8282975706
 20
31.61818013060001
 10
-26.6271543386
 20
31.59678058180002
  0
LWPOLYLINE
  5
53
330
2
100
AcDbEntity
  8
0
100
AcDbPolyline
 90
        7
 70
     0
 43
0.0
 10
-18.02753672580001
 20
28.96314521220002
 10
-17.8597796762
 20
28.90891848580001
 10
-17.6140881034
 20
28.86067906180001
 10
-17.3008682938
 20
28.82066040740001
 10
-16.935321353
 20
28.79084050020002
 10
-16.5356659738
 20
28.772550689
 10
-16.1196948922
 20
28.7664043834
  0
LWPOLYLINE
  5
54
330
2
100
AcDbEntity
  8
0
100
AcDbPolyline
 90
        3
 70
     0
 43
0.0
 10
34.75497203099999
 20
31.5120872346
 10
34.97237463739999
 20
31.55657854020002
 10
35.22828523259998
 20
31.59678058180002
  0
LWPOLYLINE
  5
55
330
2
100
AcDbEntity
  8
0
100
AcDbPolyline
 90
        4
 70
     0
 43
0.0
 10
-26.15384113700001
 20
31.5120872346
 10
-22.9790467098
 20
30.69322840100001
 10
-20.26399524420001
 20
29.8416594634
 10
-18.02753672580001
 20
28.96314521220002
  0
LWPOLYLINE
  5
56
330
2
100
AcDbEntity
  8
0
100
AcDbPolyline
 90
        7
 70
     0
 43
0.0
 10
-18.02753672580001
 20
3.101283919400003
 10
-17.8597796762
 20
3.155510644199992
 10
-17.6140881034
 20
3.203750068199994
 10
-17.3008682938
 20
3.243768722599995
 10
-16.935321353
 20
3.273588629800002
 10
-16.5356659738
 20
3.291878442599994
 10
-16.1196948922
 20
3.298024746599992
  0
LWPOLYLINE
  5
57
330
2
100
AcDbEntity
  8
0
100
AcDbPolyline
 90
        8
 70
     0
 43
0.0
 10
-28.7304703978
 20
-0.0274854854000068
 10
-28.3188609578
 20
0.0907706489999925
 10
-27.9482062042
 20
0.1943243834000015
 10
-27.6162878362
 20
0.2819935833999949
 10
-27.3214301226
 20
0.353118913000003
 10
-27.06022667780001
 20
0.4078010538000001
 10
-26.8282975706
 20
0.4462489993999981
 10
-26.6271543386
 20
0.4676485482000033
  0
LWPOLYLINE
  5
58
330
2
100
AcDbEntity
  8
0
100
AcDbPolyline
 90
        8
 70
     0
 43
0.0
 10
35.22828523259998
 20
31.59678058180002
 10
35.42942846619999
 20
31.61818012740001
 10
35.66135757019999
 20
31.65662807780002
 10
35.92256101499998
 20
31.71131021700002
 10
36.21741872859999
 20
31.78243554660001
 10
36.54933709819999
 20
31.8701047466
 10
36.91999185019999
 20
31.97365848100001
 10
37.33160129179999
 20
32.091914617
  0
LWPOLYLINE
  5
59
330
2
100
AcDbEntity
  8
0
100
AcDbPolyline
 90
        7
 70
     0
 43
0.0
 10
24.72082578619999
 20
28.7664043834
 10
25.13679686779998
 20
28.7725506874
 10
25.53645224699998
 20
28.79084050020002
 10
25.90199918619998
 20
28.82066040740001
 10
26.21521899579998
 20
28.86067906180001
 10
26.46091057179998
 20
28.90891848580001
 10
26.6286676182
 20
28.96314521220002
  0
LINE
  5
5A
330
2
100
AcDbEntity
  8
0
100
AcDbLine
 10
-16.1196948922
 20
28.76640438339999
 30
0.0
 11
-1.373530565800006
 21
28.76640438339999
 31
0.0
  0
LINE
  5
5B
330
2
100
AcDbEntity
  8
0
100
AcDbLine
 10
9.974661459799992
 20
28.76640438339999
 30
0.0
 11
24.7208257862
 21
28.76640438339999
 31
0.0
  0
LWPOLYLINE
  5
5C
330
2
100
AcDbEntity
  8
0
100
AcDbPolyline
 90
        3
 70
     0
 43
0.0
 10
-26.6271543386
 20
31.59678058180002
 10
-26.3712437418
 20
31.55657854020002
 10
-26.15384113700001
 20
31.5120872346
  0
LWPOLYLINE
  5
5D
330
2
100
AcDbEntity
  8
0
100
AcDbPolyline
 90
        4
 70
     0
 43
0.0
 10
-4.635799249000008
 20
31.27039584420002
 10
-4.776011711400009
 20
31.2611374682
 10
-4.881134253800006
 20
31.2489358586
 10
-4.947902495400008
 20
31.23526063460001
  0
LWPOLYLINE
  5
5E
330
2
100
AcDbEntity
  8
0
100
AcDbPolyline
 90
        4
 70
     0
 43
0.0
 10
12.09839703259999
 20
31.27039584420002
 10
11.93396899259998
 20
31.26098882340001
 10
11.80033050619999
 20
31.24894808580002
 10
11.69966159419999
 20
31.23526063460001
  0
LINE
  5
5F
330
2
100
AcDbEntity
  8
0
100
AcDbLine
 10
13.23693014139999
 20
31.27039584420002
 30
0.0
 11
12.09839703259999
 21
31.27039584420002
 31
0.0
  0
LINE
  5
60
330
2
100
AcDbEntity
  8
0
100
AcDbLine
 10
-3.497266140200007
 20
31.27039584420002
 30
0.0
 11
-4.635799249000005
 21
31.27039584420002
 31
0.0
  0
LINE
  5
61
330
2
100
AcDbEntity
  8
0
100
AcDbLine
 10
37.33160129179999
 20
32.091914617
 30
0.0
 11
-28.7304703978
 21
32.091914617
 31
0.0
  0
LWPOLYLINE
  5
62
330
2
100
AcDbEntity
  8
0
100
AcDbPolyline
 90
        4
 70
     0
 43
0.0
 10
-3.098530701800008
 20
31.23526063460001
 10
-3.19917718660001
 20
31.24894560100001
 10
-3.332824105000007
 20
31.26098780260001
 10
-3.497266140200011
 20
31.27039584420002
  0
LINE
  5
63
330
2
100
AcDbEntity
  8
0
100
AcDbLine
 10
5.429945059799994
 20
0.9358181881999989
 30
0.0
 11
5.488065447
 21
0.9868888265999906
 31
0.0
  0
LWPOLYLINE
  5
64
330
2
100
AcDbEntity
  8
0
100
AcDbPolyline
 90
        4
 70
     0
 43
0.0
 10
13.54903338779999
 20
31.23526063460001
 10
13.48209614139999
 20
31.24896180100002
 10
13.37769245019998
 20
31.26108874340001
 10
13.23693014139999
 20
31.27039584420002
  0
LINE
  5
65
330
2
100
AcDbEntity
  8
0
100
AcDbLine
 10
-31.1526791402
 20
36.6722456586
 30
0.0
 11
39.75381003419999
 21
36.6722456586
 31
0.0
  0
LINE
  5
66
330
2
100
AcDbEntity
  8
0
100
AcDbLine
 10
40.17627894299998
 20
37.0947145658
 30
0.0
 11
-31.5751480506
 21
37.0947145658
 31
0.0
  0
LINE
  5
67
330
2
100
AcDbEntity
  8
0
100
AcDbLine
 10
27.1056280774
 20
28.468011177
 30
0.0
 11
27.1056280774
 21
3.596417952999996
 31
0.0
  0
LWPOLYLINE
  5
68
330
2
100
AcDbEntity
  8
0
100
AcDbPolyline
 90
        5
 70
     0
 43
0.0
 10
27.10562829179998
 20
3.596417952999999
 10
27.063767719
 20
3.411564412199993
 10
26.95910084539999
 20
3.253394327400002
 10
26.80673624379998
 20
3.144739413799996
 10
26.6286676182
 20
3.101283919400003
  0
LWPOLYLINE
  5
69
330
2
100
AcDbEntity
  8
0
100
AcDbPolyline
 90
        5
 70
     0
 43
0.0
 10
40.17627894139998
 20
37.0947145658
 10
40.24743325019999
 20
37.080091225
 10
40.30785814459998
 20
37.03950726340001
 10
40.3484421062
 20
36.97908236900001
 10
40.36306544699999
 20
36.90792806020001
  0
LWPOLYLINE
  5
6A
330
2
100
AcDbEntity
  8
0
100
AcDbPolyline
 90
        4
 70
     0
 43
0.0
 10
39.75381003419999
 20
36.6722456586
 10
39.84679607899998
 20
36.64675063780002
 10
39.91510151899999
 20
36.57844519780001
 10
39.94059653979999
 20
36.48545915300001
  0
LWPOLYLINE
  5
6B
330
2
100
AcDbEntity
  8
0
100
AcDbPolyline
 90
        5
 70
     0
 43
0.0
 10
27.10562829179998
 20
28.468011177
 10
27.063767719
 20
28.6528647178
 10
26.95910084539999
 20
28.81103480260001
 10
26.80673624379998
 20
28.91968971620001
 10
26.6286676182
 20
28.96314521060002
  0
LINE
  5
6C
330
2
100
AcDbEntity
  8
0
100
AcDbLine
 10
37.33160129179999
 20
32.091914617
 30
0.0
 11
37.33160129179999
 21
-0.0274854854000104
 31
0.0
  0
LINE
  5
6D
330
2
100
AcDbEntity
  8
0
100
AcDbLine
 10
39.94059653979999
 20
-4.421030021400003
 30
0.0
 11
39.94059653979999
 21
36.48545915300001
 31
0.0
  0
LINE
  5
6E
330
2
100
AcDbEntity
  8
0
100
AcDbLine
 10
40.36306544699999
 20
-4.843498941400003
 30
0.0
 11
40.36306544699999
 21
36.90792807140001
 31
0.0
  0
ARC
  5
6F
330
2
100
AcDbEntity
  8
0
100
AcDbCircle
 10
7.674661133399997
 20
35.673264521
 30
0.0
 40
5.991369392
100
AcDbArc
 50
298.2474365818999
 51
312.2061227976
  0
ARC
  5
70
330
2
100
AcDbEntity
  8
0
100
AcDbCircle
 10
4.300565447
 20
41.9534358442
 30
0.0
 40
13.12054
100
AcDbArc
 50
241.7525634181
 51
298.2474365818999
  0
ARC
  5
71
330
2
100
AcDbEntity
  8
0
100
AcDbCircle
 10
0.926469758999989
 20
35.673264521
 30
0.0
 40
5.991369392
100
AcDbArc
 50
227.7938772024
 51
241.7525634181
  0
ARC
  5
72
330
2
100
AcDbEntity
  8
0
100
AcDbCircle
 10
2.646715363800002
 20
38.3540963162
 30
0.0
 40
10.40942082239999
100
AcDbArc
 50
223.1478981087
 51
245.3218291812
  0
ARC
  5
73
330
2
100
AcDbEntity
  8
0
100
AcDbCircle
 10
5.954415530199998
 20
38.3540963162
 30
0.0
 40
10.40942082239999
100
AcDbArc
 50
294.6781708188
 51
316.8521018912999
  0
ARC
  5
74
330
2
100
AcDbEntity
  8
0
100
AcDbCircle
 10
4.300565447
 20
41.9534358442
 30
0.0
 40
14.37054
100
AcDbArc
 50
245.3218291812
 51
294.6781708188
  0
CIRCLE
  5
75
330
2
100
AcDbEntity
  8
0
100
AcDbCircle
 10
4.300565447
 20
7.2197145658
 30
0.0
 40
1.3232192432
  0
CIRCLE
  5
76
330
2
100
AcDbEntity
  8
0
100
AcDbCircle
 10
4.300565447
 20
7.2197145658
 30
0.0
 40
1.978544568
  0
ENDSEC
  0
SECTION
  2
OBJECTS
  0
DICTIONARY
  5
A
330
0
100
AcDbDictionary
  3
ACAD_COLOR
350
29
  3
ACAD_GROUP
350
24
  3
ACAD_LAYOUT
350
9
  3
ACAD_MATERIAL
350
28
  3
ACAD_MLINESTYLE
350
25
  3
ACAD_PLOTSETTINGS
350
26
  3
ACAD_PLOTSTYLENAME
350
27
  3
ACAD_TABLESTYLE
350
2A
  3
ACDBHEADERROUNDTRIPXREC
350
153
  3
ACDBVARIABLEDICTIONARY
350
7B
  0
DICTIONARY
  5
CD
330
2
100
AcDbDictionary
280
     1
  3
ACAD_LAYOUTSELFREF
360
174
  0
DICTIONARY
  5
D3
330
B
100
AcDbDictionary
280
     1
  3
ACAD_LAYOUTSELFREF
360
175
  0
DICTIONARY
  5
29
102
{ACAD_REACTORS
330
A
102
}
330
A
100
AcDbDictionary
  0
DICTIONARY
  5
24
102
{ACAD_REACTORS
330
A
102
}
330
A
100
AcDbDictionary
  0
DICTIONARY
  5
9
102
{ACAD_REACTORS
330
A
102
}
330
A
100
AcDbDictionary
  0
DICTIONARY
  5
28
102
{ACAD_REACTORS
330
A
102
}
330
A
100
AcDbDictionary
  0
DICTIONARY
  5
25
102
{ACAD_REACTORS
330
A
102
}
330
A
100
AcDbDictionary
  3
STANDARD
350
2B
  0
DICTIONARY
  5
26
102
{ACAD_REACTORS
330
A
102
}
330
A
100
AcDbDictionary
  0
ACDBDICTIONARYWDFLT
  5
27
102
{ACAD_REACTORS
330
A
102
}
330
A
100
AcDbDictionary
281
     1
  3
Normal
350
5
100
AcDbDictionaryWithDefault
340
5
  0
DICTIONARY
  5
2A
102
{ACAD_REACTORS
330
A
102
}
330
A
100
AcDbDictionary
  3
STANDARD
350
2C
  0
DICTIONARY
  5
153
102
{ACAD_REACTORS
330
A
102
}
330
A
100
AcDbDictionary
  3
CEPSNTYPE
350
15D
  3
DIMSTYLEDATA
350
161
  3
FINGERPRINTGUID
350
15E
  3
HYPERLINKBASE
350
156
  3
INSUNITS
350
15C
  3
LAYOUTDICT
350
158
  3
LWETCUNION
350
15B
  3
PLOTSETDICT
350
159
  3
PLOTSTYLNAMDICT
350
15A
  3
PSVPSCALE
350
160
  3
PUCSBASE
350
164
  3
PUCSORGBACK
350
16A
  3
PUCSORGBOTTOM
350
166
  3
PUCSORGFRONT
350
169
  3
PUCSORGLEFT
350
167
  3
PUCSORGRIGHT
350
168
  3
PUCSORGTOP
350
165
  3
PUCSORTHOREF
350
162
  3
PUCSORTHOVIEW
350
163
  3
STYLESHEET
350
157
  3
TSTACKALIGN
350
154
  3
TSTACKSIZE
350
155
  3
UCSBASE
350
16D
  3
UCSORGBACK
350
173
  3
UCSORGBOTTOM
350
16F
  3
UCSORGFRONT
350
172
  3
UCSORGLEFT
350
170
  3
UCSORGRIGHT
350
171
  3
UCSORGTOP
350
16E
  3
UCSORTHOREF
350
16B
  3
UCSORTHOVIEW
350
16C
  3
VERSIONGUID
350
15F
  0
DICTIONARY
  5
7B
102
{ACAD_REACTORS
330
A
102
}
330
A
100
AcDbDictionary
  3
CTABLESTYLE
350
7C
  3
DIMASSOC
350
A0
  3
HIDETEXT
350
9F
  3
PROJECTNAME
350
A1
  0
XRECORD
  5
174
102
{ACAD_REACTORS
330
CD
102
}
330
CD
100
AcDbXrecord
340
2
  0
XRECORD
  5
175
102
{ACAD_REACTORS
330
D3
102
}
330
D3
100
AcDbXrecord
340
B
  0
MLINESTYLE
  5
2B
102
{ACAD_REACTORS
330
25
102
}
330
25
100
AcDbMlineStyle
  2
STANDARD
 70
     0
  3

 62
   256
 51
90.0
 52
90.0
 71
     2
 49
0.5
 62
   256
  6
BYLAYER
 49
-0.5
 62
   256
  6
BYLAYER
  0
ACDBPLACEHOLDER
  5
5
102
{ACAD_REACTORS
330
27
102
}
330
0
100
AcDbPlaceHolder
280
     0
  0
ACAD_PROXY_OBJECT
  5
2C
102
{ACAD_REACTORS
330
2A
102
}
330
2A
100
AcDbProxyObject
 90
      499
 91
      525
 93
     1841
310
4214DD185B99185C9928B81E85EB51B8AE3F2E07A17AD46E2B8FC02B5E8DC0F42B1CFD028000000C1008070000C3001FDFF8000000C1003FBFF000000182007F7FE00000030400FEFFC00000060801FDFF8000000C1003FBFF00000018200000000000000681FA0B0000001820100E000186003FBFF000000182007F7FE000
310
00030400FEFFC00000060801FDFF8000000C1003FBFF000000182007F7FE000000304000AD7A3703D0AC73F4160000003040201C00030C007F7FE00000030400FEFFC00000060801FDFF8000000C1003FBFF000000182007F7FE00000030400FEFFC000000608018
340
11
340
11
340
11
 94
        0
1001
ACAD
1000
AcadProxyRoundTripData
1071
      524
1071
   851991
1070
     0
  0
XRECORD
  5
15D
102
{ACAD_REACTORS
330
153
102
}
330
153
100
AcDbXrecord
 90
        0
  0
XRECORD
  5
161
102
{ACAD_REACTORS
330
153
102
}
330
153
100
AcDbXrecord
1000
DSTYLE
1002
{
1070
   277
 70
     5
1070
   341
340
1E
1070
   342
340
1E
1002
}
  0
XRECORD
  5
15E
102
{ACAD_REACTORS
330
153
102
}
330
153
100
AcDbXrecord
  1
{7B61ADF3-AFE8-4C56-B5BF-A1BA3241C0B2}
  0
XRECORD
  5
156
102
{ACAD_REACTORS
330
153
102
}
330
153
100
AcDbXrecord
  1

  0
XRECORD
  5
15C
102
{ACAD_REACTORS
330
153
102
}
330
153
100
AcDbXrecord
 90
        1
  0
XRECORD
  5
158
102
{ACAD_REACTORS
330
153
102
}
330
153
100
AcDbXrecord
340
9
  0
XRECORD
  5
15B
102
{ACAD_REACTORS
330
153
102
}
330
153
100
AcDbXrecord
 90
    10781
  0
XRECORD
  5
159
102
{ACAD_REACTORS
330
153
102
}
330
153
100
AcDbXrecord
340
26
  0
XRECORD
  5
15A
102
{ACAD_REACTORS
330
153
102
}
330
153
100
AcDbXrecord
340
27
  0
XRECORD
  5
160
102
{ACAD_REACTORS
330
153
102
}
330
153
100
AcDbXrecord
 40
0.0
  0
XRECORD
  5
164
102
{ACAD_REACTORS
330
153
102
}
330
153
100
AcDbXrecord
340
0
  0
XRECORD
  5
16A
102
{ACAD_REACTORS
330
153
102
}
330
153
100
AcDbXrecord
 10
0.0
 20
0.0
 30
0.0
  0
XRECORD
  5
166
102
{ACAD_REACTORS
330
153
102
}
330
153
100
AcDbXrecord
 10
0.0
 20
0.0
 30
0.0
  0
XRECORD
  5
169
102
{ACAD_REACTORS
330
153
102
}
330
153
100
AcDbXrecord
 10
0.0
 20
0.0
 30
0.0
  0
XRECORD
  5
167
102
{ACAD_REACTORS
330
153
102
}
330
153
100
AcDbXrecord
 10
0.0
 20
0.0
 30
0.0
  0
XRECORD
  5
168
102
{ACAD_REACTORS
330
153
102
}
330
153
100
AcDbXrecord
 10
0.0
 20
0.0
 30
0.0
  0
XRECORD
  5
165
102
{ACAD_REACTORS
330
153
102
}
330
153
100
AcDbXrecord
 10
0.0
 20
0.0
 30
0.0
  0
XRECORD
  5
162
102
{ACAD_REACTORS
330
153
102
}
330
153
100
AcDbXrecord
340
0
  0
XRECORD
  5
163
102
{ACAD_REACTORS
330
153
102
}
330
153
100
AcDbXrecord
 70
     0
  0
XRECORD
  5
157
102
{ACAD_REACTORS
330
153
102
}
330
153
100
AcDbXrecord
  1

  0
XRECORD
  5
154
102
{ACAD_REACTORS
330
153
102
}
330
153
100
AcDbXrecord
 90
        1
  0
XRECORD
  5
155
102
{ACAD_REACTORS
330
153
102
}
330
153
100
AcDbXrecord
 90
       70
  0
XRECORD
  5
16D
102
{ACAD_REACTORS
330
153
102
}
330
153
100
AcDbXrecord
340
0
  0
XRECORD
  5
173
102
{ACAD_REACTORS
330
153
102
}
330
153
100
AcDbXrecord
 10
0.0
 20
0.0
 30
0.0
  0
XRECORD
  5
16F
102
{ACAD_REACTORS
330
153
102
}
330
153
100
AcDbXrecord
 10
0.0
 20
0.0
 30
0.0
  0
XRECORD
  5
172
102
{ACAD_REACTORS
330
153
102
}
330
153
100
AcDbXrecord
 10
0.0
 20
0.0
 30
0.0
  0
XRECORD
  5
170
102
{ACAD_REACTORS
330
153
102
}
330
153
100
AcDbXrecord
 10
0.0
 20
0.0
 30
0.0
  0
XRECORD
  5
171
102
{ACAD_REACTORS
330
153
102
}
330
153
100
AcDbXrecord
 10
0.0
 20
0.0
 30
0.0
  0
XRECORD
  5
16E
102
{ACAD_REACTORS
330
153
102
}
330
153
100
AcDbXrecord
 10
0.0
 20
0.0
 30
0.0
  0
XRECORD
  5
16B
102
{ACAD_REACTORS
330
153
102
}
330
153
100
AcDbXrecord
340
0
  0
XRECORD
  5
16C
102
{ACAD_REACTORS
330
153
102
}
330
153
100
AcDbXrecord
 70
     0
  0
XRECORD
  5
15F
102
{ACAD_REACTORS
330
153
102
}
330
153
100
AcDbXrecord
  1
{13E9A081-C931-4172-A3E3-C7061DF1B993}
  0
DICTIONARYVAR
  5
7C
102
{ACAD_REACTORS
330
7B
102
}
330
7B
100
DictionaryVariables
280
     0
  1
STANDARD
  0
DICTIONARYVAR
  5
A0
102
{ACAD_REACTORS
330
7B
102
}
330
7B
100
DictionaryVariables
280
     0
  1
1
  0
DICTIONARYVAR
  5
9F
102
{ACAD_REACTORS
330
7B
102
}
330
7B
100
DictionaryVariables
280
     0
  1
1
  0
DICTIONARYVAR
  5
A1
102
{ACAD_REACTORS
330
7B
102
}
330
7B
100
DictionaryVariables
280
     0
  1

  0
ENDSEC
  0
EOF
