  0
SECTION
  2
HEADER
  9
$ACADVER
  1
AC1014
  9
$ACADMAINTVER
 70
     9
  9
$DWGCODEPAGE
  3
ANSI_1252
  9
$INSBASE
 10
-27.14661765085748
 20
16.71411616165039
 30
0.0
  9
$EXTMIN
 10
-83.65995853710188
 20
-0.2874701562809211
 30
-0.0015258207003612
  9
$EXTMAX
 10
-17.88868514725421
 20
33.71784904097761
 30
0.0000000349246008
  9
$LIMMIN
 10
0.0
 20
0.0
  9
$LIMMAX
 10
100.5024158491978
 20
51.69854817198938
  9
$ORTHOMODE
 70
     1
  9
$REGENMODE
 70
     1
  9
$FILLMODE
 70
     1
  9
$QTEXTMODE
 70
     0
  9
$MIRRTEXT
 70
     1
  9
$DRAGMODE
 70
     2
  9
$LTSCALE
 40
2.0
  9
$OSMODE
 70
    55
  9
$ATTMODE
 70
     1
  9
$TEXTSIZE
 40
0.06
  9
$TRACEWID
 40
1.0
  9
$TEXTSTYLE
  7
CARTOUCHE
  9
$CLAYER
  8
0
  9
$CELTYPE
  6
BYLAYER
  9
$CECOLOR
 62
   256
  9
$CELTSCALE
 40
1.0
  9
$DELOBJ
 70
     1
  9
$DISPSILH
 70
     0
  9
$DIMSCALE
 40
16.0
  9
$DIMASZ
 40
0.1
  9
$DIMEXO
 40
0.0625
  9
$DIMDLI
 40
0.25
  9
$DIMRND
 40
0.0
  9
$DIMDLE
 40
0.0
  9
$DIMEXE
 40
0.1
  9
$DIMTP
 40
0.0
  9
$DIMTM
 40
0.0
  9
$DIMTXT
 40
0.1
  9
$DIMCEN
 40
0.09
  9
$DIMTSZ
 40
0.0
  9
$DIMTOL
 70
     0
  9
$DIMLIM
 70
     0
  9
$DIMTIH
 70
     1
  9
$DIMTOH
 70
     1
  9
$DIMSE1
 70
     0
  9
$DIMSE2
 70
     0
  9
$DIMTAD
 70
     0
  9
$DIMZIN
 70
     4
  9
$DIMBLK
  1

  9
$DIMASO
 70
     1
  9
$DIMSHO
 70
     1
  9
$DIMPOST
  1
\X
  9
$DIMAPOST
  1
cm
  9
$DIMALT
 70
     1
  9
$DIMALTD
 70
     0
  9
$DIMALTF
 40
2.54
  9
$DIMLFAC
 40
1.0
  9
$DIMTOFL
 70
     0
  9
$DIMTVP
 40
0.0
  9
$DIMTIX
 70
     0
  9
$DIMSOXD
 70
     0
  9
$DIMSAH
 70
     0
  9
$DIMBLK1
  1

  9
$DIMBLK2
  1

  9
$DIMSTYLE
  2
STANDARD
  9
$DIMCLRD
 70
     0
  9
$DIMCLRE
 70
     0
  9
$DIMCLRT
 70
     0
  9
$DIMTFAC
 40
1.0
  9
$DIMGAP
 40
0.08
  9
$DIMJUST
 70
     0
  9
$DIMSD1
 70
     0
  9
$DIMSD2
 70
     0
  9
$DIMTOLJ
 70
     1
  9
$DIMTZIN
 70
     4
  9
$DIMALTZ
 70
     4
  9
$DIMALTTZ
 70
     4
  9
$DIMFIT
 70
     1
  9
$DIMUPT
 70
     0
  9
$DIMUNIT
 70
     5
  9
$DIMDEC
 70
     3
  9
$DIMTDEC
 70
     3
  9
$DIMALTU
 70
     2
  9
$DIMALTTD
 70
     0
  9
$DIMTXSTY
  7
ROMANS
  9
$DIMAUNIT
 70
     0
  9
$LUNITS
 70
     2
  9
$LUPREC
 70
     2
  9
$SKETCHINC
 40
1.0
  9
$FILLETRAD
 40
3.0
  9
$AUNITS
 70
     0
  9
$AUPREC
 70
     0
  9
$MENU
  1
.
  9
$ELEVATION
 40
0.0
  9
$PELEVATION
 40
0.0
  9
$THICKNESS
 40
0.0
  9
$LIMCHECK
 70
     0
  9
$BLIPMODE
 70
     0
  9
$CHAMFERA
 40
10.0
  9
$CHAMFERB
 40
10.0
  9
$CHAMFERC
 40
20.0
  9
$CHAMFERD
 40
0.0
  9
$SKPOLY
 70
     0
  9
$TDCREATE
 40
2452062.343093518
  9
$TDUPDATE
 40
2453689.566342546
  9
$TDINDWG
 40
0.6720492245
  9
$TDUSRTIMER
 40
0.6720492245
  9
$USRTIMER
 70
     1
  9
$ANGBASE
 50
0.0
  9
$ANGDIR
 70
     0
  9
$PDMODE
 70
    33
  9
$PDSIZE
 40
0.25
  9
$PLINEWID
 40
0.0
  9
$COORDS
 70
     1
  9
$SPLFRAME
 70
     0
  9
$SPLINETYPE
 70
     6
  9
$SPLINESEGS
 70
     8
  9
$ATTDIA
 70
     0
  9
$ATTREQ
 70
     1
  9
$HANDLING
 70
 22529
  9
$HANDSEED
  5
2D2
  9
$SURFTAB1
 70
     6
  9
$SURFTAB2
 70
     6
  9
$SURFTYPE
 70
     6
  9
$SURFU
 70
     6
  9
$SURFV
 70
     6
  9
$UCSNAME
  2

  9
$UCSORG
 10
0.0
 20
0.0
 30
0.0
  9
$UCSXDIR
 10
1.0
 20
0.0
 30
0.0
  9
$UCSYDIR
 10
0.0
 20
1.0
 30
0.0
  9
$PUCSNAME
  2

  9
$PUCSORG
 10
0.0
 20
0.0
 30
0.0
  9
$PUCSXDIR
 10
1.0
 20
0.0
 30
0.0
  9
$PUCSYDIR
 10
0.0
 20
1.0
 30
0.0
  9
$USERI1
 70
     0
  9
$USERI2
 70
     0
  9
$USERI3
 70
     0
  9
$USERI4
 70
     0
  9
$USERI5
 70
     0
  9
$USERR1
 40
0.0
  9
$USERR2
 40
0.0
  9
$USERR3
 40
0.0
  9
$USERR4
 40
0.0
  9
$USERR5
 40
0.0
  9
$WORLDVIEW
 70
     1
  9
$SHADEDGE
 70
     3
  9
$SHADEDIF
 70
    70
  9
$TILEMODE
 70
     1
  9
$MAXACTVP
 70
    48
  9
$PINSBASE
 10
0.0
 20
0.0
 30
0.0
  9
$PLIMCHECK
 70
     0
  9
$PEXTMIN
 10
0.0
 20
0.0
 30
0.0
  9
$PEXTMAX
 10
0.0
 20
0.0
 30
0.0
  9
$PLIMMIN
 10
0.0
 20
0.0
  9
$PLIMMAX
 10
12.0
 20
9.0
  9
$UNITMODE
 70
     0
  9
$VISRETAIN
 70
     1
  9
$PLINEGEN
 70
     0
  9
$PSLTSCALE
 70
     1
  9
$TREEDEPTH
 70
  3020
  9
$PICKSTYLE
 70
     1
  9
$CMLSTYLE
  2
STANDARD
  9
$CMLJUST
 70
     0
  9
$CMLSCALE
 40
20.0
  9
$PROXYGRAPHICS
 70
     1
  9
$MEASUREMENT
 70
     0
  0
ENDSEC
  0
SECTION
  2
CLASSES
  0
CLASS
  1
ACDBDICTIONARYWDFLT
  2
AcDbDictionaryWithDefault
  3
AutoCAD 2000
 90
        0
280
     0
281
     0
  0
CLASS
  1
ACDBPLACEHOLDER
  2
AcDbPlaceHolder
  3
AutoCAD 2000
 90
        0
280
     0
281
     0
  0
CLASS
  1
LAYOUT
  2
AcDbLayout
  3
AutoCAD 2000
 90
        0
280
     0
281
     0
  0
CLASS
  1
DICTIONARYVAR
  2
AcDbDictionaryVar
  3
AutoCAD 2000
 90
        0
280
     0
281
     0
  0
CLASS
  1
IMAGEDEF
  2
AcDbRasterImageDef
  3
ISM
 90
        0
280
     0
281
     0
  0
CLASS
  1
LONG_TRANSACTION
  2
AcDbLongTransaction
  3
AutoCAD 2000
 90
        0
280
     0
281
     0
  0
CLASS
  1
LWPOLYLINE
  2
AcDbPolyline
  3
AutoCAD 2000
 90
        0
280
     0
281
     1
  0
CLASS
  1
HATCH
  2
AcDbHatch
  3
AutoCAD 2000
 90
        0
280
     0
281
     1
  0
CLASS
  1
XRECORD
  2
AcDbXrecord
  3
AutoCAD 2000
 90
        0
280
     0
281
     0
  0
CLASS
  1
LONG_TRANSACTION
  2
AcDbLongTransaction
  3
AutoCAD 2000
 90
        0
280
     0
281
     0
  0
CLASS
  1
LWPOLYLINE
  2
AcDbPolyline
  3
AutoCAD 2000
 90
        0
280
     0
281
     1
  0
CLASS
  1
HATCH
  2
AcDbHatch
  3
AutoCAD 2000
 90
        0
280
     0
281
     1
  0
CLASS
  1
XRECORD
  2
AcDbXrecord
  3
AutoCAD 2000
 90
        0
280
     0
281
     0
  0
CLASS
  1
LONG_TRANSACTION
  2
AcDbLongTransaction
  3
AutoCAD 2000
 90
        0
280
     0
281
     0
  0
CLASS
  1
LWPOLYLINE
  2
AcDbPolyline
  3
AutoCAD 2000
 90
        0
280
     0
281
     1
  0
CLASS
  1
HATCH
  2
AcDbHatch
  3
AutoCAD 2000
 90
        0
280
     0
281
     1
  0
CLASS
  1
XRECORD
  2
AcDbXrecord
  3
AutoCAD 2000
 90
        0
280
     0
281
     0
  0
ENDSEC
  0
SECTION
  2
TABLES
  0
TABLE
  2
VPORT
  5
1D
330
0
100
AcDbSymbolTable
 70
     3
  0
VPORT
  5
2AE
330
1D
100
AcDbSymbolTableRecord
100
AcDbViewportTableRecord
  2
*ACTIVE
 70
     0
 10
0.0
 20
0.0
 11
1.0
 21
1.0
 12
-50.77432195604856
 22
16.71518940791008
 13
0.0
 23
0.0
 14
10.0
 24
10.0
 15
10.0
 25
10.0
 16
0.0
 26
0.0
 36
1.0
 17
0.0
 27
0.0
 37
0.0
 40
44.08053675844969
 41
1.786792452830188
 42
50.0
 43
0.0
 44
0.0
 50
0.0
 51
0.0
 71
     0
 72
   100
 73
     1
 74
     3
 75
     0
 76
     0
 77
     0
 78
     2
  0
ENDTAB
  0
TABLE
  2
LTYPE
  5
18
330
0
100
AcDbSymbolTable
 70
     2
  0
LTYPE
  5
19
330
18
100
AcDbSymbolTableRecord
100
AcDbLinetypeTableRecord
  2
BYBLOCK
 70
     0
  3

 72
    65
 73
     0
 40
0.0
  0
LTYPE
  5
1A
330
18
100
AcDbSymbolTableRecord
100
AcDbLinetypeTableRecord
  2
BYLAYER
 70
     0
  3

 72
    65
 73
     0
 40
0.0
  0
LTYPE
  5
8
330
18
100
AcDbSymbolTableRecord
100
AcDbLinetypeTableRecord
  2
CONTINUOUS
 70
     0
  3
Solid line
 72
    65
 73
     0
 40
0.0
  0
LTYPE
  5
36
330
18
100
AcDbSymbolTableRecord
100
AcDbLinetypeTableRecord
  2
CENTER
 70
     0
  3
Center ____ _ ____ _ ____ _ ____ _ ____ _ ____
 72
    65
 73
     4
 40
50.8
 49
31.75
 74
     0
 49
-6.349999999999999
 74
     0
 49
6.349999999999999
 74
     0
 49
-6.349999999999999
 74
     0
  0
ENDTAB
  0
TABLE
  2
LAYER
  5
10
102
{ACAD_XDICTIONARY
360
11
102
}
330
0
100
AcDbSymbolTable
 70
     2
  0
LAYER
  5
4
330
10
100
AcDbSymbolTableRecord
100
AcDbLayerTableRecord
  2
0
 70
     0
 62
     7
  6
CONTINUOUS
  0
LAYER
  5
35
330
10
100
AcDbSymbolTableRecord
100
AcDbLayerTableRecord
  2
CENTER
 70
     0
 62
     1
  6
CENTER
  0
ENDTAB
  0
TABLE
  2
STYLE
  5
15
330
0
100
AcDbSymbolTable
 70
     3
  0
STYLE
  5
16
330
15
100
AcDbSymbolTableRecord
100
AcDbTextStyleTableRecord
  2
STANDARD
 70
     0
 40
0.0
 41
1.0
 50
0.0
 71
     0
 42
0.125
  3
txt
  4

  0
STYLE
  5
2A
330
15
100
AcDbSymbolTableRecord
100
AcDbTextStyleTableRecord
  2
CARTOUCHE
 70
     0
 40
0.0
 41
1.0
 50
0.0
 71
     0
 42
0.06
  3
romans.shx
  4

  0
STYLE
  5
23
330
15
100
AcDbSymbolTableRecord
100
AcDbTextStyleTableRecord
  2
ROMANS
 70
     0
 40
0.0
 41
1.0
 50
0.0
 71
     0
 42
1.0
  3
romans.shx
  4

  0
ENDTAB
  0
TABLE
  2
VIEW
  5
1B
330
0
100
AcDbSymbolTable
 70
     0
  0
ENDTAB
  0
TABLE
  2
UCS
  5
1C
330
0
100
AcDbSymbolTable
 70
     0
  0
ENDTAB
  0
TABLE
  2
APPID
  5
1F
330
0
100
AcDbSymbolTable
 70
     1
  0
APPID
  5
20
330
1F
100
AcDbSymbolTableRecord
100
AcDbRegAppTableRecord
  2
ACAD
 70
     0
  0
ENDTAB
  0
TABLE
  2
DIMSTYLE
  5
21
330
0
100
AcDbSymbolTable
 70
     1
  0
DIMSTYLE
105
22
330
21
100
AcDbSymbolTableRecord
100
AcDbDimStyleTableRecord
  2
STANDARD
 70
     0
  3
\X
  4
cm
  5

  6

  7

 40
16.0
 41
0.1
 42
0.0625
 43
0.25
 44
0.1
 45
0.0
 46
0.0
 47
0.0
 48
0.0
140
0.1
141
0.09
142
0.0
143
2.54
144
1.0
145
0.0
146
1.0
147
0.08
 71
     0
 72
     0
 73
     1
 74
     1
 75
     0
 76
     0
 77
     0
 78
     4
170
     1
171
     0
172
     0
173
     0
174
     0
175
     0
176
     0
177
     0
178
     0
270
     5
271
     3
272
     3
273
     2
274
     0
340
23
275
     0
280
     0
281
     0
282
     0
283
     1
284
     4
285
     4
286
     4
287
     1
288
     0
  0
ENDTAB
  0
TABLE
  2
BLOCK_RECORD
  5
1
330
0
100
AcDbSymbolTable
 70
     0
  0
BLOCK_RECORD
  5
2
102
{ACAD_XDICTIONARY
360
1DB
102
}
330
1
100
AcDbSymbolTableRecord
100
AcDbBlockTableRecord
  2
*MODEL_SPACE
  0
BLOCK_RECORD
  5
1D0
102
{ACAD_XDICTIONARY
360
1DD
102
}
330
1
100
AcDbSymbolTableRecord
100
AcDbBlockTableRecord
  2
*PAPER_SPACE
  0
ENDTAB
  0
ENDSEC
  0
SECTION
  2
BLOCKS
  0
BLOCK
  5
3
330
2
100
AcDbEntity
  8
0
100
AcDbBlockBegin
  2
*MODEL_SPACE
 70
     0
 10
0.0
 20
0.0
 30
0.0
  3
*MODEL_SPACE
  1

  0
ENDBLK
  5
9
330
2
100
AcDbEntity
  8
0
100
AcDbBlockEnd
  0
BLOCK
  5
1D2
330
1D0
100
AcDbEntity
 67
     1
  8
0
100
AcDbBlockBegin
  2
*PAPER_SPACE
 70
     0
 10
0.0
 20
0.0
 30
0.0
  3
*PAPER_SPACE
  1

  0
ENDBLK
  5
1D3
330
1D0
100
AcDbEntity
 67
     1
  8
0
100
AcDbBlockEnd
  0
ENDSEC
  0
SECTION
  2
ENTITIES
  0
CIRCLE
  5
2C
330
2
100
AcDbEntity
  8
0
 48
0.1
100
AcDbCircle
 10
-27.14661765085748
 20
16.71411616165039
 30
0.0
 40
1.89014635623478
  0
LINE
  5
2D
330
2
100
AcDbEntity
  8
0
 48
0.1
100
AcDbLine
 10
-27.30312788911485
 20
5.339218900728752
 30
0.0
 11
-68.71599902421016
 21
5.339218900728752
 31
0.0
  0
LINE
  5
2E
330
2
100
AcDbEntity
  8
0
 48
0.1
100
AcDbLine
 10
-27.30312788911485
 20
28.08911616165039
 30
0.0
 11
-68.71599902421016
 21
28.08911616165039
 31
0.0
  0
LINE
  5
2F
330
2
100
AcDbEntity
  8
0
 48
0.1
100
AcDbLine
 10
-25.96411672301364
 20
3.464116161650395
 30
0.0
 11
-74.10734671292904
 21
3.464116161650395
 31
0.0
  0
LINE
  5
30
330
2
100
AcDbEntity
  8
0
 48
0.1
100
AcDbLine
 10
-26.23905567502351
 20
4.089116161650395
 30
0.0
 11
-73.98317205891141
 21
4.089116161650395
 31
0.0
  0
LINE
  5
31
330
2
100
AcDbEntity
  8
0
 48
0.1
100
AcDbLine
 10
-26.23905567502351
 20
29.33911616165039
 30
0.0
 11
-73.98317205891141
 21
29.33911616165039
 31
0.0
  0
LINE
  5
32
330
2
100
AcDbEntity
  8
0
 48
0.1
100
AcDbLine
 10
-25.96411672301364
 20
29.96411616165039
 30
0.0
 11
-74.10734671292904
 21
29.96411616165039
 31
0.0
  0
LWPOLYLINE
  5
33
330
2
100
AcDbEntity
  8
0
 48
0.1
100
AcDbPolyline
 90
        4
 70
     1
 43
0.0
 10
-17.89661765085748
 20
-0.285883838349605
 10
-83.64661765085747
 20
-0.285883838349605
 10
-83.64661765085747
 20
33.71411616165039
 10
-17.89661765085748
 20
33.71411616165039
  0
LINE
  5
34
330
2
100
AcDbEntity
  8
CENTER
 48
0.05
100
AcDbLine
 10
-23.383422928171
 20
16.71411616165039
 30
0.0
 11
-30.90981237354395
 21
16.71411616165039
 31
0.0
  0
ARC
  5
1AB
330
2
100
AcDbEntity
  8
0
 48
0.1
100
AcDbCircle
 10
-68.7159990242104
 20
8.339218900729598
 30
0.0
 40
3.0
100
AcDbArc
 50
217.638459629209
 51
270.0000000000045
  0
ARC
  5
1AC
330
2
100
AcDbEntity
  8
0
 48
0.1
100
AcDbCircle
 10
-68.7159990242104
 20
25.08911616164954
 30
0.0
 40
3.0
100
AcDbArc
 50
89.99999999999554
 51
142.3615403707909
  0
SPLINE
  5
1AD
330
2
100
AcDbEntity
  8
0
 48
0.1
100
AcDbSpline
210
0.0
220
0.0
230
1.0
 70
     8
 71
     3
 72
    18
 73
    14
 74
     0
 42
0.0000000001
 43
0.0000000001
 40
0.0
 40
0.0
 40
0.0
 40
0.0
 40
1.640247685368579
 40
1.640247685368579
 40
3.771805474271753
 40
3.771805474271753
 40
5.903363263174928
 40
5.903363263174928
 40
10.16647884098127
 40
10.16647884098127
 40
11.64566868339024
 40
11.64566868339024
 40
12.47880744544175
 40
12.47880744544175
 40
12.47880744544175
 40
12.47880744544175
 10
-79.58411765085748
 20
16.71411616165039
 30
0.0
 10
-79.58411765085748
 20
17.26789781313557
 30
0.0
 10
-79.57243471032751
 20
17.82012856546615
 30
0.0
 10
-79.52343743064639
 20
19.08947083435521
 30
0.0
 10
-79.48189000895881
 20
19.80622267100702
 30
0.0
 10
-79.36176750628653
 20
21.2493980125341
 30
0.0
 10
-79.2803351928712
 20
21.97328317358213
 30
0.0
 10
-78.91974733587804
 20
24.12484662466576
 30
0.0
 10
-78.52967302997672
 20
25.5255849413437
 30
0.0
 10
-77.55795415564136
 20
27.33723193253823
 30
0.0
 10
-77.26619981474468
 20
27.79994812342028
 30
0.0
 10
-76.74470301729721
 20
28.49738006316041
 30
0.0
 10
-76.54401873303311
 20
28.74262965182701
 30
0.0
 10
-76.33126780499036
 20
28.9776143554119
 30
0.0
  0
SPLINE
  5
1AE
330
2
100
AcDbEntity
  8
0
 48
0.1
100
AcDbSpline
210
0.0
220
0.0
230
1.0
 70
     8
 71
     3
 72
    11
 73
     7
 74
     0
 42
0.0000000001
 43
0.0000000001
 40
0.0
 40
0.0
 40
0.0
 40
0.0
 40
2.838689721984456
 40
6.964709135339623
 40
10.854436581964
 40
11.96288184313129
 40
11.96288184313129
 40
11.96288184313129
 40
11.96288184313129
 10
-79.08411765085748
 20
16.71411616165039
 30
0.0
 10
-79.08411765085748
 20
17.66034606897854
 30
0.0
 10
-78.99935267102242
 20
19.97480691026145
 30
0.0
 10
-78.63972533147222
 20
23.62183492596995
 30
0.0
 10
-77.60879370744707
 20
26.43867149191602
 30
0.0
 10
-76.57257341402905
 20
27.90580131740244
 30
0.0
 10
-76.32254816118238
 20
28.21723209314222
 30
0.0
  0
SPLINE
  5
1AF
330
2
100
AcDbEntity
  8
0
 48
0.1
100
AcDbSpline
210
0.0
220
0.0
230
1.0
 70
     8
 71
     3
 72
    11
 73
     7
 74
     0
 42
0.0000000001
 43
0.0000000001
 40
0.0
 40
0.0
 40
0.0
 40
0.0
 40
3.228493884629176
 40
7.201376138627399
 40
10.42286495953719
 40
10.66779575624108
 40
10.66779575624108
 40
10.66779575624108
 40
10.66779575624108
 10
-73.54740548819108
 20
16.71421890072875
 30
0.0
 10
-73.54740548819108
 20
15.63805427251902
 30
0.0
 10
-73.47749084389874
 20
13.25269355041348
 30
0.0
 10
-72.9974929724207
 20
9.717601307559952
 30
0.0
 10
-71.8956892985922
 20
7.577869165014369
 30
0.0
 10
-71.14580837166281
 20
6.577431462442284
 30
0.0
 10
-71.09163874426879
 20
6.507188355001719
 30
0.0
  0
SPLINE
  5
1B0
330
2
100
AcDbEntity
  8
0
 48
0.1
100
AcDbSpline
210
0.0
220
0.0
230
1.0
 70
     8
 71
     3
 72
    18
 73
    14
 74
     0
 42
0.0000000001
 43
0.0000000001
 40
0.0
 40
0.0
 40
0.0
 40
0.0
 40
1.640247685368579
 40
1.640247685368579
 40
3.771805474271753
 40
3.771805474271753
 40
5.903363263174928
 40
5.903363263174928
 40
10.16647884098127
 40
10.16647884098127
 40
11.64566868339024
 40
11.64566868339024
 40
12.47880744544175
 40
12.47880744544175
 40
12.47880744544175
 40
12.47880744544175
 10
-79.58411765085748
 20
16.71411616165039
 30
0.0
 10
-79.58411765085748
 20
16.16033451016521
 30
0.0
 10
-79.57243471032751
 20
15.60810375783463
 30
0.0
 10
-79.52343743064639
 20
14.33876148894557
 30
0.0
 10
-79.48189000895881
 20
13.62200965229376
 30
0.0
 10
-79.36176750628653
 20
12.17883431076669
 30
0.0
 10
-79.2803351928712
 20
11.45494914971865
 30
0.0
 10
-78.91974733587804
 20
9.303385698635029
 30
0.0
 10
-78.52967302997672
 20
7.902647381957084
 30
0.0
 10
-77.55795415564136
 20
6.091000390762562
 30
0.0
 10
-77.26619981474468
 20
5.628284199880511
 30
0.0
 10
-76.74470301729721
 20
4.930852260140373
 30
0.0
 10
-76.54401873303311
 20
4.685602671473773
 30
0.0
 10
-76.33126780499036
 20
4.450617967888888
 30
0.0
  0
SPLINE
  5
1B1
330
2
100
AcDbEntity
  8
0
 48
0.1
100
AcDbSpline
210
0.0
220
0.0
230
1.0
 70
     8
 71
     3
 72
    11
 73
     7
 74
     0
 42
0.0000000001
 43
0.0000000001
 40
0.0
 40
0.0
 40
0.0
 40
0.0
 40
2.838689721984456
 40
6.964709135339623
 40
10.854436581964
 40
11.96288184313129
 40
11.96288184313129
 40
11.96288184313129
 40
11.96288184313129
 10
-79.08411765085748
 20
16.71411616165039
 30
0.0
 10
-79.08411765085748
 20
15.76788625432224
 30
0.0
 10
-78.99935267102242
 20
13.45342541303934
 30
0.0
 10
-78.63972533147222
 20
9.80639739733084
 30
0.0
 10
-77.60879370744707
 20
6.989560831384764
 30
0.0
 10
-76.57257341402905
 20
5.522431005898344
 30
0.0
 10
-76.32254816118238
 20
5.211000230158568
 30
0.0
  0
ARC
  5
1B2
330
2
100
AcDbEntity
  8
0
 48
0.1
100
AcDbCircle
 10
-74.10734671292892
 20
6.464116161650778
 30
0.0
 40
3.0
100
AcDbArc
 50
222.15712613689
 51
269.9999999999974
  0
ARC
  5
1B3
330
2
100
AcDbEntity
  8
0
 48
0.1
100
AcDbCircle
 10
-73.98317205891141
 20
7.089116161650373
 30
0.0
 40
3.0
100
AcDbArc
 50
218.7584618177964
 51
270.0
  0
SPLINE
  5
1B4
330
2
100
AcDbEntity
  8
0
 48
0.1
100
AcDbSpline
210
0.0
220
0.0
230
1.0
 70
     8
 71
     3
 72
    11
 73
     7
 74
     0
 42
0.0000000001
 43
0.0000000001
 40
0.0
 40
0.0
 40
0.0
 40
0.0
 40
3.228493884629176
 40
7.201376138627399
 40
10.42286495953719
 40
10.66779575624108
 40
10.66779575624108
 40
10.66779575624108
 40
10.66779575624108
 10
-73.54740548819108
 20
16.71411616165039
 30
0.0
 10
-73.54740548819108
 20
17.79028078986012
 30
0.0
 10
-73.47749084389874
 20
20.17564151196566
 30
0.0
 10
-72.9974929724207
 20
23.71073375481919
 30
0.0
 10
-71.8956892985922
 20
25.85046589736478
 30
0.0
 10
-71.14580837166281
 20
26.85090359993686
 30
0.0
 10
-71.09163874426879
 20
26.92114670737742
 30
0.0
  0
ARC
  5
1B5
330
2
100
AcDbEntity
  8
0
 48
0.1
100
AcDbCircle
 10
-73.98317205891141
 20
26.33911616165041
 30
0.0
 40
3.0
100
AcDbArc
 50
90.0
 51
141.2415381822036
  0
ARC
  5
1B6
330
2
100
AcDbEntity
  8
0
 48
0.1
100
AcDbCircle
 10
-74.10734671292892
 20
26.96411616165001
 30
0.0
 40
3.0
100
AcDbArc
 50
90.00000000000259
 51
137.8428738631099
  0
ARC
  5
1BB
330
2
100
AcDbEntity
  8
0
 48
0.1
100
AcDbCircle
 10
-27.30312788911486
 20
25.08911616165039
 30
0.0
 40
3.0
100
AcDbArc
 50
13.73068210154217
 51
89.99999999999998
  0
SPLINE
  5
1BC
330
2
100
AcDbEntity
  8
0
 48
0.1
100
AcDbSpline
210
0.0
220
0.0
230
1.0
 70
     8
 71
     3
 72
    16
 73
    12
 74
     0
 42
0.0000000001
 43
0.0000000001
 40
0.0
 40
0.0
 40
0.0
 40
0.0
 40
1.671217948740792
 40
1.671217948740792
 40
5.013653846222377
 40
5.013653846222377
 40
7.155914510236712
 40
7.155914510236712
 40
9.298175174251047
 40
9.298175174251047
 40
10.11955457414096
 40
10.11955457414096
 40
10.11955457414096
 40
10.11955457414096
 10
-21.89661765085748
 20
16.71411616165039
 30
0.0
 10
-21.89661765085748
 20
17.55860427098414
 30
0.0
 10
-21.89918332484938
 20
18.11596736197089
 30
0.0
 10
-21.92055389792833
 20
19.78831268199607
 30
0.0
 10
-21.95302576831144
 20
20.90357358531755
 30
0.0
 10
-22.06256111955213
 20
22.75123474367987
 30
0.0
 10
-22.11673277150095
 20
23.4755111676819
 30
0.0
 10
-22.27473739860478
 20
24.94882701643072
 30
0.0
 10
-22.38463079419751
 20
25.69540550540858
 30
0.0
 10
-22.65065571865386
 20
26.70839805343847
 30
0.0
 10
-22.77270451449275
 20
27.16506099163996
 30
0.0
 10
-23.22044783353696
 20
28.17749204111246
 30
0.0
  0
ARC
  5
1BD
330
2
100
AcDbEntity
  8
0
 48
0.1
100
AcDbCircle
 10
-26.23905567502375
 20
26.3391161616498
 30
0.0
 40
3.0
100
AcDbArc
 50
24.32767870860689
 51
89.99999999999554
  0
SPLINE
  5
1BE
330
2
100
AcDbEntity
  8
0
 48
0.1
100
AcDbSpline
210
0.0
220
0.0
230
1.0
 70
     8
 71
     3
 72
    14
 73
    10
 74
     0
 42
0.0000000001
 43
0.0000000001
 40
0.0
 40
0.0
 40
0.0
 40
0.0
 40
1.320344749255177
 40
1.320344749255177
 40
3.961034247765533
 40
3.961034247765533
 40
6.592351689391822
 40
6.592351689391822
 40
9.130165142374226
 40
9.130165142374226
 40
9.130165142374226
 40
9.130165142374226
 10
-23.80699219610826
 20
16.71421890072875
 30
0.0
 10
-23.80699219610826
 20
16.21964244422893
 30
0.0
 10
-23.80858171705637
 20
15.73885025142078
 30
0.0
 10
-23.82094318637375
 20
14.32911327951578
 30
0.0
 10
-23.83931869526921
 20
13.43291389348175
 30
0.0
 10
-23.91090091638198
 20
11.68230070511726
 30
0.0
 10
-23.96402002691959
 20
10.82687872882391
 30
0.0
 10
-24.11651628983472
 20
9.13727343530833
 30
0.0
 10
-24.21385815825112
 20
8.34336896759979
 30
0.0
 10
-24.38886143011782
 20
7.627143760055485
 30
0.0
  0
SPLINE
  5
1BF
330
2
100
AcDbEntity
  8
0
 48
0.1
100
AcDbSpline
210
0.0
220
0.0
230
1.0
 70
     8
 71
     3
 72
     9
 73
     5
 74
     0
 42
0.0000000001
 43
0.0000000001
 40
0.0
 40
0.0
 40
0.0
 40
0.0
 40
6.566837644364654
 40
10.64168297394725
 40
10.64168297394725
 40
10.64168297394725
 40
10.64168297394725
 10
-22.39661765085747
 20
16.71411616165039
 30
0.0
 10
-22.39661765085747
 20
14.2392864418459
 30
0.0
 10
-22.46066260682363
 20
10.73814948587654
 30
0.0
 10
-22.94225724460684
 20
7.098964698827632
 30
0.0
 10
-23.50544255288227
 20
5.85325237528411
 30
0.0
  0
SPLINE
  5
1C0
330
2
100
AcDbEntity
  8
0
 48
0.1
100
AcDbSpline
210
0.0
220
0.0
230
1.0
 70
     8
 71
     3
 72
    16
 73
    12
 74
     0
 42
0.0000000001
 43
0.0000000001
 40
0.0
 40
0.0
 40
0.0
 40
0.0
 40
1.671217948740792
 40
1.671217948740792
 40
5.013653846222377
 40
5.013653846222377
 40
7.155914510236712
 40
7.155914510236712
 40
9.298175174251047
 40
9.298175174251047
 40
10.11955457414096
 40
10.11955457414096
 40
10.11955457414096
 40
10.11955457414096
 10
-21.89661765085748
 20
16.71411616165039
 30
0.0
 10
-21.89661765085748
 20
15.86962805231664
 30
0.0
 10
-21.89918332484938
 20
15.3122649613299
 30
0.0
 10
-21.92055389792833
 20
13.63991964130471
 30
0.0
 10
-21.95302576831144
 20
12.52465873798323
 30
0.0
 10
-22.06256111955213
 20
10.67699757962091
 30
0.0
 10
-22.11673277150095
 20
9.952721155618888
 30
0.0
 10
-22.27473739860478
 20
8.479405306870066
 30
0.0
 10
-22.38463079419751
 20
7.73282681789221
 30
0.0
 10
-22.65065571865386
 20
6.719834269862317
 30
0.0
 10
-22.77270451449275
 20
6.263171331660828
 30
0.0
 10
-23.22044783353696
 20
5.250740282188331
 30
0.0
  0
ARC
  5
1C1
330
2
100
AcDbEntity
  8
0
 48
0.1
100
AcDbCircle
 10
-25.96411672303916
 20
6.464116161604501
 30
0.0
 40
3.0
100
AcDbArc
 50
270.0000000004875
 51
336.1427936592314
  0
ARC
  5
1C2
330
2
100
AcDbEntity
  8
0
 48
0.1
100
AcDbCircle
 10
-26.23905567502375
 20
7.089116161650988
 30
0.0
 40
3.0
100
AcDbArc
 50
270.0000000000045
 51
335.6723212913931
  0
ARC
  5
1C3
330
2
100
AcDbEntity
  8
0
 48
0.1
100
AcDbCircle
 10
-27.30312788911486
 20
8.339218900728752
 30
0.0
 40
3.0
100
AcDbArc
 50
270.0
 51
346.2693178984578
  0
SPLINE
  5
1C4
330
2
100
AcDbEntity
  8
0
 48
0.1
100
AcDbSpline
210
0.0
220
0.0
230
1.0
 70
     8
 71
     3
 72
    14
 73
    10
 74
     0
 42
0.0000000001
 43
0.0000000001
 40
0.0
 40
0.0
 40
0.0
 40
0.0
 40
1.320344749255177
 40
1.320344749255177
 40
3.961034247765533
 40
3.961034247765533
 40
6.592351689391822
 40
6.592351689391822
 40
9.130165142374226
 40
9.130165142374226
 40
9.130165142374226
 40
9.130165142374226
 10
-23.80699219610826
 20
16.71411616165039
 30
0.0
 10
-23.80699219610826
 20
17.20869261815021
 30
0.0
 10
-23.80858171705637
 20
17.68948481095836
 30
0.0
 10
-23.82094318637375
 20
19.09922178286336
 30
0.0
 10
-23.83931869526921
 20
19.99542116889739
 30
0.0
 10
-23.91090091638198
 20
21.74603435726188
 30
0.0
 10
-23.96402002691959
 20
22.60145633355523
 30
0.0
 10
-24.11651628983472
 20
24.29106162707082
 30
0.0
 10
-24.21385815825112
 20
25.08496609477935
 30
0.0
 10
-24.38886143011782
 20
25.80119130232366
 30
0.0
  0
SPLINE
  5
1C5
330
2
100
AcDbEntity
  8
0
 48
0.1
100
AcDbSpline
210
0.0
220
0.0
230
1.0
 70
     8
 71
     3
 72
     9
 73
     5
 74
     0
 42
0.0000000001
 43
0.0000000001
 40
0.0
 40
0.0
 40
0.0
 40
0.0
 40
6.566837644364654
 40
10.64168297394725
 40
10.64168297394725
 40
10.64168297394725
 40
10.64168297394725
 10
-22.39661765085747
 20
16.71411616165039
 30
0.0
 10
-22.39661765085747
 20
19.18894588145488
 30
0.0
 10
-22.46066260682363
 20
22.69008283742424
 30
0.0
 10
-22.94225724460684
 20
26.32926762447315
 30
0.0
 10
-23.50544255288227
 20
27.57497994801668
 30
0.0
  0
LINE
  5
1C6
330
2
100
AcDbEntity
  8
CENTER
 48
0.05
100
AcDbLine
 10
-27.14661765085748
 20
12.95092143896391
 30
0.0
 11
-27.14661765085748
 21
20.47731088433687
 31
0.0
  0
CIRCLE
  5
1C7
330
2
100
AcDbEntity
  8
0
 48
0.1
100
AcDbCircle
 10
-27.14661765085748
 20
16.71411616165039
 30
0.0
 40
1.25
  0
ARC
  5
1C8
330
2
100
AcDbEntity
  8
0
 48
0.1
100
AcDbCircle
 10
-25.96411672303916
 20
26.96411616169628
 30
0.0
 40
3.0
100
AcDbArc
 50
23.85720634076859
 51
89.99999999951246
  0
ENDSEC
  0
SECTION
  2
OBJECTS
  0
DICTIONARY
  5
7
330
0
100
AcDbDictionary
  3
ACAD_GROUP
350
27
  3
ACAD_LAYOUT
350
B
  3
ACAD_MLINESTYLE
350
28
  3
ACAD_PLOTSETTINGS
350
29
  3
ACAD_PLOTSTYLENAME
350
6
  3
ACDBHEADERROUNDTRIPXREC
350
2AF
  3
ACDBVARIABLEDICTIONARY
350
1C9
  0
DICTIONARY
  5
11
330
10
100
AcDbDictionary
280
     1
  3
ACAD_LAYERFILTERS
360
12
  0
DICTIONARY
  5
1DB
330
2
100
AcDbDictionary
280
     1
  3
ACAD_LAYOUTSELFREF
360
2D0
  0
DICTIONARY
  5
1DD
330
1D0
100
AcDbDictionary
280
     1
  3
ACAD_LAYOUTSELFREF
360
2D1
  0
DICTIONARY
  5
27
102
{ACAD_REACTORS
330
7
102
}
330
7
100
AcDbDictionary
  0
DICTIONARY
  5
B
102
{ACAD_REACTORS
330
7
102
}
330
7
100
AcDbDictionary
  0
DICTIONARY
  5
28
102
{ACAD_REACTORS
330
7
102
}
330
7
100
AcDbDictionary
  3
STANDARD
350
2B
  0
DICTIONARY
  5
29
102
{ACAD_REACTORS
330
7
102
}
330
7
100
AcDbDictionary
  0
ACDBDICTIONARYWDFLT
  5
6
102
{ACAD_REACTORS
330
7
102
}
330
7
100
AcDbDictionary
281
     1
  3
Normal
350
5
100
AcDbDictionaryWithDefault
340
5
  0
DICTIONARY
  5
2AF
102
{ACAD_REACTORS
330
7
102
}
330
7
100
AcDbDictionary
  3
CEPSNTYPE
350
2B9
  3
DIMSTYLEDATA
350
2BD
  3
FINGERPRINTGUID
350
2BA
  3
HYPERLINKBASE
350
2B2
  3
INSUNITS
350
2B8
  3
LAYOUTDICT
350
2B4
  3
LWETCUNION
350
2B7
  3
PLOTSETDICT
350
2B5
  3
PLOTSTYLNAMDICT
350
2B6
  3
PSVPSCALE
350
2BC
  3
PUCSBASE
350
2C0
  3
PUCSORGBACK
350
2C6
  3
PUCSORGBOTTOM
350
2C2
  3
PUCSORGFRONT
350
2C5
  3
PUCSORGLEFT
350
2C3
  3
PUCSORGRIGHT
350
2C4
  3
PUCSORGTOP
350
2C1
  3
PUCSORTHOREF
350
2BE
  3
PUCSORTHOVIEW
350
2BF
  3
STYLESHEET
350
2B3
  3
TSTACKALIGN
350
2B0
  3
TSTACKSIZE
350
2B1
  3
UCSBASE
350
2C9
  3
UCSORGBACK
350
2CF
  3
UCSORGBOTTOM
350
2CB
  3
UCSORGFRONT
350
2CE
  3
UCSORGLEFT
350
2CC
  3
UCSORGRIGHT
350
2CD
  3
UCSORGTOP
350
2CA
  3
UCSORTHOREF
350
2C7
  3
UCSORTHOVIEW
350
2C8
  3
VERSIONGUID
350
2BB
  0
DICTIONARY
  5
1C9
102
{ACAD_REACTORS
330
7
102
}
330
7
100
AcDbDictionary
  3
DIMASSOC
350
1CB
  3
HIDETEXT
350
1CA
  0
DICTIONARY
  5
12
102
{ACAD_REACTORS
330
11
102
}
330
11
100
AcDbDictionary
280
     1
  3
DIM-1_12
360
13
  3
DIM-1_16
360
14
  0
XRECORD
  5
2D0
102
{ACAD_REACTORS
330
1DB
102
}
330
1DB
100
AcDbXrecord
340
2
  0
XRECORD
  5
2D1
102
{ACAD_REACTORS
330
1DD
102
}
330
1DD
100
AcDbXrecord
340
1D0
  0
MLINESTYLE
  5
2B
102
{ACAD_REACTORS
330
28
102
}
330
28
100
AcDbMlineStyle
  2
STANDARD
 70
     0
  3

 62
   256
 51
90.0
 52
90.0
 71
     2
 49
0.5
 62
   256
  6
BYLAYER
 49
-0.5
 62
   256
  6
BYLAYER
  0
ACDBPLACEHOLDER
  5
5
102
{ACAD_REACTORS
330
6
102
}
330
6
100
AcDbPlaceHolder
280
     0
  0
XRECORD
  5
2B9
102
{ACAD_REACTORS
330
2AF
102
}
330
2AF
100
AcDbXrecord
 90
        0
  0
XRECORD
  5
2BD
102
{ACAD_REACTORS
330
2AF
102
}
330
2AF
100
AcDbXrecord
1000
DSTYLE
1002
{
1070
    79
 70
     1
1070
   276
 70
     1
1070
   277
 70
     5
1070
   289
 70
     1
1002
}
  0
XRECORD
  5
2BA
102
{ACAD_REACTORS
330
2AF
102
}
330
2AF
100
AcDbXrecord
  1
{6A4AC8E0-4F58-11D5-8420-0003476D26AB}
  0
XRECORD
  5
2B2
102
{ACAD_REACTORS
330
2AF
102
}
330
2AF
100
AcDbXrecord
  1

  0
XRECORD
  5
2B8
102
{ACAD_REACTORS
330
2AF
102
}
330
2AF
100
AcDbXrecord
 90
        1
  0
XRECORD
  5
2B4
102
{ACAD_REACTORS
330
2AF
102
}
330
2AF
100
AcDbXrecord
340
B
  0
XRECORD
  5
2B7
102
{ACAD_REACTORS
330
2AF
102
}
330
2AF
100
AcDbXrecord
 90
    10781
  0
XRECORD
  5
2B5
102
{ACAD_REACTORS
330
2AF
102
}
330
2AF
100
AcDbXrecord
340
29
  0
XRECORD
  5
2B6
102
{ACAD_REACTORS
330
2AF
102
}
330
2AF
100
AcDbXrecord
340
6
  0
XRECORD
  5
2BC
102
{ACAD_REACTORS
330
2AF
102
}
330
2AF
100
AcDbXrecord
 40
0.0
  0
XRECORD
  5
2C0
102
{ACAD_REACTORS
330
2AF
102
}
330
2AF
100
AcDbXrecord
340
0
  0
XRECORD
  5
2C6
102
{ACAD_REACTORS
330
2AF
102
}
330
2AF
100
AcDbXrecord
 10
0.0
 20
0.0
 30
0.0
  0
XRECORD
  5
2C2
102
{ACAD_REACTORS
330
2AF
102
}
330
2AF
100
AcDbXrecord
 10
0.0
 20
0.0
 30
0.0
  0
XRECORD
  5
2C5
102
{ACAD_REACTORS
330
2AF
102
}
330
2AF
100
AcDbXrecord
 10
0.0
 20
0.0
 30
0.0
  0
XRECORD
  5
2C3
102
{ACAD_REACTORS
330
2AF
102
}
330
2AF
100
AcDbXrecord
 10
0.0
 20
0.0
 30
0.0
  0
XRECORD
  5
2C4
102
{ACAD_REACTORS
330
2AF
102
}
330
2AF
100
AcDbXrecord
 10
0.0
 20
0.0
 30
0.0
  0
XRECORD
  5
2C1
102
{ACAD_REACTORS
330
2AF
102
}
330
2AF
100
AcDbXrecord
 10
0.0
 20
0.0
 30
0.0
  0
XRECORD
  5
2BE
102
{ACAD_REACTORS
330
2AF
102
}
330
2AF
100
AcDbXrecord
340
0
  0
XRECORD
  5
2BF
102
{ACAD_REACTORS
330
2AF
102
}
330
2AF
100
AcDbXrecord
 70
     0
  0
XRECORD
  5
2B3
102
{ACAD_REACTORS
330
2AF
102
}
330
2AF
100
AcDbXrecord
  1

  0
XRECORD
  5
2B0
102
{ACAD_REACTORS
330
2AF
102
}
330
2AF
100
AcDbXrecord
 90
        1
  0
XRECORD
  5
2B1
102
{ACAD_REACTORS
330
2AF
102
}
330
2AF
100
AcDbXrecord
 90
       70
  0
XRECORD
  5
2C9
102
{ACAD_REACTORS
330
2AF
102
}
330
2AF
100
AcDbXrecord
340
0
  0
XRECORD
  5
2CF
102
{ACAD_REACTORS
330
2AF
102
}
330
2AF
100
AcDbXrecord
 10
0.0
 20
0.0
 30
0.0
  0
XRECORD
  5
2CB
102
{ACAD_REACTORS
330
2AF
102
}
330
2AF
100
AcDbXrecord
 10
0.0
 20
0.0
 30
0.0
  0
XRECORD
  5
2CE
102
{ACAD_REACTORS
330
2AF
102
}
330
2AF
100
AcDbXrecord
 10
0.0
 20
0.0
 30
0.0
  0
XRECORD
  5
2CC
102
{ACAD_REACTORS
330
2AF
102
}
330
2AF
100
AcDbXrecord
 10
0.0
 20
0.0
 30
0.0
  0
XRECORD
  5
2CD
102
{ACAD_REACTORS
330
2AF
102
}
330
2AF
100
AcDbXrecord
 10
0.0
 20
0.0
 30
0.0
  0
XRECORD
  5
2CA
102
{ACAD_REACTORS
330
2AF
102
}
330
2AF
100
AcDbXrecord
 10
0.0
 20
0.0
 30
0.0
  0
XRECORD
  5
2C7
102
{ACAD_REACTORS
330
2AF
102
}
330
2AF
100
AcDbXrecord
340
0
  0
XRECORD
  5
2C8
102
{ACAD_REACTORS
330
2AF
102
}
330
2AF
100
AcDbXrecord
 70
     1
  0
XRECORD
  5
2BB
102
{ACAD_REACTORS
330
2AF
102
}
330
2AF
100
AcDbXrecord
  1
{4FDBF246-D4BD-4B1E-BBCA-78A221139152}
  0
DICTIONARYVAR
  5
1CB
102
{ACAD_REACTORS
330
1C9
102
}
330
1C9
100
DictionaryVariables
280
     0
  1
1
  0
DICTIONARYVAR
  5
1CA
102
{ACAD_REACTORS
330
1C9
102
}
330
1C9
100
DictionaryVariables
280
     0
  1
1
  0
XRECORD
  5
13
102
{ACAD_REACTORS
330
12
102
}
330
12
100
AcDbXrecord
  1
DIM-1_12
  1
DIM-1_12
  1
*
  1
*
 70
     0
  1
*
  1
*
  0
XRECORD
  5
14
102
{ACAD_REACTORS
330
12
102
}
330
12
100
AcDbXrecord
  1
dim-1_16
  1
*
  1
*
  1
*
 70
     0
  1
*
  1
*
  0
ENDSEC
  0
EOF
