  0
SECTION
  2
HEADER
  9
$ACADVER
  1
AC1014
  9
$ACADMAINTVER
 70
     0
  9
$DWGCODEPAGE
  3
ANSI_1252
  9
$INSBASE
 10
34.214648
 20
-53.088509
 30
0.0
  9
$EXTMIN
 10
18.706316
 20
-55.457446
 30
0.0
  9
$EXTMAX
 10
49.734857
 20
-32.710848
 30
0.0
  9
$LIMMIN
 10
0.0
 20
0.0
  9
$LIMMAX
 10
17.0
 20
11.0
  9
$ORTHOMODE
 70
     1
  9
$REGENMODE
 70
     1
  9
$FILLMODE
 70
     1
  9
$QTEXTMODE
 70
     0
  9
$MIRRTEXT
 70
     1
  9
$DRAGMODE
 70
     2
  9
$LTSCALE
 40
12.0
  9
$OSMODE
 70
    37
  9
$ATTMODE
 70
     1
  9
$TEXTSIZE
 40
1.0
  9
$TRACEWID
 40
0.05
  9
$TEXTSTYLE
  7
STANDARD
  9
$CLAYER
  8
0
  9
$CELTYPE
  6
BYLAYER
  9
$CECOLOR
 62
   256
  9
$CELTSCALE
 40
1.0
  9
$DELOBJ
 70
     1
  9
$DISPSILH
 70
     0
  9
$DIMSCALE
 40
16.0
  9
$DIMASZ
 40
0.1
  9
$DIMEXO
 40
0.0625
  9
$DIMDLI
 40
0.25
  9
$DIMRND
 40
0.0
  9
$DIMDLE
 40
0.0
  9
$DIMEXE
 40
0.1
  9
$DIMTP
 40
0.0
  9
$DIMTM
 40
0.0
  9
$DIMTXT
 40
0.1
  9
$DIMCEN
 40
0.09
  9
$DIMTSZ
 40
0.0
  9
$DIMTOL
 70
     0
  9
$DIMLIM
 70
     0
  9
$DIMTIH
 70
     1
  9
$DIMTOH
 70
     1
  9
$DIMSE1
 70
     0
  9
$DIMSE2
 70
     0
  9
$DIMTAD
 70
     0
  9
$DIMZIN
 70
     4
  9
$DIMBLK
  1

  9
$DIMASO
 70
     1
  9
$DIMSHO
 70
     1
  9
$DIMPOST
  1
\X
  9
$DIMAPOST
  1
cm
  9
$DIMALT
 70
     1
  9
$DIMALTD
 70
     1
  9
$DIMALTF
 40
2.54
  9
$DIMLFAC
 40
1.0
  9
$DIMTOFL
 70
     0
  9
$DIMTVP
 40
0.0
  9
$DIMTIX
 70
     0
  9
$DIMSOXD
 70
     0
  9
$DIMSAH
 70
     0
  9
$DIMBLK1
  1

  9
$DIMBLK2
  1

  9
$DIMSTYLE
  2
DIM-1_16
  9
$DIMCLRD
 70
     0
  9
$DIMCLRE
 70
     0
  9
$DIMCLRT
 70
     0
  9
$DIMTFAC
 40
1.0
  9
$DIMGAP
 40
0.08
  9
$DIMJUST
 70
     0
  9
$DIMSD1
 70
     0
  9
$DIMSD2
 70
     0
  9
$DIMTOLJ
 70
     1
  9
$DIMTZIN
 70
     4
  9
$DIMALTZ
 70
     4
  9
$DIMALTTZ
 70
     4
  9
$DIMFIT
 70
     1
  9
$DIMUPT
 70
     0
  9
$DIMUNIT
 70
     5
  9
$DIMDEC
 70
     3
  9
$DIMTDEC
 70
     3
  9
$DIMALTU
 70
     2
  9
$DIMALTTD
 70
     1
  9
$DIMTXSTY
  7
ROMANS
  9
$DIMAUNIT
 70
     0
  9
$LUNITS
 70
     2
  9
$LUPREC
 70
     4
  9
$SKETCHINC
 40
0.1
  9
$FILLETRAD
 40
0.0
  9
$AUNITS
 70
     0
  9
$AUPREC
 70
     0
  9
$MENU
  1
acad
  9
$ELEVATION
 40
0.0
  9
$PELEVATION
 40
0.0
  9
$THICKNESS
 40
0.0
  9
$LIMCHECK
 70
     0
  9
$BLIPMODE
 70
     0
  9
$CHAMFERA
 40
0.0
  9
$CHAMFERB
 40
0.0
  9
$CHAMFERC
 40
0.0
  9
$CHAMFERD
 40
0.0
  9
$SKPOLY
 70
     0
  9
$TDCREATE
 40
2444971.791666666
  9
$TDUPDATE
 40
2453689.693786909
  9
$TDINDWG
 40
0.4219447106
  9
$TDUSRTIMER
 40
0.4219447106
  9
$USRTIMER
 70
     1
  9
$ANGBASE
 50
0.0
  9
$ANGDIR
 70
     0
  9
$PDMODE
 70
     0
  9
$PDSIZE
 40
0.0
  9
$PLINEWID
 40
0.0
  9
$COORDS
 70
     1
  9
$SPLFRAME
 70
     0
  9
$SPLINETYPE
 70
     6
  9
$SPLINESEGS
 70
     8
  9
$ATTDIA
 70
     0
  9
$ATTREQ
 70
     1
  9
$HANDLING
 70
     1
  9
$HANDSEED
  5
10C
  9
$SURFTAB1
 70
     6
  9
$SURFTAB2
 70
     6
  9
$SURFTYPE
 70
     6
  9
$SURFU
 70
     6
  9
$SURFV
 70
     6
  9
$UCSNAME
  2

  9
$UCSORG
 10
0.0
 20
0.0
 30
0.0
  9
$UCSXDIR
 10
1.0
 20
0.0
 30
0.0
  9
$UCSYDIR
 10
0.0
 20
1.0
 30
0.0
  9
$PUCSNAME
  2

  9
$PUCSORG
 10
0.0
 20
0.0
 30
0.0
  9
$PUCSXDIR
 10
1.0
 20
0.0
 30
0.0
  9
$PUCSYDIR
 10
0.0
 20
1.0
 30
0.0
  9
$USERI1
 70
     0
  9
$USERI2
 70
     0
  9
$USERI3
 70
     0
  9
$USERI4
 70
     0
  9
$USERI5
 70
     0
  9
$USERR1
 40
0.0
  9
$USERR2
 40
0.0
  9
$USERR3
 40
0.0
  9
$USERR4
 40
0.0
  9
$USERR5
 40
0.0
  9
$WORLDVIEW
 70
     1
  9
$SHADEDGE
 70
     3
  9
$SHADEDIF
 70
    70
  9
$TILEMODE
 70
     1
  9
$MAXACTVP
 70
    16
  9
$PINSBASE
 10
0.0
 20
0.0
 30
0.0
  9
$PLIMCHECK
 70
     0
  9
$PEXTMIN
 10
-0.088121
 20
-0.150733
 30
-0.001526
  9
$PEXTMAX
 10
21.926473
 20
11.621875
 30
0.0
  9
$PLIMMIN
 10
-0.166667
 20
-0.25
  9
$PLIMMAX
 10
16.833333
 20
10.75
  9
$UNITMODE
 70
     0
  9
$VISRETAIN
 70
     0
  9
$PLINEGEN
 70
     1
  9
$PSLTSCALE
 70
     0
  9
$TREEDEPTH
 70
  3020
  9
$PICKSTYLE
 70
     1
  9
$CMLSTYLE
  2
STANDARD
  9
$CMLJUST
 70
     0
  9
$CMLSCALE
 40
1.0
  9
$PROXYGRAPHICS
 70
     1
  9
$MEASUREMENT
 70
     0
  0
ENDSEC
  0
SECTION
  2
CLASSES
  0
CLASS
  1
LWPOLYLINE
  2
AcDbPolyline
  3
"AutoCAD"
 90
        0
280
     0
281
     1
  0
CLASS
  1
IMAGE
  2
AcDbRasterImage
  3
ISM
 90
      127
280
     1
281
     1
  0
CLASS
  1
OLE2FRAME
  2
AcDbOle2Frame
  3
""
 90
        0
280
     0
281
     1
  0
CLASS
  1
HATCH
  2
AcDbHatch
  3
"ACAD_SEDONA"
 90
        0
280
     0
281
     1
  0
CLASS
  1
DICTIONARYVAR
  2
AcDbDictionaryVar
  3
"AutoCAD"
 90
        0
280
     0
281
     0
  0
CLASS
  1
RASTERVARIABLES
  2
AcDbRasterVariables
  3
ISM
 90
        0
280
     1
281
     0
  0
CLASS
  1
IMAGEDEF
  2
AcDbRasterImageDef
  3
ISM
 90
        0
280
     1
281
     0
  0
CLASS
  1
IMAGEDEF_REACTOR
  2
AcDbRasterImageDefReactor
  3
ISM
 90
        1
280
     1
281
     0
  0
CLASS
  1
IDBUFFER
  2
AcDbIdBuffer
  3
"Acad"
 90
        0
280
     0
281
     0
  0
CLASS
  1
SPATIAL_FILTER
  2
AcDbSpatialFilter
  3
"Acad"
 90
        0
280
     0
281
     0
  0
CLASS
  1
XRECORD
  2
AcDbXrecord
  3
"<Built In>"
 90
        0
280
     0
281
     0
  0
CLASS
  1
SORTENTSTABLE
  2
AcDbSortentsTable
  3
"AutoCAD"
 90
        0
280
     0
281
     0
  0
CLASS
  1
LAYER_INDEX
  2
AcDbLayerIndex
  3
"Acad"
 90
        0
280
     0
281
     0
  0
CLASS
  1
SPATIAL_INDEX
  2
AcDbSpatialIndex
  3
"Acad"
 90
        0
280
     0
281
     0
  0
CLASS
  1
OBJECT_PTR
  2
CAseDLPNTableRecord
  3
ASE-LPNTableRecord
 90
        1
280
     0
281
     0
  0
CLASS
  1
LAYOUT
  2
AcDbLayout
  3
AutoCAD 2000
 90
        0
280
     1
281
     0
  0
CLASS
  1
PLOTSETTINGS
  2
AcDbPlotSettings
  3
AutoCAD 2000
 90
        0
280
     1
281
     0
  0
CLASS
  1
ACDBDICTIONARYWDFLT
  2
AcDbDictionaryWithDefault
  3
AutoCAD 2000
 90
        0
280
     1
281
     0
  0
CLASS
  1
ACDBPLACEHOLDER
  2
AcDbPlaceHolder
  3
AutoCAD 2000
 90
        0
280
     1
281
     0
  0
CLASS
  1
VBA_PROJECT
  2
AcDbVbaProject
  3
acadvba
 90
        0
280
     1
281
     0
  0
CLASS
  1
WIPEOUT
  2
AcDbWipeout
  3
"WipeOut|Version(1.0.0.0) Product Desc: Object Enabler for WipeOut entity^I^I^I^I^I^I|Company: Autodesk, Inc.^I^I^I^I^I^I|WEB Address: www.autodesk.com"
 90
      127
280
     1
281
     1
  0
CLASS
  1
WIPEOUTVARIABLES
  2
AcDbWipeoutVariables
  3
WipeOut|AutoCAD Express Tool|expresstools@autodesk.com
 90
        0
280
     1
281
     0
  0
CLASS
  1
RTEXT
  2
RText
  3
RText|AutoCAD Express Tool|expresstools@autodesk.com
 90
        0
280
     1
281
     1
  0
CLASS
  1
ARCALIGNEDTEXT
  2
AcDbArcAlignedText
  3
ATEXT|AutoCAD Express Tool|expresstools@autodesk.com
 90
        0
280
     1
281
     1
  0
CLASS
  1
LONG_TRANSACTION
  2
AcDbLongTransaction
  3
AutoCAD 2000
 90
        0
280
     1
281
     0
  0
CLASS
  1
LWPOLYLINE
  2
AcDbPolyline
  3
"AutoCAD"
 90
        0
280
     0
281
     1
  0
CLASS
  1
HATCH
  2
AcDbHatch
  3
"ACAD_SEDONA"
 90
        0
280
     0
281
     1
  0
CLASS
  1
XRECORD
  2
AcDbXrecord
  3
"<Built In>"
 90
        0
280
     0
281
     0
  0
ENDSEC
  0
SECTION
  2
TABLES
  0
TABLE
  2
VPORT
  5
1C
100
AcDbSymbolTable
 70
     3
  0
VPORT
  5
10B
100
AcDbSymbolTableRecord
100
AcDbViewportTableRecord
  2
*ACTIVE
 70
     0
 10
0.0
 20
0.0
 11
1.0
 21
1.0
 12
34.220586
 22
-44.084148
 13
0.0
 23
0.0
 14
1.0
 24
1.0
 15
0.0
 25
0.0
 16
0.0
 26
0.0
 36
1.0
 17
0.0
 27
0.0
 37
0.0
 40
24.967175
 41
1.487748
 42
50.0
 43
0.0
 44
0.0
 50
0.0
 51
0.0
 71
     0
 72
   100
 73
     1
 74
     1
 75
     0
 76
     0
 77
     0
 78
     0
  0
ENDTAB
  0
TABLE
  2
LTYPE
  5
17
100
AcDbSymbolTable
 70
     3
  0
LTYPE
  5
18
100
AcDbSymbolTableRecord
100
AcDbLinetypeTableRecord
  2
BYBLOCK
 70
     0
  3

 72
    65
 73
     0
 40
0.0
  0
LTYPE
  5
19
100
AcDbSymbolTableRecord
100
AcDbLinetypeTableRecord
  2
BYLAYER
 70
     0
  3

 72
    65
 73
     0
 40
0.0
  0
LTYPE
  5
7
100
AcDbSymbolTableRecord
100
AcDbLinetypeTableRecord
  2
CONTINUOUS
 70
     0
  3
Solid line
 72
    65
 73
     0
 40
0.0
  0
LTYPE
  5
33
100
AcDbSymbolTableRecord
100
AcDbLinetypeTableRecord
  2
CENTER
 70
     0
  3
____ _ ____ _ ____ _ ____ _ ____ _ ____ _ ____
 72
    65
 73
     4
 40
0.6
 49
0.375
 74
     0
 49
-0.075
 74
     0
 49
0.075
 74
     0
 49
-0.075
 74
     0
  0
LTYPE
  5
2F
100
AcDbSymbolTableRecord
100
AcDbLinetypeTableRecord
  2
HIDDEN
 70
     0
  3
- - - - - - - - - - - - - - - - - - - -
 72
    65
 73
     2
 40
0.2
 49
0.1
 74
     0
 49
-0.1
 74
     0
  0
ENDTAB
  0
TABLE
  2
LAYER
  5
E
102
{ACAD_XDICTIONARY
360
F
102
}
100
AcDbSymbolTable
 70
     1
  0
LAYER
  5
6
100
AcDbSymbolTableRecord
100
AcDbLayerTableRecord
  2
0
 70
     0
 62
     7
  6
CONTINUOUS
  0
ENDTAB
  0
TABLE
  2
STYLE
  5
15
100
AcDbSymbolTable
 70
     2
  0
STYLE
  5
16
100
AcDbSymbolTableRecord
100
AcDbTextStyleTableRecord
  2
STANDARD
 70
     0
 40
0.0
 41
1.0
 50
0.0
 71
     0
 42
1.0
  3
txt
  4

  0
STYLE
  5
27
102
{ACAD_XDICTIONARY
360
28
102
}
100
AcDbSymbolTableRecord
100
AcDbTextStyleTableRecord
  2
ROMANS
 70
     0
 40
0.0
 41
1.0
 50
0.0
 71
     0
 42
1.0
  3
romans.shx
  4

  0
ENDTAB
  0
TABLE
  2
VIEW
  5
1A
100
AcDbSymbolTable
 70
     0
  0
ENDTAB
  0
TABLE
  2
UCS
  5
1B
100
AcDbSymbolTable
 70
     0
  0
ENDTAB
  0
TABLE
  2
APPID
  5
1E
100
AcDbSymbolTable
 70
     1
  0
APPID
  5
1F
100
AcDbSymbolTableRecord
100
AcDbRegAppTableRecord
  2
ACAD
 70
     0
  0
ENDTAB
  0
TABLE
  2
DIMSTYLE
  5
20
100
AcDbSymbolTable
 70
     1
  0
DIMSTYLE
105
2B
102
{ACAD_XDICTIONARY
360
2C
102
}
100
AcDbSymbolTableRecord
100
AcDbDimStyleTableRecord
  2
DIM-1_16
 70
     0
  3
\X
  4
cm
  5

  6

  7

 40
16.0
 41
0.1
 42
0.0625
 43
0.25
 44
0.1
 45
0.0
 46
0.0
 47
0.0
 48
0.0
140
0.1
141
0.09
142
0.0
143
2.54
144
1.0
145
0.0
146
1.0
147
0.08
 71
     0
 72
     0
 73
     1
 74
     1
 75
     0
 76
     0
 77
     0
 78
     4
170
     1
171
     1
172
     0
173
     0
174
     0
175
     0
176
     0
177
     0
178
     0
270
     5
271
     3
272
     3
273
     2
274
     1
340
27
275
     0
280
     0
281
     0
282
     0
283
     1
284
     4
285
     4
286
     4
287
     1
288
     0
  0
ENDTAB
  0
TABLE
  2
BLOCK_RECORD
  5
1
100
AcDbSymbolTable
 70
     0
  0
BLOCK_RECORD
  5
2
102
{ACAD_XDICTIONARY
360
3
102
}
100
AcDbSymbolTableRecord
100
AcDbBlockTableRecord
  2
*MODEL_SPACE
  0
BLOCK_RECORD
  5
9
102
{ACAD_XDICTIONARY
360
A
102
}
100
AcDbSymbolTableRecord
100
AcDbBlockTableRecord
  2
*PAPER_SPACE
  0
ENDTAB
  0
ENDSEC
  0
SECTION
  2
BLOCKS
  0
BLOCK
  5
5
100
AcDbEntity
  8
0
100
AcDbBlockBegin
  2
*MODEL_SPACE
 70
     0
 10
0.0
 20
0.0
 30
0.0
  3
*MODEL_SPACE
  1

  0
ENDBLK
  5
8
100
AcDbEntity
  8
0
100
AcDbBlockEnd
  0
BLOCK
  5
C
100
AcDbEntity
 67
     1
  8
0
100
AcDbBlockBegin
  2
*PAPER_SPACE
 70
     0
 10
0.0
 20
0.0
 30
0.0
  3
*PAPER_SPACE
  1

  0
ENDBLK
  5
D
100
AcDbEntity
 67
     1
  8
0
100
AcDbBlockEnd
  0
ENDSEC
  0
SECTION
  2
ENTITIES
  0
ARC
  5
2E
100
AcDbEntity
  8
0
  6
HIDDEN
 62
     9
100
AcDbCircle
 10
49.273408
 20
-33.338509
 30
0.0
 40
0.25
100
AcDbArc
 50
270.0
 51
350.99913
  0
LINE
  5
30
100
AcDbEntity
  8
0
100
AcDbLine
 10
20.0392
 20
-32.715073
 30
0.0
 11
49.714648
 21
-32.715073
 31
0.0
  0
LINE
  5
32
100
AcDbEntity
  8
0
  6
CENTER
 62
     1
100
AcDbLine
 10
34.214648
 20
-33.212771
 30
0.0
 11
34.214648
 21
-55.455503
 31
0.0
  0
LINE
  5
34
100
AcDbEntity
  8
0
  6
CONTINUOUS
100
AcDbLine
 10
44.730073
 20
-35.090073
 30
0.0
 11
43.12082
 21
-49.329058
 31
0.0
  0
SPLINE
  5
35
100
AcDbEntity
  8
0
  6
CONTINUOUS
100
AcDbSpline
210
0.0
220
0.0
230
1.0
 70
     8
 71
     3
 72
    10
 73
     6
 74
     4
 42
0.0000001
 43
0.0000001
 44
0.0000000001
 40
0.0
 40
0.0
 40
0.0
 40
0.0
 40
4.477776539814686
 40
9.956916760660776
 40
14.32981360124764
 40
14.32981360124764
 40
14.32981360124764
 40
14.32981360124764
 10
43.12083192064557
 20
-49.3290572174439
 30
0.0
 10
43.30145866707161
 20
-47.84741456584394
 30
0.0
 10
43.70310565926109
 20
-44.55279000835406
 30
0.0
 10
44.20872410768317
 20
-39.80291001105969
 30
0.0
 10
44.57009097469587
 20
-36.53884927150606
 30
0.0
 10
44.73048623317888
 20
-35.09007265744391
 30
0.0
 11
43.12083192064557
 21
-49.3290572174439
 31
0.0
 11
43.6525345563789
 21
-44.8829606094439
 31
0.0
 11
44.2520081403789
 21
-39.43671337104391
 31
0.0
 11
44.73048623317888
 21
-35.09007265744391
 31
0.0
  0
SPLINE
  5
36
100
AcDbEntity
  8
0
  6
CONTINUOUS
100
AcDbSpline
210
0.0
220
0.0
230
-1.0
 70
     8
 71
     3
 72
     9
 73
     5
 74
     3
 42
0.0000001
 43
0.0000001
 44
0.0000000001
 40
0.0
 40
0.0
 40
0.0
 40
0.0
 40
0.6063711645632378
 40
11.93578737516417
 40
11.93578737516417
 40
11.93578737516417
 40
11.93578737516417
 10
45.24628837824553
 20
-46.95324424784391
 30
0.0
 10
45.26716657340621
 20
-46.75220158413707
 30
0.0
 10
45.67813218783228
 20
-42.79488529408904
 30
0.0
 10
46.13091938299407
 20
-38.84206875996525
 30
0.0
 10
46.56070373048447
 20
-35.09006628944391
 30
0.0
 11
45.24628837824553
 21
-46.95324424784391
 31
0.0
 11
45.30903090197887
 21
-46.3501278702439
 31
0.0
 11
46.56070373048447
 21
-35.09006628944391
 31
0.0
  0
SPLINE
  5
37
100
AcDbEntity
  8
0
  6
CONTINUOUS
100
AcDbSpline
210
0.0
220
0.0
230
-1.0
 70
     8
 71
     3
 72
     9
 73
     5
 74
     3
 42
0.0000001
 43
0.0000001
 44
0.0000000001
 40
0.0
 40
0.0
 40
0.0
 40
0.0
 40
1.686937920756822
 40
11.93582649229221
 40
11.93582649229221
 40
11.93582649229221
 40
11.93582649229221
 10
45.24628750571221
 20
-46.95324493157723
 30
0.0
 10
45.30359926288314
 20
-46.39385888080581
 30
0.0
 10
45.70910510938962
 20
-42.43595695562949
 30
0.0
 10
46.16729416312923
 20
-38.48372255356373
 30
0.0
 10
46.56072553208446
 20
-35.0900731886439
 30
0.0
 11
45.24628750571221
 21
-46.95324493157723
 31
0.0
 11
45.41927513984555
 21
-45.27519998971057
 31
0.0
 11
46.56072553208446
 21
-35.0900731886439
 31
0.0
  0
LINE
  5
38
100
AcDbEntity
  8
0
  6
CONTINUOUS
100
AcDbLine
 10
23.699223
 20
-35.090073
 30
0.0
 11
25.308475
 21
-49.329058
 31
0.0
  0
SPLINE
  5
39
100
AcDbEntity
  8
0
  6
CONTINUOUS
100
AcDbSpline
210
0.0
220
0.0
230
-1.0
 70
     8
 71
     3
 72
    10
 73
     6
 74
     4
 42
0.0000001
 43
0.0000001
 44
0.0000000001
 40
0.0
 40
0.0
 40
0.0
 40
0.0
 40
4.372896397329794
 40
9.852036582720394
 40
14.32981360110891
 40
14.32981360110891
 40
14.32981360110891
 40
14.32981360110891
 10
23.69880931051223
 20
-35.09007265744391
 30
0.0
 10
23.85920455234215
 20
-36.53884912469618
 30
0.0
 10
24.22057140090678
 20
-39.80290970574939
 30
0.0
 10
24.72618985153924
 20
-44.55278970273288
 30
0.0
 10
25.12783685790924
 20
-47.84741440728971
 30
0.0
 10
25.3084636219789
 20
-49.3290572174439
 30
0.0
 11
23.69880931051223
 21
-35.09007265744391
 31
0.0
 11
24.17728735424556
 21
-39.43671293051057
 31
0.0
 11
24.77676093397889
 21
-44.88296013371058
 31
0.0
 11
25.3084636219789
 21
-49.3290572174439
 31
0.0
  0
SPLINE
  5
3A
100
AcDbEntity
  8
0
  6
CONTINUOUS
100
AcDbSpline
210
0.0
220
0.0
230
1.0
 70
     8
 71
     3
 72
     9
 73
     5
 74
     3
 42
0.0000001
 43
0.0000001
 44
0.0000000001
 40
0.0
 40
0.0
 40
0.0
 40
0.0
 40
1.779121114299923
 40
11.93583503765044
 40
11.93583503765044
 40
11.93583503765044
 40
11.93583503765044
 10
23.18300875051222
 20
-46.95324406437723
 30
0.0
 10
23.12263973176952
 20
-46.36328239519154
 30
0.0
 10
22.71763377500451
 20
-42.40532523008401
 30
0.0
 10
22.25892103979019
 20
-38.45314608089051
 30
0.0
 10
21.86858270067331
 20
-35.09006734651057
 30
0.0
 11
23.18300875051222
 21
-46.95324406437723
 31
0.0
 11
23.00070843584555
 21
-45.18348743291057
 31
0.0
 11
21.86858270067331
 21
-35.09006734651057
 31
0.0
  0
SPLINE
  5
3B
100
AcDbEntity
  8
0
  6
CONTINUOUS
100
AcDbSpline
210
0.0
220
0.0
230
1.0
 70
     8
 71
     3
 72
     9
 73
     5
 74
     3
 42
0.0000001
 43
0.0000001
 44
0.0000000001
 40
0.0
 40
0.0
 40
0.0
 40
0.0
 40
10.24913156327316
 40
11.93582648186563
 40
11.93582648186563
 40
11.93582648186563
 40
11.93582648186563
 10
21.86857001053999
 20
-35.0900731886439
 30
0.0
 10
22.26200952773445
 20
-38.48380314475599
 30
0.0
 10
22.72019720728086
 20
-42.43603769579019
 30
0.0
 10
23.12570435289298
 20
-46.39393948133132
 30
0.0
 10
23.18300803797889
 20
-46.95324493371057
 30
0.0
 11
21.86857001053999
 21
-35.0900731886439
 31
0.0
 11
23.01004497664556
 21
-45.27544174864391
 31
0.0
 11
23.18300803797889
 21
-46.95324493371057
 31
0.0
  0
ARC
  5
3C
100
AcDbEntity
  8
0
  6
CONTINUOUS
100
AcDbCircle
 10
25.989009
 20
-49.32851
 30
0.0
 40
2.509934
100
AcDbArc
 50
180.012512
 51
270.0
  0
SPLINE
  5
3D
100
AcDbEntity
  8
0
  6
CONTINUOUS
100
AcDbSpline
210
0.0
220
0.0
230
-1.0
 70
     8
 71
     3
 72
     9
 73
     5
 74
     3
 42
0.0000001
 43
0.0000001
 44
0.0000000001
 40
0.0
 40
0.0
 40
0.0
 40
0.0
 40
1.85505318648628
 40
2.35579201421633
 40
2.35579201421633
 40
2.35579201421633
 40
2.35579201421633
 10
23.47907537451221
 20
-49.32905779131057
 30
0.0
 10
23.39316021782493
 20
-48.71659858691081
 30
0.0
 10
23.284053782765
 20
-47.93881684282445
 30
0.0
 10
23.2040275007016
 20
-47.15761254626026
 30
0.0
 10
23.18701739691222
 20
-46.99156252091056
 30
0.0
 11
23.47907537451221
 21
-49.32905779131057
 31
0.0
 11
23.23936155691222
 21
-47.48955796517724
 31
0.0
 11
23.18701739691222
 21
-46.99156252091056
 31
0.0
  0
SPLINE
  5
3E
100
AcDbEntity
  8
0
  6
CONTINUOUS
100
AcDbSpline
210
-0.994572466308765
220
-0.1040461881113404
230
0.0
 70
    24
 71
     3
 72
     8
 73
     4
 74
     2
 42
0.0000001
 43
0.0000001
 44
0.0000000001
 40
0.0
 40
0.0
 40
0.0
 40
0.0
 40
0.0385275661969073
 40
0.0385275661969073
 40
0.0385275661969073
 40
0.0385275661969073
 10
23.18701739691222
 20
-46.99156252091056
 30
0.0
 10
23.18568118144555
 20
-46.97878970206612
 30
0.0
 10
23.18434496597889
 20
-46.96601688322168
 30
0.0
 10
23.18300875051222
 20
-46.95324406437723
 30
0.0
 11
23.18701739691222
 21
-46.99156252091056
 31
0.0
 11
23.18300875051222
 21
-46.95324406437723
 31
0.0
  0
SPLINE
  5
3F
100
AcDbEntity
  8
0
  6
CONTINUOUS
100
AcDbSpline
210
-0.9945723534141089
220
-0.1040472672602263
230
0.0
 70
    24
 71
     3
 72
     8
 73
     4
 74
     2
 42
0.0000001
 43
0.0000001
 44
0.0000000001
 40
0.0
 40
0.0
 40
0.0
 40
0.0
 40
0.0385126501206078
 40
0.0385126501206078
 40
0.0385126501206078
 40
0.0385126501206078
 10
23.18300803797889
 20
-46.95324493371057
 30
0.0
 10
23.18434374997889
 20
-46.96601280606612
 30
0.0
 10
23.18567946197889
 20
-46.97878067842167
 30
0.0
 10
23.18701517397889
 20
-46.99154855077724
 30
0.0
 11
23.18300803797889
 21
-46.95324493371057
 31
0.0
 11
23.18701517397889
 21
-46.99154855077724
 31
0.0
  0
ARC
  5
40
100
AcDbEntity
  8
0
  6
CONTINUOUS
100
AcDbCircle
 10
42.440286
 20
-49.32851
 30
0.0
 40
2.509934
100
AcDbArc
 50
270.0
 51
359.987488
  0
ARC
  5
41
100
AcDbEntity
  8
0
  6
CONTINUOUS
100
AcDbCircle
 10
40.610898
 20
-49.32851
 30
0.0
 40
2.509934
100
AcDbArc
 50
270.0
 51
359.9875
  0
ARC
  5
42
100
AcDbEntity
  8
0
  6
CONTINUOUS
100
AcDbCircle
 10
27.818398
 20
-49.32851
 30
0.0
 40
2.509934
100
AcDbArc
 50
180.0125
 51
270.0
  0
LINE
  5
43
100
AcDbEntity
  8
0
  6
CONTINUOUS
100
AcDbLine
 10
25.989009
 20
-51.838509
 30
0.0
 11
42.440286
 21
-51.838509
 31
0.0
  0
LINE
  5
44
100
AcDbEntity
  8
0
  6
CONTINUOUS
100
AcDbLine
 10
25.989009
 20
-51.838444
 30
0.0
 11
27.551619
 21
-51.838444
 31
0.0
  0
LINE
  5
45
100
AcDbEntity
  8
0
  6
CONTINUOUS
100
AcDbLine
 10
32.834887
 20
-53.088509
 30
0.0
 11
35.594409
 21
-53.088509
 31
0.0
  0
LINE
  5
46
100
AcDbEntity
  8
0
  6
CONTINUOUS
100
AcDbLine
 10
32.834387
 20
-53.088509
 30
0.0
 11
32.490637
 21
-51.838509
 31
0.0
  0
LINE
  5
47
100
AcDbEntity
  8
0
  6
CONTINUOUS
100
AcDbLine
 10
35.594908
 20
-53.088509
 30
0.0
 11
35.938658
 21
-51.838509
 31
0.0
  0
LINE
  5
48
100
AcDbEntity
  8
0
  6
CONTINUOUS
100
AcDbLine
 10
40.877676
 20
-51.838444
 30
0.0
 11
42.440286
 21
-51.838444
 31
0.0
  0
SPLINE
  5
49
100
AcDbEntity
  8
0
  6
CONTINUOUS
100
AcDbSpline
210
-0.9922845414195668
220
0.1239814052983758
230
0.0
 70
    24
 71
     3
 72
     8
 73
     4
 74
     2
 42
0.0000001
 43
0.0000001
 44
0.0000000001
 40
0.0
 40
0.0
 40
0.0
 40
0.0
 40
2.355689235525065
 40
2.355689235525065
 40
2.355689235525065
 40
2.355689235525065
 10
44.95022016811222
 20
-49.3290577870439
 30
0.0
 10
45.04757405540111
 20
-48.5498864494439
 30
0.0
 10
45.14492794268999
 20
-47.77071511184391
 30
0.0
 10
45.24228182997887
 20
-46.9915437742439
 30
0.0
 11
44.95022016811222
 21
-49.3290577870439
 31
0.0
 11
45.24228182997887
 21
-46.9915437742439
 31
0.0
  0
SPLINE
  5
4A
100
AcDbEntity
  8
0
  6
CONTINUOUS
100
AcDbSpline
210
-0.9945727827978441
220
0.1040431627631167
230
0.0
 70
    24
 71
     3
 72
     8
 73
     4
 74
     2
 42
0.0000001
 43
0.0000001
 44
0.0000000001
 40
0.0
 40
0.0
 40
0.0
 40
0.0
 40
0.0385085205049097
 40
0.0385085205049097
 40
0.0385085205049097
 40
0.0385085205049097
 10
45.24228182997887
 20
-46.9915437742439
 30
0.0
 10
45.24361734606777
 20
-46.9787772654439
 30
0.0
 10
45.24495286215665
 20
-46.96601075664391
 30
0.0
 10
45.24628837824553
 20
-46.95324424784391
 30
0.0
 11
45.24228182997887
 21
-46.9915437742439
 31
0.0
 11
45.24628837824553
 21
-46.95324424784391
 31
0.0
  0
SPLINE
  5
4B
100
AcDbEntity
  8
0
  6
CONTINUOUS
100
AcDbSpline
210
-0.9945723536404271
220
0.1040472650968845
230
0.0
 70
    24
 71
     3
 72
     8
 73
     4
 74
     2
 42
0.0000001
 43
0.0000001
 44
0.0000000001
 40
0.0
 40
0.0
 40
0.0
 40
0.0
 40
0.0385054644439115
 40
0.0385054644439115
 40
0.0385054644439115
 40
0.0385054644439115
 10
45.24228111744554
 20
-46.99154140197723
 30
0.0
 10
45.24361658020111
 20
-46.97877591184391
 30
0.0
 10
45.24495204295666
 20
-46.96601042171058
 30
0.0
 10
45.24628750571221
 20
-46.95324493157723
 30
0.0
 11
45.24228111744554
 21
-46.99154140197723
 31
0.0
 11
45.24628750571221
 21
-46.95324493157723
 31
0.0
  0
LINE
  5
4C
100
AcDbEntity
  8
0
  6
CONTINUOUS
100
AcDbLine
 10
18.714648
 20
-35.088509
 30
0.0
 11
18.918843
 21
-33.799396
 31
0.0
  0
SPLINE
  5
4D
100
AcDbEntity
  8
0
  6
HIDDEN
 62
     9
 48
0.5
100
AcDbSpline
210
0.0
220
0.0
230
1.0
 70
     8
 71
     3
 72
    15
 73
    11
 74
     9
 42
0.0000001
 43
0.0000001
 44
0.0000000001
 40
0.0
 40
0.0
 40
0.0
 40
0.0
 40
0.194396709195105
 40
0.4037122076426403
 40
0.639121126425196
 40
0.9078069478029517
 40
1.208269872396169
 40
1.536179842328078
 40
1.891246569954985
 40
2.158916874183577
 40
2.158916874183577
 40
2.158916874183577
 40
2.158916874183577
 10
25.46938108437889
 20
-36.36212331984391
 30
0.0
 10
25.46852195149947
 20
-36.42724678187574
 30
0.0
 10
25.46673775241068
 20
-36.56249154365727
 30
0.0
 10
25.39690628555678
 20
-36.76725176252668
 30
0.0
 10
25.27205362368183
 20
-36.97131385651509
 30
0.0
 10
25.08639279039101
 20
-37.16723593375876
 30
0.0
 10
24.84833207023593
 20
-37.34960069807413
 30
0.0
 10
24.5657458905039
 20
-37.51681832951156
 30
0.0
 10
24.27994480355006
 20
-37.65457416706825
 30
0.0
 10
24.08711198199979
 20
-37.73149573979545
 30
0.0
 10
24.00422688384556
 20
-37.7645588462439
 30
0.0
 11
25.46938108437889
 21
-36.36212331984391
 31
0.0
 11
25.45698977344557
 21
-36.55612470117723
 31
0.0
 11
25.39328013824555
 21
-36.7555089038439
 31
0.0
 11
25.27174816597889
 21
-36.95712075557724
 31
0.0
 11
25.08933471851221
 21
-37.15439570277724
 31
0.0
 11
24.85246017131223
 21
-37.3392427150439
 31
0.0
 11
24.57145632491223
 21
-37.50824504251057
 31
0.0
 11
24.25184495851222
 21
-37.6629090510439
 31
0.0
 11
24.00422688384556
 21
-37.7645588462439
 31
0.0
  0
SPLINE
  5
4E
100
AcDbEntity
  8
0
  6
HIDDEN
 62
     9
 48
0.5
100
AcDbSpline
210
0.0
220
0.0
230
-1.0
 70
     8
 71
     3
 72
    13
 73
     9
 74
     0
 42
0.0000001
 43
0.0000001
 40
0.0
 40
0.0
 40
0.0
 40
0.0
 40
0.0235821028530107
 40
0.236006711454257
 40
0.4266494643642545
 40
0.5915567747896895
 40
0.7274143272363385
 40
0.7953596843175826
 40
0.7953596843175826
 40
0.7953596843175826
 40
0.7953596843175826
 10
23.82864436757889
 20
-36.1739590094439
 30
0.0
 10
23.83647742437331
 20
-36.17461717571047
 30
0.0
 10
23.91486966895841
 20
-36.18120402070602
 30
0.0
 10
24.05630573358681
 20
-36.19670070791943
 30
0.0
 10
24.24331059346978
 20
-36.2267669817887
 30
0.0
 10
24.40334729551344
 20
-36.26233124075209
 30
0.0
 10
24.52116915881328
 20
-36.29756709657144
 30
0.0
 10
24.5848241599394
 20
-36.3216779168974
 30
0.0
 10
24.60569247783787
 20
-36.33049325193972
 30
0.0
  0
LINE
  5
4F
100
AcDbEntity
  8
0
  6
HIDDEN
 62
     9
 48
0.5
100
AcDbLine
 10
22.967356
 20
-36.949764
 30
0.0
 11
23.022579
 21
-36.789618
 31
0.0
  0
SPLINE
  5
50
100
AcDbEntity
  8
0
  6
HIDDEN
 62
     9
 48
0.5
100
AcDbSpline
210
0.0
220
0.0
230
1.0
 70
     8
 71
     3
 72
    15
 73
    11
 74
     9
 42
0.0000001
 43
0.0000001
 44
0.0000000001
 40
0.0
 40
0.0
 40
0.0
 40
0.0
 40
0.0386619624356955
 40
0.0743225372906104
 40
0.1058636493922457
 40
0.1324543504235589
 40
0.1535121461006081
 40
0.1687183528498085
 40
0.1780778083424676
 40
0.1821020961221682
 40
0.1821020961221682
 40
0.1821020961221682
 40
0.1821020961221682
 10
23.05570931797889
 20
-36.96568519077724
 30
0.0
 10
23.05486228589927
 20
-36.95282426424925
 30
0.0
 10
23.05323397814255
 20
-36.92810082469137
 30
0.0
 10
23.04989631966044
 20
-36.89297809759654
 30
0.0
 10
23.046128575925
 20
-36.86189936715234
 30
0.0
 10
23.04190965818791
 20
-36.83594093784874
 30
0.0
 10
23.03767072598316
 20
-36.81513387750939
 30
0.0
 10
23.03291544401078
 20
-36.80125634733659
 30
0.0
 10
23.0292693928678
 20
-36.79134076140561
 30
0.0
 10
23.02492293387272
 20
-36.78985703959624
 30
0.0
 10
23.02361601984554
 20
-36.78941090704391
 30
0.0
 11
23.05570931797889
 21
-36.96568519077724
 31
0.0
 11
23.05297476331222
 21
-36.92712005691057
 31
0.0
 11
23.04960288384555
 21
-36.89161925371057
 31
0.0
 11
23.04570543851221
 21
-36.86031986597724
 31
0.0
 11
23.0414047035789
 21
-36.83407926651057
 31
0.0
 11
23.03682624704556
 21
-36.81352522811057
 31
0.0
 11
23.03208672597889
 21
-36.79907650277724
 31
0.0
 11
23.02729810837889
 21
-36.79103482704391
 31
0.0
 11
23.02361601984554
 21
-36.78941090704391
 31
0.0
  0
LINE
  5
51
100
AcDbEntity
  8
0
  6
HIDDEN
 62
     9
 48
0.5
100
AcDbLine
 10
22.946471
 20
-36.47884
 30
0.0
 11
22.91558
 21
-37.496507
 31
0.0
  0
LWPOLYLINE
  5
52
100
AcDbEntity
  8
0
  6
HIDDEN
 62
     9
 48
0.5
100
AcDbPolyline
 90
       12
 70
     0
 43
0.0
 10
22.979726
 20
-36.470481
 10
23.010324
 20
-36.472902
 10
23.041592
 20
-36.559395
 10
23.07049
 20
-36.721531
 10
23.094212
 20
-36.943538
 10
23.11047
 20
-37.204042
 10
23.117668
 20
-37.477556
 10
23.115112
 20
-37.737676
 10
23.103043
 20
-37.959077
 10
23.08265
 20
-38.12012
 10
23.055888
 20
-38.205362
 10
23.024844
 20
-38.20569
  0
SPLINE
  5
53
100
AcDbEntity
  8
0
  6
HIDDEN
 62
     9
 48
0.5
100
AcDbSpline
210
0.0
220
0.0
230
1.0
 70
     8
 71
     3
 72
    19
 73
    15
 74
    13
 42
0.0000001
 43
0.0000001
 44
0.0000000001
 40
0.0
 40
0.0
 40
0.0
 40
0.0
 40
0.0827764907581408
 40
0.1848330673002246
 40
0.3494254135902662
 40
0.5752921261842924
 40
0.8420418189237345
 40
1.117798577691445
 40
1.38119104712726
 40
1.623801835214101
 40
1.844014529332313
 40
2.045397773843639
 40
2.203119772689323
 40
2.300668057490431
 40
2.300668057490431
 40
2.300668057490431
 40
2.300668057490431
 10
23.00502371264555
 20
-36.43984435451057
 30
0.0
 10
23.03156742616557
 20
-36.42483384688763
 30
0.0
 10
23.09083734619368
 20
-36.39131662309292
 30
0.0
 10
23.18747825562412
 20
-36.49111061061296
 30
0.0
 10
23.25433004519401
 20
-36.63283229873806
 30
0.0
 10
23.32371534512728
 20
-36.84465434229135
 30
0.0
 10
23.37897196323866
 20
-37.09383782723282
 30
0.0
 10
23.42182427699583
 20
-37.3594444479186
 30
0.0
 10
23.45014566875516
 20
-37.61863019756954
 30
0.0
 10
23.46409388788034
 20
-37.86006346705958
 30
0.0
 10
23.46573073314897
 20
-38.08271874935319
 30
0.0
 10
23.44632355599457
 20
-38.27209375897666
 30
0.0
 10
23.42293200208831
 20
-38.43031583714623
 30
0.0
 10
23.36139899705252
 20
-38.49145591076789
 30
0.0
 10
23.33788494357889
 20
-38.51481981051057
 30
0.0
 11
23.00502371264555
 21
-36.43984435451057
 31
0.0
 11
23.08302015637889
 21
-36.41212248251057
 31
0.0
 11
23.16468151744556
 21
-36.47333495611057
 31
0.0
 11
23.24392042624556
 21
-36.61759803451057
 31
0.0
 11
23.3159130331789
 21
-36.83168408357723
 31
0.0
 11
23.37586622251222
 21
-37.0916090990439
 31
0.0
 11
23.42009171691222
 21
-37.36379634277724
 31
0.0
 11
23.44856487424556
 21
-37.62564529211056
 31
0.0
 11
23.46239485824555
 21
-37.86786157157724
 31
0.0
 11
23.46164036757889
 21
-38.08807297317724
 31
0.0
 11
23.44285928064556
 21
-38.2885785390439
 31
0.0
 11
23.40135097131224
 21
-38.44074058811057
 31
0.0
 11
23.33788494357889
 21
-38.51481981051057
 31
0.0
  0
LWPOLYLINE
  5
54
100
AcDbEntity
  8
0
  6
HIDDEN
 62
     9
 48
0.5
100
AcDbPolyline
 90
        3
 70
     0
 43
0.0
 10
23.024844
 20
-38.20569
 10
22.994096
 20
-38.123293
 10
22.965045
 20
-37.964016
  0
LINE
  5
55
100
AcDbEntity
  8
0
  6
HIDDEN
 62
     9
 48
0.5
100
AcDbLine
 10
23.337885
 20
-38.51482
 30
0.0
 11
23.256513
 21
-38.499833
 31
0.0
  0
LINE
  5
56
100
AcDbEntity
  8
0
  6
HIDDEN
 62
     9
 48
0.5
100
AcDbLine
 10
23.256513
 20
-38.499833
 30
0.0
 11
23.185298
 21
-38.426339
 31
0.0
  0
SPLINE
  5
57
100
AcDbEntity
  8
0
  6
HIDDEN
 62
     9
 48
0.5
100
AcDbSpline
210
-0.8985939341671828
220
-0.4387812000051336
230
0.0
 70
    24
 71
     3
 72
     8
 73
     4
 74
     2
 42
0.0000001
 43
0.0000001
 44
0.0000000001
 40
0.0
 40
0.0
 40
0.0
 40
0.0
 40
0.0929160684175433
 40
0.0929160684175433
 40
0.0929160684175433
 40
0.0929160684175433
 10
23.16440529131223
 20
-38.4354701998439
 30
0.0
 10
23.1508153499789
 20
-38.40763892802168
 30
0.0
 10
23.13722540864556
 20
-38.37980765619946
 30
0.0
 10
23.12363546731222
 20
-38.35197638437723
 30
0.0
 11
23.16440529131223
 21
-38.4354701998439
 31
0.0
 11
23.12363546731222
 21
-38.35197638437723
 31
0.0
  0
LINE
  5
58
100
AcDbEntity
  8
0
  6
HIDDEN
 62
     9
 48
0.5
100
AcDbLine
 10
23.185298
 20
-38.426339
 30
0.0
 11
23.024835
 21
-38.205679
 31
0.0
  0
LWPOLYLINE
  5
59
100
AcDbEntity
  8
0
  6
HIDDEN
 62
     9
 48
0.5
100
AcDbPolyline
 90
        8
 70
     0
 43
0.0
 10
22.967356
 20
-36.949764
 10
22.959618
 20
-36.982777
 10
22.95335
 20
-37.032135
 10
22.948867
 20
-37.095365
 10
22.946393
 20
-37.169296
 10
22.946053
 20
-37.25022
 10
22.947864
 20
-37.33408
 10
22.951735
 20
-37.41667
  0
LWPOLYLINE
  5
5A
100
AcDbEntity
  8
0
  6
HIDDEN
 62
     9
 48
0.5
100
AcDbPolyline
 90
       10
 70
     0
 43
0.0
 10
23.00388
 20
-37.405986
 10
23.001581
 20
-37.357837
 10
23.000401
 20
-37.308842
 10
23.000389
 20
-37.261145
 10
23.001546
 20
-37.216828
 10
23.003823
 20
-37.17783
 10
23.007119
 20
-37.145853
 10
23.01129
 20
-37.122297
 10
23.016154
 20
-37.108191
 10
23.020842
 20
-37.104095
  0
LWPOLYLINE
  5
5B
100
AcDbEntity
  8
0
  6
HIDDEN
 62
     9
 48
0.5
100
AcDbPolyline
 90
        8
 70
     0
 43
0.0
 10
23.020842
 20
-37.104095
 10
23.021499
 20
-37.10415
 10
23.027091
 20
-37.110352
 10
23.032685
 20
-37.126526
 10
23.038037
 20
-37.151964
 10
23.042913
 20
-37.185555
 10
23.047101
 20
-37.225831
 10
23.050416
 20
-37.271031
  0
LINE
  5
5C
100
AcDbEntity
  8
0
  6
HIDDEN
 62
     9
 48
0.5
100
AcDbLine
 10
23.085407
 20
-37.459551
 30
0.0
 11
23.055709
 21
-36.965685
 31
0.0
  0
LINE
  5
5D
100
AcDbEntity
  8
0
  6
HIDDEN
 62
     9
 48
0.5
100
AcDbLine
 10
23.619098
 20
-37.891105
 30
0.0
 11
23.969912
 21
-37.765164
 31
0.0
  0
SPLINE
  5
5E
100
AcDbEntity
  8
0
  6
HIDDEN
 62
     9
 48
0.5
100
AcDbSpline
210
0.0
220
0.0
230
1.0
 70
     8
 71
     3
 72
     9
 73
     5
 74
     3
 42
0.0000001
 43
0.0000001
 44
0.0000000001
 40
0.0
 40
0.0
 40
0.0
 40
0.0
 40
0.1045668869706209
 40
0.4193261839390962
 40
0.4193261839390962
 40
0.4193261839390962
 40
0.4193261839390962
 10
23.99423363477889
 20
-37.76839469797723
 30
0.0
 10
23.96162793623052
 20
-37.78072041459525
 30
0.0
 10
23.8308750416665
 20
-37.8301480667276
 30
0.0
 10
23.69809795613091
 20
-37.87391670040845
 30
0.0
 10
23.59843133931221
 20
-37.90677080037724
 30
0.0
 11
23.99423363477889
 21
-37.76839469797723
 31
0.0
 11
23.89629066517889
 21
-37.80501994277724
 31
0.0
 11
23.59843133931221
 21
-37.90677080037724
 31
0.0
  0
LINE
  5
5F
100
AcDbEntity
  8
0
  6
HIDDEN
 62
     9
 48
0.5
100
AcDbLine
 10
23.59559
 20
-37.907293
 30
0.0
 11
23.598386
 21
-37.906769
 31
0.0
  0
SPLINE
  5
60
100
AcDbEntity
  8
0
  6
HIDDEN
 62
     9
 48
0.5
100
AcDbSpline
210
0.0
220
0.0
230
1.0
 70
     8
 71
     3
 72
    11
 73
     7
 74
     5
 42
0.0000001
 43
0.0000001
 44
0.0000000001
 40
0.0
 40
0.0
 40
0.0
 40
0.0
 40
0.0209826328236583
 40
0.0301983842191378
 40
0.0337129426431954
 40
0.0339177064319377
 40
0.0339177064319377
 40
0.0339177064319377
 40
0.0339177064319377
 10
23.61909825877889
 20
-37.8911050126439
 30
0.0
 10
23.61357369780594
 20
-37.89312040439904
 30
0.0
 10
23.60562270250877
 20
-37.89602097341179
 30
0.0
 10
23.590049238653
 20
-37.90336716542928
 30
0.0
 10
23.5943285619561
 20
-37.90696187144073
 30
0.0
 10
23.59550513385231
 20
-37.90733759980525
 30
0.0
 10
23.59556990891224
 20
-37.90735828517723
 30
0.0
 11
23.61909825877889
 21
-37.8911050126439
 31
0.0
 11
23.59962838464555
 21
-37.89892772837724
 31
0.0
 11
23.59270459264556
 21
-37.90500976571057
 31
0.0
 11
23.5953754203789
 21
-37.9072942350439
 31
0.0
 11
23.59556990891224
 21
-37.90735828517723
 31
0.0
  0
SPLINE
  5
61
100
AcDbEntity
  8
0
  6
HIDDEN
 62
     9
 48
0.5
100
AcDbSpline
210
-0.3583518946309727
220
0.9335865892430078
230
0.0
 70
    24
 71
     3
 72
     8
 73
     4
 74
     2
 42
0.0000001
 43
0.0000001
 44
0.0000000001
 40
0.0
 40
0.0
 40
0.0
 40
0.0
 40
0.0107041480477675
 40
0.0107041480477675
 40
0.0107041480477675
 40
0.0107041480477675
 10
24.00422688384556
 20
-37.7645588462439
 30
0.0
 10
24.00089580082333
 20
-37.76583746348835
 30
0.0
 10
23.99756471780111
 20
-37.76711608073279
 30
0.0
 10
23.99423363477889
 20
-37.76839469797723
 30
0.0
 11
24.00422688384556
 21
-37.7645588462439
 31
0.0
 11
23.99423363477889
 21
-37.76839469797723
 31
0.0
  0
LWPOLYLINE
  5
62
100
AcDbEntity
  8
0
  6
HIDDEN
 62
     9
 48
0.5
100
AcDbPolyline
 90
        7
 70
     0
 43
0.0
 10
22.966127
 20
-37.656003
 10
22.971864
 20
-37.733183
 10
22.979179
 20
-37.801081
 10
22.987705
 20
-37.856294
 10
22.997015
 20
-37.896053
 10
23.006642
 20
-37.918363
 10
23.013432
 20
-37.922946
  0
LWPOLYLINE
  5
63
100
AcDbEntity
  8
0
  6
HIDDEN
 62
     9
 48
0.5
100
AcDbPolyline
 90
        3
 70
     0
 43
0.0
 10
23.013432
 20
-37.922946
 10
23.016103
 20
-37.922107
 10
23.024924
 20
-37.907097
  0
SPLINE
  5
64
100
AcDbEntity
  8
0
  6
HIDDEN
 62
     9
 48
0.5
100
AcDbSpline
210
-0.9965625980200664
220
-0.0828431543791967
230
0.0
 70
    24
 71
     3
 72
     8
 73
     4
 74
     2
 42
0.0000001
 43
0.0000001
 44
0.0000000001
 40
0.0
 40
0.0
 40
0.0
 40
0.0
 40
0.0315408430898139
 40
0.0315408430898139
 40
0.0315408430898139
 40
0.0315408430898139
 10
22.9410545979789
 20
-37.74402864677723
 30
0.0
 10
22.94018361700112
 20
-37.73355117193279
 30
0.0
 10
22.93931263602334
 20
-37.72307369708835
 30
0.0
 10
22.93844165504556
 20
-37.71259622224391
 30
0.0
 11
22.9410545979789
 21
-37.74402864677723
 31
0.0
 11
22.93844165504556
 21
-37.71259622224391
 31
0.0
  0
SPLINE
  5
65
100
AcDbEntity
  8
0
  6
HIDDEN
 62
     9
 48
0.5
100
AcDbSpline
210
0.0
220
0.0
230
-1.0
 70
     8
 71
     3
 72
     9
 73
     5
 74
     3
 42
0.0000001
 43
0.0000001
 44
0.0000000001
 40
0.0
 40
0.0
 40
0.0
 40
0.0
 40
0.0295462380552419
 40
0.0571555822139575
 40
0.0571555822139575
 40
0.0571555822139575
 40
0.0571555822139575
 10
22.93844165504556
 20
-37.71259622224391
 30
0.0
 10
22.9376461946582
 20
-37.70277964487862
 30
0.0
 10
22.93610742002698
 20
-37.68379001264145
 30
0.0
 10
22.93463081515199
 20
-37.66479544620846
 30
0.0
 10
22.93391753237888
 20
-37.6556200078439
 30
0.0
 11
22.93844165504556
 21
-37.71259622224391
 31
0.0
 11
22.93607188757889
 21
-37.68314517157723
 31
0.0
 11
22.93391753237888
 21
-37.6556200078439
 31
0.0
  0
LINE
  5
66
100
AcDbEntity
  8
0
  6
HIDDEN
 62
     9
 48
0.5
100
AcDbLine
 10
23.024924
 20
-37.907097
 30
0.0
 11
23.080147
 21
-37.74695
 31
0.0
  0
LINE
  5
67
100
AcDbEntity
  8
0
  6
HIDDEN
 62
     9
 48
0.5
100
AcDbLine
 10
23.595681
 20
-37.90729
 30
0.0
 11
23.013425
 21
-37.922961
 31
0.0
  0
LINE
  5
68
100
AcDbEntity
  8
0
  6
HIDDEN
 62
     9
 48
0.5
100
AcDbLine
 10
23.619098
 20
-37.891105
 30
0.0
 11
23.024924
 21
-37.907097
 31
0.0
  0
LINE
  5
69
100
AcDbEntity
  8
0
  6
HIDDEN
 62
     9
 48
0.5
100
AcDbLine
 10
22.965045
 20
-37.964016
 30
0.0
 11
22.941055
 21
-37.744029
 31
0.0
  0
SPLINE
  5
6A
100
AcDbEntity
  8
0
  6
HIDDEN
 62
     9
 48
0.5
100
AcDbSpline
210
0.0
220
0.0
230
1.0
 70
     8
 71
     3
 72
    15
 73
    11
 74
     9
 42
0.0000001
 43
0.0000001
 44
0.0000000001
 40
0.0
 40
0.0
 40
0.0
 40
0.0
 40
0.0246026956874787
 40
0.0541766445686988
 40
0.0879698042256322
 40
0.1251465179425076
 40
0.1647867870885782
 40
0.2058741818647853
 40
0.2473148578477405
 40
0.2878569433205367
 40
0.2878569433205367
 40
0.2878569433205367
 40
0.2878569433205367
 10
23.08014723371223
 20
-37.7469500142439
 30
0.0
 10
23.08128107858134
 20
-37.73882636576284
 30
0.0
 10
23.08377787451174
 20
-37.72093759365631
 30
0.0
 10
23.08610646132652
 20
-37.6916932191194
 30
0.0
 10
23.08793382770392
 20
-37.65822813211159
 30
0.0
 10
23.08898552427771
 20
-37.62136857785195
 30
0.0
 10
23.08929703072954
 20
-37.58206599211662
 30
0.0
 10
23.08880878767544
 20
-37.54134415389309
 30
0.0
 10
23.08761085189225
 20
-37.50033442546703
 30
0.0
 10
23.08613645312348
 20
-37.47304576178251
 30
0.0
 10
23.08540733397889
 20
-37.45955098171057
 30
0.0
 11
23.08014723371223
 21
-37.7469500142439
 31
0.0
 11
23.08332960811222
 21
-37.7225540078439
 31
0.0
 11
23.08588028011223
 21
-37.69309025851057
 31
0.0
 11
23.08773287637889
 21
-37.6593479182439
 31
0.0
 11
23.08883856384557
 21
-37.62218765051057
 31
0.0
 11
23.0891639899789
 21
-37.58254871717724
 31
0.0
 11
23.08869283904556
 21
-37.54146402384391
 31
0.0
 11
23.08742927851223
 21
-37.5000426158439
 31
0.0
 11
23.08540733397889
 21
-37.45955098171057
 31
0.0
  0
LWPOLYLINE
  5
6B
100
AcDbEntity
  8
0
  6
HIDDEN
 62
     9
 48
0.5
100
AcDbPolyline
 90
        3
 70
     0
 43
0.0
 10
22.963803
 20
-37.617353
 10
24.041533
 20
-37.255291
 10
24.285933
 20
-37.156794
  0
LWPOLYLINE
  5
6C
100
AcDbEntity
  8
0
  6
HIDDEN
 62
     9
 48
0.5
100
AcDbPolyline
 90
       10
 70
     0
 43
0.0
 10
23.616187
 20
-35.377596
 10
23.611499
 20
-35.381691
 10
23.606635
 20
-35.395798
 10
23.602463
 20
-35.419354
 10
23.599167
 20
-35.45133
 10
23.596891
 20
-35.490328
 10
23.595733
 20
-35.534645
 10
23.595745
 20
-35.582342
 10
23.596926
 20
-35.631337
 10
23.599224
 20
-35.679486
  0
LWPOLYLINE
  5
6D
100
AcDbEntity
  8
0
  6
HIDDEN
 62
     9
 48
0.5
100
AcDbPolyline
 90
        8
 70
     0
 43
0.0
 10
23.645761
 20
-35.544532
 10
23.642445
 20
-35.499331
 10
23.638258
 20
-35.459055
 10
23.633382
 20
-35.425464
 10
23.62803
 20
-35.400026
 10
23.622435
 20
-35.383852
 10
23.616844
 20
-35.37765
 10
23.616187
 20
-35.377596
  0
LINE
  5
6E
100
AcDbEntity
  8
0
  6
HIDDEN
 62
     9
 48
0.5
100
AcDbLine
 10
23.697905
 20
-35.533847
 30
0.0
 11
23.683513
 21
-35.294514
 31
0.0
  0
SPLINE
  5
6F
100
AcDbEntity
  8
0
  6
CONTINUOUS
100
AcDbSpline
210
0.0
220
0.0
230
1.0
 70
     8
 71
     3
 72
     9
 73
     5
 74
     3
 42
0.0000001
 43
0.0000001
 44
0.0000000001
 40
0.0
 40
0.0
 40
0.0
 40
0.0
 40
0.23744976626344
 40
0.5181508774244649
 40
0.5181508774244649
 40
0.5181508774244649
 40
0.5181508774244649
 10
23.38972037184555
 20
-35.58965290384391
 30
0.0
 10
23.41774287489186
 20
-35.51539003094376
 30
0.0
 10
23.47889216456927
 20
-35.353337343511
 30
0.0
 10
23.50449118172529
 20
-35.18192380160449
 30
0.0
 10
23.51835909717888
 20
-35.08906287291057
 30
0.0
 11
23.38972037184555
 21
-35.58965290384391
 31
0.0
 11
23.46632212224557
 21
-35.3648984526439
 31
0.0
 11
23.51835909717888
 21
-35.08906287291057
 31
0.0
  0
SPLINE
  5
70
100
AcDbEntity
  8
0
  6
HIDDEN
 62
     9
 48
0.5
100
AcDbSpline
210
0.0
220
0.0
230
-1.0
 70
     8
 71
     3
 72
    15
 73
    11
 74
     9
 42
0.0000001
 43
0.0000001
 44
0.0000000001
 40
0.0
 40
0.0
 40
0.0
 40
0.0
 40
0.0246025253047153
 40
0.0541760834007226
 40
0.0879687721245729
 40
0.1251451963440613
 40
0.1647855542481677
 40
0.2058733658923823
 40
0.2473145420394982
 40
0.2878569445564307
 40
0.2878569445564307
 40
0.2878569445564307
 40
0.2878569445564307
 10
23.56949305451223
 20
-35.20356761317724
 30
0.0
 10
23.56835921591793
 20
-35.21169120517403
 30
0.0
 10
23.56586244237592
 20
-35.22957979149113
 30
0.0
 10
23.56353386942739
 20
-35.25882382164559
 30
0.0
 10
23.56170649996911
 20
-35.29228852418956
 30
0.0
 10
23.56065478638925
 20
-35.32914785394847
 30
0.0
 10
23.56034325164204
 20
-35.36845051153049
 30
0.0
 10
23.56083148050982
 20
-35.40917268529036
 30
0.0
 10
23.56202941663524
 20
-35.45018282535714
 30
0.0
 10
23.56350382891763
 20
-35.47747176113539
 30
0.0
 10
23.56423295317888
 20
-35.49096664677724
 30
0.0
 11
23.56949305451223
 21
-35.20356761317724
 31
0.0
 11
23.56631069717889
 21
-35.22796344997724
 31
0.0
 11
23.56376004651221
 21
-35.25742680891057
 31
0.0
 11
23.56190745344555
 21
-35.29116867771057
 31
0.0
 11
23.56080174891224
 21
-35.32832865531057
 31
0.0
 11
23.56047629504556
 21
-35.36796767717724
 31
0.0
 11
23.56094743104554
 21
-35.40905278757723
 31
0.0
 11
23.56221099584556
 21
-35.45047469584391
 31
0.0
 11
23.56423295317888
 21
-35.49096664677724
 31
0.0
  0
SPLINE
  5
71
100
AcDbEntity
  8
0
  6
CONTINUOUS
100
AcDbSpline
210
-0.8704420257683265
220
-0.4922709414299532
230
0.0
 70
    24
 71
     3
 72
     8
 73
     4
 74
     2
 42
0.0000001
 43
0.0000001
 44
0.0000000001
 40
0.0
 40
0.0
 40
0.0
 40
0.0
 40
0.1141343176519687
 40
0.1141343176519687
 40
0.1141343176519687
 40
0.1141343176519687
 10
22.16097120917888
 20
-35.39378136144391
 30
0.0
 10
22.17969954517888
 20
-35.42689713033279
 30
0.0
 10
22.19842788117888
 20
-35.46001289922168
 30
0.0
 10
22.21715621717888
 20
-35.49312866811057
 30
0.0
 11
22.16097120917888
 21
-35.39378136144391
 31
0.0
 11
22.21715621717888
 21
-35.49312866811057
 31
0.0
  0
SPLINE
  5
72
100
AcDbEntity
  8
0
  6
CONTINUOUS
100
AcDbSpline
210
-0.7932444434921426
220
-0.6089033198044181
230
0.0
 70
    24
 71
     3
 72
     8
 73
     4
 74
     2
 42
0.0000001
 43
0.0000001
 44
0.0000000001
 40
0.0
 40
0.0
 40
0.0
 40
0.0
 40
0.182539074625232
 40
0.182539074625232
 40
0.182539074625232
 40
0.182539074625232
 10
22.30214910677888
 20
-35.4925589486439
 30
0.0
 10
22.26509955726777
 20
-35.44429291308834
 30
0.0
 10
22.22805000775666
 20
-35.39602687753279
 30
0.0
 10
22.19100045824555
 20
-35.34776084197724
 30
0.0
 11
22.30214910677888
 21
-35.4925589486439
 31
0.0
 11
22.19100045824555
 21
-35.34776084197724
 31
0.0
  0
LINE
  5
73
100
AcDbEntity
  8
0
  6
HIDDEN
 62
     9
 48
0.5
100
AcDbLine
 10
23.593931
 20
-35.984832
 30
0.0
 11
23.564233
 21
-35.490967
 31
0.0
  0
SPLINE
  5
74
100
AcDbEntity
  8
0
  6
CONTINUOUS
100
AcDbSpline
210
0.0
220
0.0
230
1.0
 70
     8
 71
     3
 72
    14
 73
    10
 74
     8
 42
0.0000001
 43
0.0000001
 44
0.0000000001
 40
0.0
 40
0.0
 40
0.0
 40
0.0
 40
0.0223514550190764
 40
0.0435275199645119
 40
0.063568387014874
 40
0.0825174151388419
 40
0.1003822095338356
 40
0.1171038116333773
 40
0.1325767306325797
 40
0.1325767306325797
 40
0.1325767306325797
 40
0.1325767306325797
 10
23.30628909077888
 20
-35.74434620731057
 30
0.0
 10
23.3105731377437
 20
-35.73824984975203
 30
0.0
 10
23.31891594762479
 20
-35.72637772218298
 30
0.0
 10
23.33043318461113
 20
-35.70858625211826
 30
0.0
 10
23.34091957068727
 20
-35.69148921870428
 30
0.0
 10
23.35043214171306
 20
-35.67509574665205
 30
0.0
 10
23.35905154480928
 20
-35.6594691857794
 30
0.0
 10
23.36684435604404
 20
-35.64471266517647
 30
0.0
 10
23.37164894685516
 20
-35.63511650839318
 30
0.0
 10
23.37395806784556
 20
-35.63050452624391
 30
0.0
 11
23.30628909077888
 21
-35.74434620731057
 31
0.0
 11
23.31902084651223
 21
-35.72597530811057
 31
0.0
 11
23.33056392277889
 21
-35.70822191077724
 31
0.0
 11
23.34103799531221
 21
-35.6911359470439
 31
0.0
 11
23.35055200384556
 21
-35.67474847291058
 31
0.0
 11
23.3591863995789
 21
-35.65910884091057
 31
0.0
 11
23.36698284971223
 21
-35.6443160270439
 31
0.0
 11
23.37395806784556
 21
-35.63050452624391
 31
0.0
  0
SPLINE
  5
75
100
AcDbEntity
  8
0
  6
CONTINUOUS
100
AcDbSpline
210
0.0
220
0.0
230
1.0
 70
     8
 71
     3
 72
     9
 73
     5
 74
     3
 42
0.0000001
 43
0.0000001
 44
0.0000000001
 40
0.0
 40
0.0
 40
0.0
 40
0.0
 40
0.0724282465929442
 40
0.146721678281583
 40
0.146721678281583
 40
0.146721678281583
 40
0.146721678281583
 10
23.37387078037889
 20
-35.6304539598439
 30
0.0
 10
23.36061110465818
 20
-35.65080591785186
 30
0.0
 10
23.33375028768789
 20
-35.69203394111225
 30
0.0
 10
23.29593879915247
 20
-35.72353717291883
 30
0.0
 10
23.27679271744557
 20
-35.73948902971057
 30
0.0
 11
23.37387078037889
 21
-35.6304539598439
 31
0.0
 11
23.33142324757889
 21
-35.68914005584391
 31
0.0
 11
23.27679271744557
 21
-35.73948902971057
 31
0.0
  0
SPLINE
  5
76
100
AcDbEntity
  8
0
  6
CONTINUOUS
100
AcDbSpline
210
0.0
220
0.0
230
-1.0
 70
     8
 71
     3
 72
    10
 73
     6
 74
     4
 42
0.0000001
 43
0.0000001
 44
0.0000000001
 40
0.0
 40
0.0
 40
0.0
 40
0.0
 40
0.0100866533893201
 40
0.0207296802530209
 40
0.0319358441230984
 40
0.0319358441230984
 40
0.0319358441230984
 40
0.0319358441230984
 10
23.38505042624555
 20
-35.6005618574439
 30
0.0
 10
23.38380025156839
 20
-35.60368311611428
 30
0.0
 10
23.381230943363
 20
-35.61009780012557
 30
0.0
 10
23.3775389183562
 20
-35.62008398854381
 30
0.0
 10
23.375172019355
 20
-35.62697183828817
 30
0.0
 10
23.37395806784556
 20
-35.63050452624391
 30
0.0
 11
23.38505042624555
 21
-35.6005618574439
 31
0.0
 11
23.38134081451222
 21
-35.6099415886439
 31
0.0
 11
23.37764175637889
 21
-35.61992111717724
 31
0.0
 11
23.37395806784556
 21
-35.63050452624391
 31
0.0
  0
SPLINE
  5
77
100
AcDbEntity
  8
0
  6
CONTINUOUS
100
AcDbSpline
210
0.0
220
0.0
230
-1.0
 70
     8
 71
     3
 72
    10
 73
     6
 74
     4
 42
0.0000001
 43
0.0000001
 44
0.0000000001
 40
0.0
 40
0.0
 40
0.0
 40
0.0
 40
0.0028769666633041
 40
0.0058047894799385
 40
0.008783762934593
 40
0.008783762934593
 40
0.008783762934593
 40
0.008783762934593
 10
23.38846390357889
 20
-35.59246866384391
 30
0.0
 10
23.38808317233741
 20
-35.59334883966808
 30
0.0
 10
23.3873149796665
 20
-35.59512475018864
 30
0.0
 10
23.38617732625415
 20
-35.59782267279821
 30
0.0
 10
23.38542822190257
 20
-35.59964353988689
 30
0.0
 10
23.38505042624555
 20
-35.6005618574439
 30
0.0
 11
23.38846390357889
 21
-35.59246866384391
 31
0.0
 11
23.38732573077888
 21
-35.5951109166439
 31
0.0
 11
23.38618786517889
 21
-35.59780858384391
 31
0.0
 11
23.38505042624555
 21
-35.6005618574439
 31
0.0
  0
SPLINE
  5
78
100
AcDbEntity
  8
0
  6
CONTINUOUS
100
AcDbSpline
210
-0.9160367233364297
220
0.4010944047217027
230
0.0
 70
    24
 71
     3
 72
     9
 73
     5
 74
     3
 42
0.0000001
 43
0.0000001
 44
0.0000000001
 40
0.0
 40
0.0
 40
0.0
 40
0.0
 40
0.0020485833144768
 40
0.0030836700628059
 40
0.0030836700628059
 40
0.0030836700628059
 40
0.0030836700628059
 10
23.38970856064555
 20
-35.58964724091057
 30
0.0
 10
23.38942908106926
 20
-35.59027031985737
 30
0.0
 10
23.38900838897611
 20
-35.59120822161682
 30
0.0
 10
23.38860660739227
 20
-35.59215435401091
 30
0.0
 10
23.38847174251222
 20
-35.59247193957723
 30
0.0
 11
23.38970856064555
 21
-35.58964724091057
 31
0.0
 11
23.38887846784555
 21
-35.5915201102439
 31
0.0
 11
23.38847174251222
 21
-35.59247193957723
 31
0.0
  0
LINE
  5
79
100
AcDbEntity
  8
0
  6
HIDDEN
 62
     9
 48
0.5
100
AcDbLine
 10
23.682284
 20
-36.000753
 30
0.0
 11
23.627061
 21
-36.1609
 31
0.0
  0
LWPOLYLINE
  5
7A
100
AcDbEntity
  8
0
  6
HIDDEN
 62
     9
 48
0.5
100
AcDbPolyline
 90
       10
 70
     0
 43
0.0
 10
23.628798
 20
-35.846422
 10
23.633486
 20
-35.842327
 10
23.63835
 20
-35.82822
 10
23.642522
 20
-35.804664
 10
23.645818
 20
-35.772688
 10
23.648094
 20
-35.73369
 10
23.649252
 20
-35.689373
 10
23.64924
 20
-35.641675
 10
23.648059
 20
-35.592681
 10
23.645761
 20
-35.544532
  0
LWPOLYLINE
  5
7B
100
AcDbEntity
  8
0
  6
HIDDEN
 62
     9
 48
0.5
100
AcDbPolyline
 90
        8
 70
     0
 43
0.0
 10
23.682284
 20
-36.000753
 10
23.690023
 20
-35.967741
 10
23.696291
 20
-35.918382
 10
23.700774
 20
-35.855152
 10
23.703247
 20
-35.781222
 10
23.703587
 20
-35.700298
 10
23.701776
 20
-35.616438
 10
23.697905
 20
-35.533847
  0
LWPOLYLINE
  5
7C
100
AcDbEntity
  8
0
  6
HIDDEN
 62
     9
 48
0.5
100
AcDbPolyline
 90
        8
 70
     0
 43
0.0
 10
23.599224
 20
-35.679486
 10
23.60254
 20
-35.724687
 10
23.606727
 20
-35.764963
 10
23.611603
 20
-35.798554
 10
23.616955
 20
-35.823992
 10
23.62255
 20
-35.840165
 10
23.628141
 20
-35.846367
 10
23.628798
 20
-35.846422
  0
LINE
  5
7D
100
AcDbEntity
  8
0
  6
HIDDEN
 62
     9
 48
0.5
100
AcDbLine
 10
23.627061
 20
-36.1609
 30
0.0
 11
23.81812
 21
-36.173957
 31
0.0
  0
LINE
  5
7E
100
AcDbEntity
  8
0
  6
HIDDEN
 62
     9
 48
0.5
100
AcDbLine
 10
23.81812
 20
-36.173957
 30
0.0
 11
23.828635
 21
-36.174676
 31
0.0
  0
LINE
  5
7F
100
AcDbEntity
  8
0
  6
HIDDEN
 62
     9
 48
0.5
100
AcDbLine
 10
23.62557
 20
-36.161168
 30
0.0
 11
23.627061
 21
-36.1609
 31
0.0
  0
SPLINE
  5
80
100
AcDbEntity
  8
0
  6
HIDDEN
 62
     9
 48
0.5
100
AcDbSpline
210
0.0618224855042196
220
0.9980871606658812
230
0.0
 70
    24
 71
     3
 72
     8
 73
     4
 74
     2
 42
0.0000001
 43
0.0000001
 44
0.0000000001
 40
0.0
 40
0.0
 40
0.0
 40
0.0
 40
0.1929446678833666
 40
0.1929446678833666
 40
0.1929446678833666
 40
0.1929446678833666
 10
23.62556984171221
 20
-36.16117577531057
 30
0.0
 10
23.68976170695666
 20
-36.16515188162168
 30
0.0
 10
23.7539535722011
 20
-36.16912798793279
 30
0.0
 10
23.81814543744555
 20
-36.17310409424391
 30
0.0
 11
23.62556984171221
 21
-36.16117577531057
 31
0.0
 11
23.81814543744555
 21
-36.17310409424391
 31
0.0
  0
SPLINE
  5
81
100
AcDbEntity
  8
0
  6
HIDDEN
 62
     9
 48
0.5
100
AcDbSpline
210
0.0
220
0.0
230
-1.0
 70
     8
 71
     3
 72
    15
 73
    11
 74
     9
 42
0.0000001
 43
0.0000001
 44
0.0000000001
 40
0.0
 40
0.0
 40
0.0
 40
0.0
 40
0.0386619634242457
 40
0.074322538380019
 40
0.1058636503498424
 40
0.1324543513811672
 40
0.1535121470582063
 40
0.1687183531263394
 40
0.1780778089897464
 40
0.1816888144214024
 40
0.1816888144214024
 40
0.1816888144214024
 40
0.1816888144214024
 10
23.59393097024555
 20
-35.9848324366439
 30
0.0
 10
23.59477802179957
 20
-35.99769328193235
 30
0.0
 10
23.59640636697551
 20
-36.02241656504816
 30
0.0
 10
23.5997437655729
 20
-36.05754035761602
 30
0.0
 10
23.60351233523388
 20
-36.0886157283071
 30
0.0
 10
23.6077288611705
 20
-36.11458386276035
 30
0.0
 10
23.61197409065284
 20
-36.13536537479815
 30
0.0
 10
23.61671485594589
 20
-36.14930179765984
 30
0.0
 10
23.62033470510795
 20
-36.15896654028619
 30
0.0
 10
23.62443805092634
 20
-36.16062024272103
 30
0.0
 10
23.62558043157889
 20
-36.16108063717724
 30
0.0
 11
23.59393097024555
 21
-35.9848324366439
 31
0.0
 11
23.59666552384556
 21
-36.02339757157724
 31
0.0
 11
23.60003740437889
 21
-36.05889837477724
 31
0.0
 11
23.60393484864556
 21
-36.09019776251057
 31
0.0
 11
23.6082355835789
 21
-36.11643836197724
 31
0.0
 11
23.61281404011222
 21
-36.13699240037723
 31
0.0
 11
23.61755356224554
 21
-36.15144112464391
 31
0.0
 11
23.62234217877889
 21
-36.1594828014439
 31
0.0
 11
23.62558043157889
 21
-36.16108063717724
 31
0.0
  0
SPLINE
  5
82
100
AcDbEntity
  8
0
  6
HIDDEN
 62
     9
 48
0.5
100
AcDbSpline
210
0.0811601644942327
220
0.9967010723879397
230
0.0
 70
    24
 71
     3
 72
     8
 73
     4
 74
     2
 42
0.0000001
 43
0.0000001
 44
0.0000000001
 40
0.0
 40
0.0
 40
0.0
 40
0.0
 40
0.0105336799810838
 40
0.0105336799810838
 40
0.0105336799810838
 40
0.0105336799810838
 10
23.81814543744555
 20
-36.17310409424391
 30
0.0
 10
23.82164508082333
 20
-36.17338906597725
 30
0.0
 10
23.82514472420111
 20
-36.17367403771058
 30
0.0
 10
23.82864436757889
 20
-36.1739590094439
 30
0.0
 11
23.81814543744555
 21
-36.17310409424391
 31
0.0
 11
23.82864436757889
 21
-36.1739590094439
 31
0.0
  0
SPLINE
  5
83
100
AcDbEntity
  8
0
  6
HIDDEN
 62
     9
 48
0.5
100
AcDbSpline
210
0.0
220
0.0
230
-1.0
 70
     8
 71
     3
 72
    16
 73
    12
 74
    10
 42
0.0000001
 43
0.0000001
 44
0.0000000001
 40
0.0
 40
0.0
 40
0.0
 40
0.0
 40
0.0045046100792914
 40
0.0174197366666514
 40
0.0327152810300052
 40
0.0496753091556891
 40
0.068250561396395
 40
0.0884376249335216
 40
0.1102944529758022
 40
0.1338731582085642
 40
0.159260303279317
 40
0.159260303279317
 40
0.159260303279317
 40
0.159260303279317
 10
23.74551940224554
 20
-35.53440134331057
 30
0.0
 10
23.74545344748661
 20
-35.53590142043472
 30
0.0
 10
23.74519839443824
 20
-35.54170235503781
 30
0.0
 10
23.74464493818215
 20
-35.55259442449969
 30
0.0
 10
23.74440405852751
 20
-35.56765124059017
 30
0.0
 10
23.7441850116124
 20
-35.58459292021891
 30
0.0
 10
23.74405173658721
 20
-35.60316679843376
 30
0.0
 10
23.74394412609679
 20
-35.62337283128162
 30
0.0
 10
23.74385055155335
 20
-35.64524685117918
 30
0.0
 10
23.74375190905444
 20
-35.66885420009177
 30
0.0
 10
23.74366799692608
 20
-35.68517593644264
 30
0.0
 10
23.74362449131223
 20
-35.69363820731057
 30
0.0
 11
23.74551940224554
 21
-35.53440134331057
 31
0.0
 11
23.74531888704555
 21
-35.53890148837724
 31
0.0
 11
23.74475370517889
 21
-35.55180424251057
 31
0.0
 11
23.74442035691223
 21
-35.56709615397724
 31
0.0
 11
23.74420749397889
 21
-35.5840548462439
 31
0.0
 11
23.74406108011221
 21
-35.60262952144391
 31
0.0
 11
23.74395047531221
 21
-35.62281628197724
 31
0.0
 11
23.74385335531223
 21
-35.64467289424391
 31
0.0
 11
23.74375078464555
 21
-35.66825137637724
 31
0.0
 11
23.74362449131223
 21
-35.69363820731057
 31
0.0
  0
SPLINE
  5
84
100
AcDbEntity
  8
0
  6
HIDDEN
 62
     9
 48
0.5
100
AcDbSpline
210
0.0
220
0.0
230
1.0
 70
     8
 71
     3
 72
    12
 73
     8
 74
     6
 42
0.0000001
 43
0.0000001
 44
0.0000000001
 40
0.0
 40
0.0
 40
0.0
 40
0.0
 40
0.0272937053683029
 40
0.0566187207649212
 40
0.0881094250690941
 40
0.1218898370662761
 40
0.1580492260348235
 40
0.1580492260348235
 40
0.1580492260348235
 40
0.1580492260348235
 10
23.74362449131223
 20
-35.69363820731057
 30
0.0
 10
23.7435711917581
 20
-35.70273595443087
 30
0.0
 10
23.74346062587739
 20
-35.72160854050312
 30
0.0
 10
23.74322731245172
 20
-35.75097745114532
 30
0.0
 10
23.74290668371795
 20
-35.78250788189972
 30
0.0
 10
23.74247727783595
 20
-35.81631540997767
 30
0.0
 10
23.7420826367227
 20
-35.83962536001112
 30
0.0
 10
23.74187860437889
 20
-35.85167677477723
 30
0.0
 11
23.74362449131223
 21
-35.69363820731057
 31
0.0
 11
23.74345544597889
 21
-35.72093138917724
 31
0.0
 11
23.74322256277889
 21
-35.7502554798439
 31
0.0
 11
23.74290162091223
 21
-35.7817445486439
 31
0.0
 11
23.74246435904555
 21
-35.81552213051057
 31
0.0
 11
23.74187860437889
 21
-35.85167677477723
 31
0.0
  0
SPLINE
  5
85
100
AcDbEntity
  8
0
  6
CONTINUOUS
100
AcDbSpline
210
0.0
220
0.0
230
1.0
 70
     8
 71
     3
 72
    10
 73
     6
 74
     4
 42
0.0000001
 43
0.0000001
 44
0.0000000001
 40
0.0
 40
0.0
 40
0.0
 40
0.0
 40
0.1392256789853238
 40
0.2675222196896509
 40
0.3934109669061976
 40
0.3934109669061976
 40
0.3934109669061976
 40
0.3934109669061976
 10
22.98613697664555
 20
-35.95766682811057
 30
0.0
 10
23.03108621137916
 20
-35.94505607752384
 30
0.0
 10
23.11745619094702
 20
-35.92082451324989
 30
0.0
 10
23.22659610419653
 20
-35.84316405488457
 30
0.0
 10
23.27989304865206
 20
-35.77707681735929
 30
0.0
 10
23.30628909077888
 20
-35.74434620731057
 30
0.0
 11
22.98613697664555
 21
-35.95766682811057
 31
0.0
 11
23.11769282517889
 21
-35.91209437584391
 31
0.0
 11
23.22287737344555
 21
-35.83863545424391
 31
0.0
 11
23.30628909077888
 21
-35.74434620731057
 31
0.0
  0
LWPOLYLINE
  5
86
100
AcDbEntity
  8
0
  6
HIDDEN
 62
     9
 48
0.5
100
AcDbPolyline
 90
        3
 70
     0
 43
0.0
 10
23.649843
 20
-36.393016
 10
23.633358
 20
-36.359064
 10
23.603864
 20
-36.23854
  0
SPLINE
  5
87
100
AcDbEntity
  8
0
  6
HIDDEN
 62
     9
 48
0.5
100
AcDbSpline
210
-0.2312297933097239
220
0.9728991636783035
230
0.0
 70
    24
 71
     3
 72
     8
 73
     4
 74
     2
 42
0.0000001
 43
0.0000001
 44
0.0000000001
 40
0.0
 40
0.0
 40
0.0
 40
0.0
 40
0.0772011380734348
 40
0.0772011380734348
 40
0.0772011380734348
 40
0.0772011380734348
 10
23.76489085717889
 20
-36.6733812142439
 30
0.0
 10
23.78992716473445
 20
-36.66743081317723
 30
0.0
 10
23.81496347229
 20
-36.66148041211057
 30
0.0
 10
23.83999977984555
 20
-36.6555300110439
 30
0.0
 11
23.76489085717889
 21
-36.6733812142439
 31
0.0
 11
23.83999977984555
 21
-36.6555300110439
 31
0.0
  0
SPLINE
  5
88
100
AcDbEntity
  8
0
  6
HIDDEN
 62
     9
 48
0.5
100
AcDbSpline
210
0.0
220
0.0
230
-1.0
 70
     8
 71
     3
 72
    22
 73
    18
 74
    16
 42
0.0000001
 43
0.0000001
 44
0.0000000001
 40
0.0
 40
0.0
 40
0.0
 40
0.0
 40
0.0163557024200532
 40
0.0314222832759355
 40
0.0407410626100538
 40
0.0437524309484654
 40
0.0457480135945098
 40
0.0488366120405622
 40
0.0529139989351675
 40
0.0577889723940061
 40
0.0633179131320718
 40
0.0693765887901184
 40
0.0758530300345866
 40
0.08264862289759
 40
0.0896572432150018
 40
0.0967593604462716
 40
0.1038196992627448
 40
0.1038196992627448
 40
0.1038196992627448
 40
0.1038196992627448
 10
22.94647089344556
 20
-36.47883955771057
 30
0.0
 10
22.94631400032336
 20
-36.48425300645712
 30
0.0
 10
22.94601258006005
 20
-36.49465322747148
 30
0.0
 10
22.9465946868614
 20
-36.50867938309224
 30
0.0
 10
22.94694790376763
 20
-36.5169177387216
 30
0.0
 10
22.94934073172149
 20
-36.52253415820864
 30
0.0
 10
22.95229645776498
 20
-36.52111714324333
 30
0.0
 10
22.95387884449815
 20
-36.51858656526759
 30
0.0
 10
22.95598423859976
 20
-36.5151336777237
 30
0.0
 10
22.95813371145957
 20
-36.51081850375262
 30
0.0
 10
22.96051571792646
 20
-36.50587247954252
 30
0.0
 10
22.96307955832586
 20
-36.50042491174614
 30
0.0
 10
22.96586337016046
 20
-36.49461347989376
 30
0.0
 10
22.96888009086618
 20
-36.48856281484649
 30
0.0
 10
22.97216773152056
 20
-36.48241807623689
 30
0.0
 10
22.97570963092641
 20
-36.4763079147255
 30
0.0
 10
22.97838973091844
 20
-36.472419610092
 30
0.0
 10
22.97972582784555
 20
-36.47048119291057
 30
0.0
 11
22.94647089344556
 21
-36.47883955771057
 31
0.0
 11
22.94620351744556
 21
-36.49519307451057
 31
0.0
 11
22.94666382251223
 21
-36.5102526222439
 31
0.0
 11
22.9481147931789
 21
-36.51945774757724
 31
0.0
 11
22.94986914197889
 21
-36.52190531771057
 31
0.0
 11
22.95174670037888
 21
-36.52122920784391
 31
0.0
 11
22.95371089984556
 21
-36.51884564731057
 31
0.0
 11
22.9557957115789
 21
-36.51534155771057
 31
0.0
 11
22.95802810197889
 21
-36.51100776037724
 31
0.0
 11
22.96043178411221
 21
-36.5060286542439
 31
0.0
 11
22.96302635371222
 21
-36.50055364197724
 31
0.0
 11
22.96583238571221
 21
-36.49471664997724
 31
0.0
 11
22.96887686251223
 21
-36.48864118757723
 31
0.0
 11
22.97218798997889
 21
-36.4824640366439
 31
0.0
 11
22.97579476331222
 21
-36.4763459278439
 31
0.0
 11
22.97972582784555
 21
-36.47048119291057
 31
0.0
  0
SPLINE
  5
89
100
AcDbEntity
  8
0
  6
HIDDEN
 62
     9
 48
0.5
100
AcDbSpline
210
0.0
220
0.0
230
-1.0
 70
     8
 71
     3
 72
    10
 73
     6
 74
     4
 42
0.0000001
 43
0.0000001
 44
0.0000000001
 40
0.0
 40
0.0
 40
0.0
 40
0.0
 40
0.0138409831092748
 40
0.0271122361621159
 40
0.0397904419203257
 40
0.0397904419203257
 40
0.0397904419203257
 40
0.0397904419203257
 10
22.97972457451221
 20
-36.4704803790439
 30
0.0
 10
22.98238598622945
 20
-36.46671100240222
 30
0.0
 10
22.98759925919081
 20
-36.45932740624536
 30
0.0
 10
22.99601539927301
 20
-36.44905051647005
 30
0.0
 10
23.00206704281461
 20
-36.44286596135291
 30
0.0
 10
23.00502371264555
 20
-36.43984435451057
 30
0.0
 11
22.97972457451221
 21
-36.4704803790439
 31
0.0
 11
22.98784466411223
 21
-36.45927158971057
 31
0.0
 11
22.99628810091224
 21
-36.44903271611057
 31
0.0
 11
23.00502371264555
 21
-36.43984435451057
 31
0.0
  0
LINE
  5
8A
100
AcDbEntity
  8
0
  6
HIDDEN
 62
     9
 48
0.5
100
AcDbLine
 10
23.023616
 20
-36.789361
 30
0.0
 11
23.022579
 21
-36.789618
 31
0.0
  0
SPLINE
  5
8B
100
AcDbEntity
  8
0
  6
HIDDEN
 62
     9
 48
0.5
100
AcDbSpline
210
0.0
220
0.0
230
1.0
 70
     8
 71
     3
 72
    10
 73
     6
 74
     4
 42
0.0000001
 43
0.0000001
 44
0.0000000001
 40
0.0
 40
0.0
 40
0.0
 40
0.0
 40
0.2612363485075256
 40
0.5140177170334131
 40
0.7507524179377435
 40
0.7507524179377435
 40
0.7507524179377435
 40
0.7507524179377435
 10
23.02361533611221
 20
-36.7893532590439
 30
0.0
 10
23.11020983024154
 20
-36.78012987534949
 30
0.0
 10
23.28059616596517
 20
-36.76198162508871
 30
0.0
 10
23.52805415306954
 20
-36.72365904629446
 30
0.0
 10
23.68768960851837
 20
-36.68977019174146
 30
0.0
 10
23.76489085717889
 20
-36.6733812142439
 30
0.0
 11
23.02361533611221
 21
-36.7893532590439
 31
0.0
 11
23.28315105024555
 21
-36.75959350651057
 31
0.0
 11
23.53288588011221
 21
-36.72046634171056
 31
0.0
 11
23.76489085717889
 21
-36.6733812142439
 31
0.0
  0
LWPOLYLINE
  5
8C
100
AcDbEntity
  8
0
  6
HIDDEN
 62
     9
 48
0.5
100
AcDbPolyline
 90
        6
 70
     0
 43
0.0
 10
23.741879
 20
-35.851677
 10
23.732985
 20
-36.079831
 10
23.715846
 20
-36.257679
 10
23.692015
 20
-36.369104
 10
23.663673
 20
-36.403955
 10
23.649843
 20
-36.393016
  0
SPLINE
  5
8D
100
AcDbEntity
  8
0
  6
CONTINUOUS
100
AcDbSpline
210
0.0
220
0.0
230
-1.0
 70
     8
 71
     3
 72
     9
 73
     5
 74
     3
 42
0.0000001
 43
0.0000001
 44
0.0000000001
 40
0.0
 40
0.0
 40
0.0
 40
0.0
 40
0.107588397061211
 40
0.3838783185518833
 40
0.3838783185518833
 40
0.3838783185518833
 40
0.3838783185518833
 10
22.22815888171222
 20
-35.51256959611057
 30
0.0
 10
22.24646633888141
 20
-35.54349337161393
 30
0.0
 10
22.31178784256619
 20
-35.65383024127426
 30
0.0
 10
22.40188923023754
 20
-35.74582004601632
 30
0.0
 10
22.46673817877889
 20
-35.81202815077723
 30
0.0
 11
22.22815888171222
 21
-35.51256959611057
 31
0.0
 11
22.28502770197889
 21
-35.60389976891057
 31
0.0
 11
22.46673817877889
 21
-35.81202815077723
 31
0.0
  0
SPLINE
  5
8E
100
AcDbEntity
  8
0
  6
CONTINUOUS
100
AcDbSpline
210
0.0
220
0.0
230
-1.0
 70
     8
 71
     3
 72
     9
 73
     5
 74
     3
 42
0.0000001
 43
0.0000001
 44
0.0000000001
 40
0.0
 40
0.0
 40
0.0
 40
0.0
 40
0.1696491854430443
 40
0.3611485684456765
 40
0.3611485684456765
 40
0.3611485684456765
 40
0.3611485684456765
 10
22.55596852971223
 20
-35.7481485070439
 30
0.0
 10
22.51182070887747
 20
-35.71253905941355
 30
0.0
 10
22.41783898858313
 20
-35.63673379691695
 30
0.0
 10
22.34220443714094
 20
-35.54254238292557
 30
0.0
 10
22.3020991419789
 20
-35.49259729317724
 30
0.0
 11
22.55596852971223
 21
-35.7481485070439
 31
0.0
 11
22.42757362944556
 21
-35.63726299984391
 31
0.0
 11
22.3020991419789
 21
-35.49259729317724
 31
0.0
  0
SPLINE
  5
8F
100
AcDbEntity
  8
0
  6
CONTINUOUS
100
AcDbSpline
210
0.0
220
0.0
230
1.0
 70
     8
 71
     3
 72
    10
 73
     6
 74
     4
 42
0.0000001
 43
0.0000001
 44
0.0000000001
 40
0.0
 40
0.0
 40
0.0
 40
0.0
 40
0.1115066653880564
 40
0.2190265592215705
 40
0.3251154095771628
 40
0.3251154095771628
 40
0.3251154095771628
 40
0.3251154095771628
 10
22.46682169557888
 20
-35.81193000784391
 30
0.0
 10
22.49621481546796
 20
-35.83475307813925
 30
0.0
 10
22.55395014359106
 20
-35.87958321040322
 30
0.0
 10
22.65155429698166
 20
-35.92899149938098
 30
0.0
 10
22.72061218187408
 20
-35.9469028132253
 30
0.0
 10
22.75490980224556
 20
-35.95579847291057
 30
0.0
 11
22.46682169557888
 21
-35.81193000784391
 31
0.0
 11
22.55707957611221
 21
-35.87740711397724
 31
0.0
 11
22.65323287851222
 21
-35.92552228837723
 31
0.0
 11
22.75490980224556
 21
-35.95579847291057
 31
0.0
  0
SPLINE
  5
90
100
AcDbEntity
  8
0
  6
CONTINUOUS
100
AcDbSpline
210
0.0
220
0.0
230
1.0
 70
     8
 71
     3
 72
     9
 73
     5
 74
     3
 42
0.0000001
 43
0.0000001
 44
0.0000000001
 40
0.0
 40
0.0
 40
0.0
 40
0.0
 40
0.0167412404179008
 40
0.0679274575365551
 40
0.0679274575365551
 40
0.0679274575365551
 40
0.0679274575365551
 10
22.61239025131222
 20
-35.7859303310439
 30
0.0
 10
22.6076257132823
 20
-35.78302377239715
 30
0.0
 10
22.58829363593144
 20
-35.77123043246974
 30
0.0
 10
22.56975118340641
 20
-35.75821711238958
 30
0.0
 10
22.55577865984555
 20
-35.74841102437724
 30
0.0
 11
22.61239025131222
 21
-35.7859303310439
 31
0.0
 11
22.59814460011223
 21
-35.77713655184391
 31
0.0
 11
22.55577865984555
 21
-35.74841102437724
 31
0.0
  0
SPLINE
  5
91
100
AcDbEntity
  8
0
  6
CONTINUOUS
100
AcDbSpline
210
0.0
220
0.0
230
1.0
 70
     8
 71
     3
 72
    10
 73
     6
 74
     4
 42
0.0000001
 43
0.0000001
 44
0.0000000001
 40
0.0
 40
0.0
 40
0.0
 40
0.0
 40
0.0830593567162927
 40
0.1694652764272785
 40
0.2607121622133247
 40
0.2607121622133247
 40
0.2607121622133247
 40
0.2607121622133247
 10
22.8560763515789
 20
-35.87318144891057
 30
0.0
 10
22.82869681380029
 20
-35.86878460905414
 30
0.0
 10
22.77283458320353
 20
-35.8598137752898
 30
0.0
 10
22.69060698269734
 20
-35.82983444057332
 30
0.0
 10
22.63889000278102
 20
-35.80089803250369
 30
0.0
 10
22.61232687957889
 20
-35.78603557584391
 30
0.0
 11
22.8560763515789
 21
-35.87318144891057
 31
0.0
 11
22.77451752811222
 21
-35.85746473637724
 31
0.0
 11
22.69315433344556
 21
-35.82837842491057
 31
0.0
 11
22.61232687957889
 21
-35.78603557584391
 31
0.0
  0
SPLINE
  5
92
100
AcDbEntity
  8
0
  6
CONTINUOUS
100
AcDbSpline
210
-0.870132215092603
220
-0.4928183521928139
230
0.0
 70
    24
 71
     3
 72
     8
 73
     4
 74
     2
 42
0.0000001
 43
0.0000001
 44
0.0000000001
 40
0.0
 40
0.0
 40
0.0
 40
0.0
 40
0.0223405619622934
 40
0.0223405619622934
 40
0.0223405619622934
 40
0.0223405619622934
 10
22.21714904277889
 20
-35.49313035344391
 30
0.0
 10
22.22081898909
 20
-35.49961010099946
 30
0.0
 10
22.22448893540111
 20
-35.50608984855502
 30
0.0
 10
22.22815888171222
 20
-35.51256959611057
 30
0.0
 11
22.21714904277889
 21
-35.49313035344391
 31
0.0
 11
22.22815888171222
 21
-35.51256959611057
 31
0.0
  0
SPLINE
  5
93
100
AcDbEntity
  8
0
  6
CONTINUOUS
100
AcDbSpline
210
0.0
220
0.0
230
1.0
 70
     8
 71
     3
 72
    10
 73
     6
 74
     4
 42
0.0000001
 43
0.0000001
 44
0.0000000001
 40
0.0
 40
0.0
 40
0.0
 40
0.0
 40
0.0789762636591899
 40
0.1561342844579393
 40
0.2325970540292052
 40
0.2325970540292052
 40
0.2325970540292052
 40
0.2325970540292052
 10
22.75490980224556
 20
-35.95579847291057
 30
0.0
 10
22.78090111996678
 20
-35.96011820893561
 30
0.0
 10
22.83228536640357
 20
-35.96865822921599
 30
0.0
 10
22.91026530850779
 20
-35.9694173471539
 30
0.0
 10
22.96092284192299
 20
-35.96157183214555
 30
0.0
 10
22.98613697664555
 20
-35.95766682811057
 30
0.0
 11
22.75490980224556
 21
-35.95579847291057
 31
0.0
 11
22.83312962517888
 21
-35.96670303717724
 31
0.0
 11
22.91028522731223
 21
-35.96731396517724
 31
0.0
 11
22.98613697664555
 21
-35.95766682811057
 31
0.0
  0
SPLINE
  5
94
100
AcDbEntity
  8
0
  6
CONTINUOUS
100
AcDbSpline
210
0.0
220
0.0
230
1.0
 70
     8
 71
     3
 72
    11
 73
     7
 74
     5
 42
0.0000001
 43
0.0000001
 44
0.0000000001
 40
0.0
 40
0.0
 40
0.0
 40
0.0
 40
0.1102615571783635
 40
0.2205373622210557
 40
0.3329746253658846
 40
0.4518547241892498
 40
0.4518547241892498
 40
0.4518547241892498
 40
0.4518547241892498
 10
23.27674603904554
 20
-35.7394276814439
 30
0.0
 10
23.2466436785941
 20
-35.7606503269359
 30
0.0
 10
23.18643506790079
 20
-35.80309836028433
 30
0.0
 10
23.08474875483408
 20
-35.84887170929999
 30
0.0
 10
22.97331758706981
 20
-35.87794687322257
 30
0.0
 10
22.89587575397842
 20
-35.87479914799915
 30
0.0
 10
22.8560763515789
 20
-35.87318144891057
 30
0.0
 11
23.27674603904554
 21
-35.7394276814439
 31
0.0
 11
23.18465399851221
 21
-35.8000632078439
 31
0.0
 11
23.08427186517889
 21
-35.8457160334439
 31
0.0
 11
22.97495060864555
 21
-35.87200293157724
 31
0.0
 11
22.8560763515789
 21
-35.87318144891057
 31
0.0
  0
LINE
  5
96
100
AcDbEntity
  8
0
  6
HIDDEN
 62
     9
 48
0.5
100
AcDbLine
 10
23.624716
 20
-35.043421
 30
0.0
 11
23.569493
 21
-35.203568
 31
0.0
  0
LWPOLYLINE
  5
97
100
AcDbEntity
  8
0
  6
HIDDEN
 62
     9
 48
0.5
100
AcDbPolyline
 90
        3
 70
     0
 43
0.0
 10
23.636208
 20
-35.027571
 10
23.633537
 20
-35.02841
 10
23.624716
 20
-35.043421
  0
LWPOLYLINE
  5
98
100
AcDbEntity
  8
0
  6
HIDDEN
 62
     9
 48
0.5
100
AcDbPolyline
 90
        4
 70
     0
 43
0.0
 10
23.661935
 20
-35.094223
 10
23.652625
 20
-35.054465
 10
23.642998
 20
-35.032154
 10
23.636208
 20
-35.027571
  0
LINE
  5
99
100
AcDbEntity
  8
0
  6
HIDDEN
 62
     9
 48
0.5
100
AcDbLine
 10
24.218509
 20
-35.011884
 30
0.0
 11
23.636215
 21
-35.027556
 31
0.0
  0
LWPOLYLINE
  5
9A
100
AcDbEntity
  8
0
  6
HIDDEN
 62
     9
 48
0.5
100
AcDbPolyline
 90
        4
 70
     0
 43
0.0
 10
23.683513
 20
-35.294514
 10
23.677776
 20
-35.217335
 10
23.670462
 20
-35.149436
 10
23.661935
 20
-35.094223
  0
SPLINE
  5
9B
100
AcDbEntity
  8
0
  6
CONTINUOUS
100
AcDbSpline
210
-0.8427248240069332
220
-0.5383445653134093
230
0.0
 70
    24
 71
     3
 72
     8
 73
     4
 74
     2
 42
0.0000001
 43
0.0000001
 44
0.0000000001
 40
0.0
 40
0.0
 40
0.0
 40
0.0
 40
0.0817948447342325
 40
0.0817948447342325
 40
0.0817948447342325
 40
0.0817948447342325
 10
21.97615412971222
 20
-35.08964882171057
 30
0.0
 10
21.99083206642333
 20
-35.11262567042168
 30
0.0
 10
22.00551000313445
 20
-35.13560251913279
 30
0.0
 10
22.02018793984555
 20
-35.1585793678439
 30
0.0
 11
21.97615412971222
 21
-35.08964882171057
 31
0.0
 11
22.02018793984555
 21
-35.1585793678439
 31
0.0
  0
SPLINE
  5
9C
100
AcDbEntity
  8
0
  6
CONTINUOUS
100
AcDbSpline
210
0.0
220
0.0
230
1.0
 70
     8
 71
     3
 72
     9
 73
     5
 74
     3
 42
0.0000001
 43
0.0000001
 44
0.0000000001
 40
0.0
 40
0.0
 40
0.0
 40
0.0
 40
0.1816726070997756
 40
0.3249529946961589
 40
0.3249529946961589
 40
0.3249529946961589
 40
0.3249529946961589
 10
22.19100045824555
 20
-35.34776084197724
 30
0.0
 10
22.15411436352469
 20
-35.29973344159965
 30
0.0
 10
22.08813717998811
 20
-35.2138280988553
 30
0.0
 10
22.02213729009546
 20
-35.12794020004928
 30
0.0
 10
21.99303618944556
 20
-35.09006994917724
 30
0.0
 11
22.19100045824555
 21
-35.34776084197724
 31
0.0
 11
22.08033507691222
 21
-35.20368409317724
 31
0.0
 11
21.99303618944556
 21
-35.09006994917724
 31
0.0
  0
SPLINE
  5
9D
100
AcDbEntity
  8
0
  6
CONTINUOUS
100
AcDbSpline
210
-0.8580363223400592
220
-0.5135890083959604
230
0.0
 70
    24
 71
     3
 72
     8
 73
     4
 74
     2
 42
0.0000001
 43
0.0000001
 44
0.0000000001
 40
0.0
 40
0.0
 40
0.0
 40
0.0
 40
0.274116593291239
 40
0.274116593291239
 40
0.274116593291239
 40
0.274116593291239
 10
22.02018793984555
 20
-35.1585793678439
 30
0.0
 10
22.06711569628999
 20
-35.23698003237724
 30
0.0
 10
22.11404345273443
 20
-35.31538069691057
 30
0.0
 10
22.16097120917888
 20
-35.39378136144391
 30
0.0
 11
22.02018793984555
 21
-35.1585793678439
 31
0.0
 11
22.16097120917888
 21
-35.39378136144391
 31
0.0
  0
LINE
  5
9E
100
AcDbEntity
  8
0
  6
CENTER
 62
     1
 48
0.5
100
AcDbLine
 10
31.505252
 20
-37.088509
 30
0.0
 11
36.924044
 21
-37.088509
 31
0.0
  0
CIRCLE
  5
9F
100
AcDbEntity
  8
0
  6
CONTINUOUS
100
AcDbCircle
 10
34.214648
 20
-37.088509
 30
0.0
 40
1.3125
  0
LWPOLYLINE
  5
A0
100
AcDbEntity
  8
0
  6
HIDDEN
 62
     9
 48
0.5
100
AcDbPolyline
 90
        6
 70
     0
 43
0.0
 10
24.808666
 20
-36.900678
 10
24.985709
 20
-36.792389
 10
25.192291
 20
-36.627683
 10
25.340378
 20
-36.460843
 10
25.428294
 20
-36.293756
 10
25.454385
 20
-36.112748
  0
SPLINE
  5
A1
100
AcDbEntity
  8
0
  6
HIDDEN
 62
     9
 48
0.5
100
AcDbSpline
210
0.0
220
0.0
230
1.0
 70
     8
 71
     3
 72
    14
 73
    10
 74
     8
 42
0.0000001
 43
0.0000001
 44
0.0000000001
 40
0.0
 40
0.0
 40
0.0
 40
0.0
 40
0.0572632786617365
 40
0.3683972613073843
 40
0.6534679430974986
 40
0.9079499075047666
 40
1.13187932899261
 40
1.332258478342801
 40
1.519579869652921
 40
1.519579869652921
 40
1.519579869652921
 40
1.519579869652921
 10
24.44120938624556
 20
-35.08862849637724
 30
0.0
 10
24.4589215874229
 20
-35.09574140525521
 30
0.0
 10
24.5728711648476
 20
-35.14150155402441
 30
0.0
 10
24.77056927472323
 20
-35.23406645512281
 30
0.0
 10
25.0119581647567
 20
-35.38438570078126
 30
0.0
 10
25.20497908977082
 20
-35.55273771811055
 30
0.0
 10
25.34228181530912
 20
-35.73420307175155
 30
0.0
 10
25.42931551006958
 20
-35.9218050274047
 30
0.0
 10
25.44621839453663
 20
-36.0505455391107
 30
0.0
 10
25.45438519211222
 20
-36.11274780411057
 30
0.0
 11
24.44120938624556
 21
-35.08862849637724
 31
0.0
 11
24.49428568704556
 21
-35.11012243451057
 31
0.0
 11
24.77540526357889
 21
-35.24344962171057
 31
0.0
 11
25.01597771797889
 21
-35.39638813157724
 31
0.0
 11
25.2058616955789
 21
-35.56581406011057
 31
0.0
 11
25.33995736491222
 21
-35.74515378597723
 31
0.0
 11
25.42095182144555
 21
-35.92843417637723
 31
0.0
 11
25.45438519211222
 21
-36.11274780411057
 31
0.0
  0
LINE
  5
A2
100
AcDbEntity
  8
0
  6
HIDDEN
 62
     9
 48
0.5
100
AcDbLine
 10
25.469381
 20
-36.362123
 30
0.0
 11
25.454385
 21
-36.112748
 31
0.0
  0
LWPOLYLINE
  5
A3
100
AcDbEntity
  8
0
  6
HIDDEN
 62
     9
 48
0.5
100
AcDbPolyline
 90
        7
 70
     0
 43
0.0
 10
24.845808
 20
-35.552694
 10
24.913127
 20
-35.682843
 10
24.934694
 20
-35.816744
 10
24.910309
 20
-35.953146
 10
24.840199
 20
-36.090779
 10
24.725018
 20
-36.228359
 10
24.565839
 20
-36.364605
  0
LINE
  5
A4
100
AcDbEntity
  8
0
  6
HIDDEN
 62
     9
 48
0.5
100
AcDbLine
 10
45.461939
 20
-36.949764
 30
0.0
 11
45.406716
 21
-36.789618
 31
0.0
  0
SPLINE
  5
A5
100
AcDbEntity
  8
0
  6
HIDDEN
 62
     9
 48
0.5
100
AcDbSpline
210
0.0
220
0.0
230
-1.0
 70
     8
 71
     3
 72
    15
 73
    11
 74
     9
 42
0.0000001
 43
0.0000001
 44
0.0000000001
 40
0.0
 40
0.0
 40
0.0
 40
0.0
 40
0.0386619624356955
 40
0.0743225372906104
 40
0.1058636493922457
 40
0.1324543504235589
 40
0.1535121461006081
 40
0.1687183528498085
 40
0.1780778083424676
 40
0.1821020961221682
 40
0.1821020961221682
 40
0.1821020961221682
 40
0.1821020961221682
 10
45.37358622464556
 20
-36.96568519077724
 30
0.0
 10
45.37443325672518
 20
-36.95282426424925
 30
0.0
 10
45.37606156448191
 20
-36.92810082469137
 30
0.0
 10
45.379399222964
 20
-36.89297809759654
 30
0.0
 10
45.38316696669946
 20
-36.86189936715234
 30
0.0
 10
45.38738588443654
 20
-36.83594093784874
 30
0.0
 10
45.3916248166413
 20
-36.81513387750939
 30
0.0
 10
45.39638009861367
 20
-36.80125634733659
 30
0.0
 10
45.40002614975665
 20
-36.79134076140561
 30
0.0
 10
45.40437260875171
 20
-36.78985703959624
 30
0.0
 10
45.40567952277891
 20
-36.78941090704391
 30
0.0
 11
45.37358622464556
 21
-36.96568519077724
 31
0.0
 11
45.37632077931223
 21
-36.92712005691057
 31
0.0
 11
45.3796926587789
 21
-36.89161925371057
 31
0.0
 11
45.38359010411224
 21
-36.86031986597724
 31
0.0
 11
45.38789083904555
 21
-36.83407926651057
 31
0.0
 11
45.39246929557889
 21
-36.81352522811057
 31
0.0
 11
45.39720881664556
 21
-36.79907650277724
 31
0.0
 11
45.40199743424556
 21
-36.79103482704391
 31
0.0
 11
45.40567952277891
 21
-36.78941090704391
 31
0.0
  0
LINE
  5
A6
100
AcDbEntity
  8
0
  6
HIDDEN
 62
     9
 48
0.5
100
AcDbLine
 10
45.482825
 20
-36.47884
 30
0.0
 11
45.513715
 21
-37.496507
 31
0.0
  0
SPLINE
  5
A7
100
AcDbEntity
  8
0
  6
HIDDEN
 62
     9
 48
0.5
100
AcDbSpline
210
0.0
220
0.0
230
-1.0
 70
     8
 71
     3
 72
    19
 73
    15
 74
    13
 42
0.0000001
 43
0.0000001
 44
0.0000000001
 40
0.0
 40
0.0
 40
0.0
 40
0.0
 40
0.0827764907581408
 40
0.1848330673002246
 40
0.3494254135902662
 40
0.5752921261842924
 40
0.8420418189237345
 40
1.117798577691445
 40
1.38119104712726
 40
1.623801835214101
 40
1.844014529332313
 40
2.045397773843639
 40
2.203119772689323
 40
2.300668057490431
 40
2.300668057490431
 40
2.300668057490431
 40
2.300668057490431
 10
45.4242718299789
 20
-36.43984435451057
 30
0.0
 10
45.39772811645889
 20
-36.42483384688763
 30
0.0
 10
45.33845819643078
 20
-36.39131662309292
 30
0.0
 10
45.24181728700032
 20
-36.49111061061296
 30
0.0
 10
45.17496549743045
 20
-36.63283229873806
 30
0.0
 10
45.10558019749717
 20
-36.84465434229135
 30
0.0
 10
45.05032357938579
 20
-37.09383782723282
 30
0.0
 10
45.00747126562861
 20
-37.3594444479186
 30
0.0
 10
44.97914987386931
 20
-37.61863019756954
 30
0.0
 10
44.96520165474411
 20
-37.86006346705958
 30
0.0
 10
44.9635648094755
 20
-38.08271874935319
 30
0.0
 10
44.98297198662988
 20
-38.27209375897666
 30
0.0
 10
45.00636354053613
 20
-38.43031583714623
 30
0.0
 10
45.06789654557193
 20
-38.49145591076789
 30
0.0
 10
45.09141059904556
 20
-38.51481981051057
 30
0.0
 11
45.4242718299789
 21
-36.43984435451057
 31
0.0
 11
45.34627538624556
 21
-36.41212248251057
 31
0.0
 11
45.2646140251789
 21
-36.47333495611057
 31
0.0
 11
45.18537511637889
 21
-36.61759803451057
 31
0.0
 11
45.11338250944556
 21
-36.83168408357723
 31
0.0
 11
45.05342932011223
 21
-37.0916090990439
 31
0.0
 11
45.00920382571223
 21
-37.36379634277724
 31
0.0
 11
44.98073066837889
 21
-37.62564529211056
 31
0.0
 11
44.9669006843789
 21
-37.86786157157724
 31
0.0
 11
44.96765517504556
 21
-38.08807297317724
 31
0.0
 11
44.98643626197889
 21
-38.2885785390439
 31
0.0
 11
45.02794457131222
 21
-38.44074058811057
 31
0.0
 11
45.09141059904556
 21
-38.51481981051057
 31
0.0
  0
LWPOLYLINE
  5
A8
100
AcDbEntity
  8
0
  6
HIDDEN
 62
     9
 48
0.5
100
AcDbPolyline
 90
       12
 70
     0
 43
0.0
 10
45.44957
 20
-36.470481
 10
45.418971
 20
-36.472902
 10
45.387703
 20
-36.559395
 10
45.358806
 20
-36.721531
 10
45.335084
 20
-36.943538
 10
45.318826
 20
-37.204042
 10
45.311628
 20
-37.477556
 10
45.314184
 20
-37.737676
 10
45.326252
 20
-37.959077
 10
45.346646
 20
-38.12012
 10
45.373408
 20
-38.205362
 10
45.404452
 20
-38.20569
  0
SPLINE
  5
A9
100
AcDbEntity
  8
0
  6
HIDDEN
 62
     9
 48
0.5
100
AcDbSpline
210
0.0
220
0.0
230
1.0
 70
     8
 71
     3
 72
    15
 73
    11
 74
     9
 42
0.0000001
 43
0.0000001
 44
0.0000000001
 40
0.0
 40
0.0
 40
0.0
 40
0.0
 40
0.194396709195105
 40
0.4037122076426403
 40
0.639121126425196
 40
0.9078069478029517
 40
1.208269872396169
 40
1.536179842328078
 40
1.891246569954985
 40
2.158916874183577
 40
2.158916874183577
 40
2.158916874183577
 40
2.158916874183577
 10
42.95991445824556
 20
-36.36212331984391
 30
0.0
 10
42.96077359112498
 20
-36.42724678187574
 30
0.0
 10
42.96255779021378
 20
-36.56249154365727
 30
0.0
 10
43.03238925706765
 20
-36.76725176252668
 30
0.0
 10
43.15724191894264
 20
-36.97131385651509
 30
0.0
 10
43.34290275223343
 20
-37.16723593375876
 30
0.0
 10
43.58096347238851
 20
-37.34960069807413
 30
0.0
 10
43.86354965212055
 20
-37.51681832951156
 30
0.0
 10
44.14935073907439
 20
-37.65457416706825
 30
0.0
 10
44.34218356062466
 20
-37.73149573979545
 30
0.0
 10
44.4250686587789
 20
-37.7645588462439
 30
0.0
 11
42.95991445824556
 21
-36.36212331984391
 31
0.0
 11
42.97230576917889
 21
-36.55612470117723
 31
0.0
 11
43.0360154043789
 21
-36.7555089038439
 31
0.0
 11
43.15754737664557
 21
-36.95712075557724
 31
0.0
 11
43.33996082411224
 21
-37.15439570277724
 31
0.0
 11
43.57683537131222
 21
-37.3392427150439
 31
0.0
 11
43.85783921771222
 21
-37.50824504251057
 31
0.0
 11
44.17745058411223
 21
-37.6629090510439
 31
0.0
 11
44.4250686587789
 21
-37.7645588462439
 31
0.0
  0
LWPOLYLINE
  5
AA
100
AcDbEntity
  8
0
  6
HIDDEN
 62
     9
 48
0.5
100
AcDbPolyline
 90
        6
 70
     0
 43
0.0
 10
43.620629
 20
-36.900678
 10
43.443587
 20
-36.792389
 10
43.237005
 20
-36.627683
 10
43.088917
 20
-36.460843
 10
43.001002
 20
-36.293756
 10
42.97491
 20
-36.112748
  0
LWPOLYLINE
  5
AB
100
AcDbEntity
  8
0
  6
HIDDEN
 62
     9
 48
0.5
100
AcDbPolyline
 90
        3
 70
     0
 43
0.0
 10
45.404452
 20
-38.20569
 10
45.4352
 20
-38.123293
 10
45.464251
 20
-37.964016
  0
SPLINE
  5
AC
100
AcDbEntity
  8
0
  6
HIDDEN
 62
     9
 48
0.5
100
AcDbSpline
210
-0.8985939341671828
220
0.4387812000051336
230
0.0
 70
    24
 71
     3
 72
     8
 73
     4
 74
     2
 42
0.0000001
 43
0.0000001
 44
0.0000000001
 40
0.0
 40
0.0
 40
0.0
 40
0.0
 40
0.0929160684175433
 40
0.0929160684175433
 40
0.0929160684175433
 40
0.0929160684175433
 10
45.26489025131222
 20
-38.4354701998439
 30
0.0
 10
45.27848019264555
 20
-38.40763892802168
 30
0.0
 10
45.2920701339789
 20
-38.37980765619946
 30
0.0
 10
45.30566007531223
 20
-38.35197638437723
 30
0.0
 11
45.26489025131222
 21
-38.4354701998439
 31
0.0
 11
45.30566007531223
 21
-38.35197638437723
 31
0.0
  0
LINE
  5
AD
100
AcDbEntity
  8
0
  6
HIDDEN
 62
     9
 48
0.5
100
AcDbLine
 10
45.172783
 20
-38.499833
 30
0.0
 11
45.243998
 21
-38.426339
 31
0.0
  0
LINE
  5
AE
100
AcDbEntity
  8
0
  6
HIDDEN
 62
     9
 48
0.5
100
AcDbLine
 10
45.243998
 20
-38.426339
 30
0.0
 11
45.404461
 21
-38.205679
 31
0.0
  0
LINE
  5
AF
100
AcDbEntity
  8
0
  6
HIDDEN
 62
     9
 48
0.5
100
AcDbLine
 10
45.091411
 20
-38.51482
 30
0.0
 11
45.172783
 21
-38.499833
 31
0.0
  0
LWPOLYLINE
  5
B0
100
AcDbEntity
  8
0
  6
HIDDEN
 62
     9
 48
0.5
100
AcDbPolyline
 90
       10
 70
     0
 43
0.0
 10
45.425416
 20
-37.405986
 10
45.427714
 20
-37.357837
 10
45.428895
 20
-37.308842
 10
45.428907
 20
-37.261145
 10
45.427749
 20
-37.216828
 10
45.425473
 20
-37.17783
 10
45.422177
 20
-37.145853
 10
45.418006
 20
-37.122297
 10
45.413141
 20
-37.108191
 10
45.408454
 20
-37.104095
  0
LWPOLYLINE
  5
B1
100
AcDbEntity
  8
0
  6
HIDDEN
 62
     9
 48
0.5
100
AcDbPolyline
 90
        8
 70
     0
 43
0.0
 10
45.408454
 20
-37.104095
 10
45.407797
 20
-37.10415
 10
45.402205
 20
-37.110352
 10
45.396611
 20
-37.126526
 10
45.391258
 20
-37.151964
 10
45.386382
 20
-37.185555
 10
45.382195
 20
-37.225831
 10
45.37888
 20
-37.271031
  0
LINE
  5
B2
100
AcDbEntity
  8
0
  6
HIDDEN
 62
     9
 48
0.5
100
AcDbLine
 10
45.343888
 20
-37.459551
 30
0.0
 11
45.373586
 21
-36.965685
 31
0.0
  0
LWPOLYLINE
  5
B3
100
AcDbEntity
  8
0
  6
HIDDEN
 62
     9
 48
0.5
100
AcDbPolyline
 90
        8
 70
     0
 43
0.0
 10
45.461939
 20
-36.949764
 10
45.469678
 20
-36.982777
 10
45.475946
 20
-37.032135
 10
45.480429
 20
-37.095365
 10
45.482902
 20
-37.169296
 10
45.483242
 20
-37.25022
 10
45.481431
 20
-37.33408
 10
45.47756
 20
-37.41667
  0
LWPOLYLINE
  5
B4
100
AcDbEntity
  8
0
  6
HIDDEN
 62
     9
 48
0.5
100
AcDbPolyline
 90
        7
 70
     0
 43
0.0
 10
45.463168
 20
-37.656003
 10
45.457432
 20
-37.733183
 10
45.450117
 20
-37.801081
 10
45.441591
 20
-37.856294
 10
45.432281
 20
-37.896053
 10
45.422654
 20
-37.918363
 10
45.415864
 20
-37.922946
  0
LINE
  5
B5
100
AcDbEntity
  8
0
  6
HIDDEN
 62
     9
 48
0.5
100
AcDbLine
 10
45.404371
 20
-37.907097
 30
0.0
 11
45.349148
 21
-37.74695
 31
0.0
  0
LWPOLYLINE
  5
B6
100
AcDbEntity
  8
0
  6
HIDDEN
 62
     9
 48
0.5
100
AcDbPolyline
 90
        3
 70
     0
 43
0.0
 10
45.415864
 20
-37.922946
 10
45.413192
 20
-37.922107
 10
45.404371
 20
-37.907097
  0
SPLINE
  5
B7
100
AcDbEntity
  8
0
  6
HIDDEN
 62
     9
 48
0.5
100
AcDbSpline
210
0.0
220
0.0
230
1.0
 70
     8
 71
     3
 72
     9
 73
     5
 74
     3
 42
0.0000001
 43
0.0000001
 44
0.0000000001
 40
0.0
 40
0.0
 40
0.0
 40
0.0
 40
0.0295462380552419
 40
0.0571555822139575
 40
0.0571555822139575
 40
0.0571555822139575
 40
0.0571555822139575
 10
45.49085388757889
 20
-37.71259622224391
 30
0.0
 10
45.49164934796625
 20
-37.70277964487862
 30
0.0
 10
45.49318812259748
 20
-37.68379001264145
 30
0.0
 10
45.49466472747247
 20
-37.66479544620846
 30
0.0
 10
45.49537801024557
 20
-37.6556200078439
 30
0.0
 11
45.49085388757889
 21
-37.71259622224391
 31
0.0
 11
45.49322365504557
 21
-37.68314517157723
 31
0.0
 11
45.49537801024557
 21
-37.6556200078439
 31
0.0
  0
SPLINE
  5
B8
100
AcDbEntity
  8
0
  6
HIDDEN
 62
     9
 48
0.5
100
AcDbSpline
210
-0.9965625980200664
220
0.0828431543791967
230
0.0
 70
    24
 71
     3
 72
     8
 73
     4
 74
     2
 42
0.0000001
 43
0.0000001
 44
0.0000000001
 40
0.0
 40
0.0
 40
0.0
 40
0.0
 40
0.0315408430898139
 40
0.0315408430898139
 40
0.0315408430898139
 40
0.0315408430898139
 10
45.48824094464555
 20
-37.74402864677723
 30
0.0
 10
45.48911192562333
 20
-37.73355117193279
 30
0.0
 10
45.48998290660111
 20
-37.72307369708835
 30
0.0
 10
45.49085388757889
 20
-37.71259622224391
 30
0.0
 11
45.48824094464555
 21
-37.74402864677723
 31
0.0
 11
45.49085388757889
 21
-37.71259622224391
 31
0.0
  0
SPLINE
  5
B9
100
AcDbEntity
  8
0
  6
HIDDEN
 62
     9
 48
0.5
100
AcDbSpline
210
0.0
220
0.0
230
1.0
 70
     8
 71
     3
 72
    11
 73
     7
 74
     5
 42
0.0000001
 43
0.0000001
 44
0.0000000001
 40
0.0
 40
0.0
 40
0.0
 40
0.0
 40
0.0209826328236583
 40
0.0301983842191378
 40
0.0337129426431954
 40
0.0339177064319377
 40
0.0339177064319377
 40
0.0339177064319377
 40
0.0339177064319377
 10
44.81019728384556
 20
-37.8911050126439
 30
0.0
 10
44.81572184481854
 20
-37.89312040439904
 30
0.0
 10
44.82367284011576
 20
-37.89602097341179
 30
0.0
 10
44.83924630397138
 20
-37.90336716542928
 30
0.0
 10
44.83496698066841
 20
-37.90696187144073
 30
0.0
 10
44.83379040877213
 20
-37.90733759980525
 30
0.0
 10
44.83372563371221
 20
-37.90735828517723
 30
0.0
 11
44.81019728384556
 21
-37.8911050126439
 31
0.0
 11
44.8296671579789
 21
-37.89892772837724
 31
0.0
 11
44.83659094997889
 21
-37.90500976571057
 31
0.0
 11
44.83392012224555
 21
-37.9072942350439
 31
0.0
 11
44.83372563371221
 21
-37.90735828517723
 31
0.0
  0
LINE
  5
BA
100
AcDbEntity
  8
0
  6
HIDDEN
 62
     9
 48
0.5
100
AcDbLine
 10
44.833706
 20
-37.907293
 30
0.0
 11
44.83091
 21
-37.906769
 31
0.0
  0
LINE
  5
BB
100
AcDbEntity
  8
0
  6
HIDDEN
 62
     9
 48
0.5
100
AcDbLine
 10
44.833615
 20
-37.90729
 30
0.0
 11
45.41587
 21
-37.922961
 31
0.0
  0
LINE
  5
BC
100
AcDbEntity
  8
0
  6
HIDDEN
 62
     9
 48
0.5
100
AcDbLine
 10
44.810197
 20
-37.891105
 30
0.0
 11
45.404371
 21
-37.907097
 31
0.0
  0
LINE
  5
BD
100
AcDbEntity
  8
0
  6
HIDDEN
 62
     9
 48
0.5
100
AcDbLine
 10
45.464251
 20
-37.964016
 30
0.0
 11
45.488241
 21
-37.744029
 31
0.0
  0
SPLINE
  5
BE
100
AcDbEntity
  8
0
  6
HIDDEN
 62
     9
 48
0.5
100
AcDbSpline
210
0.0
220
0.0
230
-1.0
 70
     8
 71
     3
 72
    15
 73
    11
 74
     9
 42
0.0000001
 43
0.0000001
 44
0.0000000001
 40
0.0
 40
0.0
 40
0.0
 40
0.0
 40
0.0246026956874787
 40
0.0541766445686988
 40
0.0879698042256322
 40
0.1251465179425076
 40
0.1647867870885782
 40
0.2058741818647853
 40
0.2473148578477405
 40
0.2878569433205367
 40
0.2878569433205367
 40
0.2878569433205367
 40
0.2878569433205367
 10
45.34914830891222
 20
-37.7469500142439
 30
0.0
 10
45.34801446404311
 20
-37.73882636576284
 30
0.0
 10
45.34551766811271
 20
-37.72093759365631
 30
0.0
 10
45.34318908129792
 20
-37.6916932191194
 30
0.0
 10
45.34136171492055
 20
-37.65822813211159
 30
0.0
 10
45.34031001834672
 20
-37.62136857785195
 30
0.0
 10
45.33999851189491
 20
-37.58206599211662
 30
0.0
 10
45.340486754949
 20
-37.54134415389309
 30
0.0
 10
45.34168469073222
 20
-37.50033442546703
 30
0.0
 10
45.34315908950097
 20
-37.47304576178251
 30
0.0
 10
45.34388820864556
 20
-37.45955098171057
 30
0.0
 11
45.34914830891222
 21
-37.7469500142439
 31
0.0
 11
45.34596593451223
 21
-37.7225540078439
 31
0.0
 11
45.34341526251222
 21
-37.69309025851057
 31
0.0
 11
45.34156266624556
 21
-37.6593479182439
 31
0.0
 11
45.34045697877888
 21
-37.62218765051057
 31
0.0
 11
45.34013155264555
 21
-37.58254871717724
 31
0.0
 11
45.3406027035789
 21
-37.54146402384391
 31
0.0
 11
45.34186626411222
 21
-37.5000426158439
 31
0.0
 11
45.34388820864556
 21
-37.45955098171057
 31
0.0
  0
SPLINE
  5
BF
100
AcDbEntity
  8
0
  6
HIDDEN
 62
     9
 48
0.5
100
AcDbSpline
210
0.3583518946309727
220
0.9335865892430078
230
0.0
 70
    24
 71
     3
 72
     8
 73
     4
 74
     2
 42
0.0000001
 43
0.0000001
 44
0.0000000001
 40
0.0
 40
0.0
 40
0.0
 40
0.0
 40
0.0107041480477675
 40
0.0107041480477675
 40
0.0107041480477675
 40
0.0107041480477675
 10
44.4250686587789
 20
-37.7645588462439
 30
0.0
 10
44.42839974180111
 20
-37.76583746348835
 30
0.0
 10
44.43173082482334
 20
-37.76711608073279
 30
0.0
 10
44.43506190784556
 20
-37.76839469797723
 30
0.0
 11
44.4250686587789
 21
-37.7645588462439
 31
0.0
 11
44.43506190784556
 21
-37.76839469797723
 31
0.0
  0
SPLINE
  5
C0
100
AcDbEntity
  8
0
  6
HIDDEN
 62
     9
 48
0.5
100
AcDbSpline
210
0.0
220
0.0
230
1.0
 70
     8
 71
     3
 72
     9
 73
     5
 74
     3
 42
0.0000001
 43
0.0000001
 44
0.0000000001
 40
0.0
 40
0.0
 40
0.0
 40
0.0
 40
0.1045668869706209
 40
0.4193261839390962
 40
0.4193261839390962
 40
0.4193261839390962
 40
0.4193261839390962
 10
44.43506190784556
 20
-37.76839469797723
 30
0.0
 10
44.46766760639394
 20
-37.78072041459525
 30
0.0
 10
44.59842050095796
 20
-37.8301480667276
 30
0.0
 10
44.73119758649353
 20
-37.87391670040845
 30
0.0
 10
44.83086420331225
 20
-37.90677080037724
 30
0.0
 11
44.43506190784556
 21
-37.76839469797723
 31
0.0
 11
44.53300487744556
 21
-37.80501994277724
 31
0.0
 11
44.83086420331225
 21
-37.90677080037724
 31
0.0
  0
LINE
  5
C1
100
AcDbEntity
  8
0
  6
HIDDEN
 62
     9
 48
0.5
100
AcDbLine
 10
44.810197
 20
-37.891105
 30
0.0
 11
44.459384
 21
-37.765164
 31
0.0
  0
LWPOLYLINE
  5
C2
100
AcDbEntity
  8
0
  6
HIDDEN
 62
     9
 48
0.5
100
AcDbPolyline
 90
        3
 70
     0
 43
0.0
 10
45.465493
 20
-37.617353
 10
44.387762
 20
-37.255291
 10
44.143363
 20
-37.156794
  0
SPLINE
  5
C3
100
AcDbEntity
  8
0
  6
HIDDEN
 62
     9
 48
0.5
100
AcDbSpline
210
0.0
220
0.0
230
-1.0
 70
     8
 71
     3
 72
    14
 73
    10
 74
     8
 42
0.0000001
 43
0.0000001
 44
0.0000000001
 40
0.0
 40
0.0
 40
0.0
 40
0.0
 40
0.0572632786617365
 40
0.3683972613073843
 40
0.6534679430974986
 40
0.9079499075047666
 40
1.13187932899261
 40
1.332258478342801
 40
1.519579869652921
 40
1.519579869652921
 40
1.519579869652921
 40
1.519579869652921
 10
43.98808615637889
 20
-35.08862849637724
 30
0.0
 10
43.97037395520155
 20
-35.09574140525521
 30
0.0
 10
43.85642437777685
 20
-35.14150155402441
 30
0.0
 10
43.6587262679012
 20
-35.23406645512281
 30
0.0
 10
43.41733737786777
 20
-35.38438570078126
 30
0.0
 10
43.22431645285362
 20
-35.55273771811055
 30
0.0
 10
43.08701372731533
 20
-35.73420307175155
 30
0.0
 10
42.99998003255487
 20
-35.9218050274047
 30
0.0
 10
42.98307714808782
 20
-36.0505455391107
 30
0.0
 10
42.97491035051223
 20
-36.11274780411057
 30
0.0
 11
43.98808615637889
 21
-35.08862849637724
 31
0.0
 11
43.93500985557889
 21
-35.11012243451057
 31
0.0
 11
43.65389027904557
 21
-35.24344962171057
 31
0.0
 11
43.41331782464556
 21
-35.39638813157724
 31
0.0
 11
43.22343384704555
 21
-35.56581406011057
 31
0.0
 11
43.08933817771223
 21
-35.74515378597723
 31
0.0
 11
43.0083437211789
 21
-35.92843417637723
 31
0.0
 11
42.97491035051223
 21
-36.11274780411057
 31
0.0
  0
LINE
  5
C4
100
AcDbEntity
  8
0
  6
HIDDEN
 62
     9
 48
0.5
100
AcDbLine
 10
42.959914
 20
-36.362123
 30
0.0
 11
42.97491
 21
-36.112748
 31
0.0
  0
SPLINE
  5
C5
100
AcDbEntity
  8
0
  6
CONTINUOUS
100
AcDbSpline
210
-0.7932444434921426
220
0.6089033198044181
230
0.0
 70
    24
 71
     3
 72
     8
 73
     4
 74
     2
 42
0.0000001
 43
0.0000001
 44
0.0000000001
 40
0.0
 40
0.0
 40
0.0
 40
0.0
 40
0.182539074625232
 40
0.182539074625232
 40
0.182539074625232
 40
0.182539074625232
 10
46.12714643584557
 20
-35.4925589486439
 30
0.0
 10
46.16419598535668
 20
-35.44429291308834
 30
0.0
 10
46.2012455348678
 20
-35.39602687753279
 30
0.0
 10
46.2382950843789
 20
-35.34776084197724
 30
0.0
 11
46.12714643584557
 21
-35.4925589486439
 31
0.0
 11
46.2382950843789
 21
-35.34776084197724
 31
0.0
  0
SPLINE
  5
C6
100
AcDbEntity
  8
0
  6
CONTINUOUS
100
AcDbSpline
210
-0.8704420257683265
220
0.4922709414299532
230
0.0
 70
    24
 71
     3
 72
     8
 73
     4
 74
     2
 42
0.0000001
 43
0.0000001
 44
0.0000000001
 40
0.0
 40
0.0
 40
0.0
 40
0.0
 40
0.1141343176519687
 40
0.1141343176519687
 40
0.1141343176519687
 40
0.1141343176519687
 10
46.26832433344557
 20
-35.39378136144391
 30
0.0
 10
46.24959599744558
 20
-35.42689713033279
 30
0.0
 10
46.23086766144559
 20
-35.46001289922168
 30
0.0
 10
46.21213932544558
 20
-35.49312866811057
 30
0.0
 11
46.26832433344557
 21
-35.39378136144391
 31
0.0
 11
46.21213932544558
 21
-35.49312866811057
 31
0.0
  0
LWPOLYLINE
  5
C7
100
AcDbEntity
  8
0
  6
HIDDEN
 62
     9
 48
0.5
100
AcDbPolyline
 90
        8
 70
     0
 43
0.0
 10
44.783535
 20
-35.544532
 10
44.78685
 20
-35.499331
 10
44.791037
 20
-35.459055
 10
44.795914
 20
-35.425464
 10
44.801266
 20
-35.400026
 10
44.80686
 20
-35.383852
 10
44.812452
 20
-35.37765
 10
44.813109
 20
-35.377596
  0
LWPOLYLINE
  5
C8
100
AcDbEntity
  8
0
  6
HIDDEN
 62
     9
 48
0.5
100
AcDbPolyline
 90
       10
 70
     0
 43
0.0
 10
44.813109
 20
-35.377596
 10
44.817797
 20
-35.381691
 10
44.822661
 20
-35.395798
 10
44.826832
 20
-35.419354
 10
44.830128
 20
-35.45133
 10
44.832405
 20
-35.490328
 10
44.833562
 20
-35.534645
 10
44.83355
 20
-35.582342
 10
44.832369
 20
-35.631337
 10
44.830071
 20
-35.679486
  0
SPLINE
  5
C9
100
AcDbEntity
  8
0
  6
HIDDEN
 62
     9
 48
0.5
100
AcDbSpline
210
0.0
220
0.0
230
1.0
 70
     8
 71
     3
 72
    15
 73
    11
 74
     9
 42
0.0000001
 43
0.0000001
 44
0.0000000001
 40
0.0
 40
0.0
 40
0.0
 40
0.0
 40
0.0246025253047153
 40
0.0541760834007226
 40
0.0879687721245729
 40
0.1251451963440613
 40
0.1647855542481677
 40
0.2058733658923823
 40
0.2473145420394982
 40
0.2878569445564307
 40
0.2878569445564307
 40
0.2878569445564307
 40
0.2878569445564307
 10
44.85980248811222
 20
-35.20356761317724
 30
0.0
 10
44.86093632670651
 20
-35.21169120517403
 30
0.0
 10
44.86343310024852
 20
-35.22957979149113
 30
0.0
 10
44.86576167319709
 20
-35.25882382164559
 30
0.0
 10
44.86758904265534
 20
-35.29228852418956
 30
0.0
 10
44.86864075623521
 20
-35.32914785394847
 30
0.0
 10
44.86895229098242
 20
-35.36845051153049
 30
0.0
 10
44.86846406211461
 20
-35.40917268529036
 30
0.0
 10
44.86726612598921
 20
-35.45018282535714
 30
0.0
 10
44.86579171370682
 20
-35.47747176113539
 30
0.0
 10
44.86506258944557
 20
-35.49096664677724
 30
0.0
 11
44.85980248811222
 21
-35.20356761317724
 31
0.0
 11
44.86298484544557
 21
-35.22796344997724
 31
0.0
 11
44.86553549611224
 21
-35.25742680891057
 31
0.0
 11
44.8673880891789
 21
-35.29116867771057
 31
0.0
 11
44.86849379371221
 21
-35.32832865531057
 31
0.0
 11
44.8688192475789
 21
-35.36796767717724
 31
0.0
 11
44.86834811157891
 21
-35.40905278757723
 31
0.0
 11
44.8670845467789
 21
-35.45047469584391
 31
0.0
 11
44.86506258944557
 21
-35.49096664677724
 31
0.0
  0
SPLINE
  5
CA
100
AcDbEntity
  8
0
  6
CONTINUOUS
100
AcDbSpline
210
0.0
220
0.0
230
-1.0
 70
     8
 71
     3
 72
     9
 73
     5
 74
     3
 42
0.0000001
 43
0.0000001
 44
0.0000000001
 40
0.0
 40
0.0
 40
0.0
 40
0.0
 40
0.23744976626344
 40
0.5181508774244649
 40
0.5181508774244649
 40
0.5181508774244649
 40
0.5181508774244649
 10
45.0395751707789
 20
-35.58965290384391
 30
0.0
 10
45.01155266773259
 20
-35.51539003094376
 30
0.0
 10
44.95040337805519
 20
-35.353337343511
 30
0.0
 10
44.92480436089916
 20
-35.18192380160449
 30
0.0
 10
44.91093644544557
 20
-35.08906287291057
 30
0.0
 11
45.0395751707789
 21
-35.58965290384391
 31
0.0
 11
44.96297342037888
 21
-35.3648984526439
 31
0.0
 11
44.91093644544557
 21
-35.08906287291057
 31
0.0
  0
LINE
  5
CB
100
AcDbEntity
  8
0
  6
HIDDEN
 62
     9
 48
0.5
100
AcDbLine
 10
44.73139
 20
-35.533847
 30
0.0
 11
44.745782
 21
-35.294514
 31
0.0
  0
SPLINE
  5
CC
100
AcDbEntity
  8
0
  6
CONTINUOUS
100
AcDbSpline
210
-0.870132215092603
220
0.4928183521928139
230
0.0
 70
    24
 71
     3
 72
     8
 73
     4
 74
     2
 42
0.0000001
 43
0.0000001
 44
0.0000000001
 40
0.0
 40
0.0
 40
0.0
 40
0.0
 40
0.0223405619622934
 40
0.0223405619622934
 40
0.0223405619622934
 40
0.0223405619622934
 10
46.21214649984556
 20
-35.49313035344391
 30
0.0
 10
46.20847655353445
 20
-35.49961010099946
 30
0.0
 10
46.20480660722335
 20
-35.50608984855502
 30
0.0
 10
46.20113666091223
 20
-35.51256959611057
 30
0.0
 11
46.21214649984556
 21
-35.49313035344391
 31
0.0
 11
46.20113666091223
 21
-35.51256959611057
 31
0.0
  0
SPLINE
  5
CD
100
AcDbEntity
  8
0
  6
CONTINUOUS
100
AcDbSpline
210
0.0
220
0.0
230
1.0
 70
     8
 71
     3
 72
    11
 73
     7
 74
     5
 42
0.0000001
 43
0.0000001
 44
0.0000000001
 40
0.0
 40
0.0
 40
0.0
 40
0.0
 40
0.1102615571783635
 40
0.2205373622210557
 40
0.3329746253658846
 40
0.4518547241892498
 40
0.4518547241892498
 40
0.4518547241892498
 40
0.4518547241892498
 10
45.15254950357891
 20
-35.7394276814439
 30
0.0
 10
45.18265186403036
 20
-35.7606503269359
 30
0.0
 10
45.24286047472368
 20
-35.80309836028433
 30
0.0
 10
45.34454678779037
 20
-35.84887170929999
 30
0.0
 10
45.45597795555464
 20
-35.87794687322257
 30
0.0
 10
45.53341978864604
 20
-35.87479914799915
 30
0.0
 10
45.57321919104555
 20
-35.87318144891057
 30
0.0
 11
45.15254950357891
 21
-35.7394276814439
 31
0.0
 11
45.24464154411224
 21
-35.8000632078439
 31
0.0
 11
45.34502367744557
 21
-35.8457160334439
 31
0.0
 11
45.4543449339789
 21
-35.87200293157724
 31
0.0
 11
45.57321919104555
 21
-35.87318144891057
 31
0.0
  0
SPLINE
  5
CE
100
AcDbEntity
  8
0
  6
CONTINUOUS
100
AcDbSpline
210
0.0
220
0.0
230
1.0
 70
     8
 71
     3
 72
    10
 73
     6
 74
     4
 42
0.0000001
 43
0.0000001
 44
0.0000000001
 40
0.0
 40
0.0
 40
0.0
 40
0.0
 40
0.1392256789853238
 40
0.2675222196896509
 40
0.3934109669061976
 40
0.3934109669061976
 40
0.3934109669061976
 40
0.3934109669061976
 10
45.4431585659789
 20
-35.95766682811057
 30
0.0
 10
45.39820933124531
 20
-35.94505607752384
 30
0.0
 10
45.31183935167744
 20
-35.92082451324989
 30
0.0
 10
45.20269943842793
 20
-35.84316405488457
 30
0.0
 10
45.14940249397239
 20
-35.77707681735929
 30
0.0
 10
45.12300645184557
 20
-35.74434620731057
 30
0.0
 11
45.4431585659789
 21
-35.95766682811057
 31
0.0
 11
45.31160271744556
 21
-35.91209437584391
 31
0.0
 11
45.2064181691789
 21
-35.83863545424391
 31
0.0
 11
45.12300645184557
 21
-35.74434620731057
 31
0.0
  0
SPLINE
  5
CF
100
AcDbEntity
  8
0
  6
CONTINUOUS
100
AcDbSpline
210
-0.9160367233364297
220
-0.4010944047217027
230
0.0
 70
    24
 71
     3
 72
     9
 73
     5
 74
     3
 42
0.0000001
 43
0.0000001
 44
0.0000000001
 40
0.0
 40
0.0
 40
0.0
 40
0.0
 40
0.0020485833144768
 40
0.0030836700628059
 40
0.0030836700628059
 40
0.0030836700628059
 40
0.0030836700628059
 10
45.0395869819789
 20
-35.58964724091057
 30
0.0
 10
45.03986646155519
 20
-35.59027031985737
 30
0.0
 10
45.04028715364836
 20
-35.59120822161682
 30
0.0
 10
45.04068893523217
 20
-35.59215435401091
 30
0.0
 10
45.04082380011223
 20
-35.59247193957723
 30
0.0
 11
45.0395869819789
 21
-35.58964724091057
 31
0.0
 11
45.0404170747789
 21
-35.5915201102439
 31
0.0
 11
45.04082380011223
 21
-35.59247193957723
 31
0.0
  0
SPLINE
  5
D0
100
AcDbEntity
  8
0
  6
CONTINUOUS
100
AcDbSpline
210
0.0
220
0.0
230
1.0
 70
     8
 71
     3
 72
    10
 73
     6
 74
     4
 42
0.0000001
 43
0.0000001
 44
0.0000000001
 40
0.0
 40
0.0
 40
0.0
 40
0.0
 40
0.0028769666633041
 40
0.0058047894799385
 40
0.008783762934593
 40
0.008783762934593
 40
0.008783762934593
 40
0.008783762934593
 10
45.04083163904556
 20
-35.59246866384391
 30
0.0
 10
45.04121237028704
 20
-35.59334883966808
 30
0.0
 10
45.04198056295796
 20
-35.59512475018864
 30
0.0
 10
45.04311821637029
 20
-35.59782267279821
 30
0.0
 10
45.04386732072188
 20
-35.59964353988689
 30
0.0
 10
45.0442451163789
 20
-35.6005618574439
 30
0.0
 11
45.04083163904556
 21
-35.59246866384391
 31
0.0
 11
45.04196981184557
 21
-35.5951109166439
 31
0.0
 11
45.04310767744556
 21
-35.59780858384391
 31
0.0
 11
45.0442451163789
 21
-35.6005618574439
 31
0.0
  0
SPLINE
  5
D1
100
AcDbEntity
  8
0
  6
CONTINUOUS
100
AcDbSpline
210
0.0
220
0.0
230
1.0
 70
     8
 71
     3
 72
    10
 73
     6
 74
     4
 42
0.0000001
 43
0.0000001
 44
0.0000000001
 40
0.0
 40
0.0
 40
0.0
 40
0.0
 40
0.0100866533893201
 40
0.0207296802530209
 40
0.0319358441230984
 40
0.0319358441230984
 40
0.0319358441230984
 40
0.0319358441230984
 10
45.0442451163789
 20
-35.6005618574439
 30
0.0
 10
45.04549529105607
 20
-35.60368311611428
 30
0.0
 10
45.04806459926146
 20
-35.61009780012557
 30
0.0
 10
45.05175662426824
 20
-35.62008398854381
 30
0.0
 10
45.05412352326945
 20
-35.62697183828817
 30
0.0
 10
45.0553374747789
 20
-35.63050452624391
 30
0.0
 11
45.0442451163789
 21
-35.6005618574439
 31
0.0
 11
45.04795472811223
 21
-35.6099415886439
 31
0.0
 11
45.05165378624556
 21
-35.61992111717724
 31
0.0
 11
45.0553374747789
 21
-35.63050452624391
 31
0.0
  0
SPLINE
  5
D2
100
AcDbEntity
  8
0
  6
CONTINUOUS
100
AcDbSpline
210
0.0
220
0.0
230
-1.0
 70
     8
 71
     3
 72
     9
 73
     5
 74
     3
 42
0.0000001
 43
0.0000001
 44
0.0000000001
 40
0.0
 40
0.0
 40
0.0
 40
0.0
 40
0.0724282465929442
 40
0.146721678281583
 40
0.146721678281583
 40
0.146721678281583
 40
0.146721678281583
 10
45.05542476224556
 20
-35.6304539598439
 30
0.0
 10
45.06868443796627
 20
-35.65080591785186
 30
0.0
 10
45.09554525493655
 20
-35.69203394111225
 30
0.0
 10
45.13335674347199
 20
-35.72353717291883
 30
0.0
 10
45.15250282517889
 20
-35.73948902971057
 30
0.0
 11
45.05542476224556
 21
-35.6304539598439
 31
0.0
 11
45.09787229504556
 21
-35.68914005584391
 31
0.0
 11
45.15250282517889
 21
-35.73948902971057
 31
0.0
  0
SPLINE
  5
D3
100
AcDbEntity
  8
0
  6
CONTINUOUS
100
AcDbSpline
210
0.0
220
0.0
230
-1.0
 70
     8
 71
     3
 72
    14
 73
    10
 74
     8
 42
0.0000001
 43
0.0000001
 44
0.0000000001
 40
0.0
 40
0.0
 40
0.0
 40
0.0
 40
0.0223514550190764
 40
0.0435275199645119
 40
0.063568387014874
 40
0.0825174151388419
 40
0.1003822095338356
 40
0.1171038116333773
 40
0.1325767306325797
 40
0.1325767306325797
 40
0.1325767306325797
 40
0.1325767306325797
 10
45.12300645184557
 20
-35.74434620731057
 30
0.0
 10
45.11872240488076
 20
-35.73824984975203
 30
0.0
 10
45.11037959499966
 20
-35.72637772218298
 30
0.0
 10
45.09886235801332
 20
-35.70858625211826
 30
0.0
 10
45.08837597193717
 20
-35.69148921870428
 30
0.0
 10
45.07886340091139
 20
-35.67509574665205
 30
0.0
 10
45.07024399781516
 20
-35.6594691857794
 30
0.0
 10
45.06245118658042
 20
-35.64471266517647
 30
0.0
 10
45.05764659576929
 20
-35.63511650839318
 30
0.0
 10
45.0553374747789
 20
-35.63050452624391
 30
0.0
 11
45.12300645184557
 21
-35.74434620731057
 31
0.0
 11
45.11027469611223
 21
-35.72597530811057
 31
0.0
 11
45.09873161984557
 21
-35.70822191077724
 31
0.0
 11
45.08825754731224
 21
-35.6911359470439
 31
0.0
 11
45.07874353877889
 21
-35.67474847291058
 31
0.0
 11
45.07010914304555
 21
-35.65910884091057
 31
0.0
 11
45.06231269291222
 21
-35.6443160270439
 31
0.0
 11
45.0553374747789
 21
-35.63050452624391
 31
0.0
  0
SPLINE
  5
D4
100
AcDbEntity
  8
0
  6
CONTINUOUS
100
AcDbSpline
210
0.0
220
0.0
230
1.0
 70
     8
 71
     3
 72
    10
 73
     6
 74
     4
 42
0.0000001
 43
0.0000001
 44
0.0000000001
 40
0.0
 40
0.0
 40
0.0
 40
0.0
 40
0.0789762636591899
 40
0.1561342844579393
 40
0.2325970540292052
 40
0.2325970540292052
 40
0.2325970540292052
 40
0.2325970540292052
 10
45.67438574037889
 20
-35.95579847291057
 30
0.0
 10
45.64839442265768
 20
-35.96011820893561
 30
0.0
 10
45.5970101762209
 20
-35.96865822921599
 30
0.0
 10
45.51903023411665
 20
-35.9694173471539
 30
0.0
 10
45.46837270070145
 20
-35.96157183214555
 30
0.0
 10
45.4431585659789
 20
-35.95766682811057
 30
0.0
 11
45.67438574037889
 21
-35.95579847291057
 31
0.0
 11
45.59616591744557
 21
-35.96670303717724
 31
0.0
 11
45.51901031531222
 21
-35.96731396517724
 31
0.0
 11
45.4431585659789
 21
-35.95766682811057
 31
0.0
  0
SPLINE
  5
D5
100
AcDbEntity
  8
0
  6
CONTINUOUS
100
AcDbSpline
210
0.0
220
0.0
230
1.0
 70
     8
 71
     3
 72
    10
 73
     6
 74
     4
 42
0.0000001
 43
0.0000001
 44
0.0000000001
 40
0.0
 40
0.0
 40
0.0
 40
0.0
 40
0.0830593567162927
 40
0.1694652764272785
 40
0.2607121622133247
 40
0.2607121622133247
 40
0.2607121622133247
 40
0.2607121622133247
 10
45.57321919104555
 20
-35.87318144891057
 30
0.0
 10
45.60059872882416
 20
-35.86878460905414
 30
0.0
 10
45.65646095942093
 20
-35.8598137752898
 30
0.0
 10
45.73868855992711
 20
-35.82983444057332
 30
0.0
 10
45.79040553984342
 20
-35.80089803250369
 30
0.0
 10
45.81696866304556
 20
-35.78603557584391
 30
0.0
 11
45.57321919104555
 21
-35.87318144891057
 31
0.0
 11
45.65477801451223
 21
-35.85746473637724
 31
0.0
 11
45.73614120917889
 21
-35.82837842491057
 31
0.0
 11
45.81696866304556
 21
-35.78603557584391
 31
0.0
  0
SPLINE
  5
D6
100
AcDbEntity
  8
0
  6
CONTINUOUS
100
AcDbSpline
210
0.0
220
0.0
230
1.0
 70
     8
 71
     3
 72
     9
 73
     5
 74
     3
 42
0.0000001
 43
0.0000001
 44
0.0000000001
 40
0.0
 40
0.0
 40
0.0
 40
0.0
 40
0.0167412404179008
 40
0.0679274575365551
 40
0.0679274575365551
 40
0.0679274575365551
 40
0.0679274575365551
 10
45.81690529131224
 20
-35.7859303310439
 30
0.0
 10
45.82166982934214
 20
-35.78302377239715
 30
0.0
 10
45.841001906693
 20
-35.77123043246974
 30
0.0
 10
45.85954435921804
 20
-35.75821711238958
 30
0.0
 10
45.8735168827789
 20
-35.74841102437724
 30
0.0
 11
45.81690529131224
 21
-35.7859303310439
 31
0.0
 11
45.83115094251222
 21
-35.77713655184391
 31
0.0
 11
45.8735168827789
 21
-35.74841102437724
 31
0.0
  0
SPLINE
  5
D7
100
AcDbEntity
  8
0
  6
CONTINUOUS
100
AcDbSpline
210
0.0
220
0.0
230
1.0
 70
     8
 71
     3
 72
    10
 73
     6
 74
     4
 42
0.0000001
 43
0.0000001
 44
0.0000000001
 40
0.0
 40
0.0
 40
0.0
 40
0.0
 40
0.1115066653880564
 40
0.2190265592215705
 40
0.3251154095771628
 40
0.3251154095771628
 40
0.3251154095771628
 40
0.3251154095771628
 10
45.96247384704557
 20
-35.81193000784391
 30
0.0
 10
45.93308072715649
 20
-35.83475307813925
 30
0.0
 10
45.8753453990334
 20
-35.87958321040322
 30
0.0
 10
45.7777412456428
 20
-35.92899149938098
 30
0.0
 10
45.70868336075037
 20
-35.9469028132253
 30
0.0
 10
45.67438574037889
 20
-35.95579847291057
 30
0.0
 11
45.96247384704557
 21
-35.81193000784391
 31
0.0
 11
45.87221596651224
 21
-35.87740711397724
 31
0.0
 11
45.77606266411223
 21
-35.92552228837723
 31
0.0
 11
45.67438574037889
 21
-35.95579847291057
 31
0.0
  0
SPLINE
  5
D8
100
AcDbEntity
  8
0
  6
CONTINUOUS
100
AcDbSpline
210
0.0
220
0.0
230
1.0
 70
     8
 71
     3
 72
     9
 73
     5
 74
     3
 42
0.0000001
 43
0.0000001
 44
0.0000000001
 40
0.0
 40
0.0
 40
0.0
 40
0.0
 40
0.1696491854430443
 40
0.3611485684456765
 40
0.3611485684456765
 40
0.3611485684456765
 40
0.3611485684456765
 10
45.87332701291223
 20
-35.7481485070439
 30
0.0
 10
45.91747483374699
 20
-35.71253905941355
 30
0.0
 10
46.01145655404132
 20
-35.63673379691695
 30
0.0
 10
46.08709110548352
 20
-35.54254238292557
 30
0.0
 10
46.12719640064556
 20
-35.49259729317724
 30
0.0
 11
45.87332701291223
 21
-35.7481485070439
 31
0.0
 11
46.0017219131789
 21
-35.63726299984391
 31
0.0
 11
46.12719640064556
 21
-35.49259729317724
 31
0.0
  0
SPLINE
  5
D9
100
AcDbEntity
  8
0
  6
CONTINUOUS
100
AcDbSpline
210
0.0
220
0.0
230
1.0
 70
     8
 71
     3
 72
     9
 73
     5
 74
     3
 42
0.0000001
 43
0.0000001
 44
0.0000000001
 40
0.0
 40
0.0
 40
0.0
 40
0.0
 40
0.107588397061211
 40
0.3838783185518833
 40
0.3838783185518833
 40
0.3838783185518833
 40
0.3838783185518833
 10
46.20113666091223
 20
-35.51256959611057
 30
0.0
 10
46.18282920374304
 20
-35.54349337161393
 30
0.0
 10
46.11750770005826
 20
-35.65383024127426
 30
0.0
 10
46.02740631238692
 20
-35.74582004601632
 30
0.0
 10
45.96255736384556
 20
-35.81202815077723
 30
0.0
 11
46.20113666091223
 21
-35.51256959611057
 31
0.0
 11
46.14426784064557
 21
-35.60389976891057
 31
0.0
 11
45.96255736384556
 21
-35.81202815077723
 31
0.0
  0
SPLINE
  5
DA
100
AcDbEntity
  8
0
  6
HIDDEN
 62
     9
 48
0.5
100
AcDbSpline
210
0.0
220
0.0
230
1.0
 70
     8
 71
     3
 72
    15
 73
    11
 74
     9
 42
0.0000001
 43
0.0000001
 44
0.0000000001
 40
0.0
 40
0.0
 40
0.0
 40
0.0
 40
0.0386619634242457
 40
0.074322538380019
 40
0.1058636503498424
 40
0.1324543513811672
 40
0.1535121470582063
 40
0.1687183531263394
 40
0.1780778089897464
 40
0.1816888144214024
 40
0.1816888144214024
 40
0.1816888144214024
 40
0.1816888144214024
 10
44.83536457237891
 20
-35.9848324366439
 30
0.0
 10
44.83451752082487
 20
-35.99769328193235
 30
0.0
 10
44.83288917564894
 20
-36.02241656504816
 30
0.0
 10
44.82955177705155
 20
-36.05754035761602
 30
0.0
 10
44.82578320739057
 20
-36.0886157283071
 30
0.0
 10
44.82156668145395
 20
-36.11458386276035
 30
0.0
 10
44.81732145197162
 20
-36.13536537479815
 30
0.0
 10
44.81258068667855
 20
-36.14930179765984
 30
0.0
 10
44.80896083751651
 20
-36.15896654028619
 30
0.0
 10
44.80485749169811
 20
-36.16062024272103
 30
0.0
 10
44.80371511104556
 20
-36.16108063717724
 30
0.0
 11
44.83536457237891
 21
-35.9848324366439
 31
0.0
 11
44.83263001877889
 21
-36.02339757157724
 31
0.0
 11
44.82925813824556
 21
-36.05889837477724
 31
0.0
 11
44.82536069397889
 21
-36.09019776251057
 31
0.0
 11
44.82105995904555
 21
-36.11643836197724
 31
0.0
 11
44.81648150251223
 21
-36.13699240037723
 31
0.0
 11
44.81174198037891
 21
-36.15144112464391
 31
0.0
 11
44.80695336384556
 21
-36.1594828014439
 31
0.0
 11
44.80371511104556
 21
-36.16108063717724
 31
0.0
  0
LINE
  5
DB
100
AcDbEntity
  8
0
  6
HIDDEN
 62
     9
 48
0.5
100
AcDbLine
 10
44.803726
 20
-36.161168
 30
0.0
 11
44.802234
 21
-36.1609
 31
0.0
  0
LINE
  5
DC
100
AcDbEntity
  8
0
  6
HIDDEN
 62
     9
 48
0.5
100
AcDbLine
 10
44.835365
 20
-35.984832
 30
0.0
 11
44.865063
 21
-35.490967
 31
0.0
  0
LWPOLYLINE
  5
DD
100
AcDbEntity
  8
0
  6
HIDDEN
 62
     9
 48
0.5
100
AcDbPolyline
 90
        8
 70
     0
 43
0.0
 10
44.830071
 20
-35.679486
 10
44.826756
 20
-35.724687
 10
44.822569
 20
-35.764963
 10
44.817692
 20
-35.798554
 10
44.81234
 20
-35.823992
 10
44.806746
 20
-35.840165
 10
44.801154
 20
-35.846367
 10
44.800497
 20
-35.846422
  0
LWPOLYLINE
  5
DE
100
AcDbEntity
  8
0
  6
HIDDEN
 62
     9
 48
0.5
100
AcDbPolyline
 90
       10
 70
     0
 43
0.0
 10
44.800497
 20
-35.846422
 10
44.795809
 20
-35.842327
 10
44.790945
 20
-35.82822
 10
44.786774
 20
-35.804664
 10
44.783478
 20
-35.772688
 10
44.781201
 20
-35.73369
 10
44.780044
 20
-35.689373
 10
44.780056
 20
-35.641675
 10
44.781237
 20
-35.592681
 10
44.783535
 20
-35.544532
  0
LINE
  5
DF
100
AcDbEntity
  8
0
  6
HIDDEN
 62
     9
 48
0.5
100
AcDbLine
 10
44.747011
 20
-36.000753
 30
0.0
 11
44.802234
 21
-36.1609
 31
0.0
  0
SPLINE
  5
E0
100
AcDbEntity
  8
0
  6
HIDDEN
 62
     9
 48
0.5
100
AcDbSpline
210
0.0
220
0.0
230
-1.0
 70
     8
 71
     3
 72
    12
 73
     8
 74
     6
 42
0.0000001
 43
0.0000001
 44
0.0000000001
 40
0.0
 40
0.0
 40
0.0
 40
0.0
 40
0.0272937053683029
 40
0.0566187207649212
 40
0.0881094250690941
 40
0.1218898370662761
 40
0.1580492260348235
 40
0.1580492260348235
 40
0.1580492260348235
 40
0.1580492260348235
 10
44.68567105131223
 20
-35.69363820731057
 30
0.0
 10
44.68572435086635
 20
-35.70273595443087
 30
0.0
 10
44.68583491674706
 20
-35.72160854050312
 30
0.0
 10
44.68606823017274
 20
-35.75097745114532
 30
0.0
 10
44.6863888589065
 20
-35.78250788189972
 30
0.0
 10
44.68681826478849
 20
-35.81631540997767
 30
0.0
 10
44.68721290590174
 20
-35.83962536001112
 30
0.0
 10
44.68741693824556
 20
-35.85167677477723
 30
0.0
 11
44.68567105131223
 21
-35.69363820731057
 31
0.0
 11
44.68584009664556
 21
-35.72093138917724
 31
0.0
 11
44.68607297984556
 21
-35.7502554798439
 31
0.0
 11
44.68639392171222
 21
-35.7817445486439
 31
0.0
 11
44.6868311835789
 21
-35.81552213051057
 31
0.0
 11
44.68741693824556
 21
-35.85167677477723
 31
0.0
  0
SPLINE
  5
E1
100
AcDbEntity
  8
0
  6
HIDDEN
 62
     9
 48
0.5
100
AcDbSpline
210
0.0
220
0.0
230
1.0
 70
     8
 71
     3
 72
    16
 73
    12
 74
    10
 42
0.0000001
 43
0.0000001
 44
0.0000000001
 40
0.0
 40
0.0
 40
0.0
 40
0.0
 40
0.0045046100792914
 40
0.0174197366666514
 40
0.0327152810300052
 40
0.0496753091556891
 40
0.068250561396395
 40
0.0884376249335216
 40
0.1102944529758022
 40
0.1338731582085642
 40
0.159260303279317
 40
0.159260303279317
 40
0.159260303279317
 40
0.159260303279317
 10
44.68377614037891
 20
-35.53440134331057
 30
0.0
 10
44.68384209513784
 20
-35.53590142043472
 30
0.0
 10
44.68409714818622
 20
-35.54170235503781
 30
0.0
 10
44.6846506044423
 20
-35.55259442449969
 30
0.0
 10
44.68489148409694
 20
-35.56765124059017
 30
0.0
 10
44.68511053101205
 20
-35.58459292021891
 30
0.0
 10
44.68524380603724
 20
-35.60316679843376
 30
0.0
 10
44.68535141652767
 20
-35.62337283128162
 30
0.0
 10
44.68544499107109
 20
-35.64524685117918
 30
0.0
 10
44.68554363357002
 20
-35.66885420009177
 30
0.0
 10
44.68562754569837
 20
-35.68517593644264
 30
0.0
 10
44.68567105131223
 20
-35.69363820731057
 30
0.0
 11
44.68377614037891
 21
-35.53440134331057
 31
0.0
 11
44.6839766555789
 21
-35.53890148837724
 31
0.0
 11
44.68454183744556
 21
-35.55180424251057
 31
0.0
 11
44.68487518571222
 21
-35.56709615397724
 31
0.0
 11
44.68508804864557
 21
-35.5840548462439
 31
0.0
 11
44.68523446251224
 21
-35.60262952144391
 31
0.0
 11
44.68534506731224
 21
-35.62281628197724
 31
0.0
 11
44.68544218731222
 21
-35.64467289424391
 31
0.0
 11
44.6855447579789
 21
-35.66825137637724
 31
0.0
 11
44.68567105131223
 21
-35.69363820731057
 31
0.0
  0
SPLINE
  5
E2
100
AcDbEntity
  8
0
  6
HIDDEN
 62
     9
 48
0.5
100
AcDbSpline
210
-0.0811601644942327
220
0.9967010723879397
230
0.0
 70
    24
 71
     3
 72
     8
 73
     4
 74
     2
 42
0.0000001
 43
0.0000001
 44
0.0000000001
 40
0.0
 40
0.0
 40
0.0
 40
0.0
 40
0.0105336799810838
 40
0.0105336799810838
 40
0.0105336799810838
 40
0.0105336799810838
 10
44.6111501051789
 20
-36.17310409424391
 30
0.0
 10
44.60765046180113
 20
-36.17338906597725
 30
0.0
 10
44.60415081842334
 20
-36.17367403771058
 30
0.0
 10
44.60065117504557
 20
-36.1739590094439
 30
0.0
 11
44.6111501051789
 21
-36.17310409424391
 31
0.0
 11
44.60065117504557
 21
-36.1739590094439
 31
0.0
  0
LINE
  5
E3
100
AcDbEntity
  8
0
  6
HIDDEN
 62
     9
 48
0.5
100
AcDbLine
 10
44.611176
 20
-36.173957
 30
0.0
 11
44.600661
 21
-36.174676
 31
0.0
  0
LWPOLYLINE
  5
E4
100
AcDbEntity
  8
0
  6
HIDDEN
 62
     9
 48
0.5
100
AcDbPolyline
 90
        8
 70
     0
 43
0.0
 10
44.747011
 20
-36.000753
 10
44.739273
 20
-35.967741
 10
44.733005
 20
-35.918382
 10
44.728522
 20
-35.855152
 10
44.726048
 20
-35.781222
 10
44.725709
 20
-35.700298
 10
44.72752
 20
-35.616438
 10
44.73139
 20
-35.533847
  0
SPLINE
  5
E5
100
AcDbEntity
  8
0
  6
HIDDEN
 62
     9
 48
0.5
100
AcDbSpline
210
-0.0618224855042196
220
0.9980871606658812
230
0.0
 70
    24
 71
     3
 72
     8
 73
     4
 74
     2
 42
0.0000001
 43
0.0000001
 44
0.0000000001
 40
0.0
 40
0.0
 40
0.0
 40
0.0
 40
0.1929446678833666
 40
0.1929446678833666
 40
0.1929446678833666
 40
0.1929446678833666
 10
44.80372570091224
 20
-36.16117577531057
 30
0.0
 10
44.73953383566779
 20
-36.16515188162168
 30
0.0
 10
44.67534197042335
 20
-36.16912798793279
 30
0.0
 10
44.6111501051789
 20
-36.17310409424391
 30
0.0
 11
44.80372570091224
 21
-36.16117577531057
 31
0.0
 11
44.6111501051789
 21
-36.17310409424391
 31
0.0
  0
LINE
  5
E6
100
AcDbEntity
  8
0
  6
HIDDEN
 62
     9
 48
0.5
100
AcDbLine
 10
44.802234
 20
-36.1609
 30
0.0
 11
44.611176
 21
-36.173957
 31
0.0
  0
SPLINE
  5
E7
100
AcDbEntity
  8
0
  6
HIDDEN
 62
     9
 48
0.5
100
AcDbSpline
210
0.0
220
0.0
230
1.0
 70
     8
 71
     3
 72
    22
 73
    18
 74
    16
 42
0.0000001
 43
0.0000001
 44
0.0000000001
 40
0.0
 40
0.0
 40
0.0
 40
0.0
 40
0.0163557024200532
 40
0.0314222832759355
 40
0.0407410626100538
 40
0.0437524309484654
 40
0.0457480135945098
 40
0.0488366120405622
 40
0.0529139989351675
 40
0.0577889723940061
 40
0.0633179131320718
 40
0.0693765887901184
 40
0.0758530300345866
 40
0.08264862289759
 40
0.0896572432150018
 40
0.0967593604462716
 40
0.1038196992627448
 40
0.1038196992627448
 40
0.1038196992627448
 40
0.1038196992627448
 10
45.48282464917889
 20
-36.47883955771057
 30
0.0
 10
45.4829815423011
 20
-36.48425300645712
 30
0.0
 10
45.48328296256441
 20
-36.49465322747148
 30
0.0
 10
45.48270085576305
 20
-36.50867938309224
 30
0.0
 10
45.48234763885683
 20
-36.5169177387216
 30
0.0
 10
45.47995481090294
 20
-36.52253415820864
 30
0.0
 10
45.47699908485948
 20
-36.52111714324333
 30
0.0
 10
45.47541669812629
 20
-36.51858656526759
 30
0.0
 10
45.47331130402469
 20
-36.5151336777237
 30
0.0
 10
45.47116183116488
 20
-36.51081850375262
 30
0.0
 10
45.46877982469798
 20
-36.50587247954252
 30
0.0
 10
45.4662159842986
 20
-36.50042491174614
 30
0.0
 10
45.46343217246398
 20
-36.49461347989376
 30
0.0
 10
45.46041545175827
 20
-36.48856281484649
 30
0.0
 10
45.4571278111039
 20
-36.48241807623689
 30
0.0
 10
45.45358591169803
 20
-36.4763079147255
 30
0.0
 10
45.450905811706
 20
-36.472419610092
 30
0.0
 10
45.4495697147789
 20
-36.47048119291057
 30
0.0
 11
45.48282464917889
 21
-36.47883955771057
 31
0.0
 11
45.48309202517889
 21
-36.49519307451057
 31
0.0
 11
45.48263172011222
 21
-36.5102526222439
 31
0.0
 11
45.48118074944555
 21
-36.51945774757724
 31
0.0
 11
45.47942640064556
 21
-36.52190531771057
 31
0.0
 11
45.47754884224556
 21
-36.52122920784391
 31
0.0
 11
45.4755846427789
 21
-36.51884564731057
 31
0.0
 11
45.47349983104555
 21
-36.51534155771057
 31
0.0
 11
45.47126744064556
 21
-36.51100776037724
 31
0.0
 11
45.46886375851224
 21
-36.5060286542439
 31
0.0
 11
45.46626918891223
 21
-36.50055364197724
 31
0.0
 11
45.46346315691224
 21
-36.49471664997724
 31
0.0
 11
45.46041868011222
 21
-36.48864118757723
 31
0.0
 11
45.45710755264557
 21
-36.4824640366439
 31
0.0
 11
45.45350077931224
 21
-36.4763459278439
 31
0.0
 11
45.4495697147789
 21
-36.47048119291057
 31
0.0
  0
SPLINE
  5
E8
100
AcDbEntity
  8
0
  6
HIDDEN
 62
     9
 48
0.5
100
AcDbSpline
210
0.0
220
0.0
230
1.0
 70
     8
 71
     3
 72
    10
 73
     6
 74
     4
 42
0.0000001
 43
0.0000001
 44
0.0000000001
 40
0.0
 40
0.0
 40
0.0
 40
0.0
 40
0.0138409831092748
 40
0.0271122361621159
 40
0.0397904419203257
 40
0.0397904419203257
 40
0.0397904419203257
 40
0.0397904419203257
 10
45.44957096811224
 20
-36.4704803790439
 30
0.0
 10
45.446909556395
 20
-36.46671100240222
 30
0.0
 10
45.44169628343364
 20
-36.45932740624536
 30
0.0
 10
45.43328014335144
 20
-36.44905051647005
 30
0.0
 10
45.42722849980984
 20
-36.44286596135291
 30
0.0
 10
45.4242718299789
 20
-36.43984435451057
 30
0.0
 11
45.44957096811224
 21
-36.4704803790439
 31
0.0
 11
45.44145087851222
 21
-36.45927158971057
 31
0.0
 11
45.43300744171221
 21
-36.44903271611057
 31
0.0
 11
45.4242718299789
 21
-36.43984435451057
 31
0.0
  0
LINE
  5
E9
100
AcDbEntity
  8
0
  6
HIDDEN
 62
     9
 48
0.5
100
AcDbLine
 10
45.40568
 20
-36.789361
 30
0.0
 11
45.406716
 21
-36.789618
 31
0.0
  0
LWPOLYLINE
  5
EA
100
AcDbEntity
  8
0
  6
HIDDEN
 62
     9
 48
0.5
100
AcDbPolyline
 90
        3
 70
     0
 43
0.0
 10
44.779452
 20
-36.393016
 10
44.795938
 20
-36.359064
 10
44.825432
 20
-36.23854
  0
SPLINE
  5
EB
100
AcDbEntity
  8
0
  6
HIDDEN
 62
     9
 48
0.5
100
AcDbSpline
210
0.2312297933097239
220
0.9728991636783035
230
0.0
 70
    24
 71
     3
 72
     8
 73
     4
 74
     2
 42
0.0000001
 43
0.0000001
 44
0.0000000001
 40
0.0
 40
0.0
 40
0.0
 40
0.0
 40
0.0772011380734348
 40
0.0772011380734348
 40
0.0772011380734348
 40
0.0772011380734348
 10
44.66440468544556
 20
-36.6733812142439
 30
0.0
 10
44.63936837789001
 20
-36.66743081317723
 30
0.0
 10
44.61433207033446
 20
-36.66148041211057
 30
0.0
 10
44.5892957627789
 20
-36.6555300110439
 30
0.0
 11
44.66440468544556
 21
-36.6733812142439
 31
0.0
 11
44.5892957627789
 21
-36.6555300110439
 31
0.0
  0
SPLINE
  5
EC
100
AcDbEntity
  8
0
  6
HIDDEN
 62
     9
 48
0.5
100
AcDbSpline
210
0.0
220
0.0
230
1.0
 70
     8
 71
     3
 72
    10
 73
     6
 74
     4
 42
0.0000001
 43
0.0000001
 44
0.0000000001
 40
0.0
 40
0.0
 40
0.0
 40
0.0
 40
0.2612363485075256
 40
0.5140177170334131
 40
0.7507524179377435
 40
0.7507524179377435
 40
0.7507524179377435
 40
0.7507524179377435
 10
45.40568020651224
 20
-36.7893532590439
 30
0.0
 10
45.31908571238292
 20
-36.78012987534949
 30
0.0
 10
45.14869937665929
 20
-36.76198162508871
 30
0.0
 10
44.90124138955491
 20
-36.72365904629446
 30
0.0
 10
44.74160593410608
 20
-36.68977019174146
 30
0.0
 10
44.66440468544556
 20
-36.6733812142439
 30
0.0
 11
45.40568020651224
 21
-36.7893532590439
 31
0.0
 11
45.14614449237891
 21
-36.75959350651057
 31
0.0
 11
44.89640966251224
 21
-36.72046634171056
 31
0.0
 11
44.66440468544556
 21
-36.6733812142439
 31
0.0
  0
SPLINE
  5
ED
100
AcDbEntity
  8
0
  6
HIDDEN
 62
     9
 48
0.5
100
AcDbSpline
210
0.0
220
0.0
230
-1.0
 70
     8
 71
     3
 72
    13
 73
     9
 74
     0
 42
0.0000001
 43
0.0000001
 40
0.0
 40
0.0
 40
0.0
 40
0.0
 40
0.0235821028530107
 40
0.236006711454257
 40
0.4266494643642545
 40
0.5915567747896895
 40
0.7274143272363385
 40
0.7953596843175826
 40
0.7953596843175826
 40
0.7953596843175826
 40
0.7953596843175826
 10
44.60065117504557
 20
-36.1739590094439
 30
0.0
 10
44.59281811825114
 20
-36.17461717571047
 30
0.0
 10
44.51442587366604
 20
-36.18120402070602
 30
0.0
 10
44.37298980903764
 20
-36.19670070791943
 30
0.0
 10
44.18598494915467
 20
-36.2267669817887
 30
0.0
 10
44.02594824711101
 20
-36.26233124075209
 30
0.0
 10
43.90812638381118
 20
-36.29756709657144
 30
0.0
 10
43.84447138268505
 20
-36.3216779168974
 30
0.0
 10
43.82360306478658
 20
-36.33049325193972
 30
0.0
  0
LWPOLYLINE
  5
EE
100
AcDbEntity
  8
0
  6
HIDDEN
 62
     9
 48
0.5
100
AcDbPolyline
 90
        7
 70
     0
 43
0.0
 10
43.583487
 20
-35.552694
 10
43.516169
 20
-35.682843
 10
43.494602
 20
-35.816744
 10
43.518987
 20
-35.953146
 10
43.589097
 20
-36.090779
 10
43.704278
 20
-36.228359
 10
43.863457
 20
-36.364605
  0
LWPOLYLINE
  5
EF
100
AcDbEntity
  8
0
  6
HIDDEN
 62
     9
 48
0.5
100
AcDbPolyline
 90
        6
 70
     0
 43
0.0
 10
44.687417
 20
-35.851677
 10
44.696311
 20
-36.079831
 10
44.71345
 20
-36.257679
 10
44.73728
 20
-36.369104
 10
44.765623
 20
-36.403955
 10
44.779452
 20
-36.393016
  0
LINE
  5
F0
100
AcDbEntity
  8
0
  6
HIDDEN
 62
     9
 48
0.5
100
AcDbLine
 10
44.804579
 20
-35.043421
 30
0.0
 11
44.859802
 21
-35.203568
 31
0.0
  0
LWPOLYLINE
  5
F1
100
AcDbEntity
  8
0
  6
HIDDEN
 62
     9
 48
0.5
100
AcDbPolyline
 90
        4
 70
     0
 43
0.0
 10
44.76736
 20
-35.094223
 10
44.77667
 20
-35.054465
 10
44.786297
 20
-35.032154
 10
44.793087
 20
-35.027571
  0
LWPOLYLINE
  5
F2
100
AcDbEntity
  8
0
  6
HIDDEN
 62
     9
 48
0.5
100
AcDbPolyline
 90
        3
 70
     0
 43
0.0
 10
44.793087
 20
-35.027571
 10
44.795758
 20
-35.02841
 10
44.804579
 20
-35.043421
  0
LWPOLYLINE
  5
F3
100
AcDbEntity
  8
0
  6
HIDDEN
 62
     9
 48
0.5
100
AcDbPolyline
 90
        4
 70
     0
 43
0.0
 10
44.745782
 20
-35.294514
 10
44.751519
 20
-35.217335
 10
44.758834
 20
-35.149436
 10
44.76736
 20
-35.094223
  0
LINE
  5
F4
100
AcDbEntity
  8
0
  6
HIDDEN
 62
     9
 48
0.5
100
AcDbLine
 10
44.210786
 20
-35.011884
 30
0.0
 11
44.793081
 21
-35.027556
 31
0.0
  0
SPLINE
  5
F5
100
AcDbEntity
  8
0
  6
CONTINUOUS
100
AcDbSpline
210
-0.8427248240069332
220
0.5383445653134093
230
0.0
 70
    24
 71
     3
 72
     8
 73
     4
 74
     2
 42
0.0000001
 43
0.0000001
 44
0.0000000001
 40
0.0
 40
0.0
 40
0.0
 40
0.0
 40
0.0817948447342325
 40
0.0817948447342325
 40
0.0817948447342325
 40
0.0817948447342325
 10
46.45314141291223
 20
-35.08964882171057
 30
0.0
 10
46.43846347620112
 20
-35.11262567042168
 30
0.0
 10
46.42378553949001
 20
-35.13560251913279
 30
0.0
 10
46.4091076027789
 20
-35.1585793678439
 30
0.0
 11
46.45314141291223
 21
-35.08964882171057
 31
0.0
 11
46.4091076027789
 21
-35.1585793678439
 31
0.0
  0
SPLINE
  5
F6
100
AcDbEntity
  8
0
  6
CONTINUOUS
100
AcDbSpline
210
0.0
220
0.0
230
-1.0
 70
     8
 71
     3
 72
     9
 73
     5
 74
     3
 42
0.0000001
 43
0.0000001
 44
0.0000000001
 40
0.0
 40
0.0
 40
0.0
 40
0.0
 40
0.1816726070997756
 40
0.3249529946961589
 40
0.3249529946961589
 40
0.3249529946961589
 40
0.3249529946961589
 10
46.2382950843789
 20
-35.34776084197724
 30
0.0
 10
46.27518117909976
 20
-35.29973344159965
 30
0.0
 10
46.34115836263633
 20
-35.2138280988553
 30
0.0
 10
46.40715825252899
 20
-35.12794020004928
 30
0.0
 10
46.43625935317889
 20
-35.09006994917724
 30
0.0
 11
46.2382950843789
 21
-35.34776084197724
 31
0.0
 11
46.34896046571223
 21
-35.20368409317724
 31
0.0
 11
46.43625935317889
 21
-35.09006994917724
 31
0.0
  0
SPLINE
  5
F7
100
AcDbEntity
  8
0
  6
CONTINUOUS
100
AcDbSpline
210
-0.8580363223400592
220
0.5135890083959604
230
0.0
 70
    24
 71
     3
 72
     8
 73
     4
 74
     2
 42
0.0000001
 43
0.0000001
 44
0.0000000001
 40
0.0
 40
0.0
 40
0.0
 40
0.0
 40
0.274116593291239
 40
0.274116593291239
 40
0.274116593291239
 40
0.274116593291239
 10
46.4091076027789
 20
-35.1585793678439
 30
0.0
 10
46.36217984633446
 20
-35.23698003237724
 30
0.0
 10
46.31525208989002
 20
-35.31538069691057
 30
0.0
 10
46.26832433344557
 20
-35.39378136144391
 30
0.0
 11
46.4091076027789
 21
-35.1585793678439
 31
0.0
 11
46.26832433344557
 21
-35.39378136144391
 31
0.0
  0
LINE
  5
F8
100
AcDbEntity
  8
0
  6
HIDDEN
 62
     9
100
AcDbLine
 10
49.273408
 20
-33.588509
 30
0.0
 11
19.165765
 21
-33.588509
 31
0.0
  0
LINE
  5
F9
100
AcDbEntity
  8
0
100
AcDbLine
 10
19.165765
 20
-33.588509
 30
0.0
 11
20.0392
 21
-32.715073
 31
0.0
  0
ARC
  5
FA
100
AcDbEntity
  8
0
  6
CONTINUOUS
100
AcDbCircle
 10
19.165765
 20
-33.838509
 30
0.0
 40
0.25
100
AcDbArc
 50
90.0
 51
170.99913
  0
LINE
  5
FB
100
AcDbEntity
  8
0
100
AcDbLine
 10
49.714648
 20
-35.088509
 30
0.0
 11
49.714648
 21
-32.715073
 31
0.0
  0
LINE
  5
FC
100
AcDbEntity
  8
0
  6
HIDDEN
 62
     9
100
AcDbLine
 10
49.625277
 20
-32.715073
 30
0.0
 11
49.585009
 21
-32.969289
 31
0.0
  0
LINE
  5
FD
100
AcDbEntity
  8
0
  6
HIDDEN
 62
     9
100
AcDbLine
 10
49.534025
 20
-33.291157
 30
0.0
 11
49.520329
 21
-33.377621
 31
0.0
  0
LINE
  5
106
100
AcDbEntity
  8
0
100
AcDbLine
 10
49.714648
 20
-35.088509
 30
0.0
 11
18.714648
 21
-35.088509
 31
0.0
  0
ENDSEC
  0
SECTION
  2
OBJECTS
  0
DICTIONARY
  5
24
102
{ACAD_XDICTIONARY
360
25
102
}
100
AcDbDictionary
  3
ACAD_GROUP
350
22
  3
ACAD_MLINESTYLE
350
23
  0
DICTIONARY
  5
F
100
AcDbDictionary
280
     1
  3
ACAD_LAYERFILTERS
360
10
  0
DICTIONARY
  5
28
100
AcDbDictionary
280
     1
  3
ACAD_XREC_ROUNDTRIP
360
29
  0
DICTIONARY
  5
2C
100
AcDbDictionary
280
     1
  3
ACAD_XREC_ROUNDTRIP
360
2D
  0
DICTIONARY
  5
3
100
AcDbDictionary
280
     1
  3
ACAD_LAYOUTSELFREF
360
4
  0
DICTIONARY
  5
A
100
AcDbDictionary
280
     1
  3
ACAD_LAYOUTSELFREF
360
B
  0
DICTIONARY
  5
25
100
AcDbDictionary
280
     1
  3
ACAD_XREC_ROUNDTRIP
360
26
  0
DICTIONARY
  5
22
102
{ACAD_REACTORS
330
24
102
}
100
AcDbDictionary
  0
DICTIONARY
  5
23
102
{ACAD_REACTORS
330
24
102
}
100
AcDbDictionary
  3
STANDARD
350
2A
  0
DICTIONARY
  5
10
102
{ACAD_XDICTIONARY
360
11
102
}
102
{ACAD_REACTORS
330
F
102
}
100
AcDbDictionary
280
     1
  3
DIM-1_12
360
13
  3
DIM-1_16
360
14
  0
XRECORD
  5
29
102
{ACAD_REACTORS
330
28
102
}
100
AcDbXrecord
102
EXTNAMES
  1
ROMANS
  2
romans
  0
XRECORD
  5
2D
102
{ACAD_REACTORS
330
2C
102
}
100
AcDbXrecord
102
EXTNAMES
  1
DIM-1_16
  2
dim-1_16
102
ACADR14ROUNDTRIP
1000
DSTYLE
1002
{
1070
    79
 70
     1
1070
   276
 70
     1
1070
   277
 70
     5
1070
   289
 70
     1
1002
}
  0
XRECORD
  5
4
102
{ACAD_REACTORS
330
3
102
}
100
AcDbXrecord
340
2
  0
XRECORD
  5
B
102
{ACAD_REACTORS
330
A
102
}
100
AcDbXrecord
340
9
  0
XRECORD
  5
26
102
{ACAD_REACTORS
330
25
102
}
100
AcDbXrecord
102
EXTNAMES
  1
ACDBVARIABLEDICTIONARY
  2
AcDbVariableDictionary
  0
MLINESTYLE
  5
2A
102
{ACAD_REACTORS
330
23
102
}
100
AcDbMlineStyle
  2
STANDARD
 70
     0
  3

 62
     0
 51
90.0
 52
90.0
 71
     2
 49
0.5
 62
   256
  6
BYLAYER
 49
-0.5
 62
   256
  6
BYLAYER
  0
DICTIONARY
  5
11
100
AcDbDictionary
280
     1
  3
ACAD_XREC_ROUNDTRIP
360
12
  0
XRECORD
  5
13
102
{ACAD_REACTORS
330
10
102
}
100
AcDbXrecord
  1
DIM-1_12
  1
DIM-1_12
  1
*
  1
*
 70
     0
  1
*
  1
*
  0
XRECORD
  5
14
102
{ACAD_REACTORS
330
10
102
}
100
AcDbXrecord
  1
dim-1_16
  1
*
  1
*
  1
*
 70
     0
  1
*
  1
*
  0
XRECORD
  5
12
102
{ACAD_REACTORS
330
11
102
}
100
AcDbXrecord
102
EXTNAMES
  1
DIM-1_16
  2
dim-1_16
  0
ENDSEC
  0
EOF
