  0
SECTION
  2
HEADER
  9
$ACADVER
  1
AC1014
  9
$ACADMAINTVER
 70
     0
  9
$DWGCODEPAGE
  3
ANSI_1252
  9
$INSBASE
 10
92.565263
 20
-53.088509
 30
0.0
  9
$EXTMIN
 10
77.043516
 20
-55.457446
 30
0.0
  9
$EXTMAX
 10
108.072057
 20
-32.710848
 30
0.0
  9
$LIMMIN
 10
0.0
 20
0.0
  9
$LIMMAX
 10
17.0
 20
11.0
  9
$ORTHOMODE
 70
     1
  9
$REGENMODE
 70
     1
  9
$FILLMODE
 70
     1
  9
$QTEXTMODE
 70
     0
  9
$MIRRTEXT
 70
     1
  9
$DRAGMODE
 70
     2
  9
$LTSCALE
 40
12.0
  9
$OSMODE
 70
    37
  9
$ATTMODE
 70
     1
  9
$TEXTSIZE
 40
1.0
  9
$TRACEWID
 40
0.05
  9
$TEXTSTYLE
  7
STANDARD
  9
$CLAYER
  8
0
  9
$CELTYPE
  6
BYLAYER
  9
$CECOLOR
 62
   256
  9
$CELTSCALE
 40
1.0
  9
$DELOBJ
 70
     1
  9
$DISPSILH
 70
     0
  9
$DIMSCALE
 40
16.0
  9
$DIMASZ
 40
0.1
  9
$DIMEXO
 40
0.0625
  9
$DIMDLI
 40
0.25
  9
$DIMRND
 40
0.0
  9
$DIMDLE
 40
0.0
  9
$DIMEXE
 40
0.1
  9
$DIMTP
 40
0.0
  9
$DIMTM
 40
0.0
  9
$DIMTXT
 40
0.1
  9
$DIMCEN
 40
0.09
  9
$DIMTSZ
 40
0.0
  9
$DIMTOL
 70
     0
  9
$DIMLIM
 70
     0
  9
$DIMTIH
 70
     1
  9
$DIMTOH
 70
     1
  9
$DIMSE1
 70
     0
  9
$DIMSE2
 70
     0
  9
$DIMTAD
 70
     0
  9
$DIMZIN
 70
     4
  9
$DIMBLK
  1

  9
$DIMASO
 70
     1
  9
$DIMSHO
 70
     1
  9
$DIMPOST
  1
\X
  9
$DIMAPOST
  1
cm
  9
$DIMALT
 70
     1
  9
$DIMALTD
 70
     1
  9
$DIMALTF
 40
2.54
  9
$DIMLFAC
 40
1.0
  9
$DIMTOFL
 70
     0
  9
$DIMTVP
 40
0.0
  9
$DIMTIX
 70
     0
  9
$DIMSOXD
 70
     0
  9
$DIMSAH
 70
     0
  9
$DIMBLK1
  1

  9
$DIMBLK2
  1

  9
$DIMSTYLE
  2
DIM-1_16
  9
$DIMCLRD
 70
     0
  9
$DIMCLRE
 70
     0
  9
$DIMCLRT
 70
     0
  9
$DIMTFAC
 40
1.0
  9
$DIMGAP
 40
0.08
  9
$DIMJUST
 70
     0
  9
$DIMSD1
 70
     0
  9
$DIMSD2
 70
     0
  9
$DIMTOLJ
 70
     1
  9
$DIMTZIN
 70
     4
  9
$DIMALTZ
 70
     4
  9
$DIMALTTZ
 70
     4
  9
$DIMFIT
 70
     1
  9
$DIMUPT
 70
     0
  9
$DIMUNIT
 70
     5
  9
$DIMDEC
 70
     3
  9
$DIMTDEC
 70
     3
  9
$DIMALTU
 70
     2
  9
$DIMALTTD
 70
     1
  9
$DIMTXSTY
  7
ROMANS
  9
$DIMAUNIT
 70
     0
  9
$LUNITS
 70
     2
  9
$LUPREC
 70
     4
  9
$SKETCHINC
 40
0.1
  9
$FILLETRAD
 40
0.0
  9
$AUNITS
 70
     0
  9
$AUPREC
 70
     0
  9
$MENU
  1
acad
  9
$ELEVATION
 40
0.0
  9
$PELEVATION
 40
0.0
  9
$THICKNESS
 40
0.0
  9
$LIMCHECK
 70
     0
  9
$BLIPMODE
 70
     0
  9
$CHAMFERA
 40
0.0
  9
$CHAMFERB
 40
0.0
  9
$CHAMFERC
 40
0.0
  9
$CHAMFERD
 40
0.0
  9
$SKPOLY
 70
     0
  9
$TDCREATE
 40
2444971.791666666
  9
$TDUPDATE
 40
2453689.695311273
  9
$TDINDWG
 40
0.4034945833
  9
$TDUSRTIMER
 40
0.4034945833
  9
$USRTIMER
 70
     1
  9
$ANGBASE
 50
0.0
  9
$ANGDIR
 70
     0
  9
$PDMODE
 70
     0
  9
$PDSIZE
 40
0.0
  9
$PLINEWID
 40
0.0
  9
$COORDS
 70
     1
  9
$SPLFRAME
 70
     0
  9
$SPLINETYPE
 70
     6
  9
$SPLINESEGS
 70
     8
  9
$ATTDIA
 70
     0
  9
$ATTREQ
 70
     1
  9
$HANDLING
 70
     1
  9
$HANDSEED
  5
10B
  9
$SURFTAB1
 70
     6
  9
$SURFTAB2
 70
     6
  9
$SURFTYPE
 70
     6
  9
$SURFU
 70
     6
  9
$SURFV
 70
     6
  9
$UCSNAME
  2

  9
$UCSORG
 10
0.0
 20
0.0
 30
0.0
  9
$UCSXDIR
 10
1.0
 20
0.0
 30
0.0
  9
$UCSYDIR
 10
0.0
 20
1.0
 30
0.0
  9
$PUCSNAME
  2

  9
$PUCSORG
 10
0.0
 20
0.0
 30
0.0
  9
$PUCSXDIR
 10
1.0
 20
0.0
 30
0.0
  9
$PUCSYDIR
 10
0.0
 20
1.0
 30
0.0
  9
$USERI1
 70
     0
  9
$USERI2
 70
     0
  9
$USERI3
 70
     0
  9
$USERI4
 70
     0
  9
$USERI5
 70
     0
  9
$USERR1
 40
0.0
  9
$USERR2
 40
0.0
  9
$USERR3
 40
0.0
  9
$USERR4
 40
0.0
  9
$USERR5
 40
0.0
  9
$WORLDVIEW
 70
     1
  9
$SHADEDGE
 70
     3
  9
$SHADEDIF
 70
    70
  9
$TILEMODE
 70
     1
  9
$MAXACTVP
 70
    16
  9
$PINSBASE
 10
0.0
 20
0.0
 30
0.0
  9
$PLIMCHECK
 70
     0
  9
$PEXTMIN
 10
-0.088121
 20
-0.150733
 30
-0.001526
  9
$PEXTMAX
 10
21.926473
 20
11.621875
 30
0.0
  9
$PLIMMIN
 10
-0.166667
 20
-0.25
  9
$PLIMMAX
 10
16.833333
 20
10.75
  9
$UNITMODE
 70
     0
  9
$VISRETAIN
 70
     0
  9
$PLINEGEN
 70
     1
  9
$PSLTSCALE
 70
     0
  9
$TREEDEPTH
 70
  3020
  9
$PICKSTYLE
 70
     1
  9
$CMLSTYLE
  2
STANDARD
  9
$CMLJUST
 70
     0
  9
$CMLSCALE
 40
1.0
  9
$PROXYGRAPHICS
 70
     1
  9
$MEASUREMENT
 70
     0
  0
ENDSEC
  0
SECTION
  2
CLASSES
  0
CLASS
  1
LWPOLYLINE
  2
AcDbPolyline
  3
"AutoCAD"
 90
        0
280
     0
281
     1
  0
CLASS
  1
IMAGE
  2
AcDbRasterImage
  3
ISM
 90
      127
280
     1
281
     1
  0
CLASS
  1
OLE2FRAME
  2
AcDbOle2Frame
  3
""
 90
        0
280
     0
281
     1
  0
CLASS
  1
HATCH
  2
AcDbHatch
  3
"ACAD_SEDONA"
 90
        0
280
     0
281
     1
  0
CLASS
  1
DICTIONARYVAR
  2
AcDbDictionaryVar
  3
"AutoCAD"
 90
        0
280
     0
281
     0
  0
CLASS
  1
RASTERVARIABLES
  2
AcDbRasterVariables
  3
ISM
 90
        0
280
     1
281
     0
  0
CLASS
  1
IMAGEDEF
  2
AcDbRasterImageDef
  3
ISM
 90
        0
280
     1
281
     0
  0
CLASS
  1
IMAGEDEF_REACTOR
  2
AcDbRasterImageDefReactor
  3
ISM
 90
        1
280
     1
281
     0
  0
CLASS
  1
IDBUFFER
  2
AcDbIdBuffer
  3
"Acad"
 90
        0
280
     0
281
     0
  0
CLASS
  1
SPATIAL_FILTER
  2
AcDbSpatialFilter
  3
"Acad"
 90
        0
280
     0
281
     0
  0
CLASS
  1
XRECORD
  2
AcDbXrecord
  3
"<Built In>"
 90
        0
280
     0
281
     0
  0
CLASS
  1
SORTENTSTABLE
  2
AcDbSortentsTable
  3
"AutoCAD"
 90
        0
280
     0
281
     0
  0
CLASS
  1
LAYER_INDEX
  2
AcDbLayerIndex
  3
"Acad"
 90
        0
280
     0
281
     0
  0
CLASS
  1
SPATIAL_INDEX
  2
AcDbSpatialIndex
  3
"Acad"
 90
        0
280
     0
281
     0
  0
CLASS
  1
OBJECT_PTR
  2
CAseDLPNTableRecord
  3
ASE-LPNTableRecord
 90
        1
280
     0
281
     0
  0
CLASS
  1
LAYOUT
  2
AcDbLayout
  3
AutoCAD 2000
 90
        0
280
     1
281
     0
  0
CLASS
  1
PLOTSETTINGS
  2
AcDbPlotSettings
  3
AutoCAD 2000
 90
        0
280
     1
281
     0
  0
CLASS
  1
ACDBDICTIONARYWDFLT
  2
AcDbDictionaryWithDefault
  3
AutoCAD 2000
 90
        0
280
     1
281
     0
  0
CLASS
  1
ACDBPLACEHOLDER
  2
AcDbPlaceHolder
  3
AutoCAD 2000
 90
        0
280
     1
281
     0
  0
CLASS
  1
VBA_PROJECT
  2
AcDbVbaProject
  3
acadvba
 90
        0
280
     1
281
     0
  0
CLASS
  1
WIPEOUT
  2
AcDbWipeout
  3
"WipeOut|Version(1.0.0.0) Product Desc: Object Enabler for WipeOut entity^I^I^I^I^I^I|Company: Autodesk, Inc.^I^I^I^I^I^I|WEB Address: www.autodesk.com"
 90
      127
280
     1
281
     1
  0
CLASS
  1
WIPEOUTVARIABLES
  2
AcDbWipeoutVariables
  3
WipeOut|AutoCAD Express Tool|expresstools@autodesk.com
 90
        0
280
     1
281
     0
  0
CLASS
  1
RTEXT
  2
RText
  3
RText|AutoCAD Express Tool|expresstools@autodesk.com
 90
        0
280
     1
281
     1
  0
CLASS
  1
ARCALIGNEDTEXT
  2
AcDbArcAlignedText
  3
ATEXT|AutoCAD Express Tool|expresstools@autodesk.com
 90
        0
280
     1
281
     1
  0
CLASS
  1
LONG_TRANSACTION
  2
AcDbLongTransaction
  3
AutoCAD 2000
 90
        0
280
     1
281
     0
  0
CLASS
  1
LWPOLYLINE
  2
AcDbPolyline
  3
"AutoCAD"
 90
        0
280
     0
281
     1
  0
CLASS
  1
HATCH
  2
AcDbHatch
  3
"ACAD_SEDONA"
 90
        0
280
     0
281
     1
  0
CLASS
  1
XRECORD
  2
AcDbXrecord
  3
"<Built In>"
 90
        0
280
     0
281
     0
  0
ENDSEC
  0
SECTION
  2
TABLES
  0
TABLE
  2
VPORT
  5
1C
100
AcDbSymbolTable
 70
     3
  0
VPORT
  5
10A
100
AcDbSymbolTableRecord
100
AcDbViewportTableRecord
  2
*ACTIVE
 70
     0
 10
0.0
 20
0.0
 11
1.0
 21
1.0
 12
92.557787
 22
-44.084148
 13
0.0
 23
0.0
 14
1.0
 24
1.0
 15
0.0
 25
0.0
 16
0.0
 26
0.0
 36
1.0
 17
0.0
 27
0.0
 37
0.0
 40
27.944912
 41
1.487748
 42
50.0
 43
0.0
 44
0.0
 50
0.0
 51
0.0
 71
     0
 72
   100
 73
     1
 74
     1
 75
     0
 76
     0
 77
     0
 78
     0
  0
ENDTAB
  0
TABLE
  2
LTYPE
  5
17
100
AcDbSymbolTable
 70
     3
  0
LTYPE
  5
18
100
AcDbSymbolTableRecord
100
AcDbLinetypeTableRecord
  2
BYBLOCK
 70
     0
  3

 72
    65
 73
     0
 40
0.0
  0
LTYPE
  5
19
100
AcDbSymbolTableRecord
100
AcDbLinetypeTableRecord
  2
BYLAYER
 70
     0
  3

 72
    65
 73
     0
 40
0.0
  0
LTYPE
  5
7
100
AcDbSymbolTableRecord
100
AcDbLinetypeTableRecord
  2
CONTINUOUS
 70
     0
  3
Solid line
 72
    65
 73
     0
 40
0.0
  0
LTYPE
  5
37
100
AcDbSymbolTableRecord
100
AcDbLinetypeTableRecord
  2
CENTER
 70
     0
  3
____ _ ____ _ ____ _ ____ _ ____ _ ____ _ ____
 72
    65
 73
     4
 40
0.6
 49
0.375
 74
     0
 49
-0.075
 74
     0
 49
0.075
 74
     0
 49
-0.075
 74
     0
  0
LTYPE
  5
49
100
AcDbSymbolTableRecord
100
AcDbLinetypeTableRecord
  2
HIDDEN
 70
     0
  3
- - - - - - - - - - - - - - - - - - - -
 72
    65
 73
     2
 40
0.2
 49
0.1
 74
     0
 49
-0.1
 74
     0
  0
ENDTAB
  0
TABLE
  2
LAYER
  5
E
102
{ACAD_XDICTIONARY
360
F
102
}
100
AcDbSymbolTable
 70
     1
  0
LAYER
  5
6
100
AcDbSymbolTableRecord
100
AcDbLayerTableRecord
  2
0
 70
     0
 62
     7
  6
CONTINUOUS
  0
ENDTAB
  0
TABLE
  2
STYLE
  5
15
100
AcDbSymbolTable
 70
     2
  0
STYLE
  5
16
100
AcDbSymbolTableRecord
100
AcDbTextStyleTableRecord
  2
STANDARD
 70
     0
 40
0.0
 41
1.0
 50
0.0
 71
     0
 42
1.0
  3
txt
  4

  0
STYLE
  5
27
102
{ACAD_XDICTIONARY
360
28
102
}
100
AcDbSymbolTableRecord
100
AcDbTextStyleTableRecord
  2
ROMANS
 70
     0
 40
0.0
 41
1.0
 50
0.0
 71
     0
 42
1.0
  3
romans.shx
  4

  0
ENDTAB
  0
TABLE
  2
VIEW
  5
1A
100
AcDbSymbolTable
 70
     0
  0
ENDTAB
  0
TABLE
  2
UCS
  5
1B
100
AcDbSymbolTable
 70
     0
  0
ENDTAB
  0
TABLE
  2
APPID
  5
1E
100
AcDbSymbolTable
 70
     1
  0
APPID
  5
1F
100
AcDbSymbolTableRecord
100
AcDbRegAppTableRecord
  2
ACAD
 70
     0
  0
ENDTAB
  0
TABLE
  2
DIMSTYLE
  5
20
100
AcDbSymbolTable
 70
     1
  0
DIMSTYLE
105
2B
102
{ACAD_XDICTIONARY
360
2C
102
}
100
AcDbSymbolTableRecord
100
AcDbDimStyleTableRecord
  2
DIM-1_16
 70
     0
  3
\X
  4
cm
  5

  6

  7

 40
16.0
 41
0.1
 42
0.0625
 43
0.25
 44
0.1
 45
0.0
 46
0.0
 47
0.0
 48
0.0
140
0.1
141
0.09
142
0.0
143
2.54
144
1.0
145
0.0
146
1.0
147
0.08
 71
     0
 72
     0
 73
     1
 74
     1
 75
     0
 76
     0
 77
     0
 78
     4
170
     1
171
     1
172
     0
173
     0
174
     0
175
     0
176
     0
177
     0
178
     0
270
     5
271
     3
272
     3
273
     2
274
     1
340
27
275
     0
280
     0
281
     0
282
     0
283
     1
284
     4
285
     4
286
     4
287
     1
288
     0
  0
ENDTAB
  0
TABLE
  2
BLOCK_RECORD
  5
1
100
AcDbSymbolTable
 70
     0
  0
BLOCK_RECORD
  5
2
102
{ACAD_XDICTIONARY
360
3
102
}
100
AcDbSymbolTableRecord
100
AcDbBlockTableRecord
  2
*MODEL_SPACE
  0
BLOCK_RECORD
  5
9
102
{ACAD_XDICTIONARY
360
A
102
}
100
AcDbSymbolTableRecord
100
AcDbBlockTableRecord
  2
*PAPER_SPACE
  0
ENDTAB
  0
ENDSEC
  0
SECTION
  2
BLOCKS
  0
BLOCK
  5
5
100
AcDbEntity
  8
0
100
AcDbBlockBegin
  2
*MODEL_SPACE
 70
     0
 10
0.0
 20
0.0
 30
0.0
  3
*MODEL_SPACE
  1

  0
ENDBLK
  5
8
100
AcDbEntity
  8
0
100
AcDbBlockEnd
  0
BLOCK
  5
C
100
AcDbEntity
 67
     1
  8
0
100
AcDbBlockBegin
  2
*PAPER_SPACE
 70
     0
 10
0.0
 20
0.0
 30
0.0
  3
*PAPER_SPACE
  1

  0
ENDBLK
  5
D
100
AcDbEntity
 67
     1
  8
0
100
AcDbBlockEnd
  0
ENDSEC
  0
SECTION
  2
ENTITIES
  0
SPLINE
  5
2E
100
AcDbEntity
  8
0
  6
CONTINUOUS
100
AcDbSpline
210
0.0
220
0.0
230
-1.0
 70
     8
 71
     3
 72
     9
 73
     5
 74
     3
 42
0.0000001
 43
0.0000001
 44
0.0000000001
 40
0.0
 40
0.0
 40
0.0
 40
0.0
 40
10.24913156327316
 40
11.93582648186563
 40
11.93582648186563
 40
11.93582648186563
 40
11.93582648186563
 10
104.9113409259414
 20
-35.0900731886439
 30
0.0
 10
104.5179014087469
 20
-38.48380314475599
 30
0.0
 10
104.0597137292005
 20
-42.43603769579019
 30
0.0
 10
103.6542065835884
 20
-46.39393948133132
 30
0.0
 10
103.5969028985025
 20
-46.95324493371057
 30
0.0
 11
104.9113409259414
 21
-35.0900731886439
 31
0.0
 11
103.7698659598358
 21
-45.27544174864391
 31
0.0
 11
103.5969028985025
 21
-46.95324493371057
 31
0.0
  0
SPLINE
  5
2F
100
AcDbEntity
  8
0
  6
CONTINUOUS
100
AcDbSpline
210
0.0
220
0.0
230
-1.0
 70
     8
 71
     3
 72
     9
 73
     5
 74
     3
 42
0.0000001
 43
0.0000001
 44
0.0000000001
 40
0.0
 40
0.0
 40
0.0
 40
0.0
 40
1.779121114299923
 40
11.93583503765044
 40
11.93583503765044
 40
11.93583503765044
 40
11.93583503765044
 10
103.5969021859691
 20
-46.95324406437723
 30
0.0
 10
103.6572712047119
 20
-46.36328239519154
 30
0.0
 10
104.0622771614768
 20
-42.40532523008401
 30
0.0
 10
104.5209898966912
 20
-38.45314608089051
 30
0.0
 10
104.9113282358081
 20
-35.09006734651057
 30
0.0
 11
103.5969021859691
 21
-46.95324406437723
 31
0.0
 11
103.7792025006358
 21
-45.18348743291057
 31
0.0
 11
104.9113282358081
 21
-35.09006734651057
 31
0.0
  0
SPLINE
  5
30
100
AcDbEntity
  8
0
  6
CONTINUOUS
100
AcDbSpline
210
0.0
220
0.0
230
1.0
 70
     8
 71
     3
 72
    10
 73
     6
 74
     4
 42
0.0000001
 43
0.0000001
 44
0.0000000001
 40
0.0
 40
0.0
 40
0.0
 40
0.0
 40
4.372896397329794
 40
9.852036582720394
 40
14.32981360110891
 40
14.32981360110891
 40
14.32981360110891
 40
14.32981360110891
 10
103.0811016259691
 20
-35.09007265744391
 30
0.0
 10
102.9207063841392
 20
-36.53884912469618
 30
0.0
 10
102.5593395355746
 20
-39.80290970574939
 30
0.0
 10
102.0537210849421
 20
-44.55278970273288
 30
0.0
 10
101.6520740785721
 20
-47.84741440728971
 30
0.0
 10
101.4714473145025
 20
-49.3290572174439
 30
0.0
 11
103.0811016259691
 21
-35.09007265744391
 31
0.0
 11
102.6026235822358
 21
-39.43671293051057
 31
0.0
 11
102.0031500025025
 21
-44.88296013371058
 31
0.0
 11
101.4714473145025
 21
-49.3290572174439
 31
0.0
  0
LINE
  5
31
100
AcDbEntity
  8
0
  6
CONTINUOUS
100
AcDbLine
 10
103.080688
 20
-35.090073
 30
0.0
 11
101.471436
 21
-49.329058
 31
0.0
  0
SPLINE
  5
32
100
AcDbEntity
  8
0
  6
CONTINUOUS
100
AcDbSpline
210
0.0
220
0.0
230
1.0
 70
     8
 71
     3
 72
     9
 73
     5
 74
     3
 42
0.0000001
 43
0.0000001
 44
0.0000000001
 40
0.0
 40
0.0
 40
0.0
 40
0.0
 40
1.686937920756822
 40
11.93582649229221
 40
11.93582649229221
 40
11.93582649229221
 40
11.93582649229221
 10
81.53362343076921
 20
-46.95324493157723
 30
0.0
 10
81.47631167359831
 20
-46.39385888080581
 30
0.0
 10
81.07080582709178
 20
-42.43595695562949
 30
0.0
 10
80.61261677335219
 20
-38.48372255356373
 30
0.0
 10
80.21918540439697
 20
-35.0900731886439
 30
0.0
 11
81.53362343076921
 21
-46.95324493157723
 31
0.0
 11
81.36063579663588
 21
-45.27519998971057
 31
0.0
 11
80.21918540439697
 21
-35.0900731886439
 31
0.0
  0
SPLINE
  5
33
100
AcDbEntity
  8
0
  6
CONTINUOUS
100
AcDbSpline
210
0.0
220
0.0
230
1.0
 70
     8
 71
     3
 72
     9
 73
     5
 74
     3
 42
0.0000001
 43
0.0000001
 44
0.0000000001
 40
0.0
 40
0.0
 40
0.0
 40
0.0
 40
0.6063711645632378
 40
11.93578737516417
 40
11.93578737516417
 40
11.93578737516417
 40
11.93578737516417
 10
81.53362255823589
 20
-46.95324424784391
 30
0.0
 10
81.51274436307522
 20
-46.75220158413707
 30
0.0
 10
81.10177874864898
 20
-42.79488529408904
 30
0.0
 10
80.64899155348724
 20
-38.84206875996525
 30
0.0
 10
80.21920720599695
 20
-35.09006628944391
 30
0.0
 11
81.53362255823589
 21
-46.95324424784391
 31
0.0
 11
81.47088003450255
 21
-46.3501278702439
 31
0.0
 11
80.21920720599695
 21
-35.09006628944391
 31
0.0
  0
SPLINE
  5
34
100
AcDbEntity
  8
0
  6
CONTINUOUS
100
AcDbSpline
210
0.0
220
0.0
230
-1.0
 70
     8
 71
     3
 72
    10
 73
     6
 74
     4
 42
0.0000001
 43
0.0000001
 44
0.0000000001
 40
0.0
 40
0.0
 40
0.0
 40
0.0
 40
4.477776539814686
 40
9.956916760660776
 40
14.32981360124764
 40
14.32981360124764
 40
14.32981360124764
 40
14.32981360124764
 10
83.65907901583586
 20
-49.3290572174439
 30
0.0
 10
83.47845226940981
 20
-47.84741456584394
 30
0.0
 10
83.07680527722034
 20
-44.55279000835406
 30
0.0
 10
82.57118682879825
 20
-39.80291001105969
 30
0.0
 10
82.20981996178554
 20
-36.53884927150606
 30
0.0
 10
82.04942470330255
 20
-35.09007265744391
 30
0.0
 11
83.65907901583586
 21
-49.3290572174439
 31
0.0
 11
83.12737638010252
 21
-44.8829606094439
 31
0.0
 11
82.52790279610252
 21
-39.43671337104391
 31
0.0
 11
82.04942470330255
 21
-35.09007265744391
 31
0.0
  0
LINE
  5
35
100
AcDbEntity
  8
0
  6
CONTINUOUS
100
AcDbLine
 10
82.049838
 20
-35.090073
 30
0.0
 11
83.659091
 21
-49.329058
 31
0.0
  0
LINE
  5
36
100
AcDbEntity
  8
0
  6
CENTER
 62
     1
100
AcDbLine
 10
92.565263
 20
-33.212771
 30
0.0
 11
92.565263
 21
-55.455503
 31
0.0
  0
LINE
  5
38
100
AcDbEntity
  8
0
  6
CONTINUOUS
100
AcDbLine
 10
100.790901
 20
-51.838509
 30
0.0
 11
84.339625
 21
-51.838509
 31
0.0
  0
ARC
  5
39
100
AcDbEntity
  8
0
  6
CONTINUOUS
100
AcDbCircle
 10
98.961513
 20
-49.32851
 30
0.0
 40
2.509934
100
AcDbArc
 50
270.0
 51
359.9875
  0
ARC
  5
3A
100
AcDbEntity
  8
0
  6
CONTINUOUS
100
AcDbCircle
 10
86.169013
 20
-49.32851
 30
0.0
 40
2.509934
100
AcDbArc
 50
180.0125
 51
270.0
  0
ARC
  5
3B
100
AcDbEntity
  8
0
  6
CONTINUOUS
100
AcDbCircle
 10
84.339625
 20
-49.32851
 30
0.0
 40
2.509934
100
AcDbArc
 50
180.012512
 51
270.0
  0
LINE
  5
3C
100
AcDbEntity
  8
0
  6
CONTINUOUS
100
AcDbLine
 10
85.902235
 20
-51.838444
 30
0.0
 11
84.339625
 21
-51.838444
 31
0.0
  0
LINE
  5
3D
100
AcDbEntity
  8
0
  6
CONTINUOUS
100
AcDbLine
 10
93.945024
 20
-53.088509
 30
0.0
 11
91.185502
 21
-53.088509
 31
0.0
  0
LINE
  5
3E
100
AcDbEntity
  8
0
  6
CONTINUOUS
100
AcDbLine
 10
91.185003
 20
-53.088509
 30
0.0
 11
90.841253
 21
-51.838509
 31
0.0
  0
LINE
  5
3F
100
AcDbEntity
  8
0
  6
CONTINUOUS
100
AcDbLine
 10
93.945523
 20
-53.088509
 30
0.0
 11
94.289273
 21
-51.838509
 31
0.0
  0
SPLINE
  5
40
100
AcDbEntity
  8
0
  6
CONTINUOUS
100
AcDbSpline
210
-0.9922845414195668
220
-0.1239814052983758
230
0.0
 70
    24
 71
     3
 72
     8
 73
     4
 74
     2
 42
0.0000001
 43
0.0000001
 44
0.0000000001
 40
0.0
 40
0.0
 40
0.0
 40
0.0
 40
2.355689235525065
 40
2.355689235525065
 40
2.355689235525065
 40
2.355689235525065
 10
81.8296907683692
 20
-49.3290577870439
 30
0.0
 10
81.73233688108032
 20
-48.5498864494439
 30
0.0
 10
81.63498299379144
 20
-47.77071511184391
 30
0.0
 10
81.53762910650256
 20
-46.9915437742439
 30
0.0
 11
81.8296907683692
 21
-49.3290577870439
 31
0.0
 11
81.53762910650256
 21
-46.9915437742439
 31
0.0
  0
SPLINE
  5
41
100
AcDbEntity
  8
0
  6
CONTINUOUS
100
AcDbSpline
210
-0.9945723536404271
220
-0.1040472650968845
230
0.0
 70
    24
 71
     3
 72
     8
 73
     4
 74
     2
 42
0.0000001
 43
0.0000001
 44
0.0000000001
 40
0.0
 40
0.0
 40
0.0
 40
0.0
 40
0.0385054644439115
 40
0.0385054644439115
 40
0.0385054644439115
 40
0.0385054644439115
 10
81.53762981903588
 20
-46.99154140197723
 30
0.0
 10
81.53629435628033
 20
-46.97877591184391
 30
0.0
 10
81.53495889352477
 20
-46.96601042171058
 30
0.0
 10
81.53362343076921
 20
-46.95324493157723
 30
0.0
 11
81.53762981903588
 21
-46.99154140197723
 31
0.0
 11
81.53362343076921
 21
-46.95324493157723
 31
0.0
  0
SPLINE
  5
42
100
AcDbEntity
  8
0
  6
CONTINUOUS
100
AcDbSpline
210
-0.9945727827978441
220
-0.1040431627631167
230
0.0
 70
    24
 71
     3
 72
     8
 73
     4
 74
     2
 42
0.0000001
 43
0.0000001
 44
0.0000000001
 40
0.0
 40
0.0
 40
0.0
 40
0.0
 40
0.0385085205049097
 40
0.0385085205049097
 40
0.0385085205049097
 40
0.0385085205049097
 10
81.53762910650256
 20
-46.9915437742439
 30
0.0
 10
81.53629359041365
 20
-46.9787772654439
 30
0.0
 10
81.53495807432477
 20
-46.96601075664391
 30
0.0
 10
81.53362255823589
 20
-46.95324424784391
 30
0.0
 11
81.53762910650256
 21
-46.9915437742439
 31
0.0
 11
81.53362255823589
 21
-46.95324424784391
 31
0.0
  0
ARC
  5
43
100
AcDbEntity
  8
0
  6
CONTINUOUS
100
AcDbCircle
 10
100.790901
 20
-49.32851
 30
0.0
 40
2.509934
100
AcDbArc
 50
270.0
 51
359.987488
  0
LINE
  5
44
100
AcDbEntity
  8
0
  6
CONTINUOUS
100
AcDbLine
 10
100.790901
 20
-51.838444
 30
0.0
 11
99.228292
 21
-51.838444
 31
0.0
  0
SPLINE
  5
45
100
AcDbEntity
  8
0
  6
CONTINUOUS
100
AcDbSpline
210
0.0
220
0.0
230
1.0
 70
     8
 71
     3
 72
     9
 73
     5
 74
     3
 42
0.0000001
 43
0.0000001
 44
0.0000000001
 40
0.0
 40
0.0
 40
0.0
 40
0.0
 40
1.85505318648628
 40
2.35579201421633
 40
2.35579201421633
 40
2.35579201421633
 40
2.35579201421633
 10
103.3008355619692
 20
-49.32905779131057
 30
0.0
 10
103.3867507186564
 20
-48.71659858691081
 30
0.0
 10
103.4958571537163
 20
-47.93881684282445
 30
0.0
 10
103.5758834357798
 20
-47.15761254626026
 30
0.0
 10
103.5928935395691
 20
-46.99156252091056
 30
0.0
 11
103.3008355619692
 21
-49.32905779131057
 31
0.0
 11
103.5405493795692
 21
-47.48955796517724
 31
0.0
 11
103.5928935395691
 21
-46.99156252091056
 31
0.0
  0
SPLINE
  5
46
100
AcDbEntity
  8
0
  6
CONTINUOUS
100
AcDbSpline
210
-0.9945723534141089
220
0.1040472672602263
230
0.0
 70
    24
 71
     3
 72
     8
 73
     4
 74
     2
 42
0.0000001
 43
0.0000001
 44
0.0000000001
 40
0.0
 40
0.0
 40
0.0
 40
0.0
 40
0.0385126501206078
 40
0.0385126501206078
 40
0.0385126501206078
 40
0.0385126501206078
 10
103.5969028985025
 20
-46.95324493371057
 30
0.0
 10
103.5955671865025
 20
-46.96601280606612
 30
0.0
 10
103.5942314745025
 20
-46.97878067842167
 30
0.0
 10
103.5928957625025
 20
-46.99154855077724
 30
0.0
 11
103.5969028985025
 21
-46.95324493371057
 31
0.0
 11
103.5928957625025
 21
-46.99154855077724
 31
0.0
  0
SPLINE
  5
47
100
AcDbEntity
  8
0
  6
CONTINUOUS
100
AcDbSpline
210
-0.994572466308765
220
0.1040461881113404
230
0.0
 70
    24
 71
     3
 72
     8
 73
     4
 74
     2
 42
0.0000001
 43
0.0000001
 44
0.0000000001
 40
0.0
 40
0.0
 40
0.0
 40
0.0
 40
0.0385275661969073
 40
0.0385275661969073
 40
0.0385275661969073
 40
0.0385275661969073
 10
103.5928935395691
 20
-46.99156252091056
 30
0.0
 10
103.5942297550358
 20
-46.97878970206612
 30
0.0
 10
103.5955659705025
 20
-46.96601688322168
 30
0.0
 10
103.5969021859691
 20
-46.95324406437723
 30
0.0
 11
103.5928935395691
 21
-46.99156252091056
 31
0.0
 11
103.5969021859691
 21
-46.95324406437723
 31
0.0
  0
LINE
  5
48
100
AcDbEntity
  8
0
  6
HIDDEN
 62
     9
100
AcDbLine
 10
77.506503
 20
-33.588509
 30
0.0
 11
107.614146
 21
-33.588509
 31
0.0
  0
LINE
  5
4B
100
AcDbEntity
  8
0
100
AcDbLine
 10
106.740711
 20
-32.715073
 30
0.0
 11
77.065263
 21
-32.715073
 31
0.0
  0
LINE
  5
4C
100
AcDbEntity
  8
0
100
AcDbLine
 10
77.065263
 20
-35.088509
 30
0.0
 11
77.065263
 21
-32.715073
 31
0.0
  0
LWPOLYLINE
  5
4D
100
AcDbEntity
  8
0
  6
HIDDEN
 62
     9
 48
0.5
100
AcDbPolyline
 90
        6
 70
     0
 43
0.0
 10
83.159282
 20
-36.900678
 10
83.336324
 20
-36.792389
 10
83.542906
 20
-36.627683
 10
83.690994
 20
-36.460843
 10
83.778909
 20
-36.293756
 10
83.805001
 20
-36.112748
  0
SPLINE
  5
4E
100
AcDbEntity
  8
0
  6
HIDDEN
 62
     9
 48
0.5
100
AcDbSpline
210
0.0
220
0.0
230
1.0
 70
     8
 71
     3
 72
    15
 73
    11
 74
     9
 42
0.0000001
 43
0.0000001
 44
0.0000000001
 40
0.0
 40
0.0
 40
0.0
 40
0.0
 40
0.194396709195105
 40
0.4037122076426403
 40
0.639121126425196
 40
0.9078069478029517
 40
1.208269872396169
 40
1.536179842328078
 40
1.891246569954985
 40
2.158916874183577
 40
2.158916874183577
 40
2.158916874183577
 40
2.158916874183577
 10
83.81999647823587
 20
-36.36212331984391
 30
0.0
 10
83.81913734535643
 20
-36.42724678187574
 30
0.0
 10
83.81735314626766
 20
-36.56249154365727
 30
0.0
 10
83.74752167941375
 20
-36.76725176252668
 30
0.0
 10
83.62266901753882
 20
-36.97131385651509
 30
0.0
 10
83.43700818424798
 20
-37.16723593375876
 30
0.0
 10
83.19894746409291
 20
-37.34960069807413
 30
0.0
 10
82.91636128436087
 20
-37.51681832951156
 30
0.0
 10
82.63056019740703
 20
-37.65457416706825
 30
0.0
 10
82.43772737585677
 20
-37.73149573979545
 30
0.0
 10
82.35484227770253
 20
-37.7645588462439
 30
0.0
 11
83.81999647823587
 21
-36.36212331984391
 31
0.0
 11
83.80760516730253
 21
-36.55612470117723
 31
0.0
 11
83.74389553210253
 21
-36.7555089038439
 31
0.0
 11
83.62236355983586
 21
-36.95712075557724
 31
0.0
 11
83.43995011236918
 21
-37.15439570277724
 31
0.0
 11
83.20307556516921
 21
-37.3392427150439
 31
0.0
 11
82.92207171876921
 21
-37.50824504251057
 31
0.0
 11
82.60246035236919
 21
-37.6629090510439
 31
0.0
 11
82.35484227770253
 21
-37.7645588462439
 31
0.0
  0
LWPOLYLINE
  5
4F
100
AcDbEntity
  8
0
  6
HIDDEN
 62
     9
 48
0.5
100
AcDbPolyline
 90
       12
 70
     0
 43
0.0
 10
81.330341
 20
-36.470481
 10
81.36094
 20
-36.472902
 10
81.392208
 20
-36.559395
 10
81.421105
 20
-36.721531
 10
81.444827
 20
-36.943538
 10
81.461085
 20
-37.204042
 10
81.468283
 20
-37.477556
 10
81.465727
 20
-37.737676
 10
81.453659
 20
-37.959077
 10
81.433265
 20
-38.12012
 10
81.406503
 20
-38.205362
 10
81.375459
 20
-38.20569
  0
SPLINE
  5
50
100
AcDbEntity
  8
0
  6
HIDDEN
 62
     9
 48
0.5
100
AcDbSpline
210
0.0
220
0.0
230
1.0
 70
     8
 71
     3
 72
    19
 73
    15
 74
    13
 42
0.0000001
 43
0.0000001
 44
0.0000000001
 40
0.0
 40
0.0
 40
0.0
 40
0.0
 40
0.0827764907581408
 40
0.1848330673002246
 40
0.3494254135902662
 40
0.5752921261842924
 40
0.8420418189237345
 40
1.117798577691445
 40
1.38119104712726
 40
1.623801835214101
 40
1.844014529332313
 40
2.045397773843639
 40
2.203119772689323
 40
2.300668057490431
 40
2.300668057490431
 40
2.300668057490431
 40
2.300668057490431
 10
81.35563910650253
 20
-36.43984435451057
 30
0.0
 10
81.38218282002254
 20
-36.42483384688763
 30
0.0
 10
81.44145274005065
 20
-36.39131662309292
 30
0.0
 10
81.53809364948108
 20
-36.49111061061296
 30
0.0
 10
81.60494543905098
 20
-36.63283229873806
 30
0.0
 10
81.67433073898427
 20
-36.84465434229135
 30
0.0
 10
81.72958735709563
 20
-37.09383782723282
 30
0.0
 10
81.77243967085278
 20
-37.3594444479186
 30
0.0
 10
81.80076106261214
 20
-37.61863019756954
 30
0.0
 10
81.81470928173732
 20
-37.86006346705958
 30
0.0
 10
81.81634612700596
 20
-38.08271874935319
 30
0.0
 10
81.79693894985156
 20
-38.27209375897666
 30
0.0
 10
81.77354739594527
 20
-38.43031583714623
 30
0.0
 10
81.71201439090948
 20
-38.49145591076789
 30
0.0
 10
81.68850033743586
 20
-38.51481981051057
 30
0.0
 11
81.35563910650253
 21
-36.43984435451057
 31
0.0
 11
81.43363555023586
 21
-36.41212248251057
 31
0.0
 11
81.51529691130253
 21
-36.47333495611057
 31
0.0
 11
81.59453582010254
 21
-36.61759803451057
 31
0.0
 11
81.66652842703587
 21
-36.83168408357723
 31
0.0
 11
81.72648161636919
 21
-37.0916090990439
 31
0.0
 11
81.7707071107692
 21
-37.36379634277724
 31
0.0
 11
81.79918026810254
 21
-37.62564529211056
 31
0.0
 11
81.81301025210252
 21
-37.86786157157724
 31
0.0
 11
81.81225576143587
 21
-38.08807297317724
 31
0.0
 11
81.79347467450254
 21
-38.2885785390439
 31
0.0
 11
81.7519663651692
 21
-38.44074058811057
 31
0.0
 11
81.68850033743586
 21
-38.51481981051057
 31
0.0
  0
LINE
  5
51
100
AcDbEntity
  8
0
  6
HIDDEN
 62
     9
 48
0.5
100
AcDbLine
 10
81.297086
 20
-36.47884
 30
0.0
 11
81.266196
 21
-37.496507
 31
0.0
  0
SPLINE
  5
52
100
AcDbEntity
  8
0
  6
HIDDEN
 62
     9
 48
0.5
100
AcDbSpline
210
0.0
220
0.0
230
1.0
 70
     8
 71
     3
 72
    15
 73
    11
 74
     9
 42
0.0000001
 43
0.0000001
 44
0.0000000001
 40
0.0
 40
0.0
 40
0.0
 40
0.0
 40
0.0386619624356955
 40
0.0743225372906104
 40
0.1058636493922457
 40
0.1324543504235589
 40
0.1535121461006081
 40
0.1687183528498085
 40
0.1780778083424676
 40
0.1821020961221682
 40
0.1821020961221682
 40
0.1821020961221682
 40
0.1821020961221682
 10
81.40632471183586
 20
-36.96568519077724
 30
0.0
 10
81.40547767975624
 20
-36.95282426424925
 30
0.0
 10
81.40384937199952
 20
-36.92810082469137
 30
0.0
 10
81.40051171351741
 20
-36.89297809759654
 30
0.0
 10
81.39674396978197
 20
-36.86189936715234
 30
0.0
 10
81.3925250520449
 20
-36.83594093784874
 30
0.0
 10
81.38828611984013
 20
-36.81513387750939
 30
0.0
 10
81.38353083786777
 20
-36.80125634733659
 30
0.0
 10
81.37988478672475
 20
-36.79134076140561
 30
0.0
 10
81.37553832772969
 20
-36.78985703959624
 30
0.0
 10
81.37423141370252
 20
-36.78941090704391
 30
0.0
 11
81.40632471183586
 21
-36.96568519077724
 31
0.0
 11
81.40359015716919
 21
-36.92712005691057
 31
0.0
 11
81.40021827770253
 21
-36.89161925371057
 31
0.0
 11
81.39632083236918
 21
-36.86031986597724
 31
0.0
 11
81.39202009743588
 21
-36.83407926651057
 31
0.0
 11
81.38744164090253
 21
-36.81352522811057
 31
0.0
 11
81.38270211983586
 21
-36.79907650277724
 31
0.0
 11
81.37791350223587
 21
-36.79103482704391
 31
0.0
 11
81.37423141370252
 21
-36.78941090704391
 31
0.0
  0
LINE
  5
53
100
AcDbEntity
  8
0
  6
HIDDEN
 62
     9
 48
0.5
100
AcDbLine
 10
81.317972
 20
-36.949764
 30
0.0
 11
81.373195
 21
-36.789618
 31
0.0
  0
LWPOLYLINE
  5
54
100
AcDbEntity
  8
0
  6
HIDDEN
 62
     9
 48
0.5
100
AcDbPolyline
 90
        3
 70
     0
 43
0.0
 10
81.375459
 20
-38.20569
 10
81.344711
 20
-38.123293
 10
81.31566
 20
-37.964016
  0
LINE
  5
55
100
AcDbEntity
  8
0
  6
HIDDEN
 62
     9
 48
0.5
100
AcDbLine
 10
81.6885
 20
-38.51482
 30
0.0
 11
81.607128
 21
-38.499833
 31
0.0
  0
LINE
  5
56
100
AcDbEntity
  8
0
  6
HIDDEN
 62
     9
 48
0.5
100
AcDbLine
 10
81.535913
 20
-38.426339
 30
0.0
 11
81.37545
 21
-38.205679
 31
0.0
  0
LINE
  5
57
100
AcDbEntity
  8
0
  6
HIDDEN
 62
     9
 48
0.5
100
AcDbLine
 10
81.607128
 20
-38.499833
 30
0.0
 11
81.535913
 21
-38.426339
 31
0.0
  0
SPLINE
  5
58
100
AcDbEntity
  8
0
  6
HIDDEN
 62
     9
 48
0.5
100
AcDbSpline
210
-0.8985939341671828
220
-0.4387812000051336
230
0.0
 70
    24
 71
     3
 72
     8
 73
     4
 74
     2
 42
0.0000001
 43
0.0000001
 44
0.0000000001
 40
0.0
 40
0.0
 40
0.0
 40
0.0
 40
0.0929160684175433
 40
0.0929160684175433
 40
0.0929160684175433
 40
0.0929160684175433
 10
81.5150206851692
 20
-38.4354701998439
 30
0.0
 10
81.50143074383587
 20
-38.40763892802168
 30
0.0
 10
81.48784080250253
 20
-38.37980765619946
 30
0.0
 10
81.47425086116919
 20
-38.35197638437723
 30
0.0
 11
81.5150206851692
 21
-38.4354701998439
 31
0.0
 11
81.47425086116919
 21
-38.35197638437723
 31
0.0
  0
LWPOLYLINE
  5
59
100
AcDbEntity
  8
0
  6
HIDDEN
 62
     9
 48
0.5
100
AcDbPolyline
 90
        3
 70
     0
 43
0.0
 10
81.314418
 20
-37.617353
 10
82.392149
 20
-37.255291
 10
82.636548
 20
-37.156794
  0
LINE
  5
5A
100
AcDbEntity
  8
0
  6
HIDDEN
 62
     9
 48
0.5
100
AcDbLine
 10
81.969714
 20
-37.891105
 30
0.0
 11
82.320527
 21
-37.765164
 31
0.0
  0
SPLINE
  5
5B
100
AcDbEntity
  8
0
  6
HIDDEN
 62
     9
 48
0.5
100
AcDbSpline
210
0.0
220
0.0
230
1.0
 70
     8
 71
     3
 72
     9
 73
     5
 74
     3
 42
0.0000001
 43
0.0000001
 44
0.0000000001
 40
0.0
 40
0.0
 40
0.0
 40
0.0
 40
0.1045668869706209
 40
0.4193261839390962
 40
0.4193261839390962
 40
0.4193261839390962
 40
0.4193261839390962
 10
82.34484902863586
 20
-37.76839469797723
 30
0.0
 10
82.31224333008748
 20
-37.78072041459525
 30
0.0
 10
82.18149043552347
 20
-37.8301480667276
 30
0.0
 10
82.04871334998788
 20
-37.87391670040845
 30
0.0
 10
81.94904673316917
 20
-37.90677080037724
 30
0.0
 11
82.34484902863586
 21
-37.76839469797723
 31
0.0
 11
82.24690605903587
 21
-37.80501994277724
 31
0.0
 11
81.94904673316917
 21
-37.90677080037724
 31
0.0
  0
SPLINE
  5
5C
100
AcDbEntity
  8
0
  6
HIDDEN
 62
     9
 48
0.5
100
AcDbSpline
210
-0.3583518946309727
220
0.9335865892430078
230
0.0
 70
    24
 71
     3
 72
     8
 73
     4
 74
     2
 42
0.0000001
 43
0.0000001
 44
0.0000000001
 40
0.0
 40
0.0
 40
0.0
 40
0.0
 40
0.0107041480477675
 40
0.0107041480477675
 40
0.0107041480477675
 40
0.0107041480477675
 10
82.35484227770253
 20
-37.7645588462439
 30
0.0
 10
82.3515111946803
 20
-37.76583746348835
 30
0.0
 10
82.34818011165806
 20
-37.76711608073279
 30
0.0
 10
82.34484902863586
 20
-37.76839469797723
 30
0.0
 11
82.35484227770253
 21
-37.7645588462439
 31
0.0
 11
82.34484902863586
 21
-37.76839469797723
 31
0.0
  0
SPLINE
  5
5D
100
AcDbEntity
  8
0
  6
HIDDEN
 62
     9
 48
0.5
100
AcDbSpline
210
0.0
220
0.0
230
1.0
 70
     8
 71
     3
 72
    15
 73
    11
 74
     9
 42
0.0000001
 43
0.0000001
 44
0.0000000001
 40
0.0
 40
0.0
 40
0.0
 40
0.0
 40
0.0246026956874787
 40
0.0541766445686988
 40
0.0879698042256322
 40
0.1251465179425076
 40
0.1647867870885782
 40
0.2058741818647853
 40
0.2473148578477405
 40
0.2878569433205367
 40
0.2878569433205367
 40
0.2878569433205367
 40
0.2878569433205367
 10
81.4307626275692
 20
-37.7469500142439
 30
0.0
 10
81.43189647243829
 20
-37.73882636576284
 30
0.0
 10
81.43439326836869
 20
-37.72093759365631
 30
0.0
 10
81.43672185518349
 20
-37.6916932191194
 30
0.0
 10
81.43854922156089
 20
-37.65822813211159
 30
0.0
 10
81.43960091813468
 20
-37.62136857785195
 30
0.0
 10
81.43991242458652
 20
-37.58206599211662
 30
0.0
 10
81.4394241815324
 20
-37.54134415389309
 30
0.0
 10
81.43822624574923
 20
-37.50033442546703
 30
0.0
 10
81.43675184698045
 20
-37.47304576178251
 30
0.0
 10
81.43602272783587
 20
-37.45955098171057
 30
0.0
 11
81.4307626275692
 21
-37.7469500142439
 31
0.0
 11
81.43394500196919
 21
-37.7225540078439
 31
0.0
 11
81.4364956739692
 21
-37.69309025851057
 31
0.0
 11
81.43834827023587
 21
-37.6593479182439
 31
0.0
 11
81.43945395770254
 21
-37.62218765051057
 31
0.0
 11
81.43977938383587
 21
-37.58254871717724
 31
0.0
 11
81.43930823290252
 21
-37.54146402384391
 31
0.0
 11
81.4380446723692
 21
-37.5000426158439
 31
0.0
 11
81.43602272783587
 21
-37.45955098171057
 31
0.0
  0
LINE
  5
5E
100
AcDbEntity
  8
0
  6
HIDDEN
 62
     9
 48
0.5
100
AcDbLine
 10
81.31566
 20
-37.964016
 30
0.0
 11
81.29167
 21
-37.744029
 31
0.0
  0
LINE
  5
5F
100
AcDbEntity
  8
0
  6
HIDDEN
 62
     9
 48
0.5
100
AcDbLine
 10
81.969714
 20
-37.891105
 30
0.0
 11
81.37554
 21
-37.907097
 31
0.0
  0
LINE
  5
60
100
AcDbEntity
  8
0
  6
HIDDEN
 62
     9
 48
0.5
100
AcDbLine
 10
81.946296
 20
-37.90729
 30
0.0
 11
81.364041
 21
-37.922961
 31
0.0
  0
LINE
  5
61
100
AcDbEntity
  8
0
  6
HIDDEN
 62
     9
 48
0.5
100
AcDbLine
 10
81.946205
 20
-37.907293
 30
0.0
 11
81.949001
 21
-37.906769
 31
0.0
  0
SPLINE
  5
62
100
AcDbEntity
  8
0
  6
HIDDEN
 62
     9
 48
0.5
100
AcDbSpline
210
0.0
220
0.0
230
1.0
 70
     8
 71
     3
 72
    11
 73
     7
 74
     5
 42
0.0000001
 43
0.0000001
 44
0.0000000001
 40
0.0
 40
0.0
 40
0.0
 40
0.0
 40
0.0209826328236583
 40
0.0301983842191378
 40
0.0337129426431954
 40
0.0339177064319377
 40
0.0339177064319377
 40
0.0339177064319377
 40
0.0339177064319377
 10
81.96971365263586
 20
-37.8911050126439
 30
0.0
 10
81.96418909166297
 20
-37.89312040439904
 30
0.0
 10
81.95623809636588
 20
-37.89602097341179
 30
0.0
 10
81.94066463250981
 20
-37.90336716542928
 30
0.0
 10
81.94494395581319
 20
-37.90696187144073
 30
0.0
 10
81.94612052770928
 20
-37.90733759980525
 30
0.0
 10
81.94618530276921
 20
-37.90735828517723
 30
0.0
 11
81.96971365263586
 21
-37.8911050126439
 31
0.0
 11
81.95024377850252
 21
-37.89892772837724
 31
0.0
 11
81.94331998650254
 21
-37.90500976571057
 31
0.0
 11
81.94599081423588
 21
-37.9072942350439
 31
0.0
 11
81.94618530276921
 21
-37.90735828517723
 31
0.0
  0
SPLINE
  5
63
100
AcDbEntity
  8
0
  6
HIDDEN
 62
     9
 48
0.5
100
AcDbSpline
210
-0.9965625980200664
220
-0.0828431543791967
230
0.0
 70
    24
 71
     3
 72
     8
 73
     4
 74
     2
 42
0.0000001
 43
0.0000001
 44
0.0000000001
 40
0.0
 40
0.0
 40
0.0
 40
0.0
 40
0.0315408430898139
 40
0.0315408430898139
 40
0.0315408430898139
 40
0.0315408430898139
 10
81.29166999183587
 20
-37.74402864677723
 30
0.0
 10
81.29079901085807
 20
-37.73355117193279
 30
0.0
 10
81.2899280298803
 20
-37.72307369708835
 30
0.0
 10
81.28905704890254
 20
-37.71259622224391
 30
0.0
 11
81.29166999183587
 21
-37.74402864677723
 31
0.0
 11
81.28905704890254
 21
-37.71259622224391
 31
0.0
  0
SPLINE
  5
64
100
AcDbEntity
  8
0
  6
HIDDEN
 62
     9
 48
0.5
100
AcDbSpline
210
0.0
220
0.0
230
-1.0
 70
     8
 71
     3
 72
     9
 73
     5
 74
     3
 42
0.0000001
 43
0.0000001
 44
0.0000000001
 40
0.0
 40
0.0
 40
0.0
 40
0.0
 40
0.0295462380552419
 40
0.0571555822139575
 40
0.0571555822139575
 40
0.0571555822139575
 40
0.0571555822139575
 10
81.28905704890254
 20
-37.71259622224391
 30
0.0
 10
81.28826158851516
 20
-37.70277964487862
 30
0.0
 10
81.28672281388395
 20
-37.68379001264145
 30
0.0
 10
81.28524620900897
 20
-37.66479544620846
 30
0.0
 10
81.28453292623586
 20
-37.6556200078439
 30
0.0
 11
81.28905704890254
 21
-37.71259622224391
 31
0.0
 11
81.28668728143585
 21
-37.68314517157723
 31
0.0
 11
81.28453292623586
 21
-37.6556200078439
 31
0.0
  0
LWPOLYLINE
  5
65
100
AcDbEntity
  8
0
  6
HIDDEN
 62
     9
 48
0.5
100
AcDbPolyline
 90
        3
 70
     0
 43
0.0
 10
81.364047
 20
-37.922946
 10
81.366719
 20
-37.922107
 10
81.37554
 20
-37.907097
  0
LINE
  5
66
100
AcDbEntity
  8
0
  6
HIDDEN
 62
     9
 48
0.5
100
AcDbLine
 10
81.37554
 20
-37.907097
 30
0.0
 11
81.430763
 21
-37.74695
 31
0.0
  0
LWPOLYLINE
  5
67
100
AcDbEntity
  8
0
  6
HIDDEN
 62
     9
 48
0.5
100
AcDbPolyline
 90
        7
 70
     0
 43
0.0
 10
81.316743
 20
-37.656003
 10
81.322479
 20
-37.733183
 10
81.329794
 20
-37.801081
 10
81.33832
 20
-37.856294
 10
81.34763
 20
-37.896053
 10
81.357257
 20
-37.918363
 10
81.364047
 20
-37.922946
  0
LWPOLYLINE
  5
68
100
AcDbEntity
  8
0
  6
HIDDEN
 62
     9
 48
0.5
100
AcDbPolyline
 90
        8
 70
     0
 43
0.0
 10
81.317972
 20
-36.949764
 10
81.310233
 20
-36.982777
 10
81.303965
 20
-37.032135
 10
81.299482
 20
-37.095365
 10
81.297009
 20
-37.169296
 10
81.296669
 20
-37.25022
 10
81.29848
 20
-37.33408
 10
81.302351
 20
-37.41667
  0
LINE
  5
69
100
AcDbEntity
  8
0
  6
HIDDEN
 62
     9
 48
0.5
100
AcDbLine
 10
81.436023
 20
-37.459551
 30
0.0
 11
81.406325
 21
-36.965685
 31
0.0
  0
LWPOLYLINE
  5
6A
100
AcDbEntity
  8
0
  6
HIDDEN
 62
     9
 48
0.5
100
AcDbPolyline
 90
        8
 70
     0
 43
0.0
 10
81.371457
 20
-37.104095
 10
81.372114
 20
-37.10415
 10
81.377706
 20
-37.110352
 10
81.3833
 20
-37.126526
 10
81.388652
 20
-37.151964
 10
81.393529
 20
-37.185555
 10
81.397716
 20
-37.225831
 10
81.401031
 20
-37.271031
  0
LWPOLYLINE
  5
6B
100
AcDbEntity
  8
0
  6
HIDDEN
 62
     9
 48
0.5
100
AcDbPolyline
 90
       10
 70
     0
 43
0.0
 10
81.354495
 20
-37.405986
 10
81.352197
 20
-37.357837
 10
81.351016
 20
-37.308842
 10
81.351004
 20
-37.261145
 10
81.352162
 20
-37.216828
 10
81.354438
 20
-37.17783
 10
81.357734
 20
-37.145853
 10
81.361905
 20
-37.122297
 10
81.36677
 20
-37.108191
 10
81.371457
 20
-37.104095
  0
SPLINE
  5
6C
100
AcDbEntity
  8
0
  6
CONTINUOUS
100
AcDbSpline
210
-0.8580363223400592
220
-0.5135890083959604
230
0.0
 70
    24
 71
     3
 72
     8
 73
     4
 74
     2
 42
0.0000001
 43
0.0000001
 44
0.0000000001
 40
0.0
 40
0.0
 40
0.0
 40
0.0
 40
0.274116593291239
 40
0.274116593291239
 40
0.274116593291239
 40
0.274116593291239
 10
80.37080333370253
 20
-35.1585793678439
 30
0.0
 10
80.41773109014696
 20
-35.23698003237724
 30
0.0
 10
80.46465884659141
 20
-35.31538069691057
 30
0.0
 10
80.51158660303585
 20
-35.39378136144391
 30
0.0
 11
80.37080333370253
 21
-35.1585793678439
 31
0.0
 11
80.51158660303585
 21
-35.39378136144391
 31
0.0
  0
SPLINE
  5
6D
100
AcDbEntity
  8
0
  6
CONTINUOUS
100
AcDbSpline
210
0.0
220
0.0
230
1.0
 70
     8
 71
     3
 72
     9
 73
     5
 74
     3
 42
0.0000001
 43
0.0000001
 44
0.0000000001
 40
0.0
 40
0.0
 40
0.0
 40
0.0
 40
0.1816726070997756
 40
0.3249529946961589
 40
0.3249529946961589
 40
0.3249529946961589
 40
0.3249529946961589
 10
80.54161585210252
 20
-35.34776084197724
 30
0.0
 10
80.50472975738166
 20
-35.29973344159965
 30
0.0
 10
80.43875257384511
 20
-35.2138280988553
 30
0.0
 10
80.37275268395241
 20
-35.12794020004928
 30
0.0
 10
80.34365158330253
 20
-35.09006994917724
 30
0.0
 11
80.54161585210252
 21
-35.34776084197724
 31
0.0
 11
80.43095047076919
 21
-35.20368409317724
 31
0.0
 11
80.34365158330253
 21
-35.09006994917724
 31
0.0
  0
SPLINE
  5
6E
100
AcDbEntity
  8
0
  6
CONTINUOUS
100
AcDbSpline
210
-0.8427248240069332
220
-0.5383445653134093
230
0.0
 70
    24
 71
     3
 72
     8
 73
     4
 74
     2
 42
0.0000001
 43
0.0000001
 44
0.0000000001
 40
0.0
 40
0.0
 40
0.0
 40
0.0
 40
0.0817948447342325
 40
0.0817948447342325
 40
0.0817948447342325
 40
0.0817948447342325
 10
80.3267695235692
 20
-35.08964882171057
 30
0.0
 10
80.34144746028031
 20
-35.11262567042168
 30
0.0
 10
80.35612539699142
 20
-35.13560251913279
 30
0.0
 10
80.37080333370253
 20
-35.1585793678439
 30
0.0
 11
80.3267695235692
 21
-35.08964882171057
 31
0.0
 11
80.37080333370253
 21
-35.1585793678439
 31
0.0
  0
LINE
  5
6F
100
AcDbEntity
  8
0
  6
HIDDEN
 62
     9
 48
0.5
100
AcDbLine
 10
82.04852
 20
-35.533847
 30
0.0
 11
82.034128
 21
-35.294514
 31
0.0
  0
SPLINE
  5
70
100
AcDbEntity
  8
0
  6
CONTINUOUS
100
AcDbSpline
210
0.0
220
0.0
230
1.0
 70
     8
 71
     3
 72
     9
 73
     5
 74
     3
 42
0.0000001
 43
0.0000001
 44
0.0000000001
 40
0.0
 40
0.0
 40
0.0
 40
0.0
 40
0.23744976626344
 40
0.5181508774244649
 40
0.5181508774244649
 40
0.5181508774244649
 40
0.5181508774244649
 10
81.74033576570252
 20
-35.58965290384391
 30
0.0
 10
81.76835826874883
 20
-35.51539003094376
 30
0.0
 10
81.82950755842625
 20
-35.353337343511
 30
0.0
 10
81.85510657558227
 20
-35.18192380160449
 30
0.0
 10
81.86897449103586
 20
-35.08906287291057
 30
0.0
 11
81.74033576570252
 21
-35.58965290384391
 31
0.0
 11
81.81693751610254
 21
-35.3648984526439
 31
0.0
 11
81.86897449103586
 21
-35.08906287291057
 31
0.0
  0
SPLINE
  5
71
100
AcDbEntity
  8
0
  6
HIDDEN
 62
     9
 48
0.5
100
AcDbSpline
210
0.0
220
0.0
230
-1.0
 70
     8
 71
     3
 72
    15
 73
    11
 74
     9
 42
0.0000001
 43
0.0000001
 44
0.0000000001
 40
0.0
 40
0.0
 40
0.0
 40
0.0
 40
0.0246025253047153
 40
0.0541760834007226
 40
0.0879687721245729
 40
0.1251451963440613
 40
0.1647855542481677
 40
0.2058733658923823
 40
0.2473145420394982
 40
0.2878569445564307
 40
0.2878569445564307
 40
0.2878569445564307
 40
0.2878569445564307
 10
81.9201084483692
 20
-35.20356761317724
 30
0.0
 10
81.91897460977491
 20
-35.21169120517403
 30
0.0
 10
81.91647783623288
 20
-35.22957979149113
 30
0.0
 10
81.91414926328437
 20
-35.25882382164559
 30
0.0
 10
81.91232189382608
 20
-35.29228852418956
 30
0.0
 10
81.91127018024621
 20
-35.32914785394847
 30
0.0
 10
81.91095864549902
 20
-35.36845051153049
 30
0.0
 10
81.91144687436679
 20
-35.40917268529036
 30
0.0
 10
81.91264481049222
 20
-35.45018282535714
 30
0.0
 10
81.9141192227746
 20
-35.47747176113539
 30
0.0
 10
81.91484834703585
 20
-35.49096664677724
 30
0.0
 11
81.9201084483692
 21
-35.20356761317724
 31
0.0
 11
81.91692609103586
 21
-35.22796344997724
 31
0.0
 11
81.91437544036919
 21
-35.25742680891057
 31
0.0
 11
81.91252284730252
 21
-35.29116867771057
 31
0.0
 11
81.91141714276922
 21
-35.32832865531057
 31
0.0
 11
81.91109168890253
 21
-35.36796767717724
 31
0.0
 11
81.91156282490252
 21
-35.40905278757723
 31
0.0
 11
81.91282638970253
 21
-35.45047469584391
 31
0.0
 11
81.91484834703585
 21
-35.49096664677724
 31
0.0
  0
LWPOLYLINE
  5
72
100
AcDbEntity
  8
0
  6
HIDDEN
 62
     9
 48
0.5
100
AcDbPolyline
 90
       10
 70
     0
 43
0.0
 10
81.966802
 20
-35.377596
 10
81.962114
 20
-35.381691
 10
81.95725
 20
-35.395798
 10
81.953079
 20
-35.419354
 10
81.949783
 20
-35.45133
 10
81.947506
 20
-35.490328
 10
81.946349
 20
-35.534645
 10
81.946361
 20
-35.582342
 10
81.947542
 20
-35.631337
 10
81.94984
 20
-35.679486
  0
LWPOLYLINE
  5
73
100
AcDbEntity
  8
0
  6
HIDDEN
 62
     9
 48
0.5
100
AcDbPolyline
 90
        8
 70
     0
 43
0.0
 10
81.996376
 20
-35.544532
 10
81.993061
 20
-35.499331
 10
81.988874
 20
-35.459055
 10
81.983997
 20
-35.425464
 10
81.978645
 20
-35.400026
 10
81.973051
 20
-35.383852
 10
81.967459
 20
-35.37765
 10
81.966802
 20
-35.377596
  0
SPLINE
  5
74
100
AcDbEntity
  8
0
  6
CONTINUOUS
100
AcDbSpline
210
-0.8704420257683265
220
-0.4922709414299532
230
0.0
 70
    24
 71
     3
 72
     8
 73
     4
 74
     2
 42
0.0000001
 43
0.0000001
 44
0.0000000001
 40
0.0
 40
0.0
 40
0.0
 40
0.0
 40
0.1141343176519687
 40
0.1141343176519687
 40
0.1141343176519687
 40
0.1141343176519687
 10
80.51158660303585
 20
-35.39378136144391
 30
0.0
 10
80.53031493903587
 20
-35.42689713033279
 30
0.0
 10
80.54904327503585
 20
-35.46001289922168
 30
0.0
 10
80.56777161103585
 20
-35.49312866811057
 30
0.0
 11
80.51158660303585
 21
-35.39378136144391
 31
0.0
 11
80.56777161103585
 21
-35.49312866811057
 31
0.0
  0
SPLINE
  5
75
100
AcDbEntity
  8
0
  6
CONTINUOUS
100
AcDbSpline
210
-0.7932444434921426
220
-0.6089033198044181
230
0.0
 70
    24
 71
     3
 72
     8
 73
     4
 74
     2
 42
0.0000001
 43
0.0000001
 44
0.0000000001
 40
0.0
 40
0.0
 40
0.0
 40
0.0
 40
0.182539074625232
 40
0.182539074625232
 40
0.182539074625232
 40
0.182539074625232
 10
80.65276450063585
 20
-35.4925589486439
 30
0.0
 10
80.61571495112474
 20
-35.44429291308834
 30
0.0
 10
80.57866540161363
 20
-35.39602687753279
 30
0.0
 10
80.54161585210252
 20
-35.34776084197724
 30
0.0
 11
80.65276450063585
 21
-35.4925589486439
 31
0.0
 11
80.54161585210252
 21
-35.34776084197724
 31
0.0
  0
SPLINE
  5
76
100
AcDbEntity
  8
0
  6
HIDDEN
 62
     9
 48
0.5
100
AcDbSpline
210
0.0
220
0.0
230
1.0
 70
     8
 71
     3
 72
    14
 73
    10
 74
     8
 42
0.0000001
 43
0.0000001
 44
0.0000000001
 40
0.0
 40
0.0
 40
0.0
 40
0.0
 40
0.0572632786617365
 40
0.3683972613073843
 40
0.6534679430974986
 40
0.9079499075047666
 40
1.13187932899261
 40
1.332258478342801
 40
1.519579869652921
 40
1.519579869652921
 40
1.519579869652921
 40
1.519579869652921
 10
82.79182478010254
 20
-35.08862849637724
 30
0.0
 10
82.80953698127985
 20
-35.09574140525521
 30
0.0
 10
82.92348655870457
 20
-35.14150155402441
 30
0.0
 10
83.1211846685802
 20
-35.23406645512281
 30
0.0
 10
83.36257355861368
 20
-35.38438570078126
 30
0.0
 10
83.55559448362781
 20
-35.55273771811055
 30
0.0
 10
83.6928972091661
 20
-35.73420307175155
 30
0.0
 10
83.77993090392655
 20
-35.9218050274047
 30
0.0
 10
83.79683378839358
 20
-36.0505455391107
 30
0.0
 10
83.8050005859692
 20
-36.11274780411057
 30
0.0
 11
82.79182478010254
 21
-35.08862849637724
 31
0.0
 11
82.84490108090253
 21
-35.11012243451057
 31
0.0
 11
83.12602065743586
 21
-35.24344962171057
 31
0.0
 11
83.36659311183586
 21
-35.39638813157724
 31
0.0
 11
83.55647708943587
 21
-35.56581406011057
 31
0.0
 11
83.69057275876919
 21
-35.74515378597723
 31
0.0
 11
83.77156721530253
 21
-35.92843417637723
 31
0.0
 11
83.8050005859692
 21
-36.11274780411057
 31
0.0
  0
LWPOLYLINE
  5
77
100
AcDbEntity
  8
0
  6
HIDDEN
 62
     9
 48
0.5
100
AcDbPolyline
 90
        6
 70
     0
 43
0.0
 10
82.092494
 20
-35.851677
 10
82.0836
 20
-36.079831
 10
82.066461
 20
-36.257679
 10
82.042631
 20
-36.369104
 10
82.014288
 20
-36.403955
 10
82.000459
 20
-36.393016
  0
LWPOLYLINE
  5
78
100
AcDbEntity
  8
0
  6
HIDDEN
 62
     9
 48
0.5
100
AcDbPolyline
 90
        7
 70
     0
 43
0.0
 10
83.196424
 20
-35.552694
 10
83.263742
 20
-35.682843
 10
83.285309
 20
-35.816744
 10
83.260924
 20
-35.953146
 10
83.190814
 20
-36.090779
 10
83.075633
 20
-36.228359
 10
82.916454
 20
-36.364605
  0
SPLINE
  5
79
100
AcDbEntity
  8
0
  6
HIDDEN
 62
     9
 48
0.5
100
AcDbSpline
210
0.0
220
0.0
230
-1.0
 70
     8
 71
     3
 72
    13
 73
     9
 74
     0
 42
0.0000001
 43
0.0000001
 40
0.0
 40
0.0
 40
0.0
 40
0.0
 40
0.0235821028530107
 40
0.236006711454257
 40
0.4266494643642545
 40
0.5915567747896895
 40
0.7274143272363385
 40
0.7953596843175826
 40
0.7953596843175826
 40
0.7953596843175826
 40
0.7953596843175826
 10
82.17925976143586
 20
-36.1739590094439
 30
0.0
 10
82.18709281823029
 20
-36.17461717571047
 30
0.0
 10
82.26548506281538
 20
-36.18120402070602
 30
0.0
 10
82.40692112744378
 20
-36.19670070791943
 30
0.0
 10
82.59392598732675
 20
-36.2267669817887
 30
0.0
 10
82.75396268937042
 20
-36.26233124075209
 30
0.0
 10
82.87178455267024
 20
-36.29756709657144
 30
0.0
 10
82.93543955379638
 20
-36.3216779168974
 30
0.0
 10
82.95630787169484
 20
-36.33049325193972
 30
0.0
  0
SPLINE
  5
7A
100
AcDbEntity
  8
0
  6
HIDDEN
 62
     9
 48
0.5
100
AcDbSpline
210
0.0
220
0.0
230
1.0
 70
     8
 71
     3
 72
    10
 73
     6
 74
     4
 42
0.0000001
 43
0.0000001
 44
0.0000000001
 40
0.0
 40
0.0
 40
0.0
 40
0.0
 40
0.2612363485075256
 40
0.5140177170334131
 40
0.7507524179377435
 40
0.7507524179377435
 40
0.7507524179377435
 40
0.7507524179377435
 10
81.37423072996918
 20
-36.7893532590439
 30
0.0
 10
81.46082522409852
 20
-36.78012987534949
 30
0.0
 10
81.63121155982215
 20
-36.76198162508871
 30
0.0
 10
81.87866954692651
 20
-36.72365904629446
 30
0.0
 10
82.03830500237534
 20
-36.68977019174146
 30
0.0
 10
82.11550625103587
 20
-36.6733812142439
 30
0.0
 11
81.37423072996918
 21
-36.7893532590439
 31
0.0
 11
81.63376644410252
 21
-36.75959350651057
 31
0.0
 11
81.88350127396919
 21
-36.72046634171056
 31
0.0
 11
82.11550625103587
 21
-36.6733812142439
 31
0.0
  0
SPLINE
  5
7B
100
AcDbEntity
  8
0
  6
HIDDEN
 62
     9
 48
0.5
100
AcDbSpline
210
-0.2312297933097239
220
0.9728991636783035
230
0.0
 70
    24
 71
     3
 72
     8
 73
     4
 74
     2
 42
0.0000001
 43
0.0000001
 44
0.0000000001
 40
0.0
 40
0.0
 40
0.0
 40
0.0
 40
0.0772011380734348
 40
0.0772011380734348
 40
0.0772011380734348
 40
0.0772011380734348
 10
82.11550625103587
 20
-36.6733812142439
 30
0.0
 10
82.14054255859142
 20
-36.66743081317723
 30
0.0
 10
82.16557886614697
 20
-36.66148041211057
 30
0.0
 10
82.19061517370253
 20
-36.6555300110439
 30
0.0
 11
82.11550625103587
 21
-36.6733812142439
 31
0.0
 11
82.19061517370253
 21
-36.6555300110439
 31
0.0
  0
LWPOLYLINE
  5
7C
100
AcDbEntity
  8
0
  6
HIDDEN
 62
     9
 48
0.5
100
AcDbPolyline
 90
        3
 70
     0
 43
0.0
 10
82.000459
 20
-36.393016
 10
81.983973
 20
-36.359064
 10
81.954479
 20
-36.23854
  0
LINE
  5
7D
100
AcDbEntity
  8
0
  6
HIDDEN
 62
     9
 48
0.5
100
AcDbLine
 10
81.374231
 20
-36.789361
 30
0.0
 11
81.373195
 21
-36.789618
 31
0.0
  0
SPLINE
  5
7E
100
AcDbEntity
  8
0
  6
HIDDEN
 62
     9
 48
0.5
100
AcDbSpline
210
0.0
220
0.0
230
-1.0
 70
     8
 71
     3
 72
    10
 73
     6
 74
     4
 42
0.0000001
 43
0.0000001
 44
0.0000000001
 40
0.0
 40
0.0
 40
0.0
 40
0.0
 40
0.0138409831092748
 40
0.0271122361621159
 40
0.0397904419203257
 40
0.0397904419203257
 40
0.0397904419203257
 40
0.0397904419203257
 10
81.33033996836919
 20
-36.4704803790439
 30
0.0
 10
81.33300138008641
 20
-36.46671100240222
 30
0.0
 10
81.33821465304778
 20
-36.45932740624536
 30
0.0
 10
81.34663079312998
 20
-36.44905051647005
 30
0.0
 10
81.35268243667159
 20
-36.44286596135291
 30
0.0
 10
81.35563910650253
 20
-36.43984435451057
 30
0.0
 11
81.33033996836919
 21
-36.4704803790439
 31
0.0
 11
81.3384600579692
 21
-36.45927158971057
 31
0.0
 11
81.34690349476921
 21
-36.44903271611057
 31
0.0
 11
81.35563910650253
 21
-36.43984435451057
 31
0.0
  0
SPLINE
  5
7F
100
AcDbEntity
  8
0
  6
HIDDEN
 62
     9
 48
0.5
100
AcDbSpline
210
0.0
220
0.0
230
-1.0
 70
     8
 71
     3
 72
    22
 73
    18
 74
    16
 42
0.0000001
 43
0.0000001
 44
0.0000000001
 40
0.0
 40
0.0
 40
0.0
 40
0.0
 40
0.0163557024200532
 40
0.0314222832759355
 40
0.0407410626100538
 40
0.0437524309484654
 40
0.0457480135945098
 40
0.0488366120405622
 40
0.0529139989351675
 40
0.0577889723940061
 40
0.0633179131320718
 40
0.0693765887901184
 40
0.0758530300345866
 40
0.08264862289759
 40
0.0896572432150018
 40
0.0967593604462716
 40
0.1038196992627448
 40
0.1038196992627448
 40
0.1038196992627448
 40
0.1038196992627448
 10
81.29708628730254
 20
-36.47883955771057
 30
0.0
 10
81.29692939418033
 20
-36.48425300645712
 30
0.0
 10
81.296627973917
 20
-36.49465322747148
 30
0.0
 10
81.29721008071838
 20
-36.50867938309224
 30
0.0
 10
81.29756329762463
 20
-36.5169177387216
 30
0.0
 10
81.29995612557847
 20
-36.52253415820864
 30
0.0
 10
81.30291185162198
 20
-36.52111714324333
 30
0.0
 10
81.30449423835512
 20
-36.51858656526759
 30
0.0
 10
81.30659963245674
 20
-36.5151336777237
 30
0.0
 10
81.30874910531655
 20
-36.51081850375262
 30
0.0
 10
81.31113111178343
 20
-36.50587247954252
 30
0.0
 10
81.31369495218285
 20
-36.50042491174614
 30
0.0
 10
81.31647876401743
 20
-36.49461347989376
 30
0.0
 10
81.31949548472315
 20
-36.48856281484649
 30
0.0
 10
81.32278312537755
 20
-36.48241807623689
 30
0.0
 10
81.32632502478339
 20
-36.4763079147255
 30
0.0
 10
81.3290051247754
 20
-36.472419610092
 30
0.0
 10
81.33034122170252
 20
-36.47048119291057
 30
0.0
 11
81.29708628730254
 21
-36.47883955771057
 31
0.0
 11
81.29681891130253
 21
-36.49519307451057
 31
0.0
 11
81.2972792163692
 21
-36.5102526222439
 31
0.0
 11
81.29873018703587
 21
-36.51945774757724
 31
0.0
 11
81.30048453583587
 21
-36.52190531771057
 31
0.0
 11
81.30236209423586
 21
-36.52122920784391
 31
0.0
 11
81.30432629370252
 21
-36.51884564731057
 31
0.0
 11
81.30641110543587
 21
-36.51534155771057
 31
0.0
 11
81.30864349583587
 21
-36.51100776037724
 31
0.0
 11
81.31104717796919
 21
-36.5060286542439
 31
0.0
 11
81.31364174756919
 21
-36.50055364197724
 31
0.0
 11
81.31644777956919
 21
-36.49471664997724
 31
0.0
 11
81.31949225636921
 21
-36.48864118757723
 31
0.0
 11
81.32280338383585
 21
-36.4824640366439
 31
0.0
 11
81.32641015716918
 21
-36.4763459278439
 31
0.0
 11
81.33034122170252
 21
-36.47048119291057
 31
0.0
  0
LINE
  5
80
100
AcDbEntity
  8
0
  6
HIDDEN
 62
     9
 48
0.5
100
AcDbLine
 10
81.977676
 20
-36.1609
 30
0.0
 11
82.168735
 21
-36.173957
 31
0.0
  0
SPLINE
  5
81
100
AcDbEntity
  8
0
  6
HIDDEN
 62
     9
 48
0.5
100
AcDbSpline
210
0.0618224855042196
220
0.9980871606658812
230
0.0
 70
    24
 71
     3
 72
     8
 73
     4
 74
     2
 42
0.0000001
 43
0.0000001
 44
0.0000000001
 40
0.0
 40
0.0
 40
0.0
 40
0.0
 40
0.1929446678833666
 40
0.1929446678833666
 40
0.1929446678833666
 40
0.1929446678833666
 10
81.97618523556919
 20
-36.16117577531057
 30
0.0
 10
82.04037710081363
 20
-36.16515188162168
 30
0.0
 10
82.10456896605807
 20
-36.16912798793279
 30
0.0
 10
82.16876083130252
 20
-36.17310409424391
 30
0.0
 11
81.97618523556919
 21
-36.16117577531057
 31
0.0
 11
82.16876083130252
 21
-36.17310409424391
 31
0.0
  0
LWPOLYLINE
  5
82
100
AcDbEntity
  8
0
  6
HIDDEN
 62
     9
 48
0.5
100
AcDbPolyline
 90
        8
 70
     0
 43
0.0
 10
82.032899
 20
-36.000753
 10
82.040638
 20
-35.967741
 10
82.046906
 20
-35.918382
 10
82.051389
 20
-35.855152
 10
82.053863
 20
-35.781222
 10
82.054202
 20
-35.700298
 10
82.052391
 20
-35.616438
 10
82.04852
 20
-35.533847
  0
LINE
  5
83
100
AcDbEntity
  8
0
  6
HIDDEN
 62
     9
 48
0.5
100
AcDbLine
 10
82.168735
 20
-36.173957
 30
0.0
 11
82.17925
 21
-36.174676
 31
0.0
  0
SPLINE
  5
84
100
AcDbEntity
  8
0
  6
HIDDEN
 62
     9
 48
0.5
100
AcDbSpline
210
0.0811601644942327
220
0.9967010723879397
230
0.0
 70
    24
 71
     3
 72
     8
 73
     4
 74
     2
 42
0.0000001
 43
0.0000001
 44
0.0000000001
 40
0.0
 40
0.0
 40
0.0
 40
0.0
 40
0.0105336799810838
 40
0.0105336799810838
 40
0.0105336799810838
 40
0.0105336799810838
 10
82.16876083130252
 20
-36.17310409424391
 30
0.0
 10
82.17226047468029
 20
-36.17338906597725
 30
0.0
 10
82.17576011805808
 20
-36.17367403771058
 30
0.0
 10
82.17925976143586
 20
-36.1739590094439
 30
0.0
 11
82.16876083130252
 21
-36.17310409424391
 31
0.0
 11
82.17925976143586
 21
-36.1739590094439
 31
0.0
  0
SPLINE
  5
85
100
AcDbEntity
  8
0
  6
HIDDEN
 62
     9
 48
0.5
100
AcDbSpline
210
0.0
220
0.0
230
-1.0
 70
     8
 71
     3
 72
    16
 73
    12
 74
    10
 42
0.0000001
 43
0.0000001
 44
0.0000000001
 40
0.0
 40
0.0
 40
0.0
 40
0.0
 40
0.0045046100792914
 40
0.0174197366666514
 40
0.0327152810300052
 40
0.0496753091556891
 40
0.068250561396395
 40
0.0884376249335216
 40
0.1102944529758022
 40
0.1338731582085642
 40
0.159260303279317
 40
0.159260303279317
 40
0.159260303279317
 40
0.159260303279317
 10
82.09613479610252
 20
-35.53440134331057
 30
0.0
 10
82.09606884134357
 20
-35.53590142043472
 30
0.0
 10
82.0958137882952
 20
-35.54170235503781
 30
0.0
 10
82.09526033203912
 20
-35.55259442449969
 30
0.0
 10
82.09501945238448
 20
-35.56765124059017
 30
0.0
 10
82.09480040546939
 20
-35.58459292021891
 30
0.0
 10
82.09466713044418
 20
-35.60316679843376
 30
0.0
 10
82.09455951995378
 20
-35.62337283128162
 30
0.0
 10
82.09446594541033
 20
-35.64524685117918
 30
0.0
 10
82.09436730291141
 20
-35.66885420009177
 30
0.0
 10
82.09428339078305
 20
-35.68517593644264
 30
0.0
 10
82.0942398851692
 20
-35.69363820731057
 30
0.0
 11
82.09613479610252
 21
-35.53440134331057
 31
0.0
 11
82.09593428090252
 21
-35.53890148837724
 31
0.0
 11
82.09536909903587
 21
-35.55180424251057
 31
0.0
 11
82.0950357507692
 21
-35.56709615397724
 31
0.0
 11
82.09482288783586
 21
-35.5840548462439
 31
0.0
 11
82.09467647396918
 21
-35.60262952144391
 31
0.0
 11
82.09456586916919
 21
-35.62281628197724
 31
0.0
 11
82.0944687491692
 21
-35.64467289424391
 31
0.0
 11
82.09436617850252
 21
-35.66825137637724
 31
0.0
 11
82.0942398851692
 21
-35.69363820731057
 31
0.0
  0
SPLINE
  5
86
100
AcDbEntity
  8
0
  6
HIDDEN
 62
     9
 48
0.5
100
AcDbSpline
210
0.0
220
0.0
230
1.0
 70
     8
 71
     3
 72
    12
 73
     8
 74
     6
 42
0.0000001
 43
0.0000001
 44
0.0000000001
 40
0.0
 40
0.0
 40
0.0
 40
0.0
 40
0.0272937053683029
 40
0.0566187207649212
 40
0.0881094250690941
 40
0.1218898370662761
 40
0.1580492260348235
 40
0.1580492260348235
 40
0.1580492260348235
 40
0.1580492260348235
 10
82.0942398851692
 20
-35.69363820731057
 30
0.0
 10
82.09418658561508
 20
-35.70273595443087
 30
0.0
 10
82.09407601973436
 20
-35.72160854050312
 30
0.0
 10
82.09384270630868
 20
-35.75097745114532
 30
0.0
 10
82.09352207757493
 20
-35.78250788189972
 30
0.0
 10
82.09309267169288
 20
-35.81631540997767
 30
0.0
 10
82.09269803057967
 20
-35.83962536001112
 30
0.0
 10
82.09249399823587
 20
-35.85167677477723
 30
0.0
 11
82.0942398851692
 21
-35.69363820731057
 31
0.0
 11
82.09407083983586
 21
-35.72093138917724
 31
0.0
 11
82.09383795663587
 21
-35.7502554798439
 31
0.0
 11
82.0935170147692
 21
-35.7817445486439
 31
0.0
 11
82.09307975290252
 21
-35.81552213051057
 31
0.0
 11
82.09249399823587
 21
-35.85167677477723
 31
0.0
  0
LINE
  5
87
100
AcDbEntity
  8
0
  6
HIDDEN
 62
     9
 48
0.5
100
AcDbLine
 10
82.032899
 20
-36.000753
 30
0.0
 11
81.977676
 21
-36.1609
 31
0.0
  0
LWPOLYLINE
  5
88
100
AcDbEntity
  8
0
  6
HIDDEN
 62
     9
 48
0.5
100
AcDbPolyline
 90
       10
 70
     0
 43
0.0
 10
81.979414
 20
-35.846422
 10
81.984101
 20
-35.842327
 10
81.988966
 20
-35.82822
 10
81.993137
 20
-35.804664
 10
81.996433
 20
-35.772688
 10
81.99871
 20
-35.73369
 10
81.999867
 20
-35.689373
 10
81.999855
 20
-35.641675
 10
81.998674
 20
-35.592681
 10
81.996376
 20
-35.544532
  0
LWPOLYLINE
  5
89
100
AcDbEntity
  8
0
  6
HIDDEN
 62
     9
 48
0.5
100
AcDbPolyline
 90
        8
 70
     0
 43
0.0
 10
81.94984
 20
-35.679486
 10
81.953155
 20
-35.724687
 10
81.957342
 20
-35.764963
 10
81.962219
 20
-35.798554
 10
81.967571
 20
-35.823992
 10
81.973165
 20
-35.840165
 10
81.978757
 20
-35.846367
 10
81.979414
 20
-35.846422
  0
LINE
  5
8A
100
AcDbEntity
  8
0
  6
HIDDEN
 62
     9
 48
0.5
100
AcDbLine
 10
81.944546
 20
-35.984832
 30
0.0
 11
81.914848
 21
-35.490967
 31
0.0
  0
LINE
  5
8B
100
AcDbEntity
  8
0
  6
HIDDEN
 62
     9
 48
0.5
100
AcDbLine
 10
81.976185
 20
-36.161168
 30
0.0
 11
81.977676
 21
-36.1609
 31
0.0
  0
SPLINE
  5
8C
100
AcDbEntity
  8
0
  6
HIDDEN
 62
     9
 48
0.5
100
AcDbSpline
210
0.0
220
0.0
230
-1.0
 70
     8
 71
     3
 72
    15
 73
    11
 74
     9
 42
0.0000001
 43
0.0000001
 44
0.0000000001
 40
0.0
 40
0.0
 40
0.0
 40
0.0
 40
0.0386619634242457
 40
0.074322538380019
 40
0.1058636503498424
 40
0.1324543513811672
 40
0.1535121470582063
 40
0.1687183531263394
 40
0.1780778089897464
 40
0.1816888144214024
 40
0.1816888144214024
 40
0.1816888144214024
 40
0.1816888144214024
 10
81.94454636410252
 20
-35.9848324366439
 30
0.0
 10
81.94539341565654
 20
-35.99769328193235
 30
0.0
 10
81.94702176083247
 20
-36.02241656504816
 30
0.0
 10
81.95035915942989
 20
-36.05754035761602
 30
0.0
 10
81.95412772909085
 20
-36.0886157283071
 30
0.0
 10
81.95834425502747
 20
-36.11458386276035
 30
0.0
 10
81.96258948450982
 20
-36.13536537479815
 30
0.0
 10
81.96733024980288
 20
-36.14930179765984
 30
0.0
 10
81.97095009896491
 20
-36.15896654028619
 30
0.0
 10
81.97505344478329
 20
-36.16062024272103
 30
0.0
 10
81.97619582543586
 20
-36.16108063717724
 30
0.0
 11
81.94454636410252
 21
-35.9848324366439
 31
0.0
 11
81.94728091770253
 21
-36.02339757157724
 31
0.0
 11
81.95065279823586
 21
-36.05889837477724
 31
0.0
 11
81.95455024250254
 21
-36.09019776251057
 31
0.0
 11
81.95885097743587
 21
-36.11643836197724
 31
0.0
 11
81.96342943396919
 21
-36.13699240037723
 31
0.0
 11
81.96816895610252
 21
-36.15144112464391
 31
0.0
 11
81.97295757263587
 21
-36.1594828014439
 31
0.0
 11
81.97619582543586
 21
-36.16108063717724
 31
0.0
  0
SPLINE
  5
8D
100
AcDbEntity
  8
0
  6
CONTINUOUS
100
AcDbSpline
210
0.0
220
0.0
230
-1.0
 70
     8
 71
     3
 72
     9
 73
     5
 74
     3
 42
0.0000001
 43
0.0000001
 44
0.0000000001
 40
0.0
 40
0.0
 40
0.0
 40
0.0
 40
0.107588397061211
 40
0.3838783185518833
 40
0.3838783185518833
 40
0.3838783185518833
 40
0.3838783185518833
 10
80.57877427556919
 20
-35.51256959611057
 30
0.0
 10
80.59708173273838
 20
-35.54349337161393
 30
0.0
 10
80.66240323642317
 20
-35.65383024127426
 30
0.0
 10
80.75250462409451
 20
-35.74582004601632
 30
0.0
 10
80.81735357263587
 20
-35.81202815077723
 30
0.0
 11
80.57877427556919
 21
-35.51256959611057
 31
0.0
 11
80.63564309583586
 21
-35.60389976891057
 31
0.0
 11
80.81735357263587
 21
-35.81202815077723
 31
0.0
  0
SPLINE
  5
8E
100
AcDbEntity
  8
0
  6
CONTINUOUS
100
AcDbSpline
210
0.0
220
0.0
230
-1.0
 70
     8
 71
     3
 72
     9
 73
     5
 74
     3
 42
0.0000001
 43
0.0000001
 44
0.0000000001
 40
0.0
 40
0.0
 40
0.0
 40
0.0
 40
0.1696491854430443
 40
0.3611485684456765
 40
0.3611485684456765
 40
0.3611485684456765
 40
0.3611485684456765
 10
80.90658392356919
 20
-35.7481485070439
 30
0.0
 10
80.86243610273445
 20
-35.71253905941355
 30
0.0
 10
80.7684543824401
 20
-35.63673379691695
 30
0.0
 10
80.69281983099791
 20
-35.54254238292557
 30
0.0
 10
80.65271453583587
 20
-35.49259729317724
 30
0.0
 11
80.90658392356919
 21
-35.7481485070439
 31
0.0
 11
80.77818902330253
 21
-35.63726299984391
 31
0.0
 11
80.65271453583587
 21
-35.49259729317724
 31
0.0
  0
SPLINE
  5
8F
100
AcDbEntity
  8
0
  6
CONTINUOUS
100
AcDbSpline
210
0.0
220
0.0
230
1.0
 70
     8
 71
     3
 72
    10
 73
     6
 74
     4
 42
0.0000001
 43
0.0000001
 44
0.0000000001
 40
0.0
 40
0.0
 40
0.0
 40
0.0
 40
0.1115066653880564
 40
0.2190265592215705
 40
0.3251154095771628
 40
0.3251154095771628
 40
0.3251154095771628
 40
0.3251154095771628
 10
80.81743708943585
 20
-35.81193000784391
 30
0.0
 10
80.84683020932493
 20
-35.83475307813925
 30
0.0
 10
80.90456553744804
 20
-35.87958321040322
 30
0.0
 10
81.00216969083865
 20
-35.92899149938098
 30
0.0
 10
81.07122757573106
 20
-35.9469028132253
 30
0.0
 10
81.10552519610253
 20
-35.95579847291057
 30
0.0
 11
80.81743708943585
 21
-35.81193000784391
 31
0.0
 11
80.90769496996918
 21
-35.87740711397724
 31
0.0
 11
81.0038482723692
 21
-35.92552228837723
 31
0.0
 11
81.10552519610253
 21
-35.95579847291057
 31
0.0
  0
SPLINE
  5
90
100
AcDbEntity
  8
0
  6
CONTINUOUS
100
AcDbSpline
210
0.0
220
0.0
230
1.0
 70
     8
 71
     3
 72
     9
 73
     5
 74
     3
 42
0.0000001
 43
0.0000001
 44
0.0000000001
 40
0.0
 40
0.0
 40
0.0
 40
0.0
 40
0.0167412404179008
 40
0.0679274575365551
 40
0.0679274575365551
 40
0.0679274575365551
 40
0.0679274575365551
 10
80.96300564516919
 20
-35.7859303310439
 30
0.0
 10
80.95824110713927
 20
-35.78302377239715
 30
0.0
 10
80.9389090297884
 20
-35.77123043246974
 30
0.0
 10
80.92036657726337
 20
-35.75821711238958
 30
0.0
 10
80.90639405370252
 20
-35.74841102437724
 30
0.0
 11
80.96300564516919
 21
-35.7859303310439
 31
0.0
 11
80.9487599939692
 21
-35.77713655184391
 31
0.0
 11
80.90639405370252
 21
-35.74841102437724
 31
0.0
  0
SPLINE
  5
91
100
AcDbEntity
  8
0
  6
CONTINUOUS
100
AcDbSpline
210
0.0
220
0.0
230
1.0
 70
     8
 71
     3
 72
    10
 73
     6
 74
     4
 42
0.0000001
 43
0.0000001
 44
0.0000000001
 40
0.0
 40
0.0
 40
0.0
 40
0.0
 40
0.0830593567162927
 40
0.1694652764272785
 40
0.2607121622133247
 40
0.2607121622133247
 40
0.2607121622133247
 40
0.2607121622133247
 10
81.20669174543587
 20
-35.87318144891057
 30
0.0
 10
81.17931220765726
 20
-35.86878460905414
 30
0.0
 10
81.12344997706051
 20
-35.8598137752898
 30
0.0
 10
81.04122237655429
 20
-35.82983444057332
 30
0.0
 10
80.98950539663798
 20
-35.80089803250369
 30
0.0
 10
80.96294227343586
 20
-35.78603557584391
 30
0.0
 11
81.20669174543587
 21
-35.87318144891057
 31
0.0
 11
81.1251329219692
 21
-35.85746473637724
 31
0.0
 11
81.04376972730253
 21
-35.82837842491057
 31
0.0
 11
80.96294227343586
 21
-35.78603557584391
 31
0.0
  0
SPLINE
  5
92
100
AcDbEntity
  8
0
  6
CONTINUOUS
100
AcDbSpline
210
0.0
220
0.0
230
1.0
 70
     8
 71
     3
 72
    10
 73
     6
 74
     4
 42
0.0000001
 43
0.0000001
 44
0.0000000001
 40
0.0
 40
0.0
 40
0.0
 40
0.0
 40
0.0789762636591899
 40
0.1561342844579393
 40
0.2325970540292052
 40
0.2325970540292052
 40
0.2325970540292052
 40
0.2325970540292052
 10
81.10552519610253
 20
-35.95579847291057
 30
0.0
 10
81.13151651382375
 20
-35.96011820893561
 30
0.0
 10
81.18290076026054
 20
-35.96865822921599
 30
0.0
 10
81.26088070236477
 20
-35.9694173471539
 30
0.0
 10
81.31153823577996
 20
-35.96157183214555
 30
0.0
 10
81.33675237050253
 20
-35.95766682811057
 30
0.0
 11
81.10552519610253
 21
-35.95579847291057
 31
0.0
 11
81.18374501903586
 21
-35.96670303717724
 31
0.0
 11
81.2609006211692
 21
-35.96731396517724
 31
0.0
 11
81.33675237050253
 21
-35.95766682811057
 31
0.0
  0
SPLINE
  5
93
100
AcDbEntity
  8
0
  6
CONTINUOUS
100
AcDbSpline
210
0.0
220
0.0
230
1.0
 70
     8
 71
     3
 72
    14
 73
    10
 74
     8
 42
0.0000001
 43
0.0000001
 44
0.0000000001
 40
0.0
 40
0.0
 40
0.0
 40
0.0
 40
0.0223514550190764
 40
0.0435275199645119
 40
0.063568387014874
 40
0.0825174151388419
 40
0.1003822095338356
 40
0.1171038116333773
 40
0.1325767306325797
 40
0.1325767306325797
 40
0.1325767306325797
 40
0.1325767306325797
 10
81.65690448463585
 20
-35.74434620731057
 30
0.0
 10
81.66118853160069
 20
-35.73824984975203
 30
0.0
 10
81.66953134148176
 20
-35.72637772218298
 30
0.0
 10
81.68104857846811
 20
-35.70858625211826
 30
0.0
 10
81.69153496454425
 20
-35.69148921870428
 30
0.0
 10
81.70104753557003
 20
-35.67509574665205
 30
0.0
 10
81.70966693866626
 20
-35.6594691857794
 30
0.0
 10
81.71745974990102
 20
-35.64471266517647
 30
0.0
 10
81.72226434071212
 20
-35.63511650839318
 30
0.0
 10
81.72457346170252
 20
-35.63050452624391
 30
0.0
 11
81.65690448463585
 21
-35.74434620731057
 31
0.0
 11
81.6696362403692
 21
-35.72597530811057
 31
0.0
 11
81.68117931663585
 21
-35.70822191077724
 31
0.0
 11
81.69165338916918
 21
-35.6911359470439
 31
0.0
 11
81.70116739770254
 21
-35.67474847291058
 31
0.0
 11
81.70980179343587
 21
-35.65910884091057
 31
0.0
 11
81.7175982435692
 21
-35.6443160270439
 31
0.0
 11
81.72457346170252
 21
-35.63050452624391
 31
0.0
  0
SPLINE
  5
94
100
AcDbEntity
  8
0
  6
CONTINUOUS
100
AcDbSpline
210
0.0
220
0.0
230
1.0
 70
     8
 71
     3
 72
     9
 73
     5
 74
     3
 42
0.0000001
 43
0.0000001
 44
0.0000000001
 40
0.0
 40
0.0
 40
0.0
 40
0.0
 40
0.0724282465929442
 40
0.146721678281583
 40
0.146721678281583
 40
0.146721678281583
 40
0.146721678281583
 10
81.72448617423587
 20
-35.6304539598439
 30
0.0
 10
81.71122649851517
 20
-35.65080591785186
 30
0.0
 10
81.68436568154486
 20
-35.69203394111225
 30
0.0
 10
81.64655419300945
 20
-35.72353717291883
 30
0.0
 10
81.62740811130253
 20
-35.73948902971057
 30
0.0
 11
81.72448617423587
 21
-35.6304539598439
 31
0.0
 11
81.68203864143587
 21
-35.68914005584391
 31
0.0
 11
81.62740811130253
 21
-35.73948902971057
 31
0.0
  0
SPLINE
  5
95
100
AcDbEntity
  8
0
  6
CONTINUOUS
100
AcDbSpline
210
0.0
220
0.0
230
-1.0
 70
     8
 71
     3
 72
    10
 73
     6
 74
     4
 42
0.0000001
 43
0.0000001
 44
0.0000000001
 40
0.0
 40
0.0
 40
0.0
 40
0.0
 40
0.0100866533893201
 40
0.0207296802530209
 40
0.0319358441230984
 40
0.0319358441230984
 40
0.0319358441230984
 40
0.0319358441230984
 10
81.73566582010252
 20
-35.6005618574439
 30
0.0
 10
81.73441564542537
 20
-35.60368311611428
 30
0.0
 10
81.73184633722
 20
-35.61009780012557
 30
0.0
 10
81.72815431221316
 20
-35.62008398854381
 30
0.0
 10
81.72578741321197
 20
-35.62697183828817
 30
0.0
 10
81.72457346170252
 20
-35.63050452624391
 30
0.0
 11
81.73566582010252
 21
-35.6005618574439
 31
0.0
 11
81.73195620836919
 21
-35.6099415886439
 31
0.0
 11
81.72825715023586
 21
-35.61992111717724
 31
0.0
 11
81.72457346170252
 21
-35.63050452624391
 31
0.0
  0
SPLINE
  5
96
100
AcDbEntity
  8
0
  6
CONTINUOUS
100
AcDbSpline
210
0.0
220
0.0
230
-1.0
 70
     8
 71
     3
 72
    10
 73
     6
 74
     4
 42
0.0000001
 43
0.0000001
 44
0.0000000001
 40
0.0
 40
0.0
 40
0.0
 40
0.0
 40
0.0028769666633041
 40
0.0058047894799385
 40
0.008783762934593
 40
0.008783762934593
 40
0.008783762934593
 40
0.008783762934593
 10
81.73907929743586
 20
-35.59246866384391
 30
0.0
 10
81.73869856619438
 20
-35.59334883966808
 30
0.0
 10
81.73793037352346
 20
-35.59512475018864
 30
0.0
 10
81.73679272011113
 20
-35.59782267279821
 30
0.0
 10
81.73604361575954
 20
-35.59964353988689
 30
0.0
 10
81.73566582010252
 20
-35.6005618574439
 30
0.0
 11
81.73907929743586
 21
-35.59246866384391
 31
0.0
 11
81.73794112463586
 21
-35.5951109166439
 31
0.0
 11
81.73680325903587
 21
-35.59780858384391
 31
0.0
 11
81.73566582010252
 21
-35.6005618574439
 31
0.0
  0
SPLINE
  5
97
100
AcDbEntity
  8
0
  6
CONTINUOUS
100
AcDbSpline
210
-0.9160367233364297
220
0.4010944047217027
230
0.0
 70
    24
 71
     3
 72
     9
 73
     5
 74
     3
 42
0.0000001
 43
0.0000001
 44
0.0000000001
 40
0.0
 40
0.0
 40
0.0
 40
0.0
 40
0.0020485833144768
 40
0.0030836700628059
 40
0.0030836700628059
 40
0.0030836700628059
 40
0.0030836700628059
 10
81.74032395450252
 20
-35.58964724091057
 30
0.0
 10
81.74004447492624
 20
-35.59027031985737
 30
0.0
 10
81.73962378283308
 20
-35.59120822161682
 30
0.0
 10
81.73922200124923
 20
-35.59215435401091
 30
0.0
 10
81.73908713636919
 20
-35.59247193957723
 30
0.0
 11
81.74032395450252
 21
-35.58964724091057
 31
0.0
 11
81.73949386170253
 21
-35.5915201102439
 31
0.0
 11
81.73908713636919
 21
-35.59247193957723
 31
0.0
  0
SPLINE
  5
98
100
AcDbEntity
  8
0
  6
CONTINUOUS
100
AcDbSpline
210
0.0
220
0.0
230
1.0
 70
     8
 71
     3
 72
    10
 73
     6
 74
     4
 42
0.0000001
 43
0.0000001
 44
0.0000000001
 40
0.0
 40
0.0
 40
0.0
 40
0.0
 40
0.1392256789853238
 40
0.2675222196896509
 40
0.3934109669061976
 40
0.3934109669061976
 40
0.3934109669061976
 40
0.3934109669061976
 10
81.33675237050253
 20
-35.95766682811057
 30
0.0
 10
81.38170160523612
 20
-35.94505607752384
 30
0.0
 10
81.46807158480401
 20
-35.92082451324989
 30
0.0
 10
81.57721149805352
 20
-35.84316405488457
 30
0.0
 10
81.63050844250903
 20
-35.77707681735929
 30
0.0
 10
81.65690448463585
 20
-35.74434620731057
 30
0.0
 11
81.33675237050253
 21
-35.95766682811057
 31
0.0
 11
81.46830821903586
 21
-35.91209437584391
 31
0.0
 11
81.57349276730252
 21
-35.83863545424391
 31
0.0
 11
81.65690448463585
 21
-35.74434620731057
 31
0.0
  0
SPLINE
  5
99
100
AcDbEntity
  8
0
  6
CONTINUOUS
100
AcDbSpline
210
0.0
220
0.0
230
1.0
 70
     8
 71
     3
 72
    11
 73
     7
 74
     5
 42
0.0000001
 43
0.0000001
 44
0.0000000001
 40
0.0
 40
0.0
 40
0.0
 40
0.0
 40
0.1102615571783635
 40
0.2205373622210557
 40
0.3329746253658846
 40
0.4518547241892498
 40
0.4518547241892498
 40
0.4518547241892498
 40
0.4518547241892498
 10
81.62736143290251
 20
-35.7394276814439
 30
0.0
 10
81.59725907245107
 20
-35.7606503269359
 30
0.0
 10
81.53705046175778
 20
-35.80309836028433
 30
0.0
 10
81.43536414869107
 20
-35.84887170929999
 30
0.0
 10
81.32393298092678
 20
-35.87794687322257
 30
0.0
 10
81.24649114783542
 20
-35.87479914799915
 30
0.0
 10
81.20669174543587
 20
-35.87318144891057
 30
0.0
 11
81.62736143290251
 21
-35.7394276814439
 31
0.0
 11
81.53526939236918
 21
-35.8000632078439
 31
0.0
 11
81.43488725903585
 21
-35.8457160334439
 31
0.0
 11
81.32556600250252
 21
-35.87200293157724
 31
0.0
 11
81.20669174543587
 21
-35.87318144891057
 31
0.0
  0
SPLINE
  5
9A
100
AcDbEntity
  8
0
  6
CONTINUOUS
100
AcDbSpline
210
-0.870132215092603
220
-0.4928183521928139
230
0.0
 70
    24
 71
     3
 72
     8
 73
     4
 74
     2
 42
0.0000001
 43
0.0000001
 44
0.0000000001
 40
0.0
 40
0.0
 40
0.0
 40
0.0
 40
0.0223405619622934
 40
0.0223405619622934
 40
0.0223405619622934
 40
0.0223405619622934
 10
80.56776443663586
 20
-35.49313035344391
 30
0.0
 10
80.57143438294698
 20
-35.49961010099946
 30
0.0
 10
80.57510432925807
 20
-35.50608984855502
 30
0.0
 10
80.57877427556919
 20
-35.51256959611057
 30
0.0
 11
80.56776443663586
 21
-35.49313035344391
 31
0.0
 11
80.57877427556919
 21
-35.51256959611057
 31
0.0
  0
LINE
  5
9B
100
AcDbEntity
  8
0
  6
HIDDEN
 62
     9
 48
0.5
100
AcDbLine
 10
83.819996
 20
-36.362123
 30
0.0
 11
83.805001
 21
-36.112748
 31
0.0
  0
LINE
  5
9C
100
AcDbEntity
  8
0
  6
HIDDEN
 62
     9
 48
0.5
100
AcDbLine
 10
82.569125
 20
-35.011884
 30
0.0
 11
81.98683
 21
-35.027556
 31
0.0
  0
LWPOLYLINE
  5
9D
100
AcDbEntity
  8
0
  6
HIDDEN
 62
     9
 48
0.5
100
AcDbPolyline
 90
        4
 70
     0
 43
0.0
 10
82.034128
 20
-35.294514
 10
82.028392
 20
-35.217335
 10
82.021077
 20
-35.149436
 10
82.012551
 20
-35.094223
  0
LWPOLYLINE
  5
9E
100
AcDbEntity
  8
0
  6
HIDDEN
 62
     9
 48
0.5
100
AcDbPolyline
 90
        3
 70
     0
 43
0.0
 10
81.986824
 20
-35.027571
 10
81.984152
 20
-35.02841
 10
81.975331
 20
-35.043421
  0
LWPOLYLINE
  5
9F
100
AcDbEntity
  8
0
  6
HIDDEN
 62
     9
 48
0.5
100
AcDbPolyline
 90
        4
 70
     0
 43
0.0
 10
82.012551
 20
-35.094223
 10
82.003241
 20
-35.054465
 10
81.993614
 20
-35.032154
 10
81.986824
 20
-35.027571
  0
LINE
  5
A0
100
AcDbEntity
  8
0
  6
HIDDEN
 62
     9
 48
0.5
100
AcDbLine
 10
81.975331
 20
-35.043421
 30
0.0
 11
81.920108
 21
-35.203568
 31
0.0
  0
CIRCLE
  5
A1
100
AcDbEntity
  8
0
  6
CONTINUOUS
100
AcDbCircle
 10
92.565263
 20
-37.088509
 30
0.0
 40
1.3125
  0
LINE
  5
A2
100
AcDbEntity
  8
0
  6
CENTER
 62
     1
 48
0.5
100
AcDbLine
 10
95.274659
 20
-37.088509
 30
0.0
 11
89.855867
 21
-37.088509
 31
0.0
  0
LINE
  5
A3
100
AcDbEntity
  8
0
  6
HIDDEN
 62
     9
100
AcDbLine
 10
77.154634
 20
-32.715073
 30
0.0
 11
77.194902
 21
-32.969289
 31
0.0
  0
ARC
  5
A4
100
AcDbEntity
  8
0
  6
HIDDEN
 62
     9
100
AcDbCircle
 10
77.506503
 20
-33.338509
 30
0.0
 40
0.25
100
AcDbArc
 50
189.00087
 51
270.0
  0
LINE
  5
A5
100
AcDbEntity
  8
0
  6
HIDDEN
 62
     9
100
AcDbLine
 10
77.245886
 20
-33.291157
 30
0.0
 11
77.259582
 21
-33.377621
 31
0.0
  0
LINE
  5
A6
100
AcDbEntity
  8
0
  6
CONTINUOUS
100
AcDbLine
 10
108.065263
 20
-35.088509
 30
0.0
 11
107.861068
 21
-33.799396
 31
0.0
  0
LWPOLYLINE
  5
A7
100
AcDbEntity
  8
0
  6
HIDDEN
 62
     9
 48
0.5
100
AcDbPolyline
 90
        6
 70
     0
 43
0.0
 10
101.971244
 20
-36.900678
 10
101.794202
 20
-36.792389
 10
101.58762
 20
-36.627683
 10
101.439533
 20
-36.460843
 10
101.351617
 20
-36.293756
 10
101.325526
 20
-36.112748
  0
SPLINE
  5
A8
100
AcDbEntity
  8
0
  6
HIDDEN
 62
     9
 48
0.5
100
AcDbSpline
210
0.0
220
0.0
230
-1.0
 70
     8
 71
     3
 72
    19
 73
    15
 74
    13
 42
0.0000001
 43
0.0000001
 44
0.0000000001
 40
0.0
 40
0.0
 40
0.0
 40
0.0
 40
0.0827764907581408
 40
0.1848330673002246
 40
0.3494254135902662
 40
0.5752921261842924
 40
0.8420418189237345
 40
1.117798577691445
 40
1.38119104712726
 40
1.623801835214101
 40
1.844014529332313
 40
2.045397773843639
 40
2.203119772689323
 40
2.300668057490431
 40
2.300668057490431
 40
2.300668057490431
 40
2.300668057490431
 10
103.7748872238358
 20
-36.43984435451057
 30
0.0
 10
103.7483435103158
 20
-36.42483384688763
 30
0.0
 10
103.6890735902877
 20
-36.39131662309292
 30
0.0
 10
103.5924326808572
 20
-36.49111061061296
 30
0.0
 10
103.5255808912874
 20
-36.63283229873806
 30
0.0
 10
103.4561955913541
 20
-36.84465434229135
 30
0.0
 10
103.4009389732427
 20
-37.09383782723282
 30
0.0
 10
103.3580866594855
 20
-37.3594444479186
 30
0.0
 10
103.3297652677262
 20
-37.61863019756954
 30
0.0
 10
103.315817048601
 20
-37.86006346705958
 30
0.0
 10
103.3141802033324
 20
-38.08271874935319
 30
0.0
 10
103.3335873804868
 20
-38.27209375897666
 30
0.0
 10
103.356978934393
 20
-38.43031583714623
 30
0.0
 10
103.4185119394289
 20
-38.49145591076789
 30
0.0
 10
103.4420259929025
 20
-38.51481981051057
 30
0.0
 11
103.7748872238358
 21
-36.43984435451057
 31
0.0
 11
103.6968907801025
 21
-36.41212248251057
 31
0.0
 11
103.6152294190358
 21
-36.47333495611057
 31
0.0
 11
103.5359905102358
 21
-36.61759803451057
 31
0.0
 11
103.4639979033025
 21
-36.83168408357723
 31
0.0
 11
103.4040447139692
 21
-37.0916090990439
 31
0.0
 11
103.3598192195692
 21
-37.36379634277724
 31
0.0
 11
103.3313460622358
 21
-37.62564529211056
 31
0.0
 11
103.3175160782358
 21
-37.86786157157724
 31
0.0
 11
103.3182705689025
 21
-38.08807297317724
 31
0.0
 11
103.3370516558358
 21
-38.2885785390439
 31
0.0
 11
103.3785599651691
 21
-38.44074058811057
 31
0.0
 11
103.4420259929025
 21
-38.51481981051057
 31
0.0
  0
LWPOLYLINE
  5
A9
100
AcDbEntity
  8
0
  6
HIDDEN
 62
     9
 48
0.5
100
AcDbPolyline
 90
       12
 70
     0
 43
0.0
 10
103.800185
 20
-36.470481
 10
103.769587
 20
-36.472902
 10
103.738318
 20
-36.559395
 10
103.709421
 20
-36.721531
 10
103.685699
 20
-36.943538
 10
103.669441
 20
-37.204042
 10
103.662243
 20
-37.477556
 10
103.664799
 20
-37.737676
 10
103.676868
 20
-37.959077
 10
103.697261
 20
-38.12012
 10
103.724023
 20
-38.205362
 10
103.755067
 20
-38.20569
  0
LINE
  5
AA
100
AcDbEntity
  8
0
  6
HIDDEN
 62
     9
 48
0.5
100
AcDbLine
 10
103.83344
 20
-36.47884
 30
0.0
 11
103.864331
 21
-37.496507
 31
0.0
  0
SPLINE
  5
AB
100
AcDbEntity
  8
0
  6
HIDDEN
 62
     9
 48
0.5
100
AcDbSpline
210
0.0
220
0.0
230
-1.0
 70
     8
 71
     3
 72
    15
 73
    11
 74
     9
 42
0.0000001
 43
0.0000001
 44
0.0000000001
 40
0.0
 40
0.0
 40
0.0
 40
0.0
 40
0.0386619624356955
 40
0.0743225372906104
 40
0.1058636493922457
 40
0.1324543504235589
 40
0.1535121461006081
 40
0.1687183528498085
 40
0.1780778083424676
 40
0.1821020961221682
 40
0.1821020961221682
 40
0.1821020961221682
 40
0.1821020961221682
 10
103.7242016185025
 20
-36.96568519077724
 30
0.0
 10
103.7250486505821
 20
-36.95282426424925
 30
0.0
 10
103.7266769583389
 20
-36.92810082469137
 30
0.0
 10
103.7300146168209
 20
-36.89297809759654
 30
0.0
 10
103.7337823605564
 20
-36.86189936715234
 30
0.0
 10
103.7380012782934
 20
-36.83594093784874
 30
0.0
 10
103.7422402104982
 20
-36.81513387750939
 30
0.0
 10
103.7469954924706
 20
-36.80125634733659
 30
0.0
 10
103.7506415436136
 20
-36.79134076140561
 30
0.0
 10
103.7549880026086
 20
-36.78985703959624
 30
0.0
 10
103.7562949166358
 20
-36.78941090704391
 30
0.0
 11
103.7242016185025
 21
-36.96568519077724
 31
0.0
 11
103.7269361731692
 21
-36.92712005691057
 31
0.0
 11
103.7303080526358
 21
-36.89161925371057
 31
0.0
 11
103.7342054979692
 21
-36.86031986597724
 31
0.0
 11
103.7385062329025
 21
-36.83407926651057
 31
0.0
 11
103.7430846894358
 21
-36.81352522811057
 31
0.0
 11
103.7478242105025
 21
-36.79907650277724
 31
0.0
 11
103.7526128281025
 21
-36.79103482704391
 31
0.0
 11
103.7562949166358
 21
-36.78941090704391
 31
0.0
  0
LINE
  5
AC
100
AcDbEntity
  8
0
  6
HIDDEN
 62
     9
 48
0.5
100
AcDbLine
 10
103.812555
 20
-36.949764
 30
0.0
 11
103.757332
 21
-36.789618
 31
0.0
  0
SPLINE
  5
AD
100
AcDbEntity
  8
0
  6
HIDDEN
 62
     9
 48
0.5
100
AcDbSpline
210
0.0
220
0.0
230
1.0
 70
     8
 71
     3
 72
    15
 73
    11
 74
     9
 42
0.0000001
 43
0.0000001
 44
0.0000000001
 40
0.0
 40
0.0
 40
0.0
 40
0.0
 40
0.194396709195105
 40
0.4037122076426403
 40
0.639121126425196
 40
0.9078069478029517
 40
1.208269872396169
 40
1.536179842328078
 40
1.891246569954985
 40
2.158916874183577
 40
2.158916874183577
 40
2.158916874183577
 40
2.158916874183577
 10
101.3105298521025
 20
-36.36212331984391
 30
0.0
 10
101.3113889849819
 20
-36.42724678187574
 30
0.0
 10
101.3131731840707
 20
-36.56249154365727
 30
0.0
 10
101.3830046509246
 20
-36.76725176252668
 30
0.0
 10
101.5078573127996
 20
-36.97131385651509
 30
0.0
 10
101.6935181460904
 20
-37.16723593375876
 30
0.0
 10
101.9315788662455
 20
-37.34960069807413
 30
0.0
 10
102.2141650459775
 20
-37.51681832951156
 30
0.0
 10
102.4999661329313
 20
-37.65457416706825
 30
0.0
 10
102.6927989544816
 20
-37.73149573979545
 30
0.0
 10
102.7756840526358
 20
-37.7645588462439
 30
0.0
 11
101.3105298521025
 21
-36.36212331984391
 31
0.0
 11
101.3229211630358
 21
-36.55612470117723
 31
0.0
 11
101.3866307982358
 21
-36.7555089038439
 31
0.0
 11
101.5081627705025
 21
-36.95712075557724
 31
0.0
 11
101.6905762179692
 21
-37.15439570277724
 31
0.0
 11
101.9274507651692
 21
-37.3392427150439
 31
0.0
 11
102.2084546115691
 21
-37.50824504251057
 31
0.0
 11
102.5280659779692
 21
-37.6629090510439
 31
0.0
 11
102.7756840526358
 21
-37.7645588462439
 31
0.0
  0
LWPOLYLINE
  5
AE
100
AcDbEntity
  8
0
  6
HIDDEN
 62
     9
 48
0.5
100
AcDbPolyline
 90
        3
 70
     0
 43
0.0
 10
103.755067
 20
-38.20569
 10
103.785815
 20
-38.123293
 10
103.814866
 20
-37.964016
  0
LINE
  5
AF
100
AcDbEntity
  8
0
  6
HIDDEN
 62
     9
 48
0.5
100
AcDbLine
 10
103.594613
 20
-38.426339
 30
0.0
 11
103.755076
 21
-38.205679
 31
0.0
  0
SPLINE
  5
B0
100
AcDbEntity
  8
0
  6
HIDDEN
 62
     9
 48
0.5
100
AcDbSpline
210
-0.8985939341671828
220
0.4387812000051336
230
0.0
 70
    24
 71
     3
 72
     8
 73
     4
 74
     2
 42
0.0000001
 43
0.0000001
 44
0.0000000001
 40
0.0
 40
0.0
 40
0.0
 40
0.0
 40
0.0929160684175433
 40
0.0929160684175433
 40
0.0929160684175433
 40
0.0929160684175433
 10
103.6155056451691
 20
-38.4354701998439
 30
0.0
 10
103.6290955865025
 20
-38.40763892802168
 30
0.0
 10
103.6426855278358
 20
-38.37980765619946
 30
0.0
 10
103.6562754691692
 20
-38.35197638437723
 30
0.0
 11
103.6155056451691
 21
-38.4354701998439
 31
0.0
 11
103.6562754691692
 21
-38.35197638437723
 31
0.0
  0
LINE
  5
B1
100
AcDbEntity
  8
0
  6
HIDDEN
 62
     9
 48
0.5
100
AcDbLine
 10
103.523398
 20
-38.499833
 30
0.0
 11
103.594613
 21
-38.426339
 31
0.0
  0
LINE
  5
B2
100
AcDbEntity
  8
0
  6
HIDDEN
 62
     9
 48
0.5
100
AcDbLine
 10
103.442026
 20
-38.51482
 30
0.0
 11
103.523398
 21
-38.499833
 31
0.0
  0
LWPOLYLINE
  5
B3
100
AcDbEntity
  8
0
  6
HIDDEN
 62
     9
 48
0.5
100
AcDbPolyline
 90
        3
 70
     0
 43
0.0
 10
103.816108
 20
-37.617353
 10
102.738377
 20
-37.255291
 10
102.493978
 20
-37.156794
  0
SPLINE
  5
B4
100
AcDbEntity
  8
0
  6
HIDDEN
 62
     9
 48
0.5
100
AcDbSpline
210
0.0
220
0.0
230
-1.0
 70
     8
 71
     3
 72
    15
 73
    11
 74
     9
 42
0.0000001
 43
0.0000001
 44
0.0000000001
 40
0.0
 40
0.0
 40
0.0
 40
0.0
 40
0.0246026956874787
 40
0.0541766445686988
 40
0.0879698042256322
 40
0.1251465179425076
 40
0.1647867870885782
 40
0.2058741818647853
 40
0.2473148578477405
 40
0.2878569433205367
 40
0.2878569433205367
 40
0.2878569433205367
 40
0.2878569433205367
 10
103.6997637027691
 20
-37.7469500142439
 30
0.0
 10
103.6986298579
 20
-37.73882636576284
 30
0.0
 10
103.6961330619696
 20
-37.72093759365631
 30
0.0
 10
103.6938044751548
 20
-37.6916932191194
 30
0.0
 10
103.6919771087775
 20
-37.65822813211159
 30
0.0
 10
103.6909254122037
 20
-37.62136857785195
 30
0.0
 10
103.6906139057518
 20
-37.58206599211662
 30
0.0
 10
103.6911021488059
 20
-37.54134415389309
 30
0.0
 10
103.6923000845891
 20
-37.50033442546703
 30
0.0
 10
103.6937744833579
 20
-37.47304576178251
 30
0.0
 10
103.6945036025025
 20
-37.45955098171057
 30
0.0
 11
103.6997637027691
 21
-37.7469500142439
 31
0.0
 11
103.6965813283692
 21
-37.7225540078439
 31
0.0
 11
103.6940306563691
 21
-37.69309025851057
 31
0.0
 11
103.6921780601025
 21
-37.6593479182439
 31
0.0
 11
103.6910723726358
 21
-37.62218765051057
 31
0.0
 11
103.6907469465025
 21
-37.58254871717724
 31
0.0
 11
103.6912180974358
 21
-37.54146402384391
 31
0.0
 11
103.6924816579692
 21
-37.5000426158439
 31
0.0
 11
103.6945036025025
 21
-37.45955098171057
 31
0.0
  0
LINE
  5
B5
100
AcDbEntity
  8
0
  6
HIDDEN
 62
     9
 48
0.5
100
AcDbLine
 10
103.814866
 20
-37.964016
 30
0.0
 11
103.838856
 21
-37.744029
 31
0.0
  0
LINE
  5
B6
100
AcDbEntity
  8
0
  6
HIDDEN
 62
     9
 48
0.5
100
AcDbLine
 10
103.160813
 20
-37.891105
 30
0.0
 11
103.754987
 21
-37.907097
 31
0.0
  0
LINE
  5
B7
100
AcDbEntity
  8
0
  6
HIDDEN
 62
     9
 48
0.5
100
AcDbLine
 10
103.18423
 20
-37.90729
 30
0.0
 11
103.766486
 21
-37.922961
 31
0.0
  0
LINE
  5
B8
100
AcDbEntity
  8
0
  6
HIDDEN
 62
     9
 48
0.5
100
AcDbLine
 10
103.754987
 20
-37.907097
 30
0.0
 11
103.699764
 21
-37.74695
 31
0.0
  0
SPLINE
  5
B9
100
AcDbEntity
  8
0
  6
HIDDEN
 62
     9
 48
0.5
100
AcDbSpline
210
0.0
220
0.0
230
1.0
 70
     8
 71
     3
 72
     9
 73
     5
 74
     3
 42
0.0000001
 43
0.0000001
 44
0.0000000001
 40
0.0
 40
0.0
 40
0.0
 40
0.0
 40
0.0295462380552419
 40
0.0571555822139575
 40
0.0571555822139575
 40
0.0571555822139575
 40
0.0571555822139575
 10
103.8414692814358
 20
-37.71259622224391
 30
0.0
 10
103.8422647418232
 20
-37.70277964487862
 30
0.0
 10
103.8438035164544
 20
-37.68379001264145
 30
0.0
 10
103.8452801213294
 20
-37.66479544620846
 30
0.0
 10
103.8459934041025
 20
-37.6556200078439
 30
0.0
 11
103.8414692814358
 21
-37.71259622224391
 31
0.0
 11
103.8438390489025
 21
-37.68314517157723
 31
0.0
 11
103.8459934041025
 21
-37.6556200078439
 31
0.0
  0
SPLINE
  5
BA
100
AcDbEntity
  8
0
  6
HIDDEN
 62
     9
 48
0.5
100
AcDbSpline
210
-0.9965625980200664
220
0.0828431543791967
230
0.0
 70
    24
 71
     3
 72
     8
 73
     4
 74
     2
 42
0.0000001
 43
0.0000001
 44
0.0000000001
 40
0.0
 40
0.0
 40
0.0
 40
0.0
 40
0.0315408430898139
 40
0.0315408430898139
 40
0.0315408430898139
 40
0.0315408430898139
 10
103.8388563385025
 20
-37.74402864677723
 30
0.0
 10
103.8397273194803
 20
-37.73355117193279
 30
0.0
 10
103.840598300458
 20
-37.72307369708835
 30
0.0
 10
103.8414692814358
 20
-37.71259622224391
 30
0.0
 11
103.8388563385025
 21
-37.74402864677723
 31
0.0
 11
103.8414692814358
 21
-37.71259622224391
 31
0.0
  0
LWPOLYLINE
  5
BB
100
AcDbEntity
  8
0
  6
HIDDEN
 62
     9
 48
0.5
100
AcDbPolyline
 90
        3
 70
     0
 43
0.0
 10
103.766479
 20
-37.922946
 10
103.763808
 20
-37.922107
 10
103.754987
 20
-37.907097
  0
LWPOLYLINE
  5
BC
100
AcDbEntity
  8
0
  6
HIDDEN
 62
     9
 48
0.5
100
AcDbPolyline
 90
        7
 70
     0
 43
0.0
 10
103.813784
 20
-37.656003
 10
103.808047
 20
-37.733183
 10
103.800732
 20
-37.801081
 10
103.792206
 20
-37.856294
 10
103.782896
 20
-37.896053
 10
103.773269
 20
-37.918363
 10
103.766479
 20
-37.922946
  0
SPLINE
  5
BD
100
AcDbEntity
  8
0
  6
HIDDEN
 62
     9
 48
0.5
100
AcDbSpline
210
0.3583518946309727
220
0.9335865892430078
230
0.0
 70
    24
 71
     3
 72
     8
 73
     4
 74
     2
 42
0.0000001
 43
0.0000001
 44
0.0000000001
 40
0.0
 40
0.0
 40
0.0
 40
0.0
 40
0.0107041480477675
 40
0.0107041480477675
 40
0.0107041480477675
 40
0.0107041480477675
 10
102.7756840526358
 20
-37.7645588462439
 30
0.0
 10
102.779015135658
 20
-37.76583746348835
 30
0.0
 10
102.7823462186802
 20
-37.76711608073279
 30
0.0
 10
102.7856773017025
 20
-37.76839469797723
 30
0.0
 11
102.7756840526358
 21
-37.7645588462439
 31
0.0
 11
102.7856773017025
 21
-37.76839469797723
 31
0.0
  0
SPLINE
  5
BE
100
AcDbEntity
  8
0
  6
HIDDEN
 62
     9
 48
0.5
100
AcDbSpline
210
0.0
220
0.0
230
1.0
 70
     8
 71
     3
 72
    11
 73
     7
 74
     5
 42
0.0000001
 43
0.0000001
 44
0.0000000001
 40
0.0
 40
0.0
 40
0.0
 40
0.0
 40
0.0209826328236583
 40
0.0301983842191378
 40
0.0337129426431954
 40
0.0339177064319377
 40
0.0339177064319377
 40
0.0339177064319377
 40
0.0339177064319377
 10
103.1608126777025
 20
-37.8911050126439
 30
0.0
 10
103.1663372386755
 20
-37.89312040439904
 30
0.0
 10
103.1742882339728
 20
-37.89602097341179
 30
0.0
 10
103.1898616978282
 20
-37.90336716542928
 30
0.0
 10
103.1855823745254
 20
-37.90696187144073
 30
0.0
 10
103.1844058026291
 20
-37.90733759980525
 30
0.0
 10
103.1843410275691
 20
-37.90735828517723
 30
0.0
 11
103.1608126777025
 21
-37.8911050126439
 31
0.0
 11
103.1802825518358
 21
-37.89892772837724
 31
0.0
 11
103.1872063438358
 21
-37.90500976571057
 31
0.0
 11
103.1845355161025
 21
-37.9072942350439
 31
0.0
 11
103.1843410275691
 21
-37.90735828517723
 31
0.0
  0
LINE
  5
BF
100
AcDbEntity
  8
0
  6
HIDDEN
 62
     9
 48
0.5
100
AcDbLine
 10
103.184321
 20
-37.907293
 30
0.0
 11
103.181525
 21
-37.906769
 31
0.0
  0
SPLINE
  5
C0
100
AcDbEntity
  8
0
  6
HIDDEN
 62
     9
 48
0.5
100
AcDbSpline
210
0.0
220
0.0
230
1.0
 70
     8
 71
     3
 72
     9
 73
     5
 74
     3
 42
0.0000001
 43
0.0000001
 44
0.0000000001
 40
0.0
 40
0.0
 40
0.0
 40
0.0
 40
0.1045668869706209
 40
0.4193261839390962
 40
0.4193261839390962
 40
0.4193261839390962
 40
0.4193261839390962
 10
102.7856773017025
 20
-37.76839469797723
 30
0.0
 10
102.8182830002509
 20
-37.78072041459525
 30
0.0
 10
102.9490358948149
 20
-37.8301480667276
 30
0.0
 10
103.0818129803505
 20
-37.87391670040845
 30
0.0
 10
103.1814795971692
 20
-37.90677080037724
 30
0.0
 11
102.7856773017025
 21
-37.76839469797723
 31
0.0
 11
102.8836202713025
 21
-37.80501994277724
 31
0.0
 11
103.1814795971692
 21
-37.90677080037724
 31
0.0
  0
LINE
  5
C1
100
AcDbEntity
  8
0
  6
HIDDEN
 62
     9
 48
0.5
100
AcDbLine
 10
103.160813
 20
-37.891105
 30
0.0
 11
102.809999
 21
-37.765164
 31
0.0
  0
LINE
  5
C2
100
AcDbEntity
  8
0
  6
HIDDEN
 62
     9
 48
0.5
100
AcDbLine
 10
103.694504
 20
-37.459551
 30
0.0
 11
103.724202
 21
-36.965685
 31
0.0
  0
LWPOLYLINE
  5
C3
100
AcDbEntity
  8
0
  6
HIDDEN
 62
     9
 48
0.5
100
AcDbPolyline
 90
        8
 70
     0
 43
0.0
 10
103.759069
 20
-37.104095
 10
103.758412
 20
-37.10415
 10
103.75282
 20
-37.110352
 10
103.747226
 20
-37.126526
 10
103.741874
 20
-37.151964
 10
103.736998
 20
-37.185555
 10
103.73281
 20
-37.225831
 10
103.729495
 20
-37.271031
  0
LWPOLYLINE
  5
C4
100
AcDbEntity
  8
0
  6
HIDDEN
 62
     9
 48
0.5
100
AcDbPolyline
 90
       10
 70
     0
 43
0.0
 10
103.776031
 20
-37.405986
 10
103.77833
 20
-37.357837
 10
103.77951
 20
-37.308842
 10
103.779522
 20
-37.261145
 10
103.778365
 20
-37.216828
 10
103.776088
 20
-37.17783
 10
103.772792
 20
-37.145853
 10
103.768621
 20
-37.122297
 10
103.763757
 20
-37.108191
 10
103.759069
 20
-37.104095
  0
LWPOLYLINE
  5
C5
100
AcDbEntity
  8
0
  6
HIDDEN
 62
     9
 48
0.5
100
AcDbPolyline
 90
        8
 70
     0
 43
0.0
 10
103.812555
 20
-36.949764
 10
103.820293
 20
-36.982777
 10
103.826561
 20
-37.032135
 10
103.831044
 20
-37.095365
 10
103.833518
 20
-37.169296
 10
103.833858
 20
-37.25022
 10
103.832047
 20
-37.33408
 10
103.828176
 20
-37.41667
  0
SPLINE
  5
C6
100
AcDbEntity
  8
0
  6
HIDDEN
 62
     9
 48
0.5
100
AcDbSpline
210
0.0
220
0.0
230
-1.0
 70
     8
 71
     3
 72
    14
 73
    10
 74
     8
 42
0.0000001
 43
0.0000001
 44
0.0000000001
 40
0.0
 40
0.0
 40
0.0
 40
0.0
 40
0.0572632786617365
 40
0.3683972613073843
 40
0.6534679430974986
 40
0.9079499075047666
 40
1.13187932899261
 40
1.332258478342801
 40
1.519579869652921
 40
1.519579869652921
 40
1.519579869652921
 40
1.519579869652921
 10
102.3387015502358
 20
-35.08862849637724
 30
0.0
 10
102.3209893490585
 20
-35.09574140525521
 30
0.0
 10
102.2070397716338
 20
-35.14150155402441
 30
0.0
 10
102.0093416617581
 20
-35.23406645512281
 30
0.0
 10
101.7679527717247
 20
-35.38438570078126
 30
0.0
 10
101.5749318467106
 20
-35.55273771811055
 30
0.0
 10
101.4376291211723
 20
-35.73420307175155
 30
0.0
 10
101.3505954264118
 20
-35.9218050274047
 30
0.0
 10
101.3336925419447
 20
-36.0505455391107
 30
0.0
 10
101.3255257443691
 20
-36.11274780411057
 30
0.0
 11
102.3387015502358
 21
-35.08862849637724
 31
0.0
 11
102.2856252494358
 21
-35.11012243451057
 31
0.0
 11
102.0045056729025
 21
-35.24344962171057
 31
0.0
 11
101.7639332185025
 21
-35.39638813157724
 31
0.0
 11
101.5740492409025
 21
-35.56581406011057
 31
0.0
 11
101.4399535715692
 21
-35.74515378597723
 31
0.0
 11
101.3589591150358
 21
-35.92843417637723
 31
0.0
 11
101.3255257443691
 21
-36.11274780411057
 31
0.0
  0
SPLINE
  5
C7
100
AcDbEntity
  8
0
  6
CONTINUOUS
100
AcDbSpline
210
-0.7932444434921426
220
0.6089033198044181
230
0.0
 70
    24
 71
     3
 72
     8
 73
     4
 74
     2
 42
0.0000001
 43
0.0000001
 44
0.0000000001
 40
0.0
 40
0.0
 40
0.0
 40
0.0
 40
0.182539074625232
 40
0.182539074625232
 40
0.182539074625232
 40
0.182539074625232
 10
104.4777618297025
 20
-35.4925589486439
 30
0.0
 10
104.5148113792136
 20
-35.44429291308834
 30
0.0
 10
104.5518609287247
 20
-35.39602687753279
 30
0.0
 10
104.5889104782358
 20
-35.34776084197724
 30
0.0
 11
104.4777618297025
 21
-35.4925589486439
 31
0.0
 11
104.5889104782358
 21
-35.34776084197724
 31
0.0
  0
SPLINE
  5
C8
100
AcDbEntity
  8
0
  6
CONTINUOUS
100
AcDbSpline
210
-0.8704420257683265
220
0.4922709414299532
230
0.0
 70
    24
 71
     3
 72
     8
 73
     4
 74
     2
 42
0.0000001
 43
0.0000001
 44
0.0000000001
 40
0.0
 40
0.0
 40
0.0
 40
0.0
 40
0.1141343176519687
 40
0.1141343176519687
 40
0.1141343176519687
 40
0.1141343176519687
 10
104.6189397273025
 20
-35.39378136144391
 30
0.0
 10
104.6002113913025
 20
-35.42689713033279
 30
0.0
 10
104.5814830553025
 20
-35.46001289922168
 30
0.0
 10
104.5627547193025
 20
-35.49312866811057
 30
0.0
 11
104.6189397273025
 21
-35.39378136144391
 31
0.0
 11
104.5627547193025
 21
-35.49312866811057
 31
0.0
  0
SPLINE
  5
C9
100
AcDbEntity
  8
0
  6
HIDDEN
 62
     9
 48
0.5
100
AcDbSpline
210
0.0
220
0.0
230
1.0
 70
     8
 71
     3
 72
    15
 73
    11
 74
     9
 42
0.0000001
 43
0.0000001
 44
0.0000000001
 40
0.0
 40
0.0
 40
0.0
 40
0.0
 40
0.0246025253047153
 40
0.0541760834007226
 40
0.0879687721245729
 40
0.1251451963440613
 40
0.1647855542481677
 40
0.2058733658923823
 40
0.2473145420394982
 40
0.2878569445564307
 40
0.2878569445564307
 40
0.2878569445564307
 40
0.2878569445564307
 10
103.2104178819691
 20
-35.20356761317724
 30
0.0
 10
103.2115517205634
 20
-35.21169120517403
 30
0.0
 10
103.2140484941054
 20
-35.22957979149113
 30
0.0
 10
103.216377067054
 20
-35.25882382164559
 30
0.0
 10
103.2182044365123
 20
-35.29228852418956
 30
0.0
 10
103.2192561500921
 20
-35.32914785394847
 30
0.0
 10
103.2195676848393
 20
-35.36845051153049
 30
0.0
 10
103.2190794559715
 20
-35.40917268529036
 30
0.0
 10
103.2178815198461
 20
-35.45018282535714
 30
0.0
 10
103.2164071075637
 20
-35.47747176113539
 30
0.0
 10
103.2156779833025
 20
-35.49096664677724
 30
0.0
 11
103.2104178819691
 21
-35.20356761317724
 31
0.0
 11
103.2136002393025
 21
-35.22796344997724
 31
0.0
 11
103.2161508899692
 21
-35.25742680891057
 31
0.0
 11
103.2180034830358
 21
-35.29116867771057
 31
0.0
 11
103.2191091875691
 21
-35.32832865531057
 31
0.0
 11
103.2194346414358
 21
-35.36796767717724
 31
0.0
 11
103.2189635054358
 21
-35.40905278757723
 31
0.0
 11
103.2176999406358
 21
-35.45047469584391
 31
0.0
 11
103.2156779833025
 21
-35.49096664677724
 31
0.0
  0
SPLINE
  5
CA
100
AcDbEntity
  8
0
  6
CONTINUOUS
100
AcDbSpline
210
0.0
220
0.0
230
-1.0
 70
     8
 71
     3
 72
     9
 73
     5
 74
     3
 42
0.0000001
 43
0.0000001
 44
0.0000000001
 40
0.0
 40
0.0
 40
0.0
 40
0.0
 40
0.23744976626344
 40
0.5181508774244649
 40
0.5181508774244649
 40
0.5181508774244649
 40
0.5181508774244649
 10
103.3901905646358
 20
-35.58965290384391
 30
0.0
 10
103.3621680615895
 20
-35.51539003094376
 30
0.0
 10
103.3010187719121
 20
-35.353337343511
 30
0.0
 10
103.2754197547561
 20
-35.18192380160449
 30
0.0
 10
103.2615518393025
 20
-35.08906287291057
 30
0.0
 11
103.3901905646358
 21
-35.58965290384391
 31
0.0
 11
103.3135888142358
 21
-35.3648984526439
 31
0.0
 11
103.2615518393025
 21
-35.08906287291057
 31
0.0
  0
LINE
  5
CB
100
AcDbEntity
  8
0
  6
HIDDEN
 62
     9
 48
0.5
100
AcDbLine
 10
103.082006
 20
-35.533847
 30
0.0
 11
103.096398
 21
-35.294514
 31
0.0
  0
LWPOLYLINE
  5
CC
100
AcDbEntity
  8
0
  6
HIDDEN
 62
     9
 48
0.5
100
AcDbPolyline
 90
        8
 70
     0
 43
0.0
 10
103.13415
 20
-35.544532
 10
103.137466
 20
-35.499331
 10
103.141653
 20
-35.459055
 10
103.146529
 20
-35.425464
 10
103.151881
 20
-35.400026
 10
103.157475
 20
-35.383852
 10
103.163067
 20
-35.37765
 10
103.163724
 20
-35.377596
  0
LWPOLYLINE
  5
CD
100
AcDbEntity
  8
0
  6
HIDDEN
 62
     9
 48
0.5
100
AcDbPolyline
 90
       10
 70
     0
 43
0.0
 10
103.163724
 20
-35.377596
 10
103.168412
 20
-35.381691
 10
103.173276
 20
-35.395798
 10
103.177448
 20
-35.419354
 10
103.180744
 20
-35.45133
 10
103.18302
 20
-35.490328
 10
103.184178
 20
-35.534645
 10
103.184166
 20
-35.582342
 10
103.182985
 20
-35.631337
 10
103.180686
 20
-35.679486
  0
LWPOLYLINE
  5
CE
100
AcDbEntity
  8
0
  6
HIDDEN
 62
     9
 48
0.5
100
AcDbPolyline
 90
        7
 70
     0
 43
0.0
 10
101.934103
 20
-35.552694
 10
101.866784
 20
-35.682843
 10
101.845217
 20
-35.816744
 10
101.869602
 20
-35.953146
 10
101.939712
 20
-36.090779
 10
102.054893
 20
-36.228359
 10
102.214072
 20
-36.364605
  0
SPLINE
  5
CF
100
AcDbEntity
  8
0
  6
HIDDEN
 62
     9
 48
0.5
100
AcDbSpline
210
0.0
220
0.0
230
-1.0
 70
     8
 71
     3
 72
    13
 73
     9
 74
     0
 42
0.0000001
 43
0.0000001
 40
0.0
 40
0.0
 40
0.0
 40
0.0
 40
0.0235821028530107
 40
0.236006711454257
 40
0.4266494643642545
 40
0.5915567747896895
 40
0.7274143272363385
 40
0.7953596843175826
 40
0.7953596843175826
 40
0.7953596843175826
 40
0.7953596843175826
 10
102.9512665689025
 20
-36.1739590094439
 30
0.0
 10
102.9434335121081
 20
-36.17461717571047
 30
0.0
 10
102.865041267523
 20
-36.18120402070602
 30
0.0
 10
102.7236052028946
 20
-36.19670070791943
 30
0.0
 10
102.5366003430116
 20
-36.2267669817887
 30
0.0
 10
102.3765636409679
 20
-36.26233124075209
 30
0.0
 10
102.2587417776681
 20
-36.29756709657144
 30
0.0
 10
102.195086776542
 20
-36.3216779168974
 30
0.0
 10
102.1742184586435
 20
-36.33049325193972
 30
0.0
  0
LINE
  5
D0
100
AcDbEntity
  8
0
  6
HIDDEN
 62
     9
 48
0.5
100
AcDbLine
 10
101.31053
 20
-36.362123
 30
0.0
 11
101.325526
 21
-36.112748
 31
0.0
  0
SPLINE
  5
D1
100
AcDbEntity
  8
0
  6
CONTINUOUS
100
AcDbSpline
210
0.0
220
0.0
230
1.0
 70
     8
 71
     3
 72
    11
 73
     7
 74
     5
 42
0.0000001
 43
0.0000001
 44
0.0000000001
 40
0.0
 40
0.0
 40
0.0
 40
0.0
 40
0.1102615571783635
 40
0.2205373622210557
 40
0.3329746253658846
 40
0.4518547241892498
 40
0.4518547241892498
 40
0.4518547241892498
 40
0.4518547241892498
 10
103.5031648974358
 20
-35.7394276814439
 30
0.0
 10
103.5332672578873
 20
-35.7606503269359
 30
0.0
 10
103.5934758685806
 20
-35.80309836028433
 30
0.0
 10
103.6951621816473
 20
-35.84887170929999
 30
0.0
 10
103.8065933494116
 20
-35.87794687322257
 30
0.0
 10
103.884035182503
 20
-35.87479914799915
 30
0.0
 10
103.9238345849025
 20
-35.87318144891057
 30
0.0
 11
103.5031648974358
 21
-35.7394276814439
 31
0.0
 11
103.5952569379692
 21
-35.8000632078439
 31
0.0
 11
103.6956390713025
 21
-35.8457160334439
 31
0.0
 11
103.8049603278358
 21
-35.87200293157724
 31
0.0
 11
103.9238345849025
 21
-35.87318144891057
 31
0.0
  0
SPLINE
  5
D2
100
AcDbEntity
  8
0
  6
CONTINUOUS
100
AcDbSpline
210
0.0
220
0.0
230
1.0
 70
     8
 71
     3
 72
    10
 73
     6
 74
     4
 42
0.0000001
 43
0.0000001
 44
0.0000000001
 40
0.0
 40
0.0
 40
0.0
 40
0.0
 40
0.0789762636591899
 40
0.1561342844579393
 40
0.2325970540292052
 40
0.2325970540292052
 40
0.2325970540292052
 40
0.2325970540292052
 10
104.0250011342358
 20
-35.95579847291057
 30
0.0
 10
103.9990098165146
 20
-35.96011820893561
 30
0.0
 10
103.9476255700778
 20
-35.96865822921599
 30
0.0
 10
103.8696456279736
 20
-35.9694173471539
 30
0.0
 10
103.8189880945584
 20
-35.96157183214555
 30
0.0
 10
103.7937739598358
 20
-35.95766682811057
 30
0.0
 11
104.0250011342358
 21
-35.95579847291057
 31
0.0
 11
103.9467813113025
 21
-35.96670303717724
 31
0.0
 11
103.8696257091691
 21
-35.96731396517724
 31
0.0
 11
103.7937739598358
 21
-35.95766682811057
 31
0.0
  0
SPLINE
  5
D3
100
AcDbEntity
  8
0
  6
CONTINUOUS
100
AcDbSpline
210
-0.870132215092603
220
0.4928183521928139
230
0.0
 70
    24
 71
     3
 72
     8
 73
     4
 74
     2
 42
0.0000001
 43
0.0000001
 44
0.0000000001
 40
0.0
 40
0.0
 40
0.0
 40
0.0
 40
0.0223405619622934
 40
0.0223405619622934
 40
0.0223405619622934
 40
0.0223405619622934
 10
104.5627618937025
 20
-35.49313035344391
 30
0.0
 10
104.5590919473914
 20
-35.49961010099946
 30
0.0
 10
104.5554220010803
 20
-35.50608984855502
 30
0.0
 10
104.5517520547692
 20
-35.51256959611057
 30
0.0
 11
104.5627618937025
 21
-35.49313035344391
 31
0.0
 11
104.5517520547692
 21
-35.51256959611057
 31
0.0
  0
SPLINE
  5
D4
100
AcDbEntity
  8
0
  6
CONTINUOUS
100
AcDbSpline
210
0.0
220
0.0
230
1.0
 70
     8
 71
     3
 72
    10
 73
     6
 74
     4
 42
0.0000001
 43
0.0000001
 44
0.0000000001
 40
0.0
 40
0.0
 40
0.0
 40
0.0
 40
0.0830593567162927
 40
0.1694652764272785
 40
0.2607121622133247
 40
0.2607121622133247
 40
0.2607121622133247
 40
0.2607121622133247
 10
103.9238345849025
 20
-35.87318144891057
 30
0.0
 10
103.9512141226811
 20
-35.86878460905414
 30
0.0
 10
104.0070763532779
 20
-35.8598137752898
 30
0.0
 10
104.089303953784
 20
-35.82983444057332
 30
0.0
 10
104.1410209337004
 20
-35.80089803250369
 30
0.0
 10
104.1675840569025
 20
-35.78603557584391
 30
0.0
 11
103.9238345849025
 21
-35.87318144891057
 31
0.0
 11
104.0053934083692
 21
-35.85746473637724
 31
0.0
 11
104.0867566030358
 21
-35.82837842491057
 31
0.0
 11
104.1675840569025
 21
-35.78603557584391
 31
0.0
  0
SPLINE
  5
D5
100
AcDbEntity
  8
0
  6
CONTINUOUS
100
AcDbSpline
210
0.0
220
0.0
230
1.0
 70
     8
 71
     3
 72
     9
 73
     5
 74
     3
 42
0.0000001
 43
0.0000001
 44
0.0000000001
 40
0.0
 40
0.0
 40
0.0
 40
0.0
 40
0.0167412404179008
 40
0.0679274575365551
 40
0.0679274575365551
 40
0.0679274575365551
 40
0.0679274575365551
 10
104.1675206851692
 20
-35.7859303310439
 30
0.0
 10
104.1722852231991
 20
-35.78302377239715
 30
0.0
 10
104.1916173005499
 20
-35.77123043246974
 30
0.0
 10
104.210159753075
 20
-35.75821711238958
 30
0.0
 10
104.2241322766358
 20
-35.74841102437724
 30
0.0
 11
104.1675206851692
 21
-35.7859303310439
 31
0.0
 11
104.1817663363691
 21
-35.77713655184391
 31
0.0
 11
104.2241322766358
 21
-35.74841102437724
 31
0.0
  0
SPLINE
  5
D6
100
AcDbEntity
  8
0
  6
CONTINUOUS
100
AcDbSpline
210
0.0
220
0.0
230
1.0
 70
     8
 71
     3
 72
    10
 73
     6
 74
     4
 42
0.0000001
 43
0.0000001
 44
0.0000000001
 40
0.0
 40
0.0
 40
0.0
 40
0.0
 40
0.1115066653880564
 40
0.2190265592215705
 40
0.3251154095771628
 40
0.3251154095771628
 40
0.3251154095771628
 40
0.3251154095771628
 10
104.3130892409025
 20
-35.81193000784391
 30
0.0
 10
104.2836961210134
 20
-35.83475307813925
 30
0.0
 10
104.2259607928904
 20
-35.87958321040322
 30
0.0
 10
104.1283566394997
 20
-35.92899149938098
 30
0.0
 10
104.0592987546073
 20
-35.9469028132253
 30
0.0
 10
104.0250011342358
 20
-35.95579847291057
 30
0.0
 11
104.3130892409025
 21
-35.81193000784391
 31
0.0
 11
104.2228313603692
 21
-35.87740711397724
 31
0.0
 11
104.1266780579692
 21
-35.92552228837723
 31
0.0
 11
104.0250011342358
 21
-35.95579847291057
 31
0.0
  0
SPLINE
  5
D7
100
AcDbEntity
  8
0
  6
CONTINUOUS
100
AcDbSpline
210
0.0
220
0.0
230
1.0
 70
     8
 71
     3
 72
     9
 73
     5
 74
     3
 42
0.0000001
 43
0.0000001
 44
0.0000000001
 40
0.0
 40
0.0
 40
0.0
 40
0.0
 40
0.1696491854430443
 40
0.3611485684456765
 40
0.3611485684456765
 40
0.3611485684456765
 40
0.3611485684456765
 10
104.2239424067691
 20
-35.7481485070439
 30
0.0
 10
104.2680902276039
 20
-35.71253905941355
 30
0.0
 10
104.3620719478983
 20
-35.63673379691695
 30
0.0
 10
104.4377064993404
 20
-35.54254238292557
 30
0.0
 10
104.4778117945025
 20
-35.49259729317724
 30
0.0
 11
104.2239424067691
 21
-35.7481485070439
 31
0.0
 11
104.3523373070358
 21
-35.63726299984391
 31
0.0
 11
104.4778117945025
 21
-35.49259729317724
 31
0.0
  0
SPLINE
  5
D8
100
AcDbEntity
  8
0
  6
CONTINUOUS
100
AcDbSpline
210
0.0
220
0.0
230
1.0
 70
     8
 71
     3
 72
     9
 73
     5
 74
     3
 42
0.0000001
 43
0.0000001
 44
0.0000000001
 40
0.0
 40
0.0
 40
0.0
 40
0.0
 40
0.107588397061211
 40
0.3838783185518833
 40
0.3838783185518833
 40
0.3838783185518833
 40
0.3838783185518833
 10
104.5517520547692
 20
-35.51256959611057
 30
0.0
 10
104.5334445976
 20
-35.54349337161393
 30
0.0
 10
104.4681230939152
 20
-35.65383024127426
 30
0.0
 10
104.3780217062439
 20
-35.74582004601632
 30
0.0
 10
104.3131727577025
 20
-35.81202815077723
 30
0.0
 11
104.5517520547692
 21
-35.51256959611057
 31
0.0
 11
104.4948832345025
 21
-35.60389976891057
 31
0.0
 11
104.3131727577025
 21
-35.81202815077723
 31
0.0
  0
LWPOLYLINE
  5
D9
100
AcDbEntity
  8
0
  6
HIDDEN
 62
     9
 48
0.5
100
AcDbPolyline
 90
        6
 70
     0
 43
0.0
 10
103.038032
 20
-35.851677
 10
103.046926
 20
-36.079831
 10
103.064065
 20
-36.257679
 10
103.087895
 20
-36.369104
 10
103.116238
 20
-36.403955
 10
103.130068
 20
-36.393016
  0
SPLINE
  5
DA
100
AcDbEntity
  8
0
  6
HIDDEN
 62
     9
 48
0.5
100
AcDbSpline
210
0.0
220
0.0
230
1.0
 70
     8
 71
     3
 72
    10
 73
     6
 74
     4
 42
0.0000001
 43
0.0000001
 44
0.0000000001
 40
0.0
 40
0.0
 40
0.0
 40
0.0
 40
0.2612363485075256
 40
0.5140177170334131
 40
0.7507524179377435
 40
0.7507524179377435
 40
0.7507524179377435
 40
0.7507524179377435
 10
103.7562956003692
 20
-36.7893532590439
 30
0.0
 10
103.6697011062398
 20
-36.78012987534949
 30
0.0
 10
103.4993147705162
 20
-36.76198162508871
 30
0.0
 10
103.2518567834118
 20
-36.72365904629446
 30
0.0
 10
103.092221327963
 20
-36.68977019174146
 30
0.0
 10
103.0150200793025
 20
-36.6733812142439
 30
0.0
 11
103.7562956003692
 21
-36.7893532590439
 31
0.0
 11
103.4967598862358
 21
-36.75959350651057
 31
0.0
 11
103.2470250563692
 21
-36.72046634171056
 31
0.0
 11
103.0150200793025
 21
-36.6733812142439
 31
0.0
  0
LINE
  5
DB
100
AcDbEntity
  8
0
  6
HIDDEN
 62
     9
 48
0.5
100
AcDbLine
 10
103.756295
 20
-36.789361
 30
0.0
 11
103.757332
 21
-36.789618
 31
0.0
  0
SPLINE
  5
DC
100
AcDbEntity
  8
0
  6
HIDDEN
 62
     9
 48
0.5
100
AcDbSpline
210
0.0
220
0.0
230
1.0
 70
     8
 71
     3
 72
    10
 73
     6
 74
     4
 42
0.0000001
 43
0.0000001
 44
0.0000000001
 40
0.0
 40
0.0
 40
0.0
 40
0.0
 40
0.0138409831092748
 40
0.0271122361621159
 40
0.0397904419203257
 40
0.0397904419203257
 40
0.0397904419203257
 40
0.0397904419203257
 10
103.8001863619692
 20
-36.4704803790439
 30
0.0
 10
103.7975249502519
 20
-36.46671100240222
 30
0.0
 10
103.7923116772905
 20
-36.45932740624536
 30
0.0
 10
103.7838955372084
 20
-36.44905051647005
 30
0.0
 10
103.7778438936668
 20
-36.44286596135291
 30
0.0
 10
103.7748872238358
 20
-36.43984435451057
 30
0.0
 11
103.8001863619692
 21
-36.4704803790439
 31
0.0
 11
103.7920662723692
 21
-36.45927158971057
 31
0.0
 11
103.7836228355691
 21
-36.44903271611057
 31
0.0
 11
103.7748872238358
 21
-36.43984435451057
 31
0.0
  0
SPLINE
  5
DD
100
AcDbEntity
  8
0
  6
HIDDEN
 62
     9
 48
0.5
100
AcDbSpline
210
0.0
220
0.0
230
1.0
 70
     8
 71
     3
 72
    22
 73
    18
 74
    16
 42
0.0000001
 43
0.0000001
 44
0.0000000001
 40
0.0
 40
0.0
 40
0.0
 40
0.0
 40
0.0163557024200532
 40
0.0314222832759355
 40
0.0407410626100538
 40
0.0437524309484654
 40
0.0457480135945098
 40
0.0488366120405622
 40
0.0529139989351675
 40
0.0577889723940061
 40
0.0633179131320718
 40
0.0693765887901184
 40
0.0758530300345866
 40
0.08264862289759
 40
0.0896572432150018
 40
0.0967593604462716
 40
0.1038196992627448
 40
0.1038196992627448
 40
0.1038196992627448
 40
0.1038196992627448
 10
103.8334400430358
 20
-36.47883955771057
 30
0.0
 10
103.833596936158
 20
-36.48425300645712
 30
0.0
 10
103.8338983564214
 20
-36.49465322747148
 30
0.0
 10
103.8333162496199
 20
-36.50867938309224
 30
0.0
 10
103.8329630327138
 20
-36.5169177387216
 30
0.0
 10
103.8305702047598
 20
-36.52253415820864
 30
0.0
 10
103.8276144787164
 20
-36.52111714324333
 30
0.0
 10
103.8260320919832
 20
-36.51858656526759
 30
0.0
 10
103.8239266978816
 20
-36.5151336777237
 30
0.0
 10
103.8217772250218
 20
-36.51081850375262
 30
0.0
 10
103.8193952185549
 20
-36.50587247954252
 30
0.0
 10
103.8168313781555
 20
-36.50042491174614
 30
0.0
 10
103.8140475663209
 20
-36.49461347989376
 30
0.0
 10
103.8110308456152
 20
-36.48856281484649
 30
0.0
 10
103.8077432049608
 20
-36.48241807623689
 30
0.0
 10
103.8042013055549
 20
-36.4763079147255
 30
0.0
 10
103.8015212055629
 20
-36.472419610092
 30
0.0
 10
103.8001851086358
 20
-36.47048119291057
 30
0.0
 11
103.8334400430358
 21
-36.47883955771057
 31
0.0
 11
103.8337074190358
 21
-36.49519307451057
 31
0.0
 11
103.8332471139691
 21
-36.5102526222439
 31
0.0
 11
103.8317961433025
 21
-36.51945774757724
 31
0.0
 11
103.8300417945025
 21
-36.52190531771057
 31
0.0
 11
103.8281642361025
 21
-36.52122920784391
 31
0.0
 11
103.8262000366358
 21
-36.51884564731057
 31
0.0
 11
103.8241152249025
 21
-36.51534155771057
 31
0.0
 11
103.8218828345025
 21
-36.51100776037724
 31
0.0
 11
103.8194791523692
 21
-36.5060286542439
 31
0.0
 11
103.8168845827692
 21
-36.50055364197724
 31
0.0
 11
103.8140785507692
 21
-36.49471664997724
 31
0.0
 11
103.8110340739691
 21
-36.48864118757723
 31
0.0
 11
103.8077229465025
 21
-36.4824640366439
 31
0.0
 11
103.8041161731692
 21
-36.4763459278439
 31
0.0
 11
103.8001851086358
 21
-36.47048119291057
 31
0.0
  0
SPLINE
  5
DE
100
AcDbEntity
  8
0
  6
HIDDEN
 62
     9
 48
0.5
100
AcDbSpline
210
0.2312297933097239
220
0.9728991636783035
230
0.0
 70
    24
 71
     3
 72
     8
 73
     4
 74
     2
 42
0.0000001
 43
0.0000001
 44
0.0000000001
 40
0.0
 40
0.0
 40
0.0
 40
0.0
 40
0.0772011380734348
 40
0.0772011380734348
 40
0.0772011380734348
 40
0.0772011380734348
 10
103.0150200793025
 20
-36.6733812142439
 30
0.0
 10
102.9899837717469
 20
-36.66743081317723
 30
0.0
 10
102.9649474641914
 20
-36.66148041211057
 30
0.0
 10
102.9399111566358
 20
-36.6555300110439
 30
0.0
 11
103.0150200793025
 21
-36.6733812142439
 31
0.0
 11
102.9399111566358
 21
-36.6555300110439
 31
0.0
  0
LWPOLYLINE
  5
DF
100
AcDbEntity
  8
0
  6
HIDDEN
 62
     9
 48
0.5
100
AcDbPolyline
 90
        3
 70
     0
 43
0.0
 10
103.130068
 20
-36.393016
 10
103.146553
 20
-36.359064
 10
103.176047
 20
-36.23854
  0
SPLINE
  5
E0
100
AcDbEntity
  8
0
  6
CONTINUOUS
100
AcDbSpline
210
0.0
220
0.0
230
1.0
 70
     8
 71
     3
 72
    10
 73
     6
 74
     4
 42
0.0000001
 43
0.0000001
 44
0.0000000001
 40
0.0
 40
0.0
 40
0.0
 40
0.0
 40
0.1392256789853238
 40
0.2675222196896509
 40
0.3934109669061976
 40
0.3934109669061976
 40
0.3934109669061976
 40
0.3934109669061976
 10
103.7937739598358
 20
-35.95766682811057
 30
0.0
 10
103.7488247251022
 20
-35.94505607752384
 30
0.0
 10
103.6624547455344
 20
-35.92082451324989
 30
0.0
 10
103.5533148322849
 20
-35.84316405488457
 30
0.0
 10
103.5000178878293
 20
-35.77707681735929
 30
0.0
 10
103.4736218457025
 20
-35.74434620731057
 30
0.0
 11
103.7937739598358
 21
-35.95766682811057
 31
0.0
 11
103.6622181113025
 21
-35.91209437584391
 31
0.0
 11
103.5570335630358
 21
-35.83863545424391
 31
0.0
 11
103.4736218457025
 21
-35.74434620731057
 31
0.0
  0
SPLINE
  5
E1
100
AcDbEntity
  8
0
  6
HIDDEN
 62
     9
 48
0.5
100
AcDbSpline
210
0.0
220
0.0
230
-1.0
 70
     8
 71
     3
 72
    12
 73
     8
 74
     6
 42
0.0000001
 43
0.0000001
 44
0.0000000001
 40
0.0
 40
0.0
 40
0.0
 40
0.0
 40
0.0272937053683029
 40
0.0566187207649212
 40
0.0881094250690941
 40
0.1218898370662761
 40
0.1580492260348235
 40
0.1580492260348235
 40
0.1580492260348235
 40
0.1580492260348235
 10
103.0362864451692
 20
-35.69363820731057
 30
0.0
 10
103.0363397447233
 20
-35.70273595443087
 30
0.0
 10
103.036450310604
 20
-35.72160854050312
 30
0.0
 10
103.0366836240297
 20
-35.75097745114532
 30
0.0
 10
103.0370042527634
 20
-35.78250788189972
 30
0.0
 10
103.0374336586454
 20
-35.81631540997767
 30
0.0
 10
103.0378282997586
 20
-35.83962536001112
 30
0.0
 10
103.0380323321025
 20
-35.85167677477723
 30
0.0
 11
103.0362864451692
 21
-35.69363820731057
 31
0.0
 11
103.0364554905025
 21
-35.72093138917724
 31
0.0
 11
103.0366883737025
 21
-35.7502554798439
 31
0.0
 11
103.0370093155692
 21
-35.7817445486439
 31
0.0
 11
103.0374465774358
 21
-35.81552213051057
 31
0.0
 11
103.0380323321025
 21
-35.85167677477723
 31
0.0
  0
SPLINE
  5
E2
100
AcDbEntity
  8
0
  6
HIDDEN
 62
     9
 48
0.5
100
AcDbSpline
210
0.0
220
0.0
230
1.0
 70
     8
 71
     3
 72
    16
 73
    12
 74
    10
 42
0.0000001
 43
0.0000001
 44
0.0000000001
 40
0.0
 40
0.0
 40
0.0
 40
0.0
 40
0.0045046100792914
 40
0.0174197366666514
 40
0.0327152810300052
 40
0.0496753091556891
 40
0.068250561396395
 40
0.0884376249335216
 40
0.1102944529758022
 40
0.1338731582085642
 40
0.159260303279317
 40
0.159260303279317
 40
0.159260303279317
 40
0.159260303279317
 10
103.0343915342358
 20
-35.53440134331057
 30
0.0
 10
103.0344574889948
 20
-35.53590142043472
 30
0.0
 10
103.0347125420431
 20
-35.54170235503781
 30
0.0
 10
103.0352659982992
 20
-35.55259442449969
 30
0.0
 10
103.0355068779539
 20
-35.56765124059017
 30
0.0
 10
103.035725924869
 20
-35.58459292021891
 30
0.0
 10
103.0358591998942
 20
-35.60316679843376
 30
0.0
 10
103.0359668103846
 20
-35.62337283128162
 30
0.0
 10
103.036060384928
 20
-35.64524685117918
 30
0.0
 10
103.0361590274269
 20
-35.66885420009177
 30
0.0
 10
103.0362429395553
 20
-35.68517593644264
 30
0.0
 10
103.0362864451692
 20
-35.69363820731057
 30
0.0
 11
103.0343915342358
 21
-35.53440134331057
 31
0.0
 11
103.0345920494358
 21
-35.53890148837724
 31
0.0
 11
103.0351572313025
 21
-35.55180424251057
 31
0.0
 11
103.0354905795691
 21
-35.56709615397724
 31
0.0
 11
103.0357034425025
 21
-35.5840548462439
 31
0.0
 11
103.0358498563692
 21
-35.60262952144391
 31
0.0
 11
103.0359604611692
 21
-35.62281628197724
 31
0.0
 11
103.0360575811691
 21
-35.64467289424391
 31
0.0
 11
103.0361601518358
 21
-35.66825137637724
 31
0.0
 11
103.0362864451692
 21
-35.69363820731057
 31
0.0
  0
SPLINE
  5
E3
100
AcDbEntity
  8
0
  6
HIDDEN
 62
     9
 48
0.5
100
AcDbSpline
210
-0.0811601644942327
220
0.9967010723879397
230
0.0
 70
    24
 71
     3
 72
     8
 73
     4
 74
     2
 42
0.0000001
 43
0.0000001
 44
0.0000000001
 40
0.0
 40
0.0
 40
0.0
 40
0.0
 40
0.0105336799810838
 40
0.0105336799810838
 40
0.0105336799810838
 40
0.0105336799810838
 10
102.9617654990358
 20
-36.17310409424391
 30
0.0
 10
102.9582658556581
 20
-36.17338906597725
 30
0.0
 10
102.9547662122803
 20
-36.17367403771058
 30
0.0
 10
102.9512665689025
 20
-36.1739590094439
 30
0.0
 11
102.9617654990358
 21
-36.17310409424391
 31
0.0
 11
102.9512665689025
 21
-36.1739590094439
 31
0.0
  0
SPLINE
  5
E4
100
AcDbEntity
  8
0
  6
HIDDEN
 62
     9
 48
0.5
100
AcDbSpline
210
0.0
220
0.0
230
1.0
 70
     8
 71
     3
 72
    15
 73
    11
 74
     9
 42
0.0000001
 43
0.0000001
 44
0.0000000001
 40
0.0
 40
0.0
 40
0.0
 40
0.0
 40
0.0386619634242457
 40
0.074322538380019
 40
0.1058636503498424
 40
0.1324543513811672
 40
0.1535121470582063
 40
0.1687183531263394
 40
0.1780778089897464
 40
0.1816888144214024
 40
0.1816888144214024
 40
0.1816888144214024
 40
0.1816888144214024
 10
103.1859799662358
 20
-35.9848324366439
 30
0.0
 10
103.1851329146818
 20
-35.99769328193235
 30
0.0
 10
103.1835045695058
 20
-36.02241656504816
 30
0.0
 10
103.1801671709084
 20
-36.05754035761602
 30
0.0
 10
103.1763986012475
 20
-36.0886157283071
 30
0.0
 10
103.1721820753109
 20
-36.11458386276035
 30
0.0
 10
103.1679368458285
 20
-36.13536537479815
 30
0.0
 10
103.1631960805355
 20
-36.14930179765984
 30
0.0
 10
103.1595762313734
 20
-36.15896654028619
 30
0.0
 10
103.155472885555
 20
-36.16062024272103
 30
0.0
 10
103.1543305049025
 20
-36.16108063717724
 30
0.0
 11
103.1859799662358
 21
-35.9848324366439
 31
0.0
 11
103.1832454126358
 21
-36.02339757157724
 31
0.0
 11
103.1798735321025
 21
-36.05889837477724
 31
0.0
 11
103.1759760878358
 21
-36.09019776251057
 31
0.0
 11
103.1716753529025
 21
-36.11643836197724
 31
0.0
 11
103.1670968963692
 21
-36.13699240037723
 31
0.0
 11
103.1623573742358
 21
-36.15144112464391
 31
0.0
 11
103.1575687577025
 21
-36.1594828014439
 31
0.0
 11
103.1543305049025
 21
-36.16108063717724
 31
0.0
  0
SPLINE
  5
E5
100
AcDbEntity
  8
0
  6
HIDDEN
 62
     9
 48
0.5
100
AcDbSpline
210
-0.0618224855042196
220
0.9980871606658812
230
0.0
 70
    24
 71
     3
 72
     8
 73
     4
 74
     2
 42
0.0000001
 43
0.0000001
 44
0.0000000001
 40
0.0
 40
0.0
 40
0.0
 40
0.0
 40
0.1929446678833666
 40
0.1929446678833666
 40
0.1929446678833666
 40
0.1929446678833666
 10
103.1543410947692
 20
-36.16117577531057
 30
0.0
 10
103.0901492295247
 20
-36.16515188162168
 30
0.0
 10
103.0259573642803
 20
-36.16912798793279
 30
0.0
 10
102.9617654990358
 20
-36.17310409424391
 30
0.0
 11
103.1543410947692
 21
-36.16117577531057
 31
0.0
 11
102.9617654990358
 21
-36.17310409424391
 31
0.0
  0
LINE
  5
E6
100
AcDbEntity
  8
0
  6
HIDDEN
 62
     9
 48
0.5
100
AcDbLine
 10
103.154341
 20
-36.161168
 30
0.0
 11
103.15285
 21
-36.1609
 31
0.0
  0
LINE
  5
E7
100
AcDbEntity
  8
0
  6
HIDDEN
 62
     9
 48
0.5
100
AcDbLine
 10
102.961791
 20
-36.173957
 30
0.0
 11
102.951276
 21
-36.174676
 31
0.0
  0
LINE
  5
E8
100
AcDbEntity
  8
0
  6
HIDDEN
 62
     9
 48
0.5
100
AcDbLine
 10
103.15285
 20
-36.1609
 30
0.0
 11
102.961791
 21
-36.173957
 31
0.0
  0
LWPOLYLINE
  5
E9
100
AcDbEntity
  8
0
  6
HIDDEN
 62
     9
 48
0.5
100
AcDbPolyline
 90
        8
 70
     0
 43
0.0
 10
103.180686
 20
-35.679486
 10
103.177371
 20
-35.724687
 10
103.173184
 20
-35.764963
 10
103.168308
 20
-35.798554
 10
103.162956
 20
-35.823992
 10
103.157361
 20
-35.840165
 10
103.15177
 20
-35.846367
 10
103.151113
 20
-35.846422
  0
LWPOLYLINE
  5
EA
100
AcDbEntity
  8
0
  6
HIDDEN
 62
     9
 48
0.5
100
AcDbPolyline
 90
        8
 70
     0
 43
0.0
 10
103.097627
 20
-36.000753
 10
103.089888
 20
-35.967741
 10
103.08362
 20
-35.918382
 10
103.079137
 20
-35.855152
 10
103.076664
 20
-35.781222
 10
103.076324
 20
-35.700298
 10
103.078135
 20
-35.616438
 10
103.082006
 20
-35.533847
  0
LWPOLYLINE
  5
EB
100
AcDbEntity
  8
0
  6
HIDDEN
 62
     9
 48
0.5
100
AcDbPolyline
 90
       10
 70
     0
 43
0.0
 10
103.151113
 20
-35.846422
 10
103.146425
 20
-35.842327
 10
103.141561
 20
-35.82822
 10
103.137389
 20
-35.804664
 10
103.134093
 20
-35.772688
 10
103.131817
 20
-35.73369
 10
103.130659
 20
-35.689373
 10
103.130671
 20
-35.641675
 10
103.131852
 20
-35.592681
 10
103.13415
 20
-35.544532
  0
LINE
  5
EC
100
AcDbEntity
  8
0
  6
HIDDEN
 62
     9
 48
0.5
100
AcDbLine
 10
103.097627
 20
-36.000753
 30
0.0
 11
103.15285
 21
-36.1609
 31
0.0
  0
SPLINE
  5
ED
100
AcDbEntity
  8
0
  6
CONTINUOUS
100
AcDbSpline
210
-0.9160367233364297
220
-0.4010944047217027
230
0.0
 70
    24
 71
     3
 72
     9
 73
     5
 74
     3
 42
0.0000001
 43
0.0000001
 44
0.0000000001
 40
0.0
 40
0.0
 40
0.0
 40
0.0
 40
0.0020485833144768
 40
0.0030836700628059
 40
0.0030836700628059
 40
0.0030836700628059
 40
0.0030836700628059
 10
103.3902023758358
 20
-35.58964724091057
 30
0.0
 10
103.3904818554121
 20
-35.59027031985737
 30
0.0
 10
103.3909025475053
 20
-35.59120822161682
 30
0.0
 10
103.3913043290891
 20
-35.59215435401091
 30
0.0
 10
103.3914391939692
 20
-35.59247193957723
 30
0.0
 11
103.3902023758358
 21
-35.58964724091057
 31
0.0
 11
103.3910324686358
 21
-35.5915201102439
 31
0.0
 11
103.3914391939692
 21
-35.59247193957723
 31
0.0
  0
SPLINE
  5
EE
100
AcDbEntity
  8
0
  6
CONTINUOUS
100
AcDbSpline
210
0.0
220
0.0
230
1.0
 70
     8
 71
     3
 72
    10
 73
     6
 74
     4
 42
0.0000001
 43
0.0000001
 44
0.0000000001
 40
0.0
 40
0.0
 40
0.0
 40
0.0
 40
0.0028769666633041
 40
0.0058047894799385
 40
0.008783762934593
 40
0.008783762934593
 40
0.008783762934593
 40
0.008783762934593
 10
103.3914470329025
 20
-35.59246866384391
 30
0.0
 10
103.391827764144
 20
-35.59334883966808
 30
0.0
 10
103.3925959568149
 20
-35.59512475018864
 30
0.0
 10
103.3937336102272
 20
-35.59782267279821
 30
0.0
 10
103.3944827145788
 20
-35.59964353988689
 30
0.0
 10
103.3948605102358
 20
-35.6005618574439
 30
0.0
 11
103.3914470329025
 21
-35.59246866384391
 31
0.0
 11
103.3925852057025
 21
-35.5951109166439
 31
0.0
 11
103.3937230713025
 21
-35.59780858384391
 31
0.0
 11
103.3948605102358
 21
-35.6005618574439
 31
0.0
  0
SPLINE
  5
EF
100
AcDbEntity
  8
0
  6
CONTINUOUS
100
AcDbSpline
210
0.0
220
0.0
230
1.0
 70
     8
 71
     3
 72
    10
 73
     6
 74
     4
 42
0.0000001
 43
0.0000001
 44
0.0000000001
 40
0.0
 40
0.0
 40
0.0
 40
0.0
 40
0.0100866533893201
 40
0.0207296802530209
 40
0.0319358441230984
 40
0.0319358441230984
 40
0.0319358441230984
 40
0.0319358441230984
 10
103.3948605102358
 20
-35.6005618574439
 30
0.0
 10
103.396110684913
 20
-35.60368311611428
 30
0.0
 10
103.3986799931184
 20
-35.61009780012557
 30
0.0
 10
103.4023720181252
 20
-35.62008398854381
 30
0.0
 10
103.4047389171264
 20
-35.62697183828817
 30
0.0
 10
103.4059528686358
 20
-35.63050452624391
 30
0.0
 11
103.3948605102358
 21
-35.6005618574439
 31
0.0
 11
103.3985701219692
 21
-35.6099415886439
 31
0.0
 11
103.4022691801025
 21
-35.61992111717724
 31
0.0
 11
103.4059528686358
 21
-35.63050452624391
 31
0.0
  0
SPLINE
  5
F0
100
AcDbEntity
  8
0
  6
CONTINUOUS
100
AcDbSpline
210
0.0
220
0.0
230
-1.0
 70
     8
 71
     3
 72
     9
 73
     5
 74
     3
 42
0.0000001
 43
0.0000001
 44
0.0000000001
 40
0.0
 40
0.0
 40
0.0
 40
0.0
 40
0.0724282465929442
 40
0.146721678281583
 40
0.146721678281583
 40
0.146721678281583
 40
0.146721678281583
 10
103.4060401561025
 20
-35.6304539598439
 30
0.0
 10
103.4192998318232
 20
-35.65080591785186
 30
0.0
 10
103.4461606487935
 20
-35.69203394111225
 30
0.0
 10
103.4839721373289
 20
-35.72353717291883
 30
0.0
 10
103.5031182190358
 20
-35.73948902971057
 30
0.0
 11
103.4060401561025
 21
-35.6304539598439
 31
0.0
 11
103.4484876889025
 21
-35.68914005584391
 31
0.0
 11
103.5031182190358
 21
-35.73948902971057
 31
0.0
  0
SPLINE
  5
F1
100
AcDbEntity
  8
0
  6
CONTINUOUS
100
AcDbSpline
210
0.0
220
0.0
230
-1.0
 70
     8
 71
     3
 72
    14
 73
    10
 74
     8
 42
0.0000001
 43
0.0000001
 44
0.0000000001
 40
0.0
 40
0.0
 40
0.0
 40
0.0
 40
0.0223514550190764
 40
0.0435275199645119
 40
0.063568387014874
 40
0.0825174151388419
 40
0.1003822095338356
 40
0.1171038116333773
 40
0.1325767306325797
 40
0.1325767306325797
 40
0.1325767306325797
 40
0.1325767306325797
 10
103.4736218457025
 20
-35.74434620731057
 30
0.0
 10
103.4693377987377
 20
-35.73824984975203
 30
0.0
 10
103.4609949888566
 20
-35.72637772218298
 30
0.0
 10
103.4494777518703
 20
-35.70858625211826
 30
0.0
 10
103.4389913657941
 20
-35.69148921870428
 30
0.0
 10
103.4294787947683
 20
-35.67509574665205
 30
0.0
 10
103.4208593916721
 20
-35.6594691857794
 30
0.0
 10
103.4130665804374
 20
-35.64471266517647
 30
0.0
 10
103.4082619896262
 20
-35.63511650839318
 30
0.0
 10
103.4059528686358
 20
-35.63050452624391
 30
0.0
 11
103.4736218457025
 21
-35.74434620731057
 31
0.0
 11
103.4608900899691
 21
-35.72597530811057
 31
0.0
 11
103.4493470137025
 21
-35.70822191077724
 31
0.0
 11
103.4388729411692
 21
-35.6911359470439
 31
0.0
 11
103.4293589326358
 21
-35.67474847291058
 31
0.0
 11
103.4207245369025
 21
-35.65910884091057
 31
0.0
 11
103.4129280867692
 21
-35.6443160270439
 31
0.0
 11
103.4059528686358
 21
-35.63050452624391
 31
0.0
  0
LINE
  5
F2
100
AcDbEntity
  8
0
  6
HIDDEN
 62
     9
 48
0.5
100
AcDbLine
 10
103.18598
 20
-35.984832
 30
0.0
 11
103.215678
 21
-35.490967
 31
0.0
  0
SPLINE
  5
F3
100
AcDbEntity
  8
0
  6
CONTINUOUS
100
AcDbSpline
210
-0.8580363223400592
220
0.5135890083959604
230
0.0
 70
    24
 71
     3
 72
     8
 73
     4
 74
     2
 42
0.0000001
 43
0.0000001
 44
0.0000000001
 40
0.0
 40
0.0
 40
0.0
 40
0.0
 40
0.274116593291239
 40
0.274116593291239
 40
0.274116593291239
 40
0.274116593291239
 10
104.7597229966358
 20
-35.1585793678439
 30
0.0
 10
104.7127952401914
 20
-35.23698003237724
 30
0.0
 10
104.6658674837469
 20
-35.31538069691057
 30
0.0
 10
104.6189397273025
 20
-35.39378136144391
 30
0.0
 11
104.7597229966358
 21
-35.1585793678439
 31
0.0
 11
104.6189397273025
 21
-35.39378136144391
 31
0.0
  0
SPLINE
  5
F4
100
AcDbEntity
  8
0
  6
CONTINUOUS
100
AcDbSpline
210
0.0
220
0.0
230
-1.0
 70
     8
 71
     3
 72
     9
 73
     5
 74
     3
 42
0.0000001
 43
0.0000001
 44
0.0000000001
 40
0.0
 40
0.0
 40
0.0
 40
0.0
 40
0.1816726070997756
 40
0.3249529946961589
 40
0.3249529946961589
 40
0.3249529946961589
 40
0.3249529946961589
 10
104.5889104782358
 20
-35.34776084197724
 30
0.0
 10
104.6257965729567
 20
-35.29973344159965
 30
0.0
 10
104.6917737564933
 20
-35.2138280988553
 30
0.0
 10
104.7577736463859
 20
-35.12794020004928
 30
0.0
 10
104.7868747470358
 20
-35.09006994917724
 30
0.0
 11
104.5889104782358
 21
-35.34776084197724
 31
0.0
 11
104.6995758595692
 21
-35.20368409317724
 31
0.0
 11
104.7868747470358
 21
-35.09006994917724
 31
0.0
  0
SPLINE
  5
F5
100
AcDbEntity
  8
0
  6
CONTINUOUS
100
AcDbSpline
210
-0.8427248240069332
220
0.5383445653134093
230
0.0
 70
    24
 71
     3
 72
     8
 73
     4
 74
     2
 42
0.0000001
 43
0.0000001
 44
0.0000000001
 40
0.0
 40
0.0
 40
0.0
 40
0.0
 40
0.0817948447342325
 40
0.0817948447342325
 40
0.0817948447342325
 40
0.0817948447342325
 10
104.8037568067692
 20
-35.08964882171057
 30
0.0
 10
104.789078870058
 20
-35.11262567042168
 30
0.0
 10
104.7744009333469
 20
-35.13560251913279
 30
0.0
 10
104.7597229966358
 20
-35.1585793678439
 30
0.0
 11
104.8037568067692
 21
-35.08964882171057
 31
0.0
 11
104.7597229966358
 21
-35.1585793678439
 31
0.0
  0
LWPOLYLINE
  5
F6
100
AcDbEntity
  8
0
  6
HIDDEN
 62
     9
 48
0.5
100
AcDbPolyline
 90
        4
 70
     0
 43
0.0
 10
103.096398
 20
-35.294514
 10
103.102135
 20
-35.217335
 10
103.109449
 20
-35.149436
 10
103.117976
 20
-35.094223
  0
LINE
  5
F7
100
AcDbEntity
  8
0
  6
HIDDEN
 62
     9
 48
0.5
100
AcDbLine
 10
102.561402
 20
-35.011884
 30
0.0
 11
103.143696
 21
-35.027556
 31
0.0
  0
LWPOLYLINE
  5
F8
100
AcDbEntity
  8
0
  6
HIDDEN
 62
     9
 48
0.5
100
AcDbPolyline
 90
        4
 70
     0
 43
0.0
 10
103.117976
 20
-35.094223
 10
103.127286
 20
-35.054465
 10
103.136913
 20
-35.032154
 10
103.143703
 20
-35.027571
  0
LWPOLYLINE
  5
F9
100
AcDbEntity
  8
0
  6
HIDDEN
 62
     9
 48
0.5
100
AcDbPolyline
 90
        3
 70
     0
 43
0.0
 10
103.143703
 20
-35.027571
 10
103.146374
 20
-35.02841
 10
103.155195
 20
-35.043421
  0
LINE
  5
FA
100
AcDbEntity
  8
0
  6
HIDDEN
 62
     9
 48
0.5
100
AcDbLine
 10
103.155195
 20
-35.043421
 30
0.0
 11
103.210418
 21
-35.203568
 31
0.0
  0
LINE
  5
FC
100
AcDbEntity
  8
0
100
AcDbLine
 10
107.614146
 20
-33.588509
 30
0.0
 11
106.740711
 21
-32.715073
 31
0.0
  0
ARC
  5
FD
100
AcDbEntity
  8
0
  6
CONTINUOUS
100
AcDbCircle
 10
107.614146
 20
-33.838509
 30
0.0
 40
0.25
100
AcDbArc
 50
9.00087
 51
90.0
  0
LINE
  5
107
100
AcDbEntity
  8
0
100
AcDbLine
 10
108.065263
 20
-35.088509
 30
0.0
 11
77.065263
 21
-35.088509
 31
0.0
  0
ENDSEC
  0
SECTION
  2
OBJECTS
  0
DICTIONARY
  5
24
102
{ACAD_XDICTIONARY
360
25
102
}
100
AcDbDictionary
  3
ACAD_GROUP
350
22
  3
ACAD_MLINESTYLE
350
23
  0
DICTIONARY
  5
F
100
AcDbDictionary
280
     1
  3
ACAD_LAYERFILTERS
360
10
  0
DICTIONARY
  5
28
100
AcDbDictionary
280
     1
  3
ACAD_XREC_ROUNDTRIP
360
29
  0
DICTIONARY
  5
2C
100
AcDbDictionary
280
     1
  3
ACAD_XREC_ROUNDTRIP
360
2D
  0
DICTIONARY
  5
3
100
AcDbDictionary
280
     1
  3
ACAD_LAYOUTSELFREF
360
4
  0
DICTIONARY
  5
A
100
AcDbDictionary
280
     1
  3
ACAD_LAYOUTSELFREF
360
B
  0
DICTIONARY
  5
25
100
AcDbDictionary
280
     1
  3
ACAD_XREC_ROUNDTRIP
360
26
  0
DICTIONARY
  5
22
102
{ACAD_REACTORS
330
24
102
}
100
AcDbDictionary
  0
DICTIONARY
  5
23
102
{ACAD_REACTORS
330
24
102
}
100
AcDbDictionary
  3
STANDARD
350
2A
  0
DICTIONARY
  5
10
102
{ACAD_XDICTIONARY
360
11
102
}
102
{ACAD_REACTORS
330
F
102
}
100
AcDbDictionary
280
     1
  3
DIM-1_12
360
13
  3
DIM-1_16
360
14
  0
XRECORD
  5
29
102
{ACAD_REACTORS
330
28
102
}
100
AcDbXrecord
102
EXTNAMES
  1
ROMANS
  2
romans
  0
XRECORD
  5
2D
102
{ACAD_REACTORS
330
2C
102
}
100
AcDbXrecord
102
EXTNAMES
  1
DIM-1_16
  2
dim-1_16
102
ACADR14ROUNDTRIP
1000
DSTYLE
1002
{
1070
    79
 70
     1
1070
   276
 70
     1
1070
   277
 70
     5
1070
   289
 70
     1
1002
}
  0
XRECORD
  5
4
102
{ACAD_REACTORS
330
3
102
}
100
AcDbXrecord
340
2
  0
XRECORD
  5
B
102
{ACAD_REACTORS
330
A
102
}
100
AcDbXrecord
340
9
  0
XRECORD
  5
26
102
{ACAD_REACTORS
330
25
102
}
100
AcDbXrecord
102
EXTNAMES
  1
ACDBVARIABLEDICTIONARY
  2
AcDbVariableDictionary
  0
MLINESTYLE
  5
2A
102
{ACAD_REACTORS
330
23
102
}
100
AcDbMlineStyle
  2
STANDARD
 70
     0
  3

 62
     0
 51
90.0
 52
90.0
 71
     2
 49
0.5
 62
   256
  6
BYLAYER
 49
-0.5
 62
   256
  6
BYLAYER
  0
DICTIONARY
  5
11
100
AcDbDictionary
280
     1
  3
ACAD_XREC_ROUNDTRIP
360
12
  0
XRECORD
  5
13
102
{ACAD_REACTORS
330
10
102
}
100
AcDbXrecord
  1
DIM-1_12
  1
DIM-1_12
  1
*
  1
*
 70
     0
  1
*
  1
*
  0
XRECORD
  5
14
102
{ACAD_REACTORS
330
10
102
}
100
AcDbXrecord
  1
dim-1_16
  1
*
  1
*
  1
*
 70
     0
  1
*
  1
*
  0
XRECORD
  5
12
102
{ACAD_REACTORS
330
11
102
}
100
AcDbXrecord
102
EXTNAMES
  1
DIM-1_16
  2
dim-1_16
  0
ENDSEC
  0
EOF
