  0
SECTION
  2
HEADER
  9
$ACADVER
  1
AC1014
  9
$ACADMAINTVER
 70
     0
  9
$DWGCODEPAGE
  3
ANSI_1252
  9
$INSBASE
 10
80.762277
 20
-38.903067
 30
0.0
  9
$EXTMIN
 10
64.323629
 20
-41.431806
 30
-0.001526
  9
$EXTMAX
 10
97.20628
 20
-19.355214
 30
0.0
  9
$LIMMIN
 10
0.0
 20
0.0
  9
$LIMMAX
 10
17.0
 20
11.0
  9
$ORTHOMODE
 70
     1
  9
$REGENMODE
 70
     1
  9
$FILLMODE
 70
     1
  9
$QTEXTMODE
 70
     0
  9
$MIRRTEXT
 70
     1
  9
$DRAGMODE
 70
     2
  9
$LTSCALE
 40
2.0
  9
$OSMODE
 70
    53
  9
$ATTMODE
 70
     1
  9
$TEXTSIZE
 40
0.0
  9
$TRACEWID
 40
0.05
  9
$TEXTSTYLE
  7
ROMANS
  9
$CLAYER
  8
0
  9
$CELTYPE
  6
BYLAYER
  9
$CECOLOR
 62
   256
  9
$CELTSCALE
 40
1.0
  9
$DELOBJ
 70
     1
  9
$DISPSILH
 70
     0
  9
$DIMSCALE
 40
16.0
  9
$DIMASZ
 40
0.1
  9
$DIMEXO
 40
0.0625
  9
$DIMDLI
 40
0.25
  9
$DIMRND
 40
0.0
  9
$DIMDLE
 40
0.0
  9
$DIMEXE
 40
0.1
  9
$DIMTP
 40
0.1
  9
$DIMTM
 40
0.1
  9
$DIMTXT
 40
0.1
  9
$DIMCEN
 40
0.09
  9
$DIMTSZ
 40
0.0
  9
$DIMTOL
 70
     0
  9
$DIMLIM
 70
     0
  9
$DIMTIH
 70
     1
  9
$DIMTOH
 70
     1
  9
$DIMSE1
 70
     0
  9
$DIMSE2
 70
     0
  9
$DIMTAD
 70
     0
  9
$DIMZIN
 70
     4
  9
$DIMBLK
  1

  9
$DIMASO
 70
     1
  9
$DIMSHO
 70
     1
  9
$DIMPOST
  1
\X
  9
$DIMAPOST
  1
cm
  9
$DIMALT
 70
     1
  9
$DIMALTD
 70
     2
  9
$DIMALTF
 40
2.54
  9
$DIMLFAC
 40
1.0
  9
$DIMTOFL
 70
     0
  9
$DIMTVP
 40
0.0
  9
$DIMTIX
 70
     0
  9
$DIMSOXD
 70
     0
  9
$DIMSAH
 70
     0
  9
$DIMBLK1
  1

  9
$DIMBLK2
  1

  9
$DIMSTYLE
  2
STANDARD
  9
$DIMCLRD
 70
     0
  9
$DIMCLRE
 70
     0
  9
$DIMCLRT
 70
     0
  9
$DIMTFAC
 40
1.0
  9
$DIMGAP
 40
0.09
  9
$DIMJUST
 70
     0
  9
$DIMSD1
 70
     0
  9
$DIMSD2
 70
     0
  9
$DIMTOLJ
 70
     1
  9
$DIMTZIN
 70
     0
  9
$DIMALTZ
 70
     0
  9
$DIMALTTZ
 70
     0
  9
$DIMFIT
 70
     0
  9
$DIMUPT
 70
     0
  9
$DIMUNIT
 70
     5
  9
$DIMDEC
 70
     4
  9
$DIMTDEC
 70
     4
  9
$DIMALTU
 70
     2
  9
$DIMALTTD
 70
     2
  9
$DIMTXSTY
  7
ROMANS
  9
$DIMAUNIT
 70
     0
  9
$LUNITS
 70
     2
  9
$LUPREC
 70
     4
  9
$SKETCHINC
 40
0.1
  9
$FILLETRAD
 40
0.25
  9
$AUNITS
 70
     0
  9
$AUPREC
 70
     0
  9
$MENU
  1
acad
  9
$ELEVATION
 40
0.0
  9
$PELEVATION
 40
0.0
  9
$THICKNESS
 40
0.0
  9
$LIMCHECK
 70
     0
  9
$BLIPMODE
 70
     0
  9
$CHAMFERA
 40
0.0
  9
$CHAMFERB
 40
0.0
  9
$CHAMFERC
 40
0.0
  9
$CHAMFERD
 40
0.0
  9
$SKPOLY
 70
     0
  9
$TDCREATE
 40
2444971.833333333
  9
$TDUPDATE
 40
2453690.346012187
  9
$TDINDWG
 40
0.2071876736
  9
$TDUSRTIMER
 40
0.2071876736
  9
$USRTIMER
 70
     1
  9
$ANGBASE
 50
0.0
  9
$ANGDIR
 70
     0
  9
$PDMODE
 70
     0
  9
$PDSIZE
 40
0.0
  9
$PLINEWID
 40
0.0
  9
$COORDS
 70
     1
  9
$SPLFRAME
 70
     0
  9
$SPLINETYPE
 70
     6
  9
$SPLINESEGS
 70
     8
  9
$ATTDIA
 70
     0
  9
$ATTREQ
 70
     1
  9
$HANDLING
 70
     1
  9
$HANDSEED
  5
2C3
  9
$SURFTAB1
 70
     6
  9
$SURFTAB2
 70
     6
  9
$SURFTYPE
 70
     6
  9
$SURFU
 70
     6
  9
$SURFV
 70
     6
  9
$UCSNAME
  2

  9
$UCSORG
 10
0.0
 20
0.0
 30
0.0
  9
$UCSXDIR
 10
1.0
 20
0.0
 30
0.0
  9
$UCSYDIR
 10
0.0
 20
1.0
 30
0.0
  9
$PUCSNAME
  2

  9
$PUCSORG
 10
0.0
 20
0.0
 30
0.0
  9
$PUCSXDIR
 10
1.0
 20
0.0
 30
0.0
  9
$PUCSYDIR
 10
0.0
 20
1.0
 30
0.0
  9
$USERI1
 70
     0
  9
$USERI2
 70
     0
  9
$USERI3
 70
     0
  9
$USERI4
 70
     0
  9
$USERI5
 70
     0
  9
$USERR1
 40
0.0
  9
$USERR2
 40
0.0
  9
$USERR3
 40
0.0
  9
$USERR4
 40
0.0
  9
$USERR5
 40
0.0
  9
$WORLDVIEW
 70
     1
  9
$SHADEDGE
 70
     3
  9
$SHADEDIF
 70
    70
  9
$TILEMODE
 70
     1
  9
$MAXACTVP
 70
    16
  9
$PINSBASE
 10
0.0
 20
0.0
 30
0.0
  9
$PLIMCHECK
 70
     0
  9
$PEXTMIN
 10
0.0
 20
0.0
 30
0.0
  9
$PEXTMAX
 10
0.0
 20
0.0
 30
0.0
  9
$PLIMMIN
 10
0.0
 20
0.0
  9
$PLIMMAX
 10
12.0
 20
9.0
  9
$UNITMODE
 70
     0
  9
$VISRETAIN
 70
     0
  9
$PLINEGEN
 70
     1
  9
$PSLTSCALE
 70
     1
  9
$TREEDEPTH
 70
  3020
  9
$PICKSTYLE
 70
     1
  9
$CMLSTYLE
  2
STANDARD
  9
$CMLJUST
 70
     0
  9
$CMLSCALE
 40
1.0
  9
$PROXYGRAPHICS
 70
     1
  9
$MEASUREMENT
 70
     0
  0
ENDSEC
  0
SECTION
  2
CLASSES
  0
CLASS
  1
LWPOLYLINE
  2
AcDbPolyline
  3
"AutoCAD"
 90
        0
280
     0
281
     1
  0
CLASS
  1
IMAGE
  2
AcDbRasterImage
  3
ISM
 90
      127
280
     0
281
     1
  0
CLASS
  1
OLE2FRAME
  2
AcDbOle2Frame
  3
""
 90
        0
280
     0
281
     1
  0
CLASS
  1
HATCH
  2
AcDbHatch
  3
"ACAD_SEDONA"
 90
        0
280
     0
281
     1
  0
CLASS
  1
DICTIONARYVAR
  2
AcDbDictionaryVar
  3
"AutoCAD"
 90
        0
280
     0
281
     0
  0
CLASS
  1
RASTERVARIABLES
  2
AcDbRasterVariables
  3
ISM
 90
        0
280
     0
281
     0
  0
CLASS
  1
IMAGEDEF
  2
AcDbRasterImageDef
  3
ISM
 90
        0
280
     0
281
     0
  0
CLASS
  1
IMAGEDEF_REACTOR
  2
AcDbRasterImageDefReactor
  3
ISM
 90
        1
280
     0
281
     0
  0
CLASS
  1
IDBUFFER
  2
AcDbIdBuffer
  3
"Acad"
 90
        0
280
     0
281
     0
  0
CLASS
  1
SPATIAL_FILTER
  2
AcDbSpatialFilter
  3
"Acad"
 90
        0
280
     0
281
     0
  0
CLASS
  1
XRECORD
  2
AcDbXrecord
  3
"<Built In>"
 90
        0
280
     0
281
     0
  0
CLASS
  1
SORTENTSTABLE
  2
AcDbSortentsTable
  3
"AutoCAD"
 90
        0
280
     0
281
     0
  0
CLASS
  1
LAYER_INDEX
  2
AcDbLayerIndex
  3
"Acad"
 90
        0
280
     0
281
     0
  0
CLASS
  1
SPATIAL_INDEX
  2
AcDbSpatialIndex
  3
"Acad"
 90
        0
280
     0
281
     0
  0
CLASS
  1
OBJECT_PTR
  2
CAseDLPNTableRecord
  3
ASE-LPNTableRecord
 90
        1
280
     0
281
     0
  0
CLASS
  1
LAYOUT
  2
AcDbLayout
  3
AutoCAD 2000
 90
        0
280
     0
281
     0
  0
CLASS
  1
PLOTSETTINGS
  2
AcDbPlotSettings
  3
AutoCAD 2000
 90
        0
280
     0
281
     0
  0
CLASS
  1
ACDBDICTIONARYWDFLT
  2
AcDbDictionaryWithDefault
  3
AutoCAD 2000
 90
        0
280
     0
281
     0
  0
CLASS
  1
ACDBPLACEHOLDER
  2
AcDbPlaceHolder
  3
AutoCAD 2000
 90
        0
280
     0
281
     0
  0
CLASS
  1
VBA_PROJECT
  2
AcDbVbaProject
  3
acadvba
 90
        0
280
     0
281
     0
  0
CLASS
  1
WIPEOUT
  2
AcDbWipeout
  3
"WipeOut|Version(1.0.0.0) Product Desc: Object Enabler for WipeOut entity^I^I^I^I^I^I|Company: Autodesk, Inc.^I^I^I^I^I^I|WEB Address: www.autodesk.com"
 90
      127
280
     1
281
     1
  0
CLASS
  1
WIPEOUTVARIABLES
  2
AcDbWipeoutVariables
  3
WipeOut|AutoCAD Express Tool|expresstools@autodesk.com
 90
        0
280
     1
281
     0
  0
CLASS
  1
RTEXT
  2
RText
  3
RText|AutoCAD Express Tool|expresstools@autodesk.com
 90
        0
280
     1
281
     1
  0
CLASS
  1
ARCALIGNEDTEXT
  2
AcDbArcAlignedText
  3
ATEXT|AutoCAD Express Tool|expresstools@autodesk.com
 90
        0
280
     1
281
     1
  0
CLASS
  1
LONG_TRANSACTION
  2
AcDbLongTransaction
  3
AutoCAD 2000
 90
        0
280
     0
281
     0
  0
CLASS
  1
LWPOLYLINE
  2
AcDbPolyline
  3
"AutoCAD"
 90
        0
280
     0
281
     1
  0
CLASS
  1
HATCH
  2
AcDbHatch
  3
"ACAD_SEDONA"
 90
        0
280
     0
281
     1
  0
CLASS
  1
XRECORD
  2
AcDbXrecord
  3
"<Built In>"
 90
        0
280
     0
281
     0
  0
ENDSEC
  0
SECTION
  2
TABLES
  0
TABLE
  2
VPORT
  5
1D
100
AcDbSymbolTable
 70
     2
  0
VPORT
  5
2C2
100
AcDbSymbolTableRecord
100
AcDbViewportTableRecord
  2
*ACTIVE
 70
     0
 10
0.0
 20
0.0
 11
1.0
 21
1.0
 12
80.764955
 22
-30.39351
 13
0.0
 23
0.0
 14
1.0
 24
1.0
 15
0.0
 25
0.0
 16
0.0
 26
0.0
 36
1.0
 17
0.0
 27
0.0
 37
0.0
 40
24.743274
 41
1.487748
 42
50.0
 43
0.0
 44
0.0
 50
0.0
 51
0.0
 71
     0
 72
   100
 73
     1
 74
     1
 75
     0
 76
     0
 77
     0
 78
     0
  0
ENDTAB
  0
TABLE
  2
LTYPE
  5
18
100
AcDbSymbolTable
 70
     3
  0
LTYPE
  5
19
100
AcDbSymbolTableRecord
100
AcDbLinetypeTableRecord
  2
BYBLOCK
 70
     0
  3

 72
    65
 73
     0
 40
0.0
  0
LTYPE
  5
1A
100
AcDbSymbolTableRecord
100
AcDbLinetypeTableRecord
  2
BYLAYER
 70
     0
  3

 72
    65
 73
     0
 40
0.0
  0
LTYPE
  5
8
100
AcDbSymbolTableRecord
100
AcDbLinetypeTableRecord
  2
CONTINUOUS
 70
     0
  3
Solid line
 72
    65
 73
     0
 40
0.0
  0
LTYPE
  5
E2
100
AcDbSymbolTableRecord
100
AcDbLinetypeTableRecord
  2
CENTER
 70
     0
  3
____ _ ____ _ ____ _ ____ _ ____ _ ____ _ ____
 72
    65
 73
     4
 40
0.6
 49
0.375
 74
     0
 49
-0.075
 74
     0
 49
0.075
 74
     0
 49
-0.075
 74
     0
  0
LTYPE
  5
2C
100
AcDbSymbolTableRecord
100
AcDbLinetypeTableRecord
  2
HIDDEN
 70
     0
  3
- - - - - - - - - - - - - - - - - - - -
 72
    65
 73
     2
 40
0.2
 49
0.1
 74
     0
 49
-0.1
 74
     0
  0
ENDTAB
  0
TABLE
  2
LAYER
  5
10
102
{ACAD_XDICTIONARY
360
11
102
}
100
AcDbSymbolTable
 70
     3
  0
LAYER
  5
4
100
AcDbSymbolTableRecord
100
AcDbLayerTableRecord
  2
0
 70
     0
 62
     7
  6
CONTINUOUS
  0
LAYER
  5
E1
100
AcDbSymbolTableRecord
100
AcDbLayerTableRecord
  2
CENTER
 70
     0
 62
     1
  6
CENTER
  0
LAYER
  5
22E
100
AcDbSymbolTableRecord
100
AcDbLayerTableRecord
  2
DEFPOINTS
 70
     0
 62
     7
  6
CONTINUOUS
  0
ENDTAB
  0
TABLE
  2
STYLE
  5
15
100
AcDbSymbolTable
 70
     2
  0
STYLE
  5
16
100
AcDbSymbolTableRecord
100
AcDbTextStyleTableRecord
  2
STANDARD
 70
     0
 40
0.0
 41
1.0
 50
0.0
 71
     0
 42
0.0
  3
txt
  4

  0
STYLE
  5
1A9
100
AcDbSymbolTableRecord
100
AcDbTextStyleTableRecord
  2
ROMANS
 70
     0
 40
0.0
 41
1.0
 50
0.0
 71
     0
 42
0.0
  3
txt.shx
  4

  0
ENDTAB
  0
TABLE
  2
VIEW
  5
1B
100
AcDbSymbolTable
 70
     0
  0
ENDTAB
  0
TABLE
  2
UCS
  5
1C
100
AcDbSymbolTable
 70
     0
  0
ENDTAB
  0
TABLE
  2
APPID
  5
1F
100
AcDbSymbolTable
 70
     2
  0
APPID
  5
20
100
AcDbSymbolTableRecord
100
AcDbRegAppTableRecord
  2
ACAD
 70
     0
  0
APPID
  5
1A2
100
AcDbSymbolTableRecord
100
AcDbRegAppTableRecord
  2
DCO15
 70
     0
  0
ENDTAB
  0
TABLE
  2
DIMSTYLE
  5
21
100
AcDbSymbolTable
 70
     1
  0
DIMSTYLE
105
24
102
{ACAD_XDICTIONARY
360
217
102
}
100
AcDbSymbolTableRecord
100
AcDbDimStyleTableRecord
  2
STANDARD
 70
     0
  3
\X
  4
cm
  5

  6

  7

 40
16.0
 41
0.1
 42
0.0625
 43
0.25
 44
0.1
 45
0.0
 46
0.0
 47
0.1
 48
0.1
140
0.1
141
0.09
142
0.0
143
2.54
144
1.0
145
0.0
146
1.0
147
0.09
 71
     0
 72
     0
 73
     1
 74
     1
 75
     0
 76
     0
 77
     0
 78
     4
170
     1
171
     2
172
     0
173
     0
174
     0
175
     0
176
     0
177
     0
178
     0
270
     5
271
     4
272
     4
273
     2
274
     2
340
1A9
275
     0
280
     0
281
     0
282
     0
283
     1
284
     0
285
     0
286
     0
287
     0
288
     0
  0
ENDTAB
  0
TABLE
  2
BLOCK_RECORD
  5
1
100
AcDbSymbolTable
 70
     1
  0
BLOCK_RECORD
  5
2
102
{ACAD_XDICTIONARY
360
20F
102
}
100
AcDbSymbolTableRecord
100
AcDbBlockTableRecord
  2
*MODEL_SPACE
  0
BLOCK_RECORD
  5
1AF
102
{ACAD_XDICTIONARY
360
1EA
102
}
100
AcDbSymbolTableRecord
100
AcDbBlockTableRecord
  2
*PAPER_SPACE
  0
BLOCK_RECORD
  5
228
100
AcDbSymbolTableRecord
100
AcDbBlockTableRecord
  2
*D0
  0
ENDTAB
  0
ENDSEC
  0
SECTION
  2
BLOCKS
  0
BLOCK
  5
3
100
AcDbEntity
  8
0
100
AcDbBlockBegin
  2
*MODEL_SPACE
 70
     0
 10
0.0
 20
0.0
 30
0.0
  3
*MODEL_SPACE
  1

  0
ENDBLK
  5
9
100
AcDbEntity
  8
0
100
AcDbBlockEnd
  0
BLOCK
  5
1B1
100
AcDbEntity
 67
     1
  8
0
100
AcDbBlockBegin
  2
*PAPER_SPACE
 70
     0
 10
0.0
 20
0.0
 30
0.0
  3
*PAPER_SPACE
  1

  0
ENDBLK
  5
1B2
100
AcDbEntity
 67
     1
  8
0
100
AcDbBlockEnd
  0
BLOCK
  5
229
100
AcDbEntity
  8
0
100
AcDbBlockBegin
  2
*D0
 70
     1
 10
0.0
 20
0.0
 30
0.0
  3
*D0
  1

  0
LINE
  5
22A
100
AcDbEntity
  8
0
  6
BYBLOCK
 62
     0
100
AcDbLine
 10
76.131008
 20
-31.364574
 30
0.0
 11
74.531008
 21
-31.364574
 31
0.0
  0
LINE
  5
22B
100
AcDbEntity
  8
0
  6
BYBLOCK
 62
     0
100
AcDbLine
 10
74.531008
 20
-31.364574
 30
0.0
 11
70.164524
 21
-37.990556
 31
0.0
  0
MTEXT
  5
22C
100
AcDbEntity
  8
0
  6
BYBLOCK
 62
     0
100
AcDbMText
 10
84.237674
 20
-31.364574
 30
0.0
 40
1.6
 41
0.0
 71
     5
 72
     1
  1
\A1;R2{\H1.000000x;\S1/2;}\P [R6.35cm]
  7
ROMANS
  0
SOLID
  5
22D
100
AcDbEntity
  8
0
  6
BYBLOCK
 62
     0
100
AcDbTrace
 10
70.82227
 20
-36.507828
 30
0.0
 11
71.267601
 21
-36.801298
 31
0.0
 12
70.164524
 22
-37.990556
 32
0.0
 13
70.164524
 23
-37.990556
 33
0.0
  0
POINT
  5
22F
100
AcDbEntity
  8
DEFPOINTS
  6
BYBLOCK
 62
     0
100
AcDbPoint
 10
70.164524
 20
-37.990556
 30
0.0
  0
POINT
  5
230
100
AcDbEntity
  8
DEFPOINTS
  6
BYBLOCK
 62
     0
100
AcDbPoint
 10
71.540167
 20
-35.903067
 30
0.0
  0
ENDBLK
  5
231
100
AcDbEntity
  8
0
100
AcDbBlockEnd
  0
ENDSEC
  0
SECTION
  2
ENTITIES
  0
LWPOLYLINE
  5
2B
100
AcDbEntity
  8
0
  6
HIDDEN
 62
     8
 48
0.5
100
AcDbPolyline
 90
       15
 70
     0
 43
0.0
 10
69.770056
 20
-20.841988
 10
70.039773
 20
-20.951228
 10
70.264334
 20
-21.07002
 10
70.441476
 20
-21.197165
 10
70.569418
 20
-21.331384
 10
70.646875
 20
-21.471324
 10
70.673069
 20
-21.615578
 10
70.647737
 20
-21.762691
 10
70.571135
 20
-21.911185
 10
70.444033
 20
-22.059564
 10
70.267711
 20
-22.206335
 10
70.04394
 20
-22.35002
 10
69.774971
 20
-22.489172
 10
69.46351
 20
-22.622391
 10
69.112696
 20
-22.748331
  0
LWPOLYLINE
  5
2D
100
AcDbEntity
  8
0
  6
HIDDEN
 62
     8
 48
0.5
100
AcDbPolyline
 90
        7
 70
     0
 43
0.0
 10
69.928482
 20
-21.33516
 10
70.251054
 20
-21.453487
 10
70.520876
 20
-21.583698
 10
70.734894
 20
-21.724321
 10
70.890685
 20
-21.873762
 10
70.986483
 20
-22.030329
 10
71.020547
 20
-22.176682
  0
LWPOLYLINE
  5
2F
100
AcDbEntity
  8
0
  6
HIDDEN
 62
     8
 48
0.5
100
AcDbPolyline
 90
        9
 70
     0
 43
0.0
 10
71.020547
 20
-22.176682
 10
70.994456
 20
-22.35769
 10
70.90654
 20
-22.524777
 10
70.758453
 20
-22.691617
 10
70.551871
 20
-22.856323
 10
70.289133
 20
-23.017029
 10
69.973216
 20
-23.171914
 10
69.607695
 20
-23.319225
 10
69.196711
 20
-23.457295
  0
SPLINE
  5
30
100
AcDbEntity
  8
0
  6
HIDDEN
 62
     8
 48
0.5
100
AcDbSpline
210
0.0
220
0.0
230
1.0
 70
     8
 71
     3
 72
    14
 73
    10
 74
     8
 42
0.0000001
 43
0.0000001
 44
0.0000000001
 40
0.0
 40
0.0
 40
0.0
 40
0.0
 40
0.0617333542356885
 40
0.372867336881346
 40
0.6579380186714522
 40
0.9124199838746184
 40
1.136349404723724
 40
1.336728554505063
 40
1.524049945624795
 40
1.524049945624795
 40
1.524049945624795
 40
1.524049945624795
 10
69.98821806254085
 20
-20.90154409255277
 30
0.0
 10
70.00731941204495
 20
-20.90919603820978
 30
0.0
 10
70.12269090624958
 20
-20.95541352686584
 30
0.0
 10
70.32173297221544
 20
-21.04863016747568
 30
0.0
 10
70.5631246564223
 20
-21.19894324896248
 30
0.0
 10
70.7561449481463
 20
-21.36729666535251
 30
0.0
 10
70.89344781279343
 20
-21.54876170948067
 30
0.0
 10
70.98048147834248
 20
-21.73636373325647
 30
0.0
 10
70.99738436553058
 20
-21.8651042368889
 30
0.0
 10
71.00555116440751
 20
-21.9273064978861
 30
0.0
 11
69.98821806254085
 21
-20.90154409255277
 31
0.0
 11
70.04545165934084
 21
-20.9246811282861
 31
0.0
 11
70.32657123587418
 21
-21.05800831548609
 31
0.0
 11
70.56714369027417
 21
-21.21094682535276
 31
0.0
 11
70.75702766894085
 21
-21.38037275388609
 31
0.0
 11
70.89112333720752
 21
-21.55971247975276
 31
0.0
 11
70.9721177948075
 21
-21.74299287015276
 31
0.0
 11
71.00555116440751
 21
-21.9273064978861
 31
0.0
  0
SPLINE
  5
31
100
AcDbEntity
  8
0
  6
HIDDEN
 62
     8
 48
0.5
100
AcDbSpline
210
0.0
220
0.0
230
1.0
 70
     8
 71
     3
 72
    15
 73
    11
 74
     9
 42
0.0000001
 43
0.0000001
 44
0.0000000001
 40
0.0
 40
0.0
 40
0.0
 40
0.0
 40
0.1943967102596088
 40
0.403712208707144
 40
0.6391211265761654
 40
0.9078069487370717
 40
1.208269873330312
 40
1.536179843262233
 40
1.891246570424483
 40
2.158895882858978
 40
2.158895882858978
 40
2.158895882858978
 40
2.158895882858978
 10
71.02054705667416
 20
-22.17668201255276
 30
0.0
 10
71.0196879238123
 20
-22.24180547493369
 30
0.0
 10
71.01790372476509
 20
-22.37705023705623
 30
0.0
 10
70.94807225816516
 20
-22.58181045615929
 30
0.0
 10
70.82321959524683
 20
-22.78587254933789
 30
0.0
 10
70.63755876325457
 20
-22.98179462787608
 30
0.0
 10
70.39949804205782
 20
-23.1641593905946
 30
0.0
 10
70.11691186461092
 20
-23.3313770282511
 30
0.0
 10
69.8311170810519
 20
-23.46912980057657
 30
0.0
 10
69.63829096340916
 20
-23.54604927403634
 30
0.0
 10
69.55541245294085
 20
-23.57910999975276
 30
0.0
 11
71.02054705667416
 21
-22.17668201255276
 31
0.0
 11
71.00815574574085
 21
-22.37068339495277
 31
0.0
 11
70.94444611054083
 21
-22.57006759761943
 31
0.0
 11
70.82291413827417
 21
-22.77167944828609
 31
0.0
 11
70.64050069080753
 21
-22.96895439655276
 31
0.0
 11
70.40362614360751
 21
-23.15380140881942
 31
0.0
 11
70.1226222972075
 21
-23.32280373628609
 31
0.0
 11
69.80301093080751
 21
-23.47746774375276
 31
0.0
 11
69.55541245294085
 21
-23.57910999975276
 31
0.0
  0
LINE
  5
37
100
AcDbEntity
  8
0
100
AcDbLine
 10
64.324777
 20
-20.903067
 30
0.0
 11
97.203314
 21
-20.903067
 31
0.0
  0
LWPOLYLINE
  5
38
100
AcDbEntity
  8
0
  6
HIDDEN
 62
     8
 48
0.5
100
AcDbPolyline
 90
        8
 70
     0
 43
0.0
 10
68.58462
 20
-23.387481
 10
68.583962
 20
-23.387426
 10
68.578371
 20
-23.381224
 10
68.572777
 20
-23.36505
 10
68.567424
 20
-23.339612
 10
68.562548
 20
-23.306021
 10
68.558361
 20
-23.265745
 10
68.555046
 20
-23.220545
  0
LWPOLYLINE
  5
39
100
AcDbEntity
  8
0
  6
HIDDEN
 62
     8
 48
0.5
100
AcDbPolyline
 90
        7
 70
     0
 43
0.0
 10
69.081326
 20
-23.374105
 10
69.07708
 20
-23.371239
 10
69.07106
 20
-23.357287
 10
69.065238
 20
-23.332425
 10
69.059906
 20
-23.297899
 10
69.055332
 20
-23.255439
 10
69.051745
 20
-23.207177
  0
LINE
  5
3A
100
AcDbEntity
  8
0
  6
HIDDEN
 62
     8
 48
0.5
100
AcDbLine
 10
69.196372
 20
-23.452285
 30
0.0
 11
69.18198
 21
-23.212952
 31
0.0
  0
LWPOLYLINE
  5
3B
100
AcDbEntity
  8
0
  6
HIDDEN
 62
     8
 48
0.5
100
AcDbPolyline
 90
        7
 70
     0
 43
0.0
 10
68.630965
 20
-22.534886
 10
68.652118
 20
-22.725322
 10
68.667769
 20
-22.947648
 10
68.67675
 20
-23.185303
 10
68.678391
 20
-23.420583
 10
68.672567
 20
-23.635935
 10
68.659713
 20
-23.815239
  0
LWPOLYLINE
  5
3C
100
AcDbEntity
  8
0
  6
HIDDEN
 62
     8
 48
0.5
100
AcDbPolyline
 90
       10
 70
     0
 43
0.0
 10
69.098281
 20
-23.072222
 10
69.100702
 20
-23.123868
 10
69.101834
 20
-23.176309
 10
69.101622
 20
-23.226913
 10
69.100075
 20
-23.273145
 10
69.097271
 20
-23.312684
 10
69.093352
 20
-23.34355
 10
69.088513
 20
-23.364194
 10
69.082997
 20
-23.37358
 10
69.081326
 20
-23.374105
  0
LWPOLYLINE
  5
3D
100
AcDbEntity
  8
0
  6
HIDDEN
 62
     8
 48
0.5
100
AcDbPolyline
 90
       10
 70
     0
 43
0.0
 10
68.601582
 20
-23.08559
 10
68.60388
 20
-23.13374
 10
68.605061
 20
-23.182734
 10
68.605073
 20
-23.230432
 10
68.603915
 20
-23.274748
 10
68.601639
 20
-23.313747
 10
68.598343
 20
-23.345723
 10
68.594172
 20
-23.369279
 10
68.589307
 20
-23.383385
 10
68.58462
 20
-23.387481
  0
LINE
  5
3E
100
AcDbEntity
  8
0
  6
HIDDEN
 62
     8
 48
0.5
100
AcDbLine
 10
68.517293
 20
-23.470562
 30
0.0
 11
68.502901
 21
-23.231229
 31
0.0
  0
SPLINE
  5
3F
100
AcDbEntity
  8
0
  6
HIDDEN
 62
     8
 48
0.5
100
AcDbSpline
210
0.0
220
0.0
230
1.0
 70
     8
 71
     3
 72
    23
 73
    19
 74
    17
 42
0.0000001
 43
0.0000001
 44
0.0000000001
 40
0.0
 40
0.0
 40
0.0
 40
0.0
 40
0.0603304193300178
 40
0.1201426350693438
 40
0.1993665968555025
 40
0.304507548040585
 40
0.4355848632994354
 40
0.5894173665531169
 40
0.7616014571207084
 40
0.946837681191714
 40
1.138827302442284
 40
1.331015812568446
 40
1.520055476775963
 40
1.714680549061911
 40
1.919835713501825
 40
2.122599698587598
 40
2.294706548642376
 40
2.409698992292984
 40
2.409698992292984
 40
2.409698992292984
 40
2.409698992292984
 10
68.58980141294086
 20
-22.14526817361943
 30
0.0
 10
68.60917772043939
 20
-22.13617576281748
 30
0.0
 10
68.64776390410333
 20
-22.118069039791
 30
0.0
 10
68.71051150006173
 20
-22.15674094624664
 30
0.0
 10
68.75944704916641
 20
-22.22068473190312
 30
0.0
 10
68.80826569309984
 20
-22.314861501408
 30
0.0
 10
68.85408178117342
 20
-22.43651046514786
 30
0.0
 10
68.89700942901285
 20
-22.5828795455059
 30
0.0
 10
68.93563991739796
 20
-22.74891170957945
 30
0.0
 10
68.9692179812852
 20
-22.92899953907087
 30
0.0
 10
68.99695706206273
 20
-23.11680839092554
 30
0.0
 10
69.01836890735669
 20
-23.30670364248016
 30
0.0
 10
69.03350144232362
 20
-23.49813196770326
 30
0.0
 10
69.0414450181529
 20
-23.69416114050629
 30
0.0
 10
69.04102232573435
 20
-23.89561548645425
 30
0.0
 10
69.02349638697737
 20
-24.08684682517824
 30
0.0
 10
68.99956538397162
 20
-24.25278794405
 30
0.0
 10
68.9441025727761
 20
-24.33202410553029
 30
0.0
 10
68.92188794414085
 20
-24.36376072081943
 30
0.0
 11
68.58980141294086
 21
-22.14526817361943
 31
0.0
 11
68.64773538414084
 21
-22.12843325521942
 31
0.0
 11
68.70146029187418
 21
-22.15472271015276
 31
0.0
 11
68.75269902147417
 21
-22.2151464530861
 31
0.0
 11
68.8025061052075
 21
-22.30774166908609
 31
0.0
 11
68.84998889667418
 21
-22.42991632721943
 31
0.0
 11
68.89395370947418
 21
-22.57733252135276
 31
0.0
 11
68.93345560174083
 21
-22.74492417255276
 31
0.0
 11
68.96767719747419
 21
-22.9269718066861
 31
0.0
 11
68.99585730840749
 21
-23.11688203815277
 31
0.0
 11
69.01741346414084
 21
-23.30785783655276
 31
0.0
 11
69.03216356334084
 21
-23.4963211730861
 31
0.0
 11
69.03995825987417
 21
-23.6907900946861
 31
0.0
 11
69.03797539907419
 21
-23.89593567655277
 31
0.0
 11
69.02052612120752
 21
-24.09794744935276
 31
0.0
 11
68.98188421294083
 21
-24.26566021201943
 31
0.0
 11
68.92188794414085
 21
-24.36376072081943
 31
0.0
  0
SPLINE
  5
40
100
AcDbEntity
  8
0
  6
HIDDEN
 62
     8
 48
0.5
100
AcDbSpline
210
0.0
220
0.0
230
1.0
 70
     8
 71
     3
 72
    23
 73
    19
 74
    17
 42
0.0000001
 43
0.0000001
 44
0.0000000001
 40
0.0
 40
0.0
 40
0.0
 40
0.0
 40
0.0582840794286412
 40
0.1129150819611367
 40
0.1836086455442359
 40
0.2776192883132991
 40
0.3956001353433686
 40
0.534964663729666
 40
0.6918199173278492
 40
0.861327360141761
 40
1.037638476480456
 40
1.214602078806707
 40
1.38898739645477
 40
1.568682354682975
 40
1.758017123240567
 40
1.944666463103406
 40
2.102083047771513
 40
2.206334239581648
 40
2.206334239581648
 40
2.206334239581648
 40
2.206334239581648
 10
68.56474566040751
 20
-22.2669244690861
 30
0.0
 10
68.58279514302568
 20
-22.2570088912856
 30
0.0
 10
68.61776281909031
 20
-22.2377992153156
 30
0.0
 10
68.67861850751907
 20
-22.26701997340187
 30
0.0
 10
68.72589819083441
 20
-22.32256113114268
 30
0.0
 10
68.77259941415045
 20
-22.40520182557155
 30
0.0
 10
68.81660408783254
 20
-22.51382974248226
 30
0.0
 10
68.85793940698452
 20
-22.64571202512633
 30
0.0
 10
68.89529837165369
 20
-22.79645664370199
 30
0.0
 10
68.92792166068912
 20
-22.96086187968062
 30
0.0
 10
68.95503033743484
 20
-23.13304471794676
 30
0.0
 10
68.97612409006413
 20
-23.30768731928756
 30
0.0
 10
68.99123523156091
 20
-23.48413295991287
 30
0.0
 10
68.99947483636577
 20
-23.66499032529529
 30
0.0
 10
68.99975362536268
 20
-23.85085969595245
 30
0.0
 10
68.98350428073292
 20
-24.02648704899842
 30
0.0
 10
68.96132794815192
 20
-24.17896825904657
 30
0.0
 10
68.90800633528761
 20
-24.24934978730885
 30
0.0
 10
68.88676244440751
 20
-24.27739052775276
 30
0.0
 11
68.56474566040751
 21
-22.2669244690861
 31
0.0
 11
68.61954879107418
 21
-22.24708383441943
 31
0.0
 11
68.6705349852075
 21
-22.26670409041943
 31
0.0
 11
68.71934412974084
 21
-22.3178435794861
 31
0.0
 11
68.76697330627417
 21
-22.39889580028609
 31
0.0
 11
68.8125495484075
 21
-22.50771807015277
 31
0.0
 11
68.85491016174086
 21
-22.64048873788611
 31
0.0
 11
68.89312876120749
 21
-22.79261667495277
 31
0.0
 11
68.92639625454086
 21
-22.95882752615276
 31
0.0
 11
68.95395127214084
 21
-23.1329720946861
 31
0.0
 11
68.97520032600749
 21
-23.30865531601943
 31
0.0
 11
68.98994247960752
 21
-23.48241638161943
 31
0.0
 11
68.99804583320753
 21
-23.6619285362861
 31
0.0
 11
68.9968026236075
 21
-23.85125922321943
 31
0.0
 11
68.98068971374084
 21
-24.03721177148609
 31
0.0
 11
68.94408487534085
 21
-24.19031326375276
 31
0.0
 11
68.88676244440751
 21
-24.27739052775276
 31
0.0
  0
SPLINE
  5
41
100
AcDbEntity
  8
0
  6
HIDDEN
 62
     8
 48
0.5
100
AcDbSpline
210
0.0
220
0.0
230
1.0
 70
     8
 71
     3
 72
    10
 73
     6
 74
     4
 42
0.0000001
 43
0.0000001
 44
0.0000000001
 40
0.0
 40
0.0
 40
0.0
 40
0.0
 40
0.0198810682956176
 40
0.1286096624526372
 40
0.2361657875785442
 40
0.2361657875785442
 40
0.2361657875785442
 40
0.2361657875785442
 10
68.49245374680752
 20
-23.23094356561943
 30
0.0
 10
68.49227031083024
 20
-23.2375680490821
 30
0.0
 10
68.49108367242799
 20
-23.28042150994187
 30
0.0
 10
68.48886052551583
 20
-23.35911206684774
 30
0.0
 10
68.48672944408038
 20
-23.43117547544959
 30
0.0
 10
68.48566967960749
 20
-23.46701185361943
 30
0.0
 11
68.49245374680752
 21
-23.23094356561943
 31
0.0
 11
68.49190286467416
 21
-23.25081700028609
 31
0.0
 11
68.48882545880752
 21
-23.35950203495276
 31
0.0
 11
68.48566967960749
 21
-23.46701185361943
 31
0.0
  0
SPLINE
  5
42
100
AcDbEntity
  8
0
  6
HIDDEN
 62
     8
 48
0.5
100
AcDbSpline
210
0.0
220
0.0
230
1.0
 70
     8
 71
     3
 72
    15
 73
    11
 74
     9
 42
0.0000001
 43
0.0000001
 44
0.0000000001
 40
0.0
 40
0.0
 40
0.0
 40
0.0
 40
0.0246026956874717
 40
0.0541766445687059
 40
0.0879698053491776
 40
0.1251465179681345
 40
0.1647867871142049
 40
0.2058741818904119
 40
0.2473148578408298
 40
0.2878569444321615
 40
0.2878569444321615
 40
0.2878569444321615
 40
0.2878569444321615
 10
68.63131320600752
 20
-23.56150870801943
 30
0.0
 10
68.63244705090008
 20
-23.55338505953953
 30
0.0
 10
68.63494384688213
 20
-23.53549628743556
 30
0.0
 10
68.63727243325648
 20
-23.50625191250179
 30
0.0
 10
68.6390998017957
 20
-23.47278682559286
 30
0.0
 10
68.64015149601624
 20
-23.43592727124356
 30
0.0
 10
68.6404630032936
 20
-23.39662468589362
 30
0.0
 10
68.63997475947485
 20
-23.35590284769329
 30
0.0
 10
68.63877682588181
 20
-23.31489311883483
 30
0.0
 10
68.63730242598639
 20
-23.28760445483893
 30
0.0
 10
68.63657330627418
 20
-23.27410967441944
 30
0.0
 11
68.63131320600752
 21
-23.56150870801943
 31
0.0
 11
68.6344955804075
 21
-23.53711270161944
 31
0.0
 11
68.63704625240751
 21
-23.50764895228609
 31
0.0
 11
68.63889884974082
 21
-23.47390661095276
 31
0.0
 11
68.64000453614085
 21
-23.4367463442861
 31
0.0
 11
68.64032996227416
 21
-23.39710741095276
 31
0.0
 11
68.63985881134084
 21
-23.35602271761943
 31
0.0
 11
68.63859525187416
 21
-23.31460130961944
 31
0.0
 11
68.63657330627418
 21
-23.27410967441944
 31
0.0
  0
LINE
  5
4A
100
AcDbEntity
  8
0
  6
HIDDEN
 62
     8
 48
0.5
100
AcDbLine
 10
69.196372
 20
-23.452285
 30
0.0
 11
68.517293
 21
-23.470562
 31
0.0
  0
LINE
  5
4B
100
AcDbEntity
  8
0
  6
HIDDEN
 62
     8
 48
0.5
100
AcDbLine
 10
69.170264
 20
-23.705664
 30
0.0
 11
69.521078
 21
-23.579723
 31
0.0
  0
SPLINE
  5
4C
100
AcDbEntity
  8
0
  6
HIDDEN
 62
     8
 48
0.5
100
AcDbSpline
210
0.0
220
0.0
230
1.0
 70
     8
 71
     3
 72
     9
 73
     5
 74
     3
 42
0.0000001
 43
0.0000001
 44
0.0000000001
 40
0.0
 40
0.0
 40
0.0
 40
0.0
 40
0.1152916667726714
 40
0.4300509637411198
 40
0.4300509637411198
 40
0.4300509637411198
 40
0.4300509637411198
 10
69.55541245294085
 20
-23.57910999975276
 30
0.0
 10
69.51947837041988
 20
-23.59274247244094
 30
0.0
 10
69.38544017623043
 20
-23.64359313825084
 30
0.0
 10
69.24926529235166
 20
-23.68847785122659
 30
0.0
 10
69.14959731267419
 20
-23.72132949415276
 30
0.0
 11
69.55541245294085
 21
-23.57910999975276
 31
0.0
 11
69.44745663854084
 21
-23.61957863655276
 31
0.0
 11
69.14959731267419
 21
-23.72132949415276
 31
0.0
  0
SPLINE
  5
4D
100
AcDbEntity
  8
0
  6
HIDDEN
 62
     8
 48
0.5
100
AcDbSpline
210
0.0
220
0.0
230
1.0
 70
     8
 71
     3
 72
    18
 73
    14
 74
    12
 42
0.0000001
 43
0.0000001
 44
0.0000000001
 40
0.0
 40
0.0
 40
0.0
 40
0.0
 40
0.0041677290267124
 40
0.0076822874507793
 40
0.0152431015703289
 40
0.0272279568618042
 40
0.0438691910354743
 40
0.0654273178019872
 40
0.0926302389810209
 40
0.1294819617340976
 40
0.1758906876763127
 40
0.230020264785247
 40
0.2879122478498498
 40
0.2879122478498498
 40
0.2879122478498498
 40
0.2879122478498498
 10
69.14599728280752
 20
-23.71598418321944
 30
0.0
 10
69.14480496189264
 20
-23.71720035907238
 30
0.0
 10
69.14260718177235
 20
-23.71944211049938
 30
0.0
 10
69.14802338825767
 20
-23.72345700801472
 30
0.0
 10
69.1553017791567
 20
-23.71839997144398
 30
0.0
 10
69.16413742665864
 20
-23.71094909679293
 30
0.0
 10
69.17321206980784
 20
-23.69633070832199
 30
0.0
 10
69.18167768644163
 20
-23.67632930235143
 30
0.0
 10
69.18934729698341
 20
-23.64871774846255
 30
0.0
 10
69.19555462525235
 20
-23.61239199865433
 30
0.0
 10
69.1993391274147
 20
-23.56670080278229
 30
0.0
 10
69.20011421883032
 20
-23.51384681618157
 30
0.0
 10
69.19787082517642
 20
-23.47656303678507
 30
0.0
 10
69.19671145454083
 20
-23.4572950322861
 30
0.0
 11
69.14599728280752
 21
-23.71598418321944
 31
0.0
 11
69.14387056494084
 21
-23.71956845948609
 31
0.0
 11
69.14654139267418
 21
-23.72185292881944
 31
0.0
 11
69.15369644334083
 21
-23.71940933308609
 31
0.0
 11
69.16268267054085
 21
-23.71147935975276
 31
0.0
 11
69.17195042520751
 21
-23.6976576594861
 31
0.0
 11
69.18056716867417
 21
-23.67789647121943
 31
0.0
 11
69.18809715267418
 21
-23.65175649681944
 31
0.0
 11
69.19455031214084
 21
-23.61547418428609
 31
0.0
 11
69.19864116227419
 21
-23.5692461106861
 31
0.0
 11
69.19944404227419
 21
-23.5151224882861
 31
0.0
 11
69.19671145454083
 21
-23.4572950322861
 31
0.0
  0
LINE
  5
4E
100
AcDbEntity
  8
0
  6
HIDDEN
 62
     8
 48
0.5
100
AcDbLine
 10
69.146756
 20
-23.721852
 30
0.0
 11
69.149552
 21
-23.721328
 31
0.0
  0
LINE
  5
4F
100
AcDbEntity
  8
0
  6
HIDDEN
 62
     8
 48
0.5
100
AcDbLine
 10
68.584623
 20
-23.387483
 30
0.0
 11
69.081322
 21
-23.374114
 31
0.0
  0
LINE
  5
50
100
AcDbEntity
  8
0
  6
HIDDEN
 62
     8
 48
0.5
100
AcDbLine
 10
69.170264
 20
-23.705664
 30
0.0
 11
68.57609
 21
-23.721655
 31
0.0
  0
LINE
  5
51
100
AcDbEntity
  8
0
  6
HIDDEN
 62
     8
 48
0.5
100
AcDbLine
 10
69.146847
 20
-23.721849
 30
0.0
 11
68.564591
 21
-23.73752
 31
0.0
  0
LINE
  5
52
100
AcDbEntity
  8
0
  6
HIDDEN
 62
     8
 48
0.5
100
AcDbLine
 10
68.886762
 20
-24.277391
 30
0.0
 11
68.812057
 21
-24.284402
 31
0.0
  0
LINE
  5
53
100
AcDbEntity
  8
0
  6
HIDDEN
 62
     8
 48
0.5
100
AcDbLine
 10
68.921888
 20
-24.363761
 30
0.0
 11
68.844016
 21
-24.376941
 31
0.0
  0
LINE
  5
54
100
AcDbEntity
  8
0
  6
HIDDEN
 62
     8
 48
0.5
100
AcDbLine
 10
68.812057
 20
-24.284402
 30
0.0
 11
68.719123
 21
-24.200049
 31
0.0
  0
LINE
  5
55
100
AcDbEntity
  8
0
  6
HIDDEN
 62
     8
 48
0.5
100
AcDbLine
 10
68.590736
 20
-24.022501
 30
0.0
 11
68.585939
 21
-24.016864
 31
0.0
  0
LINE
  5
56
100
AcDbEntity
  8
0
  6
HIDDEN
 62
     8
 48
0.5
100
AcDbLine
 10
68.719123
 20
-24.200049
 30
0.0
 11
68.585907
 21
-24.016858
 31
0.0
  0
LWPOLYLINE
  5
57
100
AcDbEntity
  8
0
  6
HIDDEN
 62
     8
 48
0.5
100
AcDbPolyline
 90
        3
 70
     0
 43
0.0
 10
68.564598
 20
-23.737505
 10
68.567269
 20
-23.736666
 10
68.57609
 20
-23.721655
  0
LWPOLYLINE
  5
58
100
AcDbEntity
  8
0
  6
HIDDEN
 62
     8
 48
0.5
100
AcDbPolyline
 90
        3
 70
     0
 43
0.0
 10
68.585939
 20
-24.016864
 10
68.563331
 20
-23.964197
 10
68.537039
 20
-23.8454
  0
LINE
  5
59
100
AcDbEntity
  8
0
  6
HIDDEN
 62
     8
 48
0.5
100
AcDbLine
 10
68.537039
 20
-23.8454
 30
0.0
 11
68.513815
 21
-23.674887
 31
0.0
  0
LWPOLYLINE
  5
5A
100
AcDbEntity
  8
0
  6
HIDDEN
 62
     8
 48
0.5
100
AcDbPolyline
 90
        5
 70
     0
 43
0.0
 10
68.530345
 20
-23.61564
 10
68.538871
 20
-23.670853
 10
68.548181
 20
-23.710611
 10
68.557808
 20
-23.732922
 10
68.564598
 20
-23.737505
  0
LWPOLYLINE
  5
5B
100
AcDbEntity
  8
0
  6
HIDDEN
 62
     8
 48
0.5
100
AcDbPolyline
 90
        3
 70
     0
 43
0.0
 10
68.517293
 20
-23.470562
 10
68.52303
 20
-23.547742
 10
68.530345
 20
-23.61564
  0
LINE
  5
5C
100
AcDbEntity
  8
0
  6
HIDDEN
 62
     8
 48
0.5
100
AcDbLine
 10
68.57609
 20
-23.721655
 30
0.0
 11
68.631313
 21
-23.561509
 31
0.0
  0
LWPOLYLINE
  5
5D
100
AcDbEntity
  8
0
  6
HIDDEN
 62
     8
 48
0.5
100
AcDbPolyline
 90
        3
 70
     0
 43
0.0
 10
68.640791
 20
-23.945142
 10
68.617213
 20
-24.015986
 10
68.590736
 20
-24.022501
  0
SPLINE
  5
5F
100
AcDbEntity
  8
0
  6
HIDDEN
 62
     8
 48
0.5
100
AcDbSpline
210
-0.9215985472469471
220
-0.3881444546973678
230
0.0
 70
    24
 71
     3
 72
     8
 73
     4
 74
     2
 42
0.0000001
 43
0.0000001
 44
0.0000000001
 40
0.0
 40
0.0
 40
0.0
 40
0.0
 40
0.0288152375521732
 40
0.0288152375521732
 40
0.0288152375521732
 40
0.0288152375521732
 10
68.66121451054084
 20
-24.13441113041943
 30
0.0
 10
68.65748635231861
 20
-24.12555910339721
 30
0.0
 10
68.65375819409639
 20
-24.11670707637499
 30
0.0
 10
68.65003003587418
 20
-24.10785504935277
 30
0.0
 11
68.66121451054084
 21
-24.13441113041943
 31
0.0
 11
68.65003003587418
 21
-24.10785504935277
 31
0.0
  0
SPLINE
  5
60
100
AcDbEntity
  8
0
  6
HIDDEN
 62
     8
 48
0.5
100
AcDbSpline
210
0.0
220
0.0
230
-1.0
 70
     8
 71
     3
 72
     9
 73
     5
 74
     3
 42
0.0000001
 43
0.0000001
 44
0.0000000001
 40
0.0
 40
0.0
 40
0.0
 40
0.0
 40
0.1206387693237621
 40
0.3083044933625519
 40
0.3083044933625519
 40
0.3083044933625519
 40
0.3083044933625519
 10
68.84402292334084
 20
-24.37694046055276
 30
0.0
 10
68.81134898921613
 20
-24.35251747359501
 30
0.0
 10
68.7278474684119
 20
-24.29010207709668
 30
0.0
 10
68.68642715808495
 20
-24.19332163191599
 30
0.0
 10
68.66121451054084
 20
-24.13441113041943
 30
0.0
 11
68.84402292334084
 21
-24.37694046055276
 31
0.0
 11
68.75244433134085
 21
-24.29840973948609
 31
0.0
 11
68.66121451054084
 21
-24.13441113041943
 31
0.0
  0
SPLINE
  5
61
100
AcDbEntity
  8
0
  6
HIDDEN
 62
     8
 48
0.5
100
AcDbSpline
210
-0.986861437461601
220
-0.1615688808255555
230
0.0
 70
    24
 71
     3
 72
     8
 73
     4
 74
     2
 42
0.0000001
 43
0.0000001
 44
0.0000000001
 40
0.0
 40
0.0
 40
0.0
 40
0.0
 40
0.0849406605811027
 40
0.0849406605811027
 40
0.0849406605811027
 40
0.0849406605811027
 10
68.49938876974085
 20
-23.55083166481943
 30
0.0
 10
68.49481418058528
 20
-23.52289011068609
 30
0.0
 10
68.49023959142972
 20
-23.49494855655276
 30
0.0
 10
68.48566500227417
 20
-23.46700700241942
 30
0.0
 11
68.49938876974085
 21
-23.55083166481943
 31
0.0
 11
68.48566500227417
 21
-23.46700700241942
 31
0.0
  0
SPLINE
  5
62
100
AcDbEntity
  8
0
  6
HIDDEN
 62
     8
 48
0.5
100
AcDbSpline
210
0.0
220
0.0
230
1.0
 70
     8
 71
     3
 72
    11
 73
     7
 74
     5
 42
0.0000001
 43
0.0000001
 44
0.0000000001
 40
0.0
 40
0.0
 40
0.0
 40
0.0
 40
0.005923320859967
 40
0.0120486604918177
 40
0.0174638539223159
 40
0.0315002955057553
 40
0.0315002955057553
 40
0.0315002955057553
 40
0.0315002955057553
 10
68.49082300334083
 20
-23.45946490001943
 30
0.0
 10
68.49054634651817
 20
-23.45777732372239
 30
0.0
 10
68.48998359730912
 20
-23.45434461522362
 30
0.0
 10
68.48797584316617
 20
-23.44474781643545
 30
0.0
 10
68.48543302917684
 20
-23.4577128529362
 30
0.0
 10
68.48557048818526
 20
-23.46311420128652
 30
0.0
 10
68.48566967960749
 20
-23.46701185361943
 30
0.0
 11
68.49082300334083
 21
-23.45946490001943
 31
0.0
 11
68.48979425987417
 21
-23.45363159761942
 31
0.0
 11
68.48794474947419
 21
-23.44779215441943
 31
0.0
 11
68.48645066840751
 21
-23.45299715601942
 31
0.0
 11
68.48566967960749
 21
-23.46701185361943
 31
0.0
  0
SPLINE
  5
63
100
AcDbEntity
  8
0
  6
HIDDEN
 62
     8
 48
0.5
100
AcDbSpline
210
0.0
220
0.0
230
1.0
 70
     8
 71
     3
 72
    17
 73
    13
 74
    11
 42
0.0000001
 43
0.0000001
 44
0.0000000001
 40
0.0
 40
0.0
 40
0.0
 40
0.0
 40
0.0270861020674436
 40
0.0521170415034739
 40
0.0751773736494804
 40
0.0964073748859691
 40
0.1159834761278932
 40
0.1340918670661668
 40
0.1508954163371396
 40
0.1664779880448498
 40
0.1807091407439045
 40
0.1863756817253338
 40
0.1863756817253338
 40
0.1863756817253338
 40
0.1863756817253338
 10
68.51057494147418
 20
-23.64478359441942
 30
0.0
 10
68.50962977246057
 20
-23.63580449808194
 30
0.0
 10
68.50781114929408
 20
-23.61852759587875
 30
0.0
 10
68.50525824327739
 20
-23.59359882497145
 30
0.0
 10
68.50293080753283
 20
-23.57060924762874
 30
0.0
 10
68.50079906909559
 20
-23.54942743547096
 30
0.0
 10
68.49882499350279
 20
-23.52988873683671
 30
0.0
 10
68.49697135082184
 20
-23.51182089164491
 30
0.0
 10
68.49519917219625
 20
-23.49508285051307
 30
0.0
 10
68.49347196188048
 20
-23.4796400446063
 30
0.0
 10
68.49202073513975
 20
-23.46790178353253
 30
0.0
 10
68.49108849129355
 20
-23.46133501061788
 30
0.0
 10
68.49082300334083
 20
-23.45946490001943
 30
0.0
 11
68.51057494147418
 21
-23.64478359441942
 31
0.0
 11
68.50775261827419
 21
-23.61784493415276
 31
0.0
 11
68.50519632494084
 21
-23.59294486801943
 31
0.0
 11
68.5028717148075
 21
-23.5700020018861
 31
0.0
 11
68.50074243587418
 21
-23.54887904935277
 31
0.0
 11
68.49877060974086
 21
-23.52940250855277
 31
0.0
 11
68.49691684334084
 21
-23.5113892530861
 31
0.0
 11
68.49513928067418
 21
-23.49467998801943
 31
0.0
 11
68.49339052227418
 21
-23.4791958546861
 31
0.0
 11
68.49160986627419
 21
-23.46507654268609
 31
0.0
 11
68.49082300334083
 21
-23.45946490001943
 31
0.0
  0
SPLINE
  5
64
100
AcDbEntity
  8
0
  6
HIDDEN
 62
     8
 48
0.5
100
AcDbSpline
210
-0.994258043019608
220
-0.1070090832164225
230
0.0
 70
    24
 71
     3
 72
     8
 73
     4
 74
     2
 42
0.0000001
 43
0.0000001
 44
0.0000000001
 40
0.0
 40
0.0
 40
0.0
 40
0.0
 40
0.0302770559527735
 40
0.0302770559527735
 40
0.0302770559527735
 40
0.0302770559527735
 10
68.51381486147417
 20
-23.67488680081943
 30
0.0
 10
68.51273488814084
 20
-23.66485239868609
 30
0.0
 10
68.51165491480751
 20
-23.65481799655276
 30
0.0
 10
68.51057494147418
 20
-23.64478359441942
 30
0.0
 11
68.51381486147417
 21
-23.67488680081943
 31
0.0
 11
68.51057494147418
 21
-23.64478359441942
 31
0.0
  0
SPLINE
  5
65
100
AcDbEntity
  8
0
  6
HIDDEN
 62
     8
 48
0.5
100
AcDbSpline
210
0.0
220
0.0
230
1.0
 70
     8
 71
     3
 72
    11
 73
     7
 74
     5
 42
0.0000001
 43
0.0000001
 44
0.0000000001
 40
0.0
 40
0.0
 40
0.0
 40
0.0
 40
0.0209826338134202
 40
0.0301983852089058
 40
0.0337129436329726
 40
0.0339177074217149
 40
0.0339177074217149
 40
0.0339177074217149
 40
0.0339177074217149
 10
69.17026423214085
 20
-23.70566370641943
 30
0.0
 10
69.16473967085154
 20
-23.70767909809389
 30
0.0
 10
69.15678867521352
 20
-23.71057966694877
 30
0.0
 10
69.14121521095133
 20
-23.71792585920632
 30
0.0
 10
69.14549453425138
 20
-23.72152056521619
 30
0.0
 10
69.14667110614759
 20
-23.72189629358079
 30
0.0
 10
69.14673588120752
 20
-23.72191697895277
 30
0.0
 11
69.17026423214085
 21
-23.70566370641943
 31
0.0
 11
69.15079435694085
 21
-23.71348642215276
 31
0.0
 11
69.14387056494084
 21
-23.71956845948609
 31
0.0
 11
69.14654139267418
 21
-23.72185292881944
 31
0.0
 11
69.14673588120752
 21
-23.72191697895277
 31
0.0
  0
SPLINE
  5
66
100
AcDbEntity
  8
0
  6
HIDDEN
 62
     8
 48
0.5
100
AcDbSpline
210
-0.9977155774156594
220
-0.0675546192509249
230
0.0
 70
    24
 71
     3
 72
     9
 73
     5
 74
     3
 42
0.0000001
 43
0.0000001
 44
0.0000000001
 40
0.0
 40
0.0
 40
0.0
 40
0.0
 40
0.0025088904344422
 40
0.005021268601357
 40
0.005021268601357
 40
0.005021268601357
 40
0.005021268601357
 10
69.19671144814083
 20
-23.45729494481943
 30
0.0
 10
69.19665022225221
 20
-23.45646088473724
 30
0.0
 10
69.19652768536185
 20
-23.45479160510474
 30
0.0
 10
69.19642407955798
 20
-23.45312104361181
 30
0.0
 10
69.19637224067418
 20
-23.4522851826861
 30
0.0
 11
69.19671144814083
 21
-23.45729494481943
 31
0.0
 11
69.19653249667419
 21
-23.45479244455277
 31
0.0
 11
69.19637224067418
 21
-23.4522851826861
 31
0.0
  0
LINE
  5
6A
100
AcDbEntity
  8
0
  6
HIDDEN
 62
     8
 48
0.5
100
AcDbLine
 10
67.85948
 20
-21.303254
 30
0.0
 11
67.553728
 21
-20.903067
 31
0.0
  0
SPLINE
  5
6B
100
AcDbEntity
  8
0
  6
HIDDEN
 62
     8
 48
0.5
100
AcDbSpline
210
0.0
220
0.0
230
-1.0
 70
     8
 71
     3
 72
    10
 73
     6
 74
     4
 42
0.0000001
 43
0.0000001
 44
0.0000000001
 40
0.0
 40
0.0
 40
0.0
 40
0.0
 40
0.045303284864453
 40
0.2301561722816953
 40
0.3944944134367812
 40
0.3944944134367812
 40
0.3944944134367812
 40
0.3944944134367812
 10
67.78228404334083
 20
-21.31254674001943
 30
0.0
 10
67.78975174294235
 20
-21.3256654827495
 30
0.0
 10
67.8276902094613
 20
-21.39231317995143
 30
0.0
 10
67.90038034889623
 20
-21.50305292864865
 30
0.0
 10
67.98371505613339
 20
-21.58469272757578
 30
0.0
 10
68.0229344924075
 20
-21.62311449681943
 30
0.0
 11
67.78228404334083
 21
-21.31254674001943
 31
0.0
 11
67.80486034947418
 21
-21.3518239346861
 31
0.0
 11
67.90948273880752
 21
-21.50422060668609
 31
0.0
 11
68.0229344924075
 21
-21.62311449681943
 31
0.0
  0
LINE
  5
6C
100
AcDbEntity
  8
0
  6
HIDDEN
 62
     8
 48
0.5
100
AcDbLine
 10
67.688245
 20
-21.119733
 30
0.0
 11
67.782291
 21
-21.312543
 31
0.0
  0
SPLINE
  5
6D
100
AcDbEntity
  8
0
  6
HIDDEN
 62
     8
 48
0.5
100
AcDbSpline
210
-0.8709619132752276
220
-0.4913505323330327
230
0.0
 70
    24
 71
     3
 72
     8
 73
     4
 74
     2
 42
0.0000001
 43
0.0000001
 44
0.0000000001
 40
0.0
 40
0.0
 40
0.0
 40
0.0
 40
0.1136677041300102
 40
0.1136677041300102
 40
0.1136677041300102
 40
0.1136677041300102
 10
67.72644252974084
 20
-21.21353387281943
 30
0.0
 10
67.74505942538528
 20
-21.24653395317499
 30
0.0
 10
67.76367632102973
 20
-21.27953403353055
 30
0.0
 10
67.78229321667419
 20
-21.3125341138861
 30
0.0
 11
67.72644252974084
 21
-21.21353387281943
 31
0.0
 11
67.78229321667419
 21
-21.3125341138861
 31
0.0
  0
SPLINE
  5
6E
100
AcDbEntity
  8
0
  6
HIDDEN
 62
     8
 48
0.5
100
AcDbSpline
210
-0.8579281046053178
220
-0.5137697610100527
230
0.0
 70
    24
 71
     3
 72
     8
 73
     4
 74
     2
 42
0.0000001
 43
0.0000001
 44
0.0000000001
 40
0.0
 40
0.0
 40
0.0
 40
0.0
 40
0.2951148373710611
 40
0.2951148373710611
 40
0.2951148373710611
 40
0.2951148373710611
 10
67.57482145027418
 20
-20.96034655975277
 30
0.0
 10
67.6253618100964
 20
-21.04474233077499
 30
0.0
 10
67.67590216991862
 20
-21.1291381017972
 30
0.0
 10
67.72644252974084
 20
-21.21353387281943
 30
0.0
 11
67.57482145027418
 21
-20.96034655975277
 31
0.0
 11
67.72644252974084
 21
-21.21353387281943
 31
0.0
  0
SPLINE
  5
6F
100
AcDbEntity
  8
0
  6
HIDDEN
 62
     8
 48
0.5
100
AcDbSpline
210
-0.8422935000374199
220
-0.5390191645894542
230
0.0
 70
    24
 71
     3
 72
     8
 73
     4
 74
     2
 42
0.0000001
 43
0.0000001
 44
0.0000000001
 40
0.0
 40
0.0
 40
0.0
 40
0.0
 40
0.0685185047699474
 40
0.0685185047699474
 40
0.0685185047699474
 40
0.0685185047699474
 10
67.53788866307417
 20
-20.90263386855276
 30
0.0
 10
67.55019959214084
 20
-20.92187143228609
 30
0.0
 10
67.56251052120751
 20
-20.94110899601943
 30
0.0
 10
67.57482145027418
 20
-20.96034655975277
 30
0.0
 11
67.53788866307417
 21
-20.90263386855276
 31
0.0
 11
67.57482145027418
 21
-20.96034655975277
 31
0.0
  0
LWPOLYLINE
  5
70
100
AcDbEntity
  8
0
  6
HIDDEN
 62
     8
 48
0.5
100
AcDbPolyline
 90
        7
 70
     0
 43
0.0
 10
70.396974
 20
-21.367253
 10
70.464293
 20
-21.497402
 10
70.48586
 20
-21.631302
 10
70.461475
 20
-21.767705
 10
70.391365
 20
-21.905338
 10
70.276184
 20
-22.042918
 10
70.117005
 20
-22.179164
  0
LWPOLYLINE
  5
71
100
AcDbEntity
  8
0
  6
HIDDEN
 62
     8
 48
0.5
100
AcDbPolyline
 90
       10
 70
     0
 43
0.0
 10
69.676671
 20
-21.647605
 10
69.678341
 20
-21.64708
 10
69.683857
 20
-21.637694
 10
69.688697
 20
-21.61705
 10
69.692616
 20
-21.586185
 10
69.69542
 20
-21.546645
 10
69.696966
 20
-21.500413
 10
69.697179
 20
-21.449809
 10
69.696046
 20
-21.397369
 10
69.693626
 20
-21.345722
  0
LINE
  5
72
100
AcDbEntity
  8
0
  6
HIDDEN
 62
     8
 48
0.5
100
AcDbLine
 10
69.145097
 20
-21.799391
 30
0.0
 11
69.115399
 21
-21.305525
 31
0.0
  0
LWPOLYLINE
  5
73
100
AcDbEntity
  8
0
  6
HIDDEN
 62
     8
 48
0.5
100
AcDbPolyline
 90
        8
 70
     0
 43
0.0
 10
69.15039
 20
-21.494045
 10
69.153706
 20
-21.539245
 10
69.157893
 20
-21.579521
 10
69.162769
 20
-21.613112
 10
69.168121
 20
-21.638551
 10
69.173716
 20
-21.654724
 10
69.179307
 20
-21.660926
 10
69.179964
 20
-21.660981
  0
LWPOLYLINE
  5
74
100
AcDbEntity
  8
0
  6
HIDDEN
 62
     8
 48
0.5
100
AcDbPolyline
 90
        7
 70
     0
 43
0.0
 10
69.64709
 20
-21.480677
 10
69.650677
 20
-21.52894
 10
69.655251
 20
-21.571399
 10
69.660583
 20
-21.605925
 10
69.666405
 20
-21.630788
 10
69.672425
 20
-21.644739
 10
69.676671
 20
-21.647605
  0
LWPOLYLINE
  5
75
100
AcDbEntity
  8
0
  6
HIDDEN
 62
     8
 48
0.5
100
AcDbPolyline
 90
        3
 70
     0
 43
0.0
 10
69.139217
 20
-21.866025
 10
69.11926
 20
-21.636022
 10
69.106807
 20
-21.379745
  0
LWPOLYLINE
  5
76
100
AcDbEntity
  8
0
  6
HIDDEN
 62
     8
 48
0.5
100
AcDbPolyline
 90
       10
 70
     0
 43
0.0
 10
69.179964
 20
-21.660981
 10
69.184652
 20
-21.656886
 10
69.189516
 20
-21.642779
 10
69.193688
 20
-21.619223
 10
69.196984
 20
-21.587247
 10
69.19926
 20
-21.548248
 10
69.200418
 20
-21.503932
 10
69.200406
 20
-21.456234
 10
69.199225
 20
-21.40724
 10
69.196927
 20
-21.35909
  0
LWPOLYLINE
  5
77
100
AcDbEntity
  8
0
  6
HIDDEN
 62
     8
 48
0.5
100
AcDbPolyline
 90
        8
 70
     0
 43
0.0
 10
69.23345
 20
-21.815312
 10
69.241189
 20
-21.7823
 10
69.247457
 20
-21.732941
 10
69.25194
 20
-21.669711
 10
69.254413
 20
-21.59578
 10
69.254753
 20
-21.514856
 10
69.252942
 20
-21.430996
 10
69.249071
 20
-21.348406
  0
SPLINE
  5
78
100
AcDbEntity
  8
0
  6
HIDDEN
 62
     8
 48
0.5
100
AcDbSpline
210
0.0
220
0.0
230
-1.0
 70
     8
 71
     3
 72
    21
 73
    17
 74
    15
 42
0.0000001
 43
0.0000001
 44
0.0000000001
 40
0.0
 40
0.0
 40
0.0
 40
0.0
 40
0.0101851550965062
 40
0.025521052152856
 40
0.0433360651210956
 40
0.06248531882243
 40
0.0827748292693979
 40
0.1043212554465574
 40
0.1272147198827283
 40
0.1515597001026384
 40
0.177461803494518
 40
0.2050180954705564
 40
0.2343093843512237
 40
0.265394754221973
 40
0.2983102286743871
 40
0.3330591837618607
 40
0.3330591837618607
 40
0.3330591837618607
 40
0.3330591837618607
 10
69.30689103214084
 20
-21.34563842001943
 30
0.0
 10
69.30664040880697
 20
-21.34902450347968
 30
0.0
 10
69.30601241923645
 20
-21.35750904905256
 30
0.0
 10
69.30557672566577
 20
-21.37195165025756
 30
0.0
 10
69.30526883005081
 20
-21.38938144484528
 30
0.0
 10
69.30507163595334
 20
-21.40846543601895
 30
0.0
 10
69.3049264610855
 20
-21.42879322395614
 30
0.0
 10
69.30480690465684
 20
-21.45036939356879
 30
0.0
 10
69.30468966939509
 20
-21.4732973744856
 30
0.0
 10
69.30455661646305
 20
-21.49767719833423
 30
0.0
 10
69.30439015380962
 20
-21.52361112851953
 30
0.0
 10
69.30417214428198
 20
-21.55119350760015
 30
0.0
 10
69.30388373624499
 20
-21.58050309913279
 30
0.0
 10
69.30350107353529
 20
-21.61159814575313
 30
0.0
 10
69.30301011379826
 20
-21.6445111683523
 30
0.0
 10
69.30257858740258
 20
-21.66706187216863
 30
0.0
 10
69.30235697774083
 20
-21.67864274855276
 30
0.0
 11
69.30689103214084
 21
-21.34563842001943
 31
0.0
 11
69.30619831640751
 21
-21.35579999121943
 31
0.0
 11
69.30563121134085
 21
-21.37112539921943
 31
0.0
 11
69.30529765934085
 21
-21.38893728935276
 31
0.0
 11
69.30508545347419
 21
-21.40808536721943
 31
0.0
 11
69.30493470254083
 21
-21.42837431761943
 31
0.0
 11
69.30481088280751
 21
-21.44992038801942
 31
0.0
 11
69.30469087000751
 21
-21.4728135378861
 31
0.0
 11
69.30455567000752
 21
-21.49715814268609
 31
0.0
 11
69.30438748014086
 21
-21.52305970001943
 31
0.0
 11
69.30416809560751
 21
-21.5506151186861
 31
0.0
 11
69.30387794094085
 21
-21.57990497041943
 31
0.0
 11
69.30349544494084
 21
-21.61098798695275
 31
0.0
 11
69.30299672174084
 21
-21.64389968295277
 31
0.0
 11
69.30235697774083
 21
-21.67864274855276
 31
0.0
  0
SPLINE
  5
79
100
AcDbEntity
  8
0
  6
HIDDEN
 62
     8
 48
0.5
100
AcDbSpline
210
0.0
220
0.0
230
1.0
 70
     8
 71
     3
 72
    10
 73
     6
 74
     4
 42
0.0000001
 43
0.0000001
 44
0.0000000001
 40
0.0
 40
0.0
 40
0.0
 40
0.0
 40
0.0598428657915455
 40
0.1201035310438191
 40
0.1814383702486357
 40
0.1814383702486357
 40
0.1814383702486357
 40
0.1814383702486357
 10
68.94413170200749
 20
-21.40210151015276
 30
0.0
 10
68.93496393564446
 20
-21.41985175362544
 30
0.0
 10
68.91656439716277
 20
-21.45547616582159
 30
0.0
 10
68.87844979066409
 20
-21.50311776649051
 30
0.0
 10
68.84747248356325
 20
-21.52934363605198
 30
0.0
 10
68.83184700334084
 20
-21.54257241041943
 30
0.0
 11
68.94413170200749
 21
-21.40210151015276
 31
0.0
 11
68.91493263534084
 21
-21.45433735121943
 31
0.0
 11
68.87734087640751
 21
-21.50143520081943
 31
0.0
 11
68.83184700334084
 21
-21.54257241041943
 31
0.0
  0
SPLINE
  5
7A
100
AcDbEntity
  8
0
  6
HIDDEN
 62
     8
 48
0.5
100
AcDbSpline
210
0.0
220
0.0
230
-1.0
 70
     8
 71
     3
 72
     9
 73
     5
 74
     3
 42
0.0000001
 43
0.0000001
 44
0.0000000001
 40
0.0
 40
0.0
 40
0.0
 40
0.0
 40
0.1693186097677825
 40
0.3607964044675953
 40
0.3607964044675953
 40
0.3607964044675953
 40
0.3607964044675953
 10
68.11259711534086
 20
-21.55905012135276
 30
0.0
 10
68.06859447564611
 20
-21.52343592147912
 30
0.0
 10
67.97483045165179
 20
-21.44754659496018
 30
0.0
 10
67.89947260882678
 20
-21.35328140303751
 30
0.0
 10
67.8594795452075
 20
-21.30325404455276
 30
0.0
 11
68.11259711534086
 21
-21.55905012135276
 31
0.0
 11
67.98464286894085
 21
-21.44816052561943
 31
0.0
 11
67.8594795452075
 21
-21.30325404455276
 31
0.0
  0
SPLINE
  5
7B
100
AcDbEntity
  8
0
  6
HIDDEN
 62
     8
 48
0.5
100
AcDbSpline
210
0.0
220
0.0
230
1.0
 70
     8
 71
     3
 72
    10
 73
     6
 74
     4
 42
0.0000001
 43
0.0000001
 44
0.0000000001
 40
0.0
 40
0.0
 40
0.0
 40
0.0
 40
0.0552118548458517
 40
0.109657560277236
 40
0.165254396500364
 40
0.165254396500364
 40
0.165254396500364
 40
0.165254396500364
 10
68.86110887000751
 20
-21.54729977361943
 30
0.0
 10
68.87150615088069
 20
-21.53210663708604
 30
0.0
 10
68.89215643436154
 20
-21.50193119215917
 30
0.0
 10
68.91932400932856
 20
-21.453927103949
 30
0.0
 10
68.93519599280672
 20
-21.42085339758192
 30
0.0
 10
68.9432150012075
 20
-21.40414355601942
 30
0.0
 11
68.86110887000751
 21
-21.54729977361943
 31
0.0
 11
68.89163583214084
 21
-21.50129484455276
 31
0.0
 11
68.91859159854084
 21
-21.45399028348609
 31
0.0
 11
68.9432150012075
 21
-21.40414355601942
 31
0.0
  0
SPLINE
  5
7C
100
AcDbEntity
  8
0
  6
HIDDEN
 62
     8
 48
0.5
100
AcDbSpline
210
0.0
220
0.0
230
1.0
 70
     8
 71
     3
 72
    19
 73
    15
 74
    13
 42
0.0000001
 43
0.0000001
 44
0.0000000001
 40
0.0
 40
0.0
 40
0.0
 40
0.0
 40
0.0684117365863665
 40
0.1392844606339497
 40
0.2067798963798482
 40
0.2662585842786418
 40
0.3163077223327586
 40
0.3581752084398877
 40
0.3931053852569872
 40
0.4223316900037957
 40
0.4458740021231329
 40
0.4636869794820752
 40
0.4768343685325818
 40
0.4937162827522349
 40
0.4937162827522349
 40
0.4937162827522349
 40
0.4937162827522349
 10
69.92848208920751
 20
-21.33516018001943
 30
0.0
 10
69.92940386690091
 20
-21.35796427168975
 30
0.0
 10
69.93128058155924
 20
-21.40439279064042
 30
0.0
 10
69.92534835696671
 20
-21.47323484251458
 30
0.0
 10
69.91414782943214
 20
-21.53829133000161
 30
0.0
 10
69.89901058518594
 20
-21.59540243681465
 30
0.0
 10
69.88225230323519
 20
-21.64305674804989
 30
0.0
 10
69.86534991227029
 20
-21.68183986693788
 30
0.0
 10
69.84923733720616
 20
-21.71334284341902
 30
0.0
 10
69.83452681955267
 20
-21.73854341448763
 30
0.0
 10
69.82256390595117
 20
-21.75898244276879
 30
0.0
 10
69.81334520010372
 20
-21.77418220964376
 30
0.0
 10
69.81137009945133
 20
-21.79248501890327
 30
0.0
 10
69.82177475225774
 20
-21.7968604416335
 30
0.0
 10
69.82762405400752
 20
-21.7993202226861
 30
0.0
 11
69.92848208920751
 21
-21.33516018001943
 31
0.0
 11
69.9298306972075
 21
-21.40355862268609
 31
0.0
 11
69.92423780760751
 21
-21.4742103218861
 31
0.0
 11
69.91265717614083
 21
-21.54070485415275
 31
0.0
 11
69.89739088494085
 21
-21.59819098001943
 31
0.0
 11
69.88073190040751
 21
-21.64538626001943
 31
0.0
 11
69.86399821934083
 21
-21.68376425255277
 31
0.0
 11
69.8480706396075
 21
-21.71485170108609
 31
0.0
 11
69.83354504067418
 21
-21.74021277095275
 31
0.0
 11
69.82159750574084
 21
-21.76049815655276
 31
0.0
 11
69.8138664316075
 21
-21.77654598055276
 31
0.0
 11
69.81375632707417
 21
-21.78969290855275
 31
0.0
 11
69.82762405400752
 21
-21.7993202226861
 31
0.0
  0
LWPOLYLINE
  5
7F
100
AcDbEntity
  8
0
  6
HIDDEN
 62
     8
 48
0.5
100
AcDbPolyline
 90
        8
 70
     0
 43
0.0
 10
70.256795
 20
-22.113072
 10
70.189885
 20
-22.046163
 10
70.087628
 20
-21.984715
 10
69.952189
 20
-21.930026
 10
69.786433
 20
-21.883256
 10
69.593869
 20
-21.845394
 10
69.378571
 20
-21.81724
 10
69.145097
 20
-21.799391
  0
LWPOLYLINE
  5
80
100
AcDbEntity
  8
0
  6
HIDDEN
 62
     8
 48
0.5
100
AcDbPolyline
 90
        3
 70
     0
 43
0.0
 10
69.210919
 20
-22.204219
 10
69.194017
 20
-22.169049
 10
69.164901
 20
-22.049167
  0
LINE
  5
81
100
AcDbEntity
  8
0
  6
HIDDEN
 62
     8
 48
0.5
100
AcDbLine
 10
69.23345
 20
-21.815312
 30
0.0
 11
69.178227
 21
-21.975459
 31
0.0
  0
SPLINE
  5
82
100
AcDbEntity
  8
0
  6
HIDDEN
 62
     8
 48
0.5
100
AcDbSpline
210
0.0
220
0.0
230
1.0
 70
     8
 71
     3
 72
    10
 73
     6
 74
     4
 42
0.0000001
 43
0.0000001
 44
0.0000000001
 40
0.0
 40
0.0
 40
0.0
 40
0.0
 40
0.2612363485075264
 40
0.514017718087225
 40
0.7507524181583241
 40
0.7507524181583241
 40
0.7507524181583241
 40
0.7507524181583241
 10
68.57478130840752
 20
-22.60391195281943
 30
0.0
 10
68.66137580252708
 20
-22.59468856907192
 30
0.0
 10
68.83176213858082
 20
-22.57654031866946
 30
0.0
 10
69.07922012589264
 20
-22.53821774058783
 30
0.0
 10
69.23885558119231
 20
-22.50432888492297
 30
0.0
 10
69.31605682947417
 20
-22.48793990695276
 30
0.0
 11
68.57478130840752
 21
-22.60391195281943
 31
0.0
 11
68.83431702254085
 21
-22.57415220028609
 31
0.0
 11
69.08405185347419
 21
-22.53502503548609
 31
0.0
 11
69.31605682947417
 21
-22.48793990695276
 31
0.0
  0
SPLINE
  5
83
100
AcDbEntity
  8
0
  6
HIDDEN
 62
     8
 48
0.5
100
AcDbSpline
210
0.0628234862071801
220
0.9980246537940717
230
0.0
 70
    24
 71
     3
 72
     8
 73
     4
 74
     2
 42
0.0000001
 43
0.0000001
 44
0.0000000001
 40
0.0
 40
0.0
 40
0.0
 40
0.0
 40
0.2034696210773554
 40
0.2034696210773554
 40
0.2034696210773554
 40
0.2034696210773554
 10
69.17673581507418
 20
-21.97573446908609
 30
0.0
 10
69.24442504778529
 20
-21.9799953593972
 30
0.0
 10
69.3121142804964
 20
-21.98425624970832
 30
0.0
 10
69.37980351320752
 20
-21.98851714001943
 30
0.0
 11
69.17673581507418
 21
-21.97573446908609
 31
0.0
 11
69.37980351320752
 21
-21.98851714001943
 31
0.0
  0
SPLINE
  5
84
100
AcDbEntity
  8
0
  6
HIDDEN
 62
     8
 48
0.5
100
AcDbSpline
210
0.0
220
0.0
230
-1.0
 70
     8
 71
     3
 72
    19
 73
    15
 74
    13
 42
0.0000001
 43
0.0000001
 44
0.0000000001
 40
0.0
 40
0.0
 40
0.0
 40
0.0
 40
0.068836611456665
 40
0.139923027612451
 40
0.2070019359071574
 40
0.2652778474378076
 40
0.3134624188366859
 40
0.3529525712244932
 40
0.3851493659009093
 40
0.4114359810580696
 40
0.4321637397758951
 40
0.4480217262567569
 40
0.462497654701506
 40
0.4848683754819579
 40
0.4848683754819579
 40
0.4848683754819579
 40
0.4848683754819579
 10
69.18171555160751
 20
-23.2079193490861
 30
0.0
 10
69.18026247900342
 20
-23.18501354975562
 30
0.0
 10
69.17730884264911
 20
-23.13845331495643
 30
0.0
 10
69.16793304096758
 20
-23.07003567112972
 30
0.0
 10
69.15593680935924
 20
-23.00564303736467
 30
0.0
 10
69.14248220750831
 20
-22.94935714981392
 30
0.0
 10
69.12907323742979
 20
-22.90257966349034
 30
0.0
 10
69.11654072921471
 20
-22.86462153529895
 30
0.0
 10
69.10540559583117
 20
-22.8339415522593
 30
0.0
 10
69.09595431942893
 20
-22.80922112491175
 30
0.0
 10
69.08933151116478
 20
-22.78949620331961
 30
0.0
 10
69.08525105263335
 20
-22.7724854515704
 30
0.0
 10
69.09304845572797
 20
-22.75489833233149
 30
0.0
 10
69.10527382763731
 20
-22.75081221690277
 30
0.0
 10
69.11269622254085
 20
-22.74833141201943
 30
0.0
 11
69.18171555160751
 21
-23.2079193490861
 31
0.0
 11
69.17653733507418
 21
-23.13927777895276
 31
0.0
 11
69.16717458947417
 21
-23.06881064081943
 31
0.0
 11
69.15480830360753
 21
-23.00288147495276
 31
0.0
 11
69.14124228654083
 21
-22.9462065682861
 31
0.0
 11
69.12793876867417
 21
-22.8998949138861
 31
0.0
 11
69.1155801436075
 21
-22.8623884274861
 31
0.0
 11
69.10463349934085
 21
-22.83210964668609
 31
0.0
 11
69.09549652120751
 21
-22.80746209575276
 31
0.0
 11
69.08911711747419
 21
-22.78774045308609
 31
0.0
 11
69.08702960600752
 21
-22.77202046481944
 31
0.0
 11
69.09292601454083
 21
-22.75879984188609
 31
0.0
 11
69.11269622254085
 21
-22.74833141201943
 31
0.0
  0
LINE
  5
85
100
AcDbEntity
  8
0
  6
HIDDEN
 62
     8
 48
0.5
100
AcDbLine
 10
68.574782
 20
-22.603919
 30
0.0
 11
68.573745
 21
-22.604176
 31
0.0
  0
LINE
  5
86
100
AcDbEntity
  8
0
  6
HIDDEN
 62
     8
 48
0.5
100
AcDbLine
 10
69.176736
 20
-21.975726
 30
0.0
 11
69.178227
 21
-21.975459
 31
0.0
  0
LINE
  5
87
100
AcDbEntity
  8
0
  6
HIDDEN
 62
     8
 48
0.5
100
AcDbLine
 10
69.112696
 20
-22.748331
 30
0.0
 11
68.518522
 21
-22.764323
 31
0.0
  0
LINE
  5
88
100
AcDbEntity
  8
0
  6
HIDDEN
 62
     8
 48
0.5
100
AcDbLine
 10
68.572005
 20
-22.918652
 30
0.0
 11
69.068704
 21
-22.905284
 31
0.0
  0
LWPOLYLINE
  5
89
100
AcDbEntity
  8
0
  6
HIDDEN
 62
     8
 48
0.5
100
AcDbPolyline
 90
        8
 70
     0
 43
0.0
 10
68.572008
 20
-22.918654
 10
68.572665
 20
-22.918709
 10
68.578257
 20
-22.924911
 10
68.583851
 20
-22.941084
 10
68.589203
 20
-22.966523
 10
68.594079
 20
-23.000114
 10
68.598267
 20
-23.04039
 10
68.601582
 20
-23.08559
  0
LWPOLYLINE
  5
8A
100
AcDbEntity
  8
0
  6
HIDDEN
 62
     8
 48
0.5
100
AcDbPolyline
 90
        7
 70
     0
 43
0.0
 10
69.0687
 20
-22.905293
 10
69.072946
 20
-22.908159
 10
69.078966
 20
-22.922111
 10
69.084788
 20
-22.946973
 10
69.090119
 20
-22.9815
 10
69.094694
 20
-23.023959
 10
69.098281
 20
-23.072222
  0
LWPOLYLINE
  5
8B
100
AcDbEntity
  8
0
  6
HIDDEN
 62
     8
 48
0.5
100
AcDbPolyline
 90
        4
 70
     0
 43
0.0
 10
68.551539
 20
-22.278923
 10
68.578741
 20
-22.303036
 10
68.605883
 20
-22.390533
 10
68.630965
 20
-22.534886
  0
LINE
  5
8C
100
AcDbEntity
  8
0
  6
HIDDEN
 62
     8
 48
0.5
100
AcDbLine
 10
69.164901
 20
-22.049167
 30
0.0
 11
69.139217
 21
-21.866025
 31
0.0
  0
LINE
  5
8D
100
AcDbEntity
  8
0
  6
HIDDEN
 62
     8
 48
0.5
100
AcDbLine
 10
68.518308
 20
-22.268661
 30
0.0
 11
68.494903
 21
-23.140973
 31
0.0
  0
LWPOLYLINE
  5
8E
100
AcDbEntity
  8
0
  6
HIDDEN
 62
     8
 48
0.5
100
AcDbPolyline
 90
       10
 70
     0
 43
0.0
 10
69.051745
 20
-23.207177
 10
69.049324
 20
-23.15553
 10
69.048192
 20
-23.10309
 10
69.048404
 20
-23.052485
 10
69.049951
 20
-23.006254
 10
69.052755
 20
-22.966714
 10
69.056674
 20
-22.935848
 10
69.061513
 20
-22.915205
 10
69.067029
 20
-22.905818
 10
69.0687
 20
-22.905293
  0
LWPOLYLINE
  5
8F
100
AcDbEntity
  8
0
  6
HIDDEN
 62
     8
 48
0.5
100
AcDbPolyline
 90
       10
 70
     0
 43
0.0
 10
68.555046
 20
-23.220545
 10
68.552747
 20
-23.172395
 10
68.551566
 20
-23.123401
 10
68.551555
 20
-23.075703
 10
68.552712
 20
-23.031387
 10
68.554989
 20
-22.992388
 10
68.558285
 20
-22.960412
 10
68.562456
 20
-22.936856
 10
68.56732
 20
-22.922749
 10
68.572008
 20
-22.918654
  0
LINE
  5
90
100
AcDbEntity
  8
0
  6
HIDDEN
 62
     8
 48
0.5
100
AcDbLine
 10
68.636573
 20
-23.27411
 30
0.0
 11
68.606875
 21
-22.780244
 31
0.0
  0
LINE
  5
91
100
AcDbEntity
  8
0
  6
HIDDEN
 62
     8
 48
0.5
100
AcDbLine
 10
68.518522
 20
-22.764323
 30
0.0
 11
68.573745
 21
-22.604176
 31
0.0
  0
LWPOLYLINE
  5
92
100
AcDbEntity
  8
0
  6
HIDDEN
 62
     8
 48
0.5
100
AcDbPolyline
 90
        8
 70
     0
 43
0.0
 10
68.518522
 20
-22.764323
 10
68.510784
 20
-22.797335
 10
68.504516
 20
-22.846694
 10
68.500033
 20
-22.909924
 10
68.497559
 20
-22.983855
 10
68.497219
 20
-23.064779
 10
68.49903
 20
-23.148639
 10
68.502901
 20
-23.231229
  0
SPLINE
  5
93
100
AcDbEntity
  8
0
  6
HIDDEN
 62
     8
 48
0.5
100
AcDbSpline
210
0.0
220
0.0
230
-1.0
 70
     8
 71
     3
 72
     9
 73
     5
 74
     3
 42
0.0000001
 43
0.0000001
 44
0.0000000001
 40
0.0
 40
0.0
 40
0.0
 40
0.0
 40
0.0848780243214625
 40
0.1486053863571299
 40
0.1486053863571299
 40
0.1486053863571299
 40
0.1486053863571299
 10
68.51462192707419
 20
-22.2711517074861
 30
0.0
 10
68.52331585373713
 20
-22.24364485204222
 30
0.0
 10
68.53853727696225
 20
-22.19548554445482
 30
0.0
 10
68.57441883080176
 20
-22.16033956238944
 30
0.0
 10
68.58980613827418
 20
-22.1452676946861
 30
0.0
 11
68.51462192707419
 21
-22.2711517074861
 31
0.0
 11
68.54744362307418
 21
-22.19287645415275
 31
0.0
 11
68.58980613827418
 21
-22.1452676946861
 31
0.0
  0
SPLINE
  5
94
100
AcDbEntity
  8
0
  6
HIDDEN
 62
     8
 48
0.5
100
AcDbSpline
210
0.0
220
0.0
230
1.0
 70
     8
 71
     3
 72
    15
 73
    11
 74
     9
 42
0.0000001
 43
0.0000001
 44
0.0000000001
 40
0.0
 40
0.0
 40
0.0
 40
0.0
 40
0.0170349673313128
 40
0.0259531321383834
 40
0.0297568203190906
 40
0.0343493886339051
 40
0.0397771024726963
 40
0.0456159439164339
 40
0.0515856205209267
 40
0.0578031605835659
 40
0.0578031605835659
 40
0.0578031605835659
 40
0.0578031605835659
 10
68.51830796760751
 20
-22.26866089361943
 30
0.0
 10
68.51885535798515
 20
-22.27396076937036
 30
0.0
 10
68.51968931877448
 20
-22.28203524189535
 30
0.0
 10
68.52191292061734
 20
-22.29396267781
 30
0.0
 10
68.52845909197364
 20
-22.29435364142303
 30
0.0
 10
68.53226141911537
 20
-22.29156446323554
 30
0.0
 10
68.5364326249137
 20
-22.28837360663209
 30
0.0
 10
68.54092812491623
 20
-22.28478593883788
 30
0.0
 10
68.54588324805362
 20
-22.2813415428595
 30
0.0
 10
68.549628248499
 20
-22.2797399083072
 30
0.0
 10
68.5515388316075
 20
-22.27892280401943
 30
0.0
 11
68.51830796760751
 21
-22.26866089361943
 31
0.0
 11
68.52042637827418
 21
-22.28556362855275
 31
0.0
 11
68.52419157080752
 21
-22.2936479954861
 31
0.0
 11
68.52798331054083
 21
-22.29394924881944
 31
0.0
 11
68.53200637294083
 21
-22.2917341522861
 31
0.0
 11
68.53631874094083
 21
-22.28843816081943
 31
0.0
 11
68.54093462147417
 21
-22.28486244881943
 31
0.0
 11
68.54590986307417
 21
-22.28156335655277
 31
0.0
 11
68.5515388316075
 21
-22.27892280401943
 31
0.0
  0
SPLINE
  5
95
100
AcDbEntity
  8
0
  6
HIDDEN
 62
     8
 48
0.5
100
AcDbSpline
210
-0.9996295452171189
220
0.0272171330050781
230
0.0
 70
    24
 71
     3
 72
     8
 73
     4
 74
     2
 42
0.0000001
 43
0.0000001
 44
0.0000000001
 40
0.0
 40
0.0
 40
0.0
 40
0.0
 40
0.0900034253994157
 40
0.0900034253994157
 40
0.0900034253994157
 40
0.0900034253994157
 10
68.49490338200752
 20
-23.14097348241943
 30
0.0
 10
68.49408683694085
 20
-23.17096351015276
 30
0.0
 10
68.49327029187418
 20
-23.20095353788609
 30
0.0
 10
68.49245374680752
 20
-23.23094356561943
 30
0.0
 11
68.49490338200752
 21
-23.14097348241943
 31
0.0
 11
68.49245374680752
 21
-23.23094356561943
 31
0.0
  0
SPLINE
  5
96
100
AcDbEntity
  8
0
  6
HIDDEN
 62
     8
 48
0.5
100
AcDbSpline
210
0.0
220
0.0
230
1.0
 70
     8
 71
     3
 72
     9
 73
     5
 74
     3
 42
0.0000001
 43
0.0000001
 44
0.0000000001
 40
0.0
 40
0.0
 40
0.0
 40
0.0
 40
0.027734770367523
 40
0.1143351079683162
 40
0.1143351079683162
 40
0.1143351079683162
 40
0.1143351079683162
 10
68.20967911320753
 20
-21.61932942055276
 30
0.0
 10
68.20151241305653
 20
-21.61498875108274
 30
0.0
 10
68.16784562832623
 20
-21.59709457327152
 30
0.0
 10
68.13640844310818
 20
-21.57544674251967
 30
0.0
 10
68.11259711427419
 20
-21.55905012135276
 30
0.0
 11
68.20967911320753
 21
-21.61932942055276
 31
0.0
 11
68.18531020760753
 21
-21.60608653841942
 31
0.0
 11
68.11259711427419
 21
-21.55905012135276
 31
0.0
  0
SPLINE
  5
97
100
AcDbEntity
  8
0
  6
HIDDEN
 62
     8
 48
0.5
100
AcDbSpline
210
0.0
220
0.0
230
1.0
 70
     8
 71
     3
 72
     9
 73
     5
 74
     3
 42
0.0000001
 43
0.0000001
 44
0.0000000001
 40
0.0
 40
0.0
 40
0.0
 40
0.0
 40
0.1086381449536982
 40
0.2232855778263332
 40
0.2232855778263332
 40
0.2232855778263332
 40
0.2232855778263332
 10
68.42263406574085
 20
-21.68262212988609
 30
0.0
 10
68.38654580335997
 20
-21.67762797335558
 30
0.0
 10
68.31237306668544
 20
-21.66736340995435
 30
0.0
 10
68.24451914885078
 20
-21.63562547154859
 30
0.0
 10
68.20967911320753
 20
-21.61932942055276
 30
0.0
 11
68.42263406574085
 21
-21.68262212988609
 31
0.0
 11
68.31586509827417
 21
-21.66255638481943
 31
0.0
 11
68.20967911320753
 21
-21.61932942055276
 31
0.0
  0
SPLINE
  5
98
100
AcDbEntity
  8
0
  6
HIDDEN
 62
     8
 48
0.5
100
AcDbSpline
210
0.0
220
0.0
230
1.0
 70
     8
 71
     3
 72
    12
 73
     8
 74
     6
 42
0.0000001
 43
0.0000001
 44
0.0000000001
 40
0.0
 40
0.0
 40
0.0
 40
0.0
 40
0.1073647398326767
 40
0.2071427963318162
 40
0.3013642783580356
 40
0.3924810690060976
 40
0.4423487062014931
 40
0.4423487062014931
 40
0.4423487062014931
 40
0.4423487062014931
 10
68.83184700334084
 20
-21.54257241041943
 30
0.0
 10
68.80277696874411
 20
-21.56353355257733
 30
0.0
 10
68.74669106693672
 20
-21.60397466581118
 30
0.0
 10
68.65585798019155
 20
-21.64815166138008
 30
0.0
 10
68.56463453454495
 20
-21.67595389453631
 30
0.0
 10
68.48622205512853
 20
-21.68569632236258
 30
0.0
 10
68.43924893854363
 20
-21.68342538404556
 30
0.0
 10
68.42263406574085
 20
-21.68262212988609
 30
0.0
 11
68.83184700334084
 21
-21.54257241041943
 31
0.0
 11
68.74293145774084
 21
-21.60274892668609
 31
0.0
 11
68.65323148227417
 21
-21.64644761041943
 31
0.0
 11
68.56299806254082
 21
-21.67356988241943
 31
0.0
 11
68.47248218627419
 21
-21.68401716348609
 31
0.0
 11
68.42263406574085
 21
-21.68262212988609
 31
0.0
  0
SPLINE
  5
99
100
AcDbEntity
  8
0
  6
HIDDEN
 62
     8
 48
0.5
100
AcDbSpline
210
0.0
220
0.0
230
1.0
 70
     8
 71
     3
 72
    11
 73
     7
 74
     5
 42
0.0000001
 43
0.0000001
 44
0.0000000001
 40
0.0
 40
0.0
 40
0.0
 40
0.0
 40
0.1448165146334307
 40
0.2911383035646813
 40
0.3398371484468986
 40
0.3901103033043991
 40
0.3901103033043991
 40
0.3901103033043991
 40
0.3901103033043991
 10
68.54639039427417
 20
-21.76413733415277
 30
0.0
 10
68.59281680368788
 20
-21.74963735829728
 30
0.0
 10
68.68615219510733
 20
-21.72048668868627
 30
0.0
 10
68.77607343322899
 20
-21.64743780554313
 30
0.0
 10
68.83124730288762
 20
-21.58714457374788
 30
0.0
 10
68.85105798251763
 20
-21.56072719977064
 30
0.0
 10
68.86112088280751
 20
-21.54730840721942
 30
0.0
 11
68.54639039427417
 21
-21.76413733415277
 31
0.0
 11
68.68163667267419
 21
-21.71236603815277
 31
0.0
 11
68.79754930947417
 21
-21.62306695335276
 31
0.0
 11
68.8302997660075
 21
-21.58702551761943
 31
0.0
 11
68.86112088280751
 21
-21.54730840721942
 31
0.0
  0
SPLINE
  5
9A
100
AcDbEntity
  8
0
  6
HIDDEN
 62
     8
 48
0.5
100
AcDbSpline
210
0.0
220
0.0
230
1.0
 70
     8
 71
     3
 72
     9
 73
     5
 74
     3
 42
0.0000001
 43
0.0000001
 44
0.0000000001
 40
0.0
 40
0.0
 40
0.0
 40
0.0
 40
0.102047398666887
 40
0.2030102599705375
 40
0.2030102599705375
 40
0.2030102599705375
 40
0.2030102599705375
 10
68.34437242200749
 20
-21.77297533095277
 30
0.0
 10
68.37842142015474
 20
-21.77600466884839
 30
0.0
 10
68.44615755116746
 20
-21.78203114950115
 30
0.0
 10
68.51309865257597
 20
-21.77008065831787
 30
0.0
 10
68.54639039427417
 20
-21.76413733415277
 30
0.0
 11
68.34437242200749
 21
-21.77297533095277
 31
0.0
 11
68.44631852974083
 21
-21.77752095441943
 31
0.0
 11
68.54639039427417
 21
-21.76413733415277
 31
0.0
  0
SPLINE
  5
9B
100
AcDbEntity
  8
0
  6
HIDDEN
 62
     8
 48
0.5
100
AcDbSpline
210
0.0
220
0.0
230
1.0
 70
     8
 71
     3
 72
    11
 73
     7
 74
     5
 42
0.0000001
 43
0.0000001
 44
0.0000000001
 40
0.0
 40
0.0
 40
0.0
 40
0.0
 40
0.0350670134876183
 40
0.200355237519772
 40
0.2799232815092655
 40
0.3592858199749386
 40
0.3592858199749386
 40
0.3592858199749386
 40
0.3592858199749386
 10
68.0229344924075
 20
-21.62311449681943
 30
0.0
 10
68.03187756620108
 20
-21.63063916523752
 30
0.0
 10
68.08297378158595
 20
-21.67363132733587
 30
0.0
 10
68.16392971651123
 20
-21.7225266674562
 30
0.0
 10
68.26595079765994
 20
-21.75947580099714
 30
0.0
 10
68.31825442432981
 20
-21.76847936832811
 30
0.0
 10
68.34437242200749
 20
-21.77297533095277
 30
0.0
 11
68.0229344924075
 21
-21.62311449681943
 31
0.0
 11
68.04997349294083
 21
-21.64544357841942
 31
0.0
 11
68.1915613564075
 21
-21.73072589735276
 31
0.0
 11
68.26659028654086
 21
-21.7572161458861
 31
0.0
 11
68.34437242200749
 21
-21.77297533095277
 31
0.0
  0
SPLINE
  5
9C
100
AcDbEntity
  8
0
  6
HIDDEN
 62
     8
 48
0.5
100
AcDbSpline
210
0.0
220
0.0
230
1.0
 70
     8
 71
     3
 72
    15
 73
    11
 74
     9
 42
0.0000001
 43
0.0000001
 44
0.0000000001
 40
0.0
 40
0.0
 40
0.0
 40
0.0
 40
0.0386619624356925
 40
0.074322538352488
 40
0.1058636492638334
 40
0.1324543502951442
 40
0.1535121472452709
 40
0.1687183529809283
 40
0.1780778084736008
 40
0.1821020962532624
 40
0.1821020962532624
 40
0.1821020962532624
 40
0.1821020962532624
 10
68.60687529027416
 20
-22.78024388455276
 30
0.0
 10
68.60602825821519
 20
-22.76738295802203
 30
0.0
 10
68.60439995047492
 20
-22.74265951810562
 30
0.0
 10
68.60106229171286
 20
-22.70753679109059
 30
0.0
 10
68.59729454939142
 20
-22.67645806052415
 30
0.0
 10
68.59307563173368
 20
-22.65049963115308
 30
0.0
 10
68.58883669846344
 20
-22.62969257093048
 30
0.0
 10
68.58408141614336
 20
-22.61581504078287
 30
0.0
 10
68.58043536516551
 20
-22.60589945517953
 30
0.0
 10
68.57608890616858
 20
-22.6044157333714
 30
0.0
 10
68.57478199214085
 20
-22.60396960081943
 30
0.0
 11
68.60687529027416
 21
-22.78024388455276
 31
0.0
 11
68.60414073560753
 21
-22.74167875068609
 31
0.0
 11
68.60076885614086
 21
-22.70617794641943
 31
0.0
 11
68.59687141187419
 21
-22.67487855975276
 31
0.0
 11
68.59257067694085
 21
-22.6486379602861
 31
0.0
 11
68.58799221934083
 21
-22.62808392081943
 31
0.0
 11
68.58325269827417
 21
-22.61363519655277
 31
0.0
 11
68.57846408067416
 21
-22.60559352081943
 31
0.0
 11
68.57478199214085
 21
-22.60396960081943
 31
0.0
  0
SPLINE
  5
9D
100
AcDbEntity
  8
0
  6
HIDDEN
 62
     8
 48
0.5
100
AcDbSpline
210
0.0
220
0.0
230
-1.0
 70
     8
 71
     3
 72
    15
 73
    11
 74
     9
 42
0.0000001
 43
0.0000001
 44
0.0000000001
 40
0.0
 40
0.0
 40
0.0
 40
0.0
 40
0.0386619634242446
 40
0.0743225383800251
 40
0.1058636503498485
 40
0.1324543513811592
 40
0.1535121470582122
 40
0.1687183531263408
 40
0.1780778080732555
 40
0.1816888149334596
 40
0.1816888149334596
 40
0.1816888149334596
 40
0.1816888149334596
 10
69.14509694254085
 20
-21.79939113041942
 30
0.0
 10
69.14594399409589
 20
-21.81225197570693
 30
0.0
 10
69.14757233927378
 20
-21.83697525882089
 30
0.0
 10
69.15090973785787
 20
-21.87209905140125
 30
0.0
 10
69.15467830756075
 20
-21.90317442205294
 30
0.0
 10
69.15889483337633
 20
-21.9291425566199
 30
0.0
 10
69.16314006317728
 20
-21.9499240683584
 30
0.0
 10
69.16788082764068
 20
-21.96386049163007
 30
0.0
 10
69.1715006781834
 20
-21.97352523313311
 30
0.0
 10
69.17560402390765
 20
-21.97517893616609
 30
0.0
 10
69.17674640494084
 20
-21.97563933095276
 30
0.0
 11
69.14509694254085
 21
-21.79939113041942
 31
0.0
 11
69.14783149614084
 21
-21.83795626535276
 31
0.0
 11
69.15120337667417
 21
-21.87345706855277
 31
0.0
 11
69.15510082094084
 21
-21.9047564562861
 31
0.0
 11
69.15940155587418
 21
-21.93099705575276
 31
0.0
 11
69.1639800124075
 21
-21.95155109415277
 31
0.0
 11
69.16871953454085
 21
-21.96599981841942
 31
0.0
 11
69.17350815107417
 21
-21.97404149415276
 31
0.0
 11
69.17674640494084
 21
-21.97563933095276
 31
0.0
  0
LINE
  5
9E
100
AcDbEntity
  8
0
  6
HIDDEN
 62
     8
 48
0.5
100
AcDbLine
 10
69.676667
 20
-21.647615
 30
0.0
 11
69.179968
 21
-21.660983
 31
0.0
  0
LWPOLYLINE
  5
A1
100
AcDbEntity
  8
0
  6
HIDDEN
 62
     8
 48
0.5
100
AcDbPolyline
 90
        6
 70
     0
 43
0.0
 10
69.302357
 20
-21.678643
 10
69.293109
 20
-21.902058
 10
69.275832
 20
-22.075245
 10
69.252077
 20
-22.182732
 10
69.223967
 20
-22.214948
 10
69.210919
 20
-22.204219
  0
SPLINE
  5
AA
100
AcDbEntity
  8
0
  6
HIDDEN
 62
     8
 48
0.5
100
AcDbSpline
210
0.0
220
0.0
230
1.0
 70
     8
 71
     3
 72
    11
 73
     7
 74
     5
 42
0.0000001
 43
0.0000001
 44
0.0000000001
 40
0.0
 40
0.0
 40
0.0
 40
0.0
 40
0.0691952905128488
 40
0.1650253918674318
 40
0.2976004335582485
 40
0.4722108843191845
 40
0.4722108843191845
 40
0.4722108843191845
 40
0.4722108843191845
 10
70.31193976600753
 20
-21.84632878801944
 30
0.0
 10
70.30994219431794
 20
-21.86954540450471
 30
0.0
 10
70.30517814103608
 20
-21.92491523104814
 30
0.0
 10
70.25271081704724
 20
-22.01224310259479
 30
0.0
 10
70.16529346244073
 20
-22.11416667312446
 30
0.0
 10
70.08473246548106
 20
-22.17796535662188
 30
0.0
 10
70.03893996440751
 20
-22.21422981948609
 30
0.0
 11
70.31193976600753
 21
-21.84632878801944
 31
0.0
 11
70.30166949294084
 21
-21.91475765415277
 31
0.0
 11
70.25755632814085
 21
-21.99983078161943
 31
0.0
 11
70.17181667267417
 21
-22.10094879761943
 31
0.0
 11
70.03893996440751
 21
-22.21422981948609
 31
0.0
  0
SPLINE
  5
AC
100
AcDbEntity
  8
0
  6
HIDDEN
 62
     8
 48
0.5
100
AcDbSpline
210
0.0
220
0.0
230
1.0
 70
     8
 71
     3
 72
    11
 73
     7
 74
     5
 42
0.0000001
 43
0.0000001
 44
0.0000000001
 40
0.0
 40
0.0
 40
0.0
 40
0.0
 40
0.1892173708628051
 40
0.3478756608432094
 40
0.4726139466649227
 40
0.5618021413681001
 40
0.5618021413681001
 40
0.5618021413681001
 40
0.5618021413681001
 10
69.52476401347417
 20
-22.43455210535277
 30
0.0
 10
69.58518113984155
 20
-22.41632101367126
 30
0.0
 10
69.69625787484464
 20
-22.3828031974281
 30
0.0
 10
69.84268770710054
 20
-22.32448683586817
 30
0.0
 10
69.95509864603545
 20
-22.27080281639881
 30
0.0
 10
70.01427056883466
 20
-22.2308758082024
 30
0.0
 10
70.03893996440751
 20
-22.21422981948609
 30
0.0
 11
69.52476401347417
 21
-22.43455210535277
 31
0.0
 11
69.70504070147416
 21
-22.37707576935276
 31
0.0
 11
69.85247552280751
 21
-22.31846325841943
 31
0.0
 11
69.96399823640752
 21
-22.2625854962861
 31
0.0
 11
70.03893996440751
 21
-22.21422981948609
 31
0.0
  0
SPLINE
  5
B2
100
AcDbEntity
  8
0
  6
HIDDEN
 62
     8
 48
0.5
100
AcDbSpline
210
-0.2324587267496952
220
0.9726062617307739
230
0.0
 70
    24
 71
     3
 72
     8
 73
     4
 74
     2
 42
0.0000001
 43
0.0000001
 44
0.0000000001
 40
0.0
 40
0.0
 40
0.0
 40
0.0
 40
0.0879648421288213
 40
0.0879648421288213
 40
0.0879648421288213
 40
0.0879648421288213
 10
69.31605682947417
 20
-22.48793990695276
 30
0.0
 10
69.3445752148964
 20
-22.4811238418861
 30
0.0
 10
69.37309360031861
 20
-22.47430777681942
 30
0.0
 10
69.40161198574083
 20
-22.46749171175276
 30
0.0
 11
69.31605682947417
 21
-22.48793990695276
 31
0.0
 11
69.40161198574083
 21
-22.46749171175276
 31
0.0
  0
SPLINE
  5
B3
100
AcDbEntity
  8
0
  6
HIDDEN
 62
     8
 48
0.5
100
AcDbSpline
210
0.0
220
0.0
230
-1.0
 70
     8
 71
     3
 72
    16
 73
    12
 74
    10
 42
0.0000001
 43
0.0000001
 44
0.0000000001
 40
0.0
 40
0.0
 40
0.0
 40
0.0
 40
0.0235889526932442
 40
0.2360135611769834
 40
0.4266563142591511
 40
0.59156362468456
 40
0.7274211771311954
 40
0.8319347302143377
 40
0.9045106838302084
 40
0.9465971075911125
 40
0.9606885613283516
 40
0.9606885613283516
 40
0.9606885613283516
 40
0.9606885613283516
 10
69.37980351320752
 20
-21.98851714001943
 30
0.0
 10
69.3876388458657
 20
-21.98917549009687
 30
0.0
 10
69.46603337179958
 20
-21.99576245257456
 30
0.0
 10
69.60747170558758
 20
-22.01125940482487
 30
0.0
 10
69.79447656574305
 20
-22.04132567487996
 30
0.0
 10
69.95451326784326
 20
-22.07688993461773
 30
0.0
 10
70.08402054885135
 20
-22.11562043642324
 30
0.0
 10
70.18136005268167
 20
-22.15392037095882
 30
0.0
 10
70.24570121783175
 20
-22.18846298809354
 30
0.0
 10
70.28153974210095
 20
-22.21280114353016
 30
0.0
 10
70.29426486544827
 20
-22.22657316134091
 30
0.0
 10
70.29745678894085
 20
-22.23002768401943
 30
0.0
 11
69.37980351320752
 21
-21.98851714001943
 31
0.0
 11
69.40330796227417
 21
-21.99051202428609
 31
0.0
 11
69.61443996760749
 21
-22.01391054161943
 31
0.0
 11
69.80258411374086
 21
-22.04467479975276
 31
0.0
 11
69.96342067480751
 21
-22.08108938001942
 31
0.0
 11
70.09338311747416
 21
-22.12067521148609
 31
0.0
 11
70.19021566040752
 21
-22.16000130215275
 31
0.0
 11
70.25395299054085
 21
-22.19471184508609
 31
0.0
 11
70.28769780227418
 21
-22.21986248615277
 31
0.0
 11
70.29745678894085
 21
-22.23002768401943
 31
0.0
  0
SPLINE
  5
B4
100
AcDbEntity
  8
0
  6
HIDDEN
 62
     8
 48
0.5
100
AcDbSpline
210
-0.9986198621148304
220
-0.0525201960178906
230
0.0
 70
    24
 71
     3
 72
     9
 73
     5
 74
     3
 42
0.0000001
 43
0.0000001
 44
0.0000000001
 40
0.0
 40
0.0
 40
0.0
 40
0.0
 40
0.0025173164468605
 40
0.0050396713889692
 40
0.0050396713889692
 40
0.0050396713889692
 40
0.0050396713889692
 10
69.18198023854086
 20
-23.21295210961943
 30
0.0
 10
69.18193145198746
 20
-23.21211441620641
 30
0.0
 10
69.18183378123273
 20
-23.21043735270826
 30
0.0
 10
69.18175499058445
 20
-23.20875929618178
 30
0.0
 10
69.18171555587417
 20
-23.20791942908609
 30
0.0
 11
69.18198023854086
 21
-23.21295210961943
 31
0.0
 11
69.18183858947418
 21
-23.21043878161944
 31
0.0
 11
69.18171555587417
 21
-23.20791942908609
 31
0.0
  0
LINE
  5
B5
100
AcDbEntity
  8
0
  6
HIDDEN
 62
     8
 48
0.5
100
AcDbLine
 10
69.770056
 20
-20.841988
 30
0.0
 11
69.175882
 21
-20.85798
 31
0.0
  0
LINE
  5
B6
100
AcDbEntity
  8
0
  6
HIDDEN
 62
     8
 48
0.5
100
AcDbLine
 10
69.664049
 20
-21.178784
 30
0.0
 11
69.167349
 21
-21.192153
 31
0.0
  0
LWPOLYLINE
  5
B7
100
AcDbEntity
  8
0
  6
HIDDEN
 62
     8
 48
0.5
100
AcDbPolyline
 90
        8
 70
     0
 43
0.0
 10
70.396974
 20
-21.367253
 10
70.320619
 20
-21.29148
 10
70.203247
 20
-21.222091
 10
70.047469
 20
-21.160628
 10
69.856748
 20
-21.108458
 10
69.635325
 20
-21.066741
 10
69.388124
 20
-21.036406
 10
69.120659
 20
-21.018126
  0
LWPOLYLINE
  5
B8
100
AcDbEntity
  8
0
  6
HIDDEN
 62
     8
 48
0.5
100
AcDbPolyline
 90
        3
 70
     0
 43
0.0
 10
69.187374
 20
-20.84213
 10
69.184703
 20
-20.842969
 10
69.175882
 20
-20.85798
  0
LWPOLYLINE
  5
B9
100
AcDbEntity
  8
0
  6
HIDDEN
 62
     8
 48
0.5
100
AcDbPolyline
 90
        8
 70
     0
 43
0.0
 10
69.196927
 20
-21.35909
 10
69.193611
 20
-21.31389
 10
69.189424
 20
-21.273614
 10
69.184548
 20
-21.240023
 10
69.179196
 20
-21.214585
 10
69.173601
 20
-21.198411
 10
69.16801
 20
-21.192209
 10
69.167353
 20
-21.192154
  0
LINE
  5
BA
100
AcDbEntity
  8
0
  6
HIDDEN
 62
     8
 48
0.5
100
AcDbLine
 10
69.102961
 20
-21.119968
 30
0.0
 11
69.107573
 21
-20.903067
 31
0.0
  0
LINE
  5
BB
100
AcDbEntity
  8
0
  6
HIDDEN
 62
     8
 48
0.5
100
AcDbLine
 10
69.106807
 20
-21.379745
 30
0.0
 11
69.102961
 21
-21.119968
 31
0.0
  0
LWPOLYLINE
  5
BC
100
AcDbEntity
  8
0
  6
HIDDEN
 62
     8
 48
0.5
100
AcDbPolyline
 90
       10
 70
     0
 43
0.0
 10
69.167353
 20
-21.192154
 10
69.162665
 20
-21.19625
 10
69.157801
 20
-21.210356
 10
69.153629
 20
-21.233912
 10
69.150333
 20
-21.265888
 10
69.148057
 20
-21.304887
 10
69.146899
 20
-21.349203
 10
69.146911
 20
-21.396901
 10
69.148092
 20
-21.445895
 10
69.15039
 20
-21.494045
  0
LINE
  5
BD
100
AcDbEntity
  8
0
  6
HIDDEN
 62
     8
 48
0.5
100
AcDbLine
 10
69.175882
 20
-20.85798
 30
0.0
 11
69.120659
 21
-21.018126
 31
0.0
  0
SPLINE
  5
BE
100
AcDbEntity
  8
0
  6
HIDDEN
 62
     8
 48
0.5
100
AcDbSpline
210
0.0
220
0.0
230
1.0
 70
     8
 71
     3
 72
    14
 73
    10
 74
     8
 42
0.0000001
 43
0.0000001
 44
0.0000000001
 40
0.0
 40
0.0
 40
0.0
 40
0.0
 40
0.0012391733365993
 40
0.0378079202974099
 40
0.0754116998532601
 40
0.1756252445932531
 40
0.2831440296307977
 40
0.3982641578834853
 40
0.5211932596701744
 40
0.5211932596701744
 40
0.5211932596701744
 40
0.5211932596701744
 10
68.94319830254085
 20
-21.40413588455276
 30
0.0
 10
68.94337058260304
 20
-21.40376047002947
 30
0.0
 10
68.94862695043082
 20
-21.39230634819202
 30
0.0
 10
68.95869801343022
 20
-21.36926852338839
 30
0.0
 10
68.98027111613275
 20
-21.31528355479326
 30
0.0
 10
69.00649146026705
 20
-21.23773681735732
 30
0.0
 10
69.03420557044658
 20
-21.13369473191413
 30
0.0
 10
69.05793737478671
 20
-21.0209044068444
 30
0.0
 10
69.06968765111502
 20
-20.94241584870595
 30
0.0
 10
69.07575551747419
 20
-20.90188419921943
 30
0.0
 11
68.94319830254085
 21
-21.40413588455276
 31
0.0
 11
68.94371492014085
 21
-21.4030095378861
 31
0.0
 11
68.9583823996075
 21
-21.3695112050861
 31
0.0
 11
68.97235301507419
 21
-21.33459894161942
 31
0.0
 11
69.00469383960751
 21
-21.23974734375276
 31
0.0
 11
69.03266170094084
 21
-21.13592977361943
 31
0.0
 11
69.05632584494083
 21
-21.02326810215276
 31
0.0
 11
69.07575551747419
 21
-20.90188419921943
 31
0.0
  0
SPLINE
  5
BF
100
AcDbEntity
  8
0
  6
HIDDEN
 62
     8
 48
0.5
100
AcDbSpline
210
0.0
220
0.0
230
-1.0
 70
     8
 71
     3
 72
    15
 73
    11
 74
     9
 42
0.0000001
 43
0.0000001
 44
0.0000000001
 40
0.0
 40
0.0
 40
0.0
 40
0.0
 40
0.0246025253047294
 40
0.0541760834007271
 40
0.0879687721245853
 40
0.1251451963440742
 40
0.1647855542481734
 40
0.2058733658923954
 40
0.2473145409733255
 40
0.2878569446088098
 40
0.2878569446088098
 40
0.2878569446088098
 40
0.2878569446088098
 10
69.12065902680751
 20
-21.01812630695275
 30
0.0
 10
69.1195251882132
 20
-21.02624989894956
 30
0.0
 10
69.11702841467115
 20
-21.04413848526666
 30
0.0
 10
69.11469984172292
 20
-21.0733825154211
 30
0.0
 10
69.11287247226351
 20
-21.10684721796514
 30
0.0
 10
69.11182075868833
 20
-21.14370654772378
 30
0.0
 10
69.11150922392188
 20
-21.18300920530687
 30
0.0
 10
69.11199745286094
 20
-21.22373137870722
 30
0.0
 10
69.11319538869381
 20
-21.26474151880713
 30
0.0
 10
69.11466980183516
 20
-21.29203045455985
 30
0.0
 10
69.11539892654085
 20
-21.30552534055277
 30
0.0
 11
69.12065902680751
 21
-21.01812630695275
 31
0.0
 11
69.11747666947417
 21
-21.04252214375276
 31
0.0
 11
69.11492601880752
 21
-21.07198550268609
 31
0.0
 11
69.11307342574085
 21
-21.1057273714861
 31
0.0
 11
69.11196772120752
 21
-21.1428873490861
 31
0.0
 11
69.11164226734084
 21
-21.18252637095276
 31
0.0
 11
69.11211340334086
 21
-21.22361148135277
 31
0.0
 11
69.11337696814084
 21
-21.26503338855275
 31
0.0
 11
69.11539892654085
 21
-21.30552534055277
 31
0.0
  0
LINE
  5
C0
100
AcDbEntity
  8
0
  6
HIDDEN
 62
     8
 48
0.5
100
AcDbLine
 10
69.769675
 20
-20.826443
 30
0.0
 11
69.187381
 21
-20.842115
 31
0.0
  0
LWPOLYLINE
  5
C1
100
AcDbEntity
  8
0
  6
HIDDEN
 62
     8
 48
0.5
100
AcDbPolyline
 90
        4
 70
     0
 43
0.0
 10
69.213101
 20
-20.908782
 10
69.203791
 20
-20.869024
 10
69.194164
 20
-20.846713
 10
69.187374
 20
-20.84213
  0
LWPOLYLINE
  5
C2
100
AcDbEntity
  8
0
  6
HIDDEN
 62
     8
 48
0.5
100
AcDbPolyline
 90
       10
 70
     0
 43
0.0
 10
69.664045
 20
-21.178794
 10
69.662374
 20
-21.179318
 10
69.656858
 20
-21.188705
 10
69.652019
 20
-21.209349
 10
69.648099
 20
-21.240214
 10
69.645296
 20
-21.279754
 10
69.643749
 20
-21.325985
 10
69.643537
 20
-21.37659
 10
69.644669
 20
-21.42903
 10
69.64709
 20
-21.480677
  0
LINE
  5
C3
100
AcDbEntity
  8
0
  6
HIDDEN
 62
     8
 48
0.5
100
AcDbLine
 10
69.92815
 20
-21.330129
 30
0.0
 11
69.913758
 21
-21.090796
 31
0.0
  0
LINE
  5
C4
100
AcDbEntity
  8
0
  6
HIDDEN
 62
     8
 48
0.5
100
AcDbLine
 10
69.249071
 20
-21.348406
 30
0.0
 11
69.234679
 21
-21.109073
 31
0.0
  0
LWPOLYLINE
  5
C5
100
AcDbEntity
  8
0
  6
HIDDEN
 62
     8
 48
0.5
100
AcDbPolyline
 90
        7
 70
     0
 43
0.0
 10
69.693626
 20
-21.345722
 10
69.690038
 20
-21.297459
 10
69.685464
 20
-21.255
 10
69.680132
 20
-21.220473
 10
69.674311
 20
-21.195611
 10
69.668291
 20
-21.18166
 10
69.664045
 20
-21.178794
  0
LWPOLYLINE
  5
C6
100
AcDbEntity
  8
0
  6
HIDDEN
 62
     8
 48
0.5
100
AcDbPolyline
 90
        4
 70
     0
 43
0.0
 10
69.234679
 20
-21.109073
 10
69.228942
 20
-21.031894
 10
69.221628
 20
-20.963995
 10
69.213101
 20
-20.908782
  0
SPLINE
  5
C7
100
AcDbEntity
  8
0
  6
HIDDEN
 62
     8
 48
0.5
100
AcDbSpline
210
0.0
220
0.0
230
1.0
 70
     8
 71
     3
 72
    11
 73
     7
 74
     5
 42
0.0000001
 43
0.0000001
 44
0.0000000001
 40
0.0
 40
0.0
 40
0.0
 40
0.0
 40
0.0277941639886483
 40
0.0762291995317312
 40
0.131446215002864
 40
0.1898837047622132
 40
0.1898837047622132
 40
0.1898837047622132
 40
0.1898837047622132
 10
69.86863159854085
 20
-20.9027536786861
 30
0.0
 10
69.87282074381744
 20
-20.91102587707392
 30
0.0
 10
69.88431003312607
 20
-20.93371348378621
 30
0.0
 10
69.89797698377684
 20
-20.97554002741947
 30
0.0
 10
69.90920474609466
 20
-21.02851937886375
 30
0.0
 10
69.91203233308692
 20
-21.06633891120071
 30
0.0
 10
69.91348618734085
 20
-21.0857844978861
 30
0.0
 11
69.86863159854085
 21
-20.9027536786861
 31
0.0
 11
69.8807252988075
 21
-20.92777882535276
 31
0.0
 11
69.89648636334084
 21
-20.97357775015276
 31
0.0
 11
69.90779084974085
 21
-21.0276252050861
 31
0.0
 11
69.91348618734085
 21
-21.0857844978861
 31
0.0
  0
SPLINE
  5
C8
100
AcDbEntity
  8
0
  6
HIDDEN
 62
     8
 48
0.5
100
AcDbSpline
210
0.0
220
0.0
230
-1.0
 70
     8
 71
     3
 72
    12
 73
     8
 74
     6
 42
0.0000001
 43
0.0000001
 44
0.0000000001
 40
0.0
 40
0.0
 40
0.0
 40
0.0
 40
0.0124160851427003
 40
0.0362122695234564
 40
0.0633629475835862
 40
0.0947587553966366
 40
0.1069704998476396
 40
0.1069704998476396
 40
0.1069704998476396
 40
0.1069704998476396
 10
69.79301610734086
 20
-20.8302877618861
 30
0.0
 10
69.79687488351524
 20
-20.83179819577215
 30
0.0
 10
69.80812923955832
 20
-20.83620346831583
 30
0.0
 10
69.82589942185345
 20
-20.84803691482618
 30
0.0
 10
69.84555906249211
 20
-20.86734332954397
 30
0.0
 10
69.85943690039604
 20
-20.88657855695825
 30
0.0
 10
69.86662004858131
 20
-20.89921500183726
 30
0.0
 10
69.86863159854085
 20
-20.9027536786861
 30
0.0
 11
69.79301610734086
 21
-20.8302877618861
 31
0.0
 11
69.80446328494085
 21
-20.83509622268609
 31
0.0
 11
69.82449520600749
 21
-20.84794069735276
 31
0.0
 11
69.84400884654085
 21
-20.86681865148609
 31
0.0
 11
69.8624895420075
 21
-20.8921989714861
 31
0.0
 11
69.86863159854085
 21
-20.9027536786861
 31
0.0
  0
SPLINE
  5
C9
100
AcDbEntity
  8
0
  6
HIDDEN
 62
     8
 48
0.5
100
AcDbSpline
210
-0.9985308049593021
220
-0.0541870053364106
230
0.0
 70
    24
 71
     3
 72
     9
 73
     5
 74
     3
 42
0.0000001
 43
0.0000001
 44
0.0000000001
 40
0.0
 40
0.0
 40
0.0
 40
0.0
 40
0.0025071828129219
 40
0.0050189665530069
 40
0.0050189665530069
 40
0.0050189665530069
 40
0.0050189665530069
 10
69.91348619160752
 20
-21.08578458428609
 30
0.0
 10
69.91352780822473
 20
-21.08661927954345
 30
0.0
 10
69.91361111782975
 20
-21.08829020180609
 30
0.0
 10
69.91370911147106
 20
-21.0899603272536
 30
0.0
 10
69.91375815320751
 20
-21.09079615548609
 30
0.0
 11
69.91348619160752
 21
-21.08578458428609
 31
0.0
 11
69.91361470574083
 21
-21.08828847121943
 31
0.0
 11
69.91375815320751
 21
-21.09079615548609
 31
0.0
  0
SPLINE
  5
CA
100
AcDbEntity
  8
0
  6
HIDDEN
 62
     8
 48
0.5
100
AcDbSpline
210
-0.9978305220917006
220
-0.0658350148644644
230
0.0
 70
    24
 71
     3
 72
     9
 73
     5
 74
     3
 42
0.0000001
 43
0.0000001
 44
0.0000000001
 40
0.0
 40
0.0
 40
0.0
 40
0.0
 40
0.002517895752166
 40
0.0050418286788586
 40
0.0050418286788586
 40
0.0050418286788586
 40
0.0050418286788586
 10
69.92815015640752
 20
-21.33012922961943
 30
0.0
 10
69.92820176221852
 20
-21.33096694458718
 30
0.0
 10
69.9283050975761
 20
-21.33264438311714
 30
0.0
 10
69.92842304136549
 20
-21.33432085786075
 30
0.0
 10
69.92848208387417
 20
-21.33516009895276
 30
0.0
 11
69.92815015640752
 21
-21.33012922961943
 31
0.0
 11
69.92830861720751
 21
-21.33264213415277
 31
0.0
 11
69.92848208387417
 21
-21.33516009895276
 31
0.0
  0
SPLINE
  5
CB
100
AcDbEntity
  8
0
  6
HIDDEN
 62
     8
 48
0.5
100
AcDbSpline
210
0.3426955631595019
220
0.9394465131080066
230
0.0
 70
    24
 71
     3
 72
     8
 73
     4
 74
     2
 42
0.0000001
 43
0.0000001
 44
0.0000000001
 40
0.0
 40
0.0
 40
0.0
 40
0.0
 40
0.2077787803170406
 40
0.2077787803170406
 40
0.2077787803170406
 40
0.2077787803170406
 10
69.79302101187418
 20
-20.83033922641943
 30
0.0
 10
69.85808669542973
 20
-20.85407418179721
 30
0.0
 10
69.92315237898529
 20
-20.87780913717499
 30
0.0
 10
69.98821806254085
 20
-20.90154409255277
 30
0.0
 11
69.79302101187418
 21
-20.83033922641943
 31
0.0
 11
69.98821806254085
 21
-20.90154409255277
 31
0.0
  0
SPLINE
  5
CC
100
AcDbEntity
  8
0
  6
HIDDEN
 62
     8
 48
0.5
100
AcDbSpline
210
0.0
220
0.0
230
-1.0
 70
     8
 71
     3
 72
     9
 73
     5
 74
     3
 42
0.0000001
 43
0.0000001
 44
0.0000000001
 40
0.0
 40
0.0
 40
0.0
 40
0.0
 40
0.0157445476926538
 40
0.02388538654144
 40
0.02388538654144
 40
0.02388538654144
 40
0.02388538654144
 10
69.76950381294085
 20
-20.82653090855277
 30
0.0
 10
69.77477808205231
 20
-20.82677922641222
 30
0.0
 10
69.78277945236223
 20
-20.82715593892084
 30
0.0
 10
69.7904140224084
 20
-20.82949167474962
 30
0.0
 10
69.79301610734086
 20
-20.8302877618861
 30
0.0
 11
69.76950381294085
 21
-20.82653090855277
 31
0.0
 11
69.78516724334085
 21
-20.82812706961943
 31
0.0
 11
69.79301610734086
 21
-20.8302877618861
 31
0.0
  0
SPLINE
  5
CD
100
AcDbEntity
  8
0
  6
HIDDEN
 62
     8
 48
0.5
100
AcDbSpline
210
0.0
220
0.0
230
1.0
 70
     8
 71
     3
 72
    11
 73
     7
 74
     5
 42
0.0000001
 43
0.0000001
 44
0.0000000001
 40
0.0
 40
0.0
 40
0.0
 40
0.0
 40
0.0150171588924077
 40
0.0209590738951365
 40
0.0325438605548042
 40
0.0335498736702364
 40
0.0335498736702364
 40
0.0335498736702364
 40
0.0335498736702364
 10
69.77005604440751
 20
-20.8419879282861
 30
0.0
 10
69.7640973524163
 20
-20.84094094816692
 30
0.0
 10
69.75578095471039
 20
-20.83947970414319
 30
0.0
 10
69.75648384785603
 20
-20.82605409242466
 30
0.0
 10
69.76502341816587
 20
-20.82633276198757
 30
0.0
 10
69.76917231349741
 20
-20.82651624790804
 30
0.0
 10
69.76950381294085
 20
-20.82653090855277
 30
0.0
 11
69.77005604440751
 21
-20.8419879282861
 31
0.0
 11
69.75668175960752
 21
-20.8351583186861
 31
0.0
 11
69.75724668014084
 21
-20.82924331921943
 31
0.0
 11
69.76849876334085
 21
-20.82648688935277
 31
0.0
 11
69.76950381294085
 21
-20.82653090855277
 31
0.0
  0
SPLINE
  5
DE
100
AcDbEntity
  8
0
100
AcDbSpline
210
0.0
220
0.0
230
-1.0
 70
     8
 71
     3
 72
    19
 73
    15
 74
    13
 42
0.0000001
 43
0.0000001
 44
0.0000000001
 40
0.0
 40
0.0
 40
0.0
 40
0.0
 40
0.342358599927468
 40
0.6841529757777654
 40
1.025587605570823
 40
1.367804539885639
 40
1.710184028710806
 40
2.054298301115119
 40
2.398591974349046
 40
2.743756390350675
 40
3.08717234290308
 40
3.430320039940018
 40
3.771584800178701
 40
4.111568594747399
 40
4.111568594747399
 40
4.111568594747399
 40
4.111568594747399
 10
80.76227404709319
 20
-24.21556738641942
 30
0.0
 10
80.64783129993873
 20
-24.20687641167939
 30
0.0
 10
80.41913441299481
 20
-24.18950878535989
 30
0.0
 10
80.09961448881105
 20
-24.05225262364091
 30
0.0
 10
79.82506636860897
 20
-23.84352211377288
 30
0.0
 10
79.61394703840547
 20
-23.56911648100234
 30
0.0
 10
79.48051827849258
 20
-23.24907190565562
 30
0.0
 10
79.43455867773677
 20
-22.90452290866797
 30
0.0
 10
79.47987453497872
 20
-22.55894395639298
 30
0.0
 10
79.61352500803378
 20
-22.23739153659337
 30
0.0
 10
79.82595629344588
 20
-21.96154326389261
 30
0.0
 10
80.10150936346446
 20
-21.75273249621767
 30
0.0
 10
80.42091421393598
 20
-21.61631820290842
 30
0.0
 10
80.64863016379112
 20
-21.59914022592572
 30
0.0
 10
80.76227404922653
 20
-21.59056738748609
 30
0.0
 11
80.76227404709319
 21
-24.21556738641942
 31
0.0
 11
80.42283979322652
 21
-24.17091541841943
 31
0.0
 11
80.10699383909319
 21
-24.04028338321942
 31
0.0
 11
79.83584344762651
 21
-23.8327862226861
 31
0.0
 11
79.6269916076265
 21
-23.56168967335276
 31
0.0
 11
79.49527778789319
 21
-23.2456593202861
 31
0.0
 11
79.44977786149319
 21
-22.90456638695276
 31
0.0
 11
79.49454539642651
 21
-22.56319561895276
 31
0.0
 11
79.62698763535986
 21
-22.24445194855275
 31
0.0
 11
79.83669489829319
 21
-21.97250088615276
 31
0.0
 11
80.10953354362651
 21
-21.76439174268609
 31
0.0
 11
80.42515399695984
 21
-21.6346020434861
 31
0.0
 11
80.76227404922653
 21
-21.59056738748609
 31
0.0
  0
SPLINE
  5
DF
100
AcDbEntity
  8
0
100
AcDbSpline
210
0.0
220
0.0
230
1.0
 70
     8
 71
     3
 72
    19
 73
    15
 74
    13
 42
0.0000001
 43
0.0000001
 44
0.0000000001
 40
0.0
 40
0.0
 40
0.0
 40
0.0
 40
0.3406161731181809
 40
0.6826215557790081
 40
1.025179172471028
 40
1.369211382442879
 40
1.713583926616468
 40
2.058676320381303
 40
2.402051338872389
 40
2.745189452262108
 40
3.086749198054826
 40
3.428857198755967
 40
3.769967286265101
 40
4.111580385016653
 40
4.111580385016653
 40
4.111580385016653
 40
4.111580385016653
 10
80.76227404922653
 20
-21.59056738748609
 30
0.0
 10
80.87613033259154
 20
-21.59917179774009
 30
0.0
 10
81.1043072643395
 20
-21.61641571149903
 30
0.0
 10
81.42387379709864
 20
-21.75320147010807
 30
0.0
 10
81.69944392270314
 20
-21.96238315382096
 30
0.0
 10
81.91150035202388
 20
-22.2382215285408
 30
0.0
 10
82.0449751156905
 20
-22.560046113638
 30
0.0
 10
82.08999671929763
 20
-22.90544134322048
 30
0.0
 10
82.0437308056258
 20
-23.25020243742967
 30
0.0
 10
81.91011971823485
 20
-23.56996497517465
 30
0.0
 10
81.69862427006448
 20
-23.8443819609026
 30
0.0
 10
81.42406115440735
 20
-24.05275795228285
 30
0.0
 10
81.1046828356727
 20
-24.18962208191655
 30
0.0
 10
80.87646635778051
 20
-24.2069147046791
 30
0.0
 10
80.76227404709319
 20
-24.21556738641942
 30
0.0
 11
80.76227404922653
 21
-21.59056738748609
 31
0.0
 11
81.10001062415987
 21
-21.63476448401943
 31
0.0
 11
81.4162163222932
 21
-21.76507809895276
 31
0.0
 11
81.68841455375986
 21
-21.97305368295276
 31
0.0
 11
81.89827088442653
 21
-22.24566784615276
 31
0.0
 11
82.03016552229319
 21
-22.5637814322861
 31
0.0
 11
82.07477377722652
 21
-22.90597854481942
 31
0.0
 11
82.02910209189319
 21
-23.24630265575276
 31
0.0
 11
81.89684331002652
 21
-23.56292763815276
 31
0.0
 11
81.68816580069318
 21
-23.83332874215276
 31
0.0
 11
81.41630517242651
 21
-24.04100561361944
 31
0.0
 11
81.1009821164265
 21
-24.17111119441943
 31
0.0
 11
80.76227404709319
 21
-24.21556738641942
 31
0.0
  0
LINE
  5
E0
100
AcDbEntity
  8
CENTER
 48
3.0
100
AcDbLine
 10
80.762277
 20
-20.375929
 30
0.0
 11
80.762277
 21
-25.430206
 31
0.0
  0
LINE
  5
EE
100
AcDbEntity
  8
CENTER
 48
3.0
100
AcDbLine
 10
80.762277
 20
-36.375929
 30
0.0
 11
80.762277
 21
-41.430206
 31
0.0
  0
LINE
  5
EF
100
AcDbEntity
  8
0
100
AcDbLine
 10
79.390814
 20
-38.903067
 30
0.0
 11
82.140814
 21
-38.903067
 31
0.0
  0
LINE
  5
F0
100
AcDbEntity
  8
0
100
AcDbLine
 10
71.554536
 20
-38.403067
 30
0.0
 11
89.970018
 21
-38.403067
 31
0.0
  0
ARC
  5
F1
100
AcDbEntity
  8
0
100
AcDbCircle
 10
73.369873
 20
-35.903067
 30
0.0
 40
2.5
100
AcDbArc
 50
269.312004
 51
269.786267
  0
LINE
  5
F2
100
AcDbEntity
  8
0
100
AcDbLine
 10
73.338266
 20
-38.403039
 30
0.0
 11
73.360554
 21
-38.40305
 31
0.0
  0
LINE
  5
F3
100
AcDbEntity
  8
0
100
AcDbLine
 10
73.362812
 20
-38.381027
 30
0.0
 11
73.376026
 21
-38.382386
 31
0.0
  0
LINE
  5
F4
100
AcDbEntity
  8
0
100
AcDbLine
 10
73.374186
 20
-38.403046
 30
0.0
 11
73.373901
 21
-38.403046
 31
0.0
  0
SPLINE
  5
F5
100
AcDbEntity
  8
0
100
AcDbSpline
210
0.0
220
0.0
230
-1.0
 70
     8
 71
     3
 72
    20
 73
    16
 74
    14
 42
0.0000001
 43
0.0000001
 44
0.0000000001
 40
0.0
 40
0.0
 40
0.0
 40
0.0
 40
0.0059012290709551
 40
0.016000512626999
 40
0.0244231068473598
 40
0.0335950514676452
 40
0.0451619848461903
 40
0.0601654355175042
 40
0.0757313353638227
 40
0.0896557126687891
 40
0.1046363441383872
 40
0.1226227725268842
 40
0.1448848157995072
 40
0.170627271814346
 40
0.1978548246757837
 40
0.1978548246757837
 40
0.1978548246757837
 40
0.1978548246757837
 10
73.37390082307416
 20
-38.40304981201942
 30
0.0
 10
73.37586789485183
 20
-38.40305410939345
 30
0.0
 10
73.38120138664457
 20
-38.40306576123524
 30
0.0
 10
73.38934242276216
 20
-38.40307244639687
 30
0.0
 10
73.39857369662023
 20
-38.40307234514615
 30
0.0
 10
73.40829418740769
 20
-38.40307397918174
 30
0.0
 10
73.42020829634593
 20
-38.40307603929021
 30
0.0
 10
73.43425372720573
 20
-38.40307037784612
 30
0.0
 10
73.44908494567173
 20
-38.40304271625176
 30
0.0
 10
73.46390856990618
 20
-38.40302229735987
 30
0.0
 10
73.47953905501412
 20
-38.40302351227771
 30
0.0
 10
73.49794874118256
 20
-38.40304846493609
 30
0.0
 10
73.51994568480811
 20
-38.40308575763982
 30
0.0
 10
73.5450230338028
 20
-38.40310720731053
 30
0.0
 10
73.56267970300471
 20
-38.403098724746
 30
0.0
 10
73.57175555374084
 20
-38.40309436455278
 30
0.0
 11
73.37390082307416
 21
-38.40304981201942
 31
0.0
 11
73.37980204014084
 21
-38.40306171495278
 31
0.0
 11
73.38990131907417
 21
-38.40307137788611
 31
0.0
 11
73.39832391320752
 21
-38.40307258855276
 31
0.0
 11
73.40749585774085
 21
-38.4030738514861
 31
0.0
 11
73.41906279107416
 21
-38.40307487441943
 31
0.0
 11
73.43406623960752
 21
-38.40306686481944
 31
0.0
 11
73.44963212120751
 21
-38.40304303121943
 31
0.0
 11
73.46355648814085
 21
-38.40302603601944
 31
0.0
 11
73.47853711960749
 21
-38.40302633361944
 31
0.0
 11
73.49652353560751
 21
-38.40304744401942
 31
0.0
 11
73.51878555374082
 21
-38.40308090001943
 31
0.0
 11
73.54452800174084
 21
-38.40310121361944
 31
0.0
 11
73.57175555374084
 21
-38.40309436455278
 31
0.0
  0
LINE
  5
F6
100
AcDbEntity
  8
0
100
AcDbLine
 10
79.390814
 20
-38.903067
 30
0.0
 11
79.047064
 21
-38.403067
 31
0.0
  0
LINE
  5
F8
100
AcDbEntity
  8
0
100
AcDbLine
 10
82.140814
 20
-38.903067
 30
0.0
 11
82.484564
 21
-38.403067
 31
0.0
  0
LINE
  5
124
100
AcDbEntity
  8
0
  6
HIDDEN
 62
     8
 48
0.5
100
AcDbLine
 10
71.020547
 20
-22.176682
 30
0.0
 11
71.005551
 21
-21.927306
 31
0.0
  0
LINE
  5
125
100
AcDbEntity
  8
CENTER
 48
3.0
100
AcDbLine
 10
83.535738
 20
-22.903067
 30
0.0
 11
77.988816
 21
-22.903067
 31
0.0
  0
LINE
  5
220
100
AcDbEntity
  8
0
100
AcDbLine
 10
64.324777
 20
-20.903067
 30
0.0
 11
64.532616
 21
-19.613295
 31
0.0
  0
LINE
  5
222
100
AcDbEntity
  8
0
100
AcDbLine
 10
97.199777
 20
-20.903067
 30
0.0
 11
96.991938
 21
-19.613295
 31
0.0
  0
LINE
  5
226
100
AcDbEntity
  8
0
100
AcDbLine
 10
69.068824
 20
-36.169962
 30
0.0
 11
67.431514
 21
-20.92097
 31
0.0
  0
LINE
  5
227
100
AcDbEntity
  8
0
100
AcDbLine
 10
69.259819
 20
-20.903067
 30
0.0
 11
70.898486
 21
-36.169873
 31
0.0
  0
ARC
  5
233
100
AcDbEntity
  8
0
100
AcDbCircle
 10
73.384208
 20
-35.903067
 30
0.0
 40
2.5
100
AcDbArc
 50
186.126405
 51
270.0
  0
ARC
  5
234
100
AcDbEntity
  8
0
100
AcDbCircle
 10
71.554536
 20
-35.903067
 30
0.0
 40
2.5
100
AcDbArc
 50
186.128463
 51
270.0
  0
LINE
  5
235
100
AcDbEntity
  8
0
100
AcDbLine
 10
92.45573
 20
-36.169962
 30
0.0
 11
94.09304
 21
-20.92097
 31
0.0
  0
LINE
  5
236
100
AcDbEntity
  8
0
100
AcDbLine
 10
92.264735
 20
-20.903067
 30
0.0
 11
90.626068
 21
-36.169873
 31
0.0
  0
ARC
  5
237
100
AcDbEntity
  8
0
100
AcDbCircle
 10
89.970018
 20
-35.903067
 30
0.0
 40
2.5
100
AcDbArc
 50
270.0
 51
353.871537
  0
ARC
  5
238
100
AcDbEntity
  8
0
100
AcDbCircle
 10
88.140346
 20
-35.903067
 30
0.0
 40
2.5
100
AcDbArc
 50
270.0
 51
353.873595
  0
SPLINE
  5
239
100
AcDbEntity
  8
0
100
AcDbSpline
210
0.0
220
0.0
230
-1.0
 70
     8
 71
     3
 72
    20
 73
    16
 74
    14
 42
0.0000001
 43
0.0000001
 44
0.0000000001
 40
0.0
 40
0.0
 40
0.0
 40
0.0
 40
0.0059012290709551
 40
0.016000512626999
 40
0.0244231068473598
 40
0.0335950514676452
 40
0.0451619848461903
 40
0.0601654355175042
 40
0.0757313353638227
 40
0.0896557126687891
 40
0.1046363441383872
 40
0.1226227725268842
 40
0.1448848157995072
 40
0.170627271814346
 40
0.1978548246757837
 40
0.1978548246757837
 40
0.1978548246757837
 40
0.1978548246757837
 10
88.15065318684554
 20
-38.40304981201942
 30
0.0
 10
88.14868611506787
 20
-38.40305410939345
 30
0.0
 10
88.14335262327514
 20
-38.40306576123524
 30
0.0
 10
88.13521158715756
 20
-38.40307244639687
 30
0.0
 10
88.12598031329947
 20
-38.40307234514615
 30
0.0
 10
88.11625982251202
 20
-38.40307397918174
 30
0.0
 10
88.10434571357378
 20
-38.40307603929021
 30
0.0
 10
88.09030028271399
 20
-38.40307037784612
 30
0.0
 10
88.07546906424798
 20
-38.40304271625176
 30
0.0
 10
88.06064544001353
 20
-38.40302229735987
 30
0.0
 10
88.04501495490558
 20
-38.40302351227771
 30
0.0
 10
88.02660526873715
 20
-38.40304846493609
 30
0.0
 10
88.00460832511161
 20
-38.40308575763982
 30
0.0
 10
87.9795309761169
 20
-38.40310720731053
 30
0.0
 10
87.96187430691499
 20
-38.403098724746
 30
0.0
 10
87.95279845617887
 20
-38.40309436455278
 30
0.0
 11
88.15065318684554
 21
-38.40304981201942
 31
0.0
 11
88.14475196977886
 21
-38.40306171495278
 31
0.0
 11
88.13465269084554
 21
-38.40307137788611
 31
0.0
 11
88.12623009671218
 21
-38.40307258855276
 31
0.0
 11
88.11705815217885
 21
-38.4030738514861
 31
0.0
 11
88.10549121884553
 21
-38.40307487441943
 31
0.0
 11
88.0904877703122
 21
-38.40306686481944
 31
0.0
 11
88.0749218887122
 21
-38.40304303121943
 31
0.0
 11
88.06099752177885
 21
-38.40302603601944
 31
0.0
 11
88.04601689031221
 21
-38.40302633361944
 31
0.0
 11
88.0280304743122
 21
-38.40304744401942
 31
0.0
 11
88.00576845617888
 21
-38.40308090001943
 31
0.0
 11
87.98002600817886
 21
-38.40310121361944
 31
0.0
 11
87.95279845617887
 21
-38.40309436455278
 31
0.0
  0
LINE
  5
23A
100
AcDbEntity
  8
0
100
AcDbLine
 10
88.150368
 20
-38.403046
 30
0.0
 11
88.150653
 21
-38.403046
 31
0.0
  0
LINE
  5
23B
100
AcDbEntity
  8
0
100
AcDbLine
 10
88.161742
 20
-38.381027
 30
0.0
 11
88.148528
 21
-38.382386
 31
0.0
  0
LINE
  5
23C
100
AcDbEntity
  8
0
100
AcDbLine
 10
88.186288
 20
-38.403039
 30
0.0
 11
88.164
 21
-38.40305
 31
0.0
  0
ARC
  5
23D
100
AcDbEntity
  8
0
100
AcDbCircle
 10
88.154681
 20
-35.903067
 30
0.0
 40
2.5
100
AcDbArc
 50
270.213733
 51
270.687996
  0
SPLINE
  5
23E
100
AcDbEntity
  8
0
  6
HIDDEN
 62
     8
 48
0.5
100
AcDbSpline
210
0.0
220
0.0
230
-1.0
 70
     8
 71
     3
 72
    15
 73
    11
 74
     9
 42
0.0000001
 43
0.0000001
 44
0.0000000001
 40
0.0
 40
0.0
 40
0.0
 40
0.0
 40
0.0246026956874717
 40
0.0541766445687059
 40
0.0879698053491776
 40
0.1251465179681345
 40
0.1647867871142049
 40
0.2058741818904119
 40
0.2473148578408298
 40
0.2878569444321615
 40
0.2878569444321615
 40
0.2878569444321615
 40
0.2878569444321615
 10
92.89324080391219
 20
-23.56150870801943
 30
0.0
 10
92.89210695901962
 20
-23.55338505953953
 30
0.0
 10
92.88961016303758
 20
-23.53549628743556
 30
0.0
 10
92.88728157666323
 20
-23.50625191250179
 30
0.0
 10
92.885454208124
 20
-23.47278682559286
 30
0.0
 10
92.88440251390346
 20
-23.43592727124356
 30
0.0
 10
92.8840910066261
 20
-23.39662468589362
 30
0.0
 10
92.88457925044486
 20
-23.35590284769329
 30
0.0
 10
92.88577718403789
 20
-23.31489311883483
 30
0.0
 10
92.88725158393331
 20
-23.28760445483893
 30
0.0
 10
92.88798070364553
 20
-23.27410967441944
 30
0.0
 11
92.89324080391219
 21
-23.56150870801943
 31
0.0
 11
92.89005842951221
 21
-23.53711270161944
 31
0.0
 11
92.88750775751219
 21
-23.50764895228609
 31
0.0
 11
92.88565516017888
 21
-23.47390661095276
 31
0.0
 11
92.88454947377886
 21
-23.4367463442861
 31
0.0
 11
92.88422404764554
 21
-23.39710741095276
 31
0.0
 11
92.88469519857887
 21
-23.35602271761943
 31
0.0
 11
92.88595875804555
 21
-23.31460130961944
 31
0.0
 11
92.88798070364553
 21
-23.27410967441944
 31
0.0
  0
SPLINE
  5
23F
100
AcDbEntity
  8
0
  6
HIDDEN
 62
     8
 48
0.5
100
AcDbSpline
210
0.0
220
0.0
230
-1.0
 70
     8
 71
     3
 72
    10
 73
     6
 74
     4
 42
0.0000001
 43
0.0000001
 44
0.0000000001
 40
0.0
 40
0.0
 40
0.0
 40
0.0
 40
0.0198810682956176
 40
0.1286096624526372
 40
0.2361657875785442
 40
0.2361657875785442
 40
0.2361657875785442
 40
0.2361657875785442
 10
93.03210026311219
 20
-23.23094356561943
 30
0.0
 10
93.03228369908948
 20
-23.2375680490821
 30
0.0
 10
93.03347033749172
 20
-23.28042150994187
 30
0.0
 10
93.03569348440388
 20
-23.35911206684774
 30
0.0
 10
93.03782456583933
 20
-23.43117547544959
 30
0.0
 10
93.03888433031222
 20
-23.46701185361943
 30
0.0
 11
93.03210026311219
 21
-23.23094356561943
 31
0.0
 11
93.03265114524554
 21
-23.25081700028609
 31
0.0
 11
93.03572855111218
 21
-23.35950203495276
 31
0.0
 11
93.03888433031222
 21
-23.46701185361943
 31
0.0
  0
SPLINE
  5
240
100
AcDbEntity
  8
0
  6
HIDDEN
 62
     8
 48
0.5
100
AcDbSpline
210
0.0
220
0.0
230
-1.0
 70
     8
 71
     3
 72
    23
 73
    19
 74
    17
 42
0.0000001
 43
0.0000001
 44
0.0000000001
 40
0.0
 40
0.0
 40
0.0
 40
0.0
 40
0.0582840794286412
 40
0.1129150819611367
 40
0.1836086455442359
 40
0.2776192883132991
 40
0.3956001353433686
 40
0.534964663729666
 40
0.6918199173278492
 40
0.861327360141761
 40
1.037638476480456
 40
1.214602078806707
 40
1.38898739645477
 40
1.568682354682975
 40
1.758017123240567
 40
1.944666463103406
 40
2.102083047771513
 40
2.206334239581648
 40
2.206334239581648
 40
2.206334239581648
 40
2.206334239581648
 10
92.95980834951221
 20
-22.2669244690861
 30
0.0
 10
92.94175886689403
 20
-22.2570088912856
 30
0.0
 10
92.90679119082939
 20
-22.2377992153156
 30
0.0
 10
92.84593550240064
 20
-22.26701997340187
 30
0.0
 10
92.79865581908529
 20
-22.32256113114268
 30
0.0
 10
92.75195459576925
 20
-22.40520182557155
 30
0.0
 10
92.70794992208717
 20
-22.51382974248226
 30
0.0
 10
92.66661460293519
 20
-22.64571202512633
 30
0.0
 10
92.62925563826602
 20
-22.79645664370199
 30
0.0
 10
92.59663234923058
 20
-22.96086187968062
 30
0.0
 10
92.56952367248487
 20
-23.13304471794676
 30
0.0
 10
92.54842991985558
 20
-23.30768731928756
 30
0.0
 10
92.53331877835881
 20
-23.48413295991287
 30
0.0
 10
92.52507917355394
 20
-23.66499032529529
 30
0.0
 10
92.52480038455702
 20
-23.85085969595245
 30
0.0
 10
92.5410497291868
 20
-24.02648704899842
 30
0.0
 10
92.56322606176778
 20
-24.17896825904657
 30
0.0
 10
92.61654767463211
 20
-24.24934978730885
 30
0.0
 10
92.63779156551221
 20
-24.27739052775276
 30
0.0
 11
92.95980834951221
 21
-22.2669244690861
 31
0.0
 11
92.90500521884553
 21
-22.24708383441943
 31
0.0
 11
92.85401902471221
 21
-22.26670409041943
 31
0.0
 11
92.80520988017887
 21
-22.3178435794861
 31
0.0
 11
92.75758070364554
 21
-22.39889580028609
 31
0.0
 11
92.71200446151221
 21
-22.50771807015277
 31
0.0
 11
92.66964384817885
 21
-22.64048873788611
 31
0.0
 11
92.63142524871222
 21
-22.79261667495277
 31
0.0
 11
92.59815775537886
 21
-22.95882752615276
 31
0.0
 11
92.57060273777886
 21
-23.1329720946861
 31
0.0
 11
92.54935368391221
 21
-23.30865531601943
 31
0.0
 11
92.53461153031219
 21
-23.48241638161943
 31
0.0
 11
92.52650817671218
 21
-23.6619285362861
 31
0.0
 11
92.52775138631221
 21
-23.85125922321943
 31
0.0
 11
92.54386429617886
 21
-24.03721177148609
 31
0.0
 11
92.58046913457887
 21
-24.19031326375276
 31
0.0
 11
92.63779156551221
 21
-24.27739052775276
 31
0.0
  0
SPLINE
  5
241
100
AcDbEntity
  8
0
  6
HIDDEN
 62
     8
 48
0.5
100
AcDbSpline
210
0.0
220
0.0
230
-1.0
 70
     8
 71
     3
 72
    23
 73
    19
 74
    17
 42
0.0000001
 43
0.0000001
 44
0.0000000001
 40
0.0
 40
0.0
 40
0.0
 40
0.0
 40
0.0603304193300178
 40
0.1201426350693438
 40
0.1993665968555025
 40
0.304507548040585
 40
0.4355848632994354
 40
0.5894173665531169
 40
0.7616014571207084
 40
0.946837681191714
 40
1.138827302442284
 40
1.331015812568446
 40
1.520055476775963
 40
1.714680549061911
 40
1.919835713501825
 40
2.122599698587598
 40
2.294706548642376
 40
2.409698992292984
 40
2.409698992292984
 40
2.409698992292984
 40
2.409698992292984
 10
92.93475259697885
 20
-22.14526817361943
 30
0.0
 10
92.91537628948033
 20
-22.13617576281748
 30
0.0
 10
92.87679010581639
 20
-22.118069039791
 30
0.0
 10
92.81404250985799
 20
-22.15674094624664
 30
0.0
 10
92.7651069607533
 20
-22.22068473190312
 30
0.0
 10
92.71628831681987
 20
-22.314861501408
 30
0.0
 10
92.67047222874628
 20
-22.43651046514786
 30
0.0
 10
92.62754458090686
 20
-22.5828795455059
 30
0.0
 10
92.58891409252175
 20
-22.74891170957945
 30
0.0
 10
92.55533602863451
 20
-22.92899953907087
 30
0.0
 10
92.52759694785698
 20
-23.11680839092554
 30
0.0
 10
92.50618510256302
 20
-23.30670364248016
 30
0.0
 10
92.49105256759609
 20
-23.49813196770326
 30
0.0
 10
92.48310899176681
 20
-23.69416114050629
 30
0.0
 10
92.48353168418537
 20
-23.89561548645425
 30
0.0
 10
92.50105762294234
 20
-24.08684682517824
 30
0.0
 10
92.52498862594809
 20
-24.25278794405
 30
0.0
 10
92.5804514371436
 20
-24.33202410553029
 30
0.0
 10
92.60266606577886
 20
-24.36376072081943
 30
0.0
 11
92.93475259697885
 21
-22.14526817361943
 31
0.0
 11
92.87681862577887
 21
-22.12843325521942
 31
0.0
 11
92.82309371804553
 21
-22.15472271015276
 31
0.0
 11
92.77185498844554
 21
-22.2151464530861
 31
0.0
 11
92.72204790471221
 21
-22.30774166908609
 31
0.0
 11
92.67456511324553
 21
-22.42991632721943
 31
0.0
 11
92.63060030044554
 21
-22.57733252135276
 31
0.0
 11
92.59109840817888
 21
-22.74492417255276
 31
0.0
 11
92.55687681244552
 21
-22.9269718066861
 31
0.0
 11
92.52869670151222
 21
-23.11688203815277
 31
0.0
 11
92.50714054577887
 21
-23.30785783655276
 31
0.0
 11
92.49239044657887
 21
-23.4963211730861
 31
0.0
 11
92.48459575004554
 21
-23.6907900946861
 31
0.0
 11
92.48657861084552
 21
-23.89593567655277
 31
0.0
 11
92.50402788871218
 21
-24.09794744935276
 31
0.0
 11
92.54266979697888
 21
-24.26566021201943
 31
0.0
 11
92.60266606577886
 21
-24.36376072081943
 31
0.0
  0
LWPOLYLINE
  5
242
100
AcDbEntity
  8
0
  6
HIDDEN
 62
     8
 48
0.5
100
AcDbPolyline
 90
        7
 70
     0
 43
0.0
 10
92.893589
 20
-22.534886
 10
92.872436
 20
-22.725322
 10
92.856785
 20
-22.947648
 10
92.847804
 20
-23.185303
 10
92.846163
 20
-23.420583
 10
92.851987
 20
-23.635935
 10
92.864841
 20
-23.815239
  0
SPLINE
  5
243
100
AcDbEntity
  8
0
  6
HIDDEN
 62
     8
 48
0.5
100
AcDbSpline
210
0.0
220
0.0
230
1.0
 70
     8
 71
     3
 72
    15
 73
    11
 74
     9
 42
0.0000001
 43
0.0000001
 44
0.0000000001
 40
0.0
 40
0.0
 40
0.0
 40
0.0
 40
0.1943967102596088
 40
0.403712208707144
 40
0.6391211265761654
 40
0.9078069487370717
 40
1.208269873330312
 40
1.536179843262233
 40
1.891246570424483
 40
2.158895882858978
 40
2.158895882858978
 40
2.158895882858978
 40
2.158895882858978
 10
90.50400695324555
 20
-22.17668201255276
 30
0.0
 10
90.50486608610741
 20
-22.24180547493369
 30
0.0
 10
90.50665028515462
 20
-22.37705023705623
 30
0.0
 10
90.57648175175454
 20
-22.58181045615929
 30
0.0
 10
90.70133441467289
 20
-22.78587254933789
 30
0.0
 10
90.88699524666514
 20
-22.98179462787608
 30
0.0
 10
91.12505596786188
 20
-23.1641593905946
 30
0.0
 10
91.40764214530879
 20
-23.3313770282511
 30
0.0
 10
91.69343692886782
 20
-23.46912980057657
 30
0.0
 10
91.88626304651055
 20
-23.54604927403634
 30
0.0
 10
91.96914155697886
 20
-23.57910999975276
 30
0.0
 11
90.50400695324555
 21
-22.17668201255276
 31
0.0
 11
90.51639826417886
 21
-22.37068339495277
 31
0.0
 11
90.58010789937886
 21
-22.57006759761943
 31
0.0
 11
90.70163987164553
 21
-22.77167944828609
 31
0.0
 11
90.88405331911218
 21
-22.96895439655276
 31
0.0
 11
91.12092786631221
 21
-23.15380140881942
 31
0.0
 11
91.40193171271221
 21
-23.32280373628609
 31
0.0
 11
91.72154307911219
 21
-23.47746774375276
 31
0.0
 11
91.96914155697886
 21
-23.57910999975276
 31
0.0
  0
LWPOLYLINE
  5
244
100
AcDbEntity
  8
0
  6
HIDDEN
 62
     8
 48
0.5
100
AcDbPolyline
 90
        9
 70
     0
 43
0.0
 10
90.504007
 20
-22.176682
 10
90.530098
 20
-22.35769
 10
90.618014
 20
-22.524777
 10
90.766101
 20
-22.691617
 10
90.972683
 20
-22.856323
 10
91.235421
 20
-23.017029
 10
91.551338
 20
-23.171914
 10
91.916859
 20
-23.319225
 10
92.327843
 20
-23.457295
  0
LINE
  5
245
100
AcDbEntity
  8
0
  6
HIDDEN
 62
     8
 48
0.5
100
AcDbLine
 10
92.328182
 20
-23.452285
 30
0.0
 11
92.342574
 21
-23.212952
 31
0.0
  0
LINE
  5
246
100
AcDbEntity
  8
0
  6
HIDDEN
 62
     8
 48
0.5
100
AcDbLine
 10
93.007261
 20
-23.470562
 30
0.0
 11
93.021653
 21
-23.231229
 31
0.0
  0
SPLINE
  5
247
100
AcDbEntity
  8
0
  6
HIDDEN
 62
     8
 48
0.5
100
AcDbSpline
210
0.0
220
0.0
230
1.0
 70
     8
 71
     3
 72
     9
 73
     5
 74
     3
 42
0.0000001
 43
0.0000001
 44
0.0000000001
 40
0.0
 40
0.0
 40
0.0
 40
0.0
 40
0.1152916667726714
 40
0.4300509637411198
 40
0.4300509637411198
 40
0.4300509637411198
 40
0.4300509637411198
 10
91.96914155697886
 20
-23.57910999975276
 30
0.0
 10
92.00507563949983
 20
-23.59274247244094
 30
0.0
 10
92.13911383368929
 20
-23.64359313825084
 30
0.0
 10
92.27528871756804
 20
-23.68847785122659
 30
0.0
 10
92.37495669724552
 20
-23.72132949415276
 30
0.0
 11
91.96914155697886
 21
-23.57910999975276
 31
0.0
 11
92.07709737137887
 21
-23.61957863655276
 31
0.0
 11
92.37495669724552
 21
-23.72132949415276
 31
0.0
  0
LINE
  5
248
100
AcDbEntity
  8
0
  6
HIDDEN
 62
     8
 48
0.5
100
AcDbLine
 10
92.35429
 20
-23.705664
 30
0.0
 11
92.003476
 21
-23.579723
 31
0.0
  0
LWPOLYLINE
  5
249
100
AcDbEntity
  8
0
  6
HIDDEN
 62
     8
 48
0.5
100
AcDbPolyline
 90
        5
 70
     0
 43
0.0
 10
92.994209
 20
-23.61564
 10
92.985683
 20
-23.670853
 10
92.976373
 20
-23.710611
 10
92.966746
 20
-23.732922
 10
92.959956
 20
-23.737505
  0
LINE
  5
24A
100
AcDbEntity
  8
0
  6
HIDDEN
 62
     8
 48
0.5
100
AcDbLine
 10
92.328182
 20
-23.452285
 30
0.0
 11
93.007261
 21
-23.470562
 31
0.0
  0
LINE
  5
24B
100
AcDbEntity
  8
0
  6
HIDDEN
 62
     8
 48
0.5
100
AcDbLine
 10
92.987515
 20
-23.8454
 30
0.0
 11
93.010739
 21
-23.674887
 31
0.0
  0
SPLINE
  5
24C
100
AcDbEntity
  8
0
  6
HIDDEN
 62
     8
 48
0.5
100
AcDbSpline
210
-0.994258043019608
220
0.1070090832164225
230
0.0
 70
    24
 71
     3
 72
     8
 73
     4
 74
     2
 42
0.0000001
 43
0.0000001
 44
0.0000000001
 40
0.0
 40
0.0
 40
0.0
 40
0.0
 40
0.0302770559527735
 40
0.0302770559527735
 40
0.0302770559527735
 40
0.0302770559527735
 10
93.01073914844554
 20
-23.67488680081943
 30
0.0
 10
93.01181912177886
 20
-23.66485239868609
 30
0.0
 10
93.0128990951122
 20
-23.65481799655276
 30
0.0
 10
93.01397906844554
 20
-23.64478359441942
 30
0.0
 11
93.01073914844554
 21
-23.67488680081943
 31
0.0
 11
93.01397906844554
 21
-23.64478359441942
 31
0.0
  0
SPLINE
  5
24D
100
AcDbEntity
  8
0
  6
HIDDEN
 62
     8
 48
0.5
100
AcDbSpline
210
0.0
220
0.0
230
-1.0
 70
     8
 71
     3
 72
    17
 73
    13
 74
    11
 42
0.0000001
 43
0.0000001
 44
0.0000000001
 40
0.0
 40
0.0
 40
0.0
 40
0.0
 40
0.0270861020674436
 40
0.0521170415034739
 40
0.0751773736494804
 40
0.0964073748859691
 40
0.1159834761278932
 40
0.1340918670661668
 40
0.1508954163371396
 40
0.1664779880448498
 40
0.1807091407439045
 40
0.1863756817253338
 40
0.1863756817253338
 40
0.1863756817253338
 40
0.1863756817253338
 10
93.01397906844554
 20
-23.64478359441942
 30
0.0
 10
93.01492423745914
 20
-23.63580449808194
 30
0.0
 10
93.01674286062562
 20
-23.61852759587875
 30
0.0
 10
93.01929576664232
 20
-23.59359882497145
 30
0.0
 10
93.02162320238688
 20
-23.57060924762874
 30
0.0
 10
93.02375494082411
 20
-23.54942743547096
 30
0.0
 10
93.02572901641692
 20
-23.52988873683671
 30
0.0
 10
93.02758265909787
 20
-23.51182089164491
 30
0.0
 10
93.02935483772346
 20
-23.49508285051307
 30
0.0
 10
93.03108204803923
 20
-23.4796400446063
 30
0.0
 10
93.03253327477996
 20
-23.46790178353253
 30
0.0
 10
93.03346551862615
 20
-23.46133501061788
 30
0.0
 10
93.03373100657887
 20
-23.45946490001943
 30
0.0
 11
93.01397906844554
 21
-23.64478359441942
 31
0.0
 11
93.01680139164551
 21
-23.61784493415276
 31
0.0
 11
93.01935768497887
 21
-23.59294486801943
 31
0.0
 11
93.02168229511222
 21
-23.5700020018861
 31
0.0
 11
93.02381157404553
 21
-23.54887904935277
 31
0.0
 11
93.02578340017886
 21
-23.52940250855277
 31
0.0
 11
93.02763716657887
 21
-23.5113892530861
 31
0.0
 11
93.02941472924553
 21
-23.49467998801943
 31
0.0
 11
93.03116348764552
 21
-23.4791958546861
 31
0.0
 11
93.03294414364552
 21
-23.46507654268609
 31
0.0
 11
93.03373100657887
 21
-23.45946490001943
 31
0.0
  0
SPLINE
  5
24E
100
AcDbEntity
  8
0
  6
HIDDEN
 62
     8
 48
0.5
100
AcDbSpline
210
0.0
220
0.0
230
-1.0
 70
     8
 71
     3
 72
    11
 73
     7
 74
     5
 42
0.0000001
 43
0.0000001
 44
0.0000000001
 40
0.0
 40
0.0
 40
0.0
 40
0.0
 40
0.005923320859967
 40
0.0120486604918177
 40
0.0174638539223159
 40
0.0315002955057553
 40
0.0315002955057553
 40
0.0315002955057553
 40
0.0315002955057553
 10
93.03373100657887
 20
-23.45946490001943
 30
0.0
 10
93.03400766340153
 20
-23.45777732372239
 30
0.0
 10
93.0345704126106
 20
-23.45434461522362
 30
0.0
 10
93.03657816675354
 20
-23.44474781643545
 30
0.0
 10
93.03912098074286
 20
-23.4577128529362
 30
0.0
 10
93.03898352173446
 20
-23.46311420128652
 30
0.0
 10
93.03888433031222
 20
-23.46701185361943
 30
0.0
 11
93.03373100657887
 21
-23.45946490001943
 31
0.0
 11
93.03475975004554
 21
-23.45363159761942
 31
0.0
 11
93.03660926044551
 21
-23.44779215441943
 31
0.0
 11
93.0381033415122
 21
-23.45299715601942
 31
0.0
 11
93.03888433031222
 21
-23.46701185361943
 31
0.0
  0
SPLINE
  5
24F
100
AcDbEntity
  8
0
  6
HIDDEN
 62
     8
 48
0.5
100
AcDbSpline
210
-0.986861437461601
220
0.1615688808255555
230
0.0
 70
    24
 71
     3
 72
     8
 73
     4
 74
     2
 42
0.0000001
 43
0.0000001
 44
0.0000000001
 40
0.0
 40
0.0
 40
0.0
 40
0.0
 40
0.0849406605811027
 40
0.0849406605811027
 40
0.0849406605811027
 40
0.0849406605811027
 10
93.02516524017887
 20
-23.55083166481943
 30
0.0
 10
93.02973982933442
 20
-23.52289011068609
 30
0.0
 10
93.03431441848998
 20
-23.49494855655276
 30
0.0
 10
93.03888900764553
 20
-23.46700700241942
 30
0.0
 11
93.02516524017887
 21
-23.55083166481943
 31
0.0
 11
93.03888900764553
 21
-23.46700700241942
 31
0.0
  0
LWPOLYLINE
  5
250
100
AcDbEntity
  8
0
  6
HIDDEN
 62
     8
 48
0.5
100
AcDbPolyline
 90
        3
 70
     0
 43
0.0
 10
93.007261
 20
-23.470562
 10
93.001524
 20
-23.547742
 10
92.994209
 20
-23.61564
  0
SPLINE
  5
251
100
AcDbEntity
  8
0
  6
HIDDEN
 62
     8
 48
0.5
100
AcDbSpline
210
-0.9977155774156594
220
0.0675546192509249
230
0.0
 70
    24
 71
     3
 72
     9
 73
     5
 74
     3
 42
0.0000001
 43
0.0000001
 44
0.0000000001
 40
0.0
 40
0.0
 40
0.0
 40
0.0
 40
0.0025088904344422
 40
0.005021268601357
 40
0.005021268601357
 40
0.005021268601357
 40
0.005021268601357
 10
92.32784256177888
 20
-23.45729494481943
 30
0.0
 10
92.32790378766749
 20
-23.45646088473724
 30
0.0
 10
92.32802632455786
 20
-23.45479160510474
 30
0.0
 10
92.32812993036173
 20
-23.45312104361181
 30
0.0
 10
92.32818176924553
 20
-23.4522851826861
 30
0.0
 11
92.32784256177888
 21
-23.45729494481943
 31
0.0
 11
92.32802151324552
 21
-23.45479244455277
 31
0.0
 11
92.32818176924553
 21
-23.4522851826861
 31
0.0
  0
SPLINE
  5
252
100
AcDbEntity
  8
0
  6
HIDDEN
 62
     8
 48
0.5
100
AcDbSpline
210
0.0
220
0.0
230
1.0
 70
     8
 71
     3
 72
    11
 73
     7
 74
     5
 42
0.0000001
 43
0.0000001
 44
0.0000000001
 40
0.0
 40
0.0
 40
0.0
 40
0.0
 40
0.0209826338134202
 40
0.0301983852089058
 40
0.0337129436329726
 40
0.0339177074217149
 40
0.0339177074217149
 40
0.0339177074217149
 40
0.0339177074217149
 10
92.35428977777885
 20
-23.70566370641943
 30
0.0
 10
92.35981433906816
 20
-23.70767909809389
 30
0.0
 10
92.36776533470619
 20
-23.71057966694877
 30
0.0
 10
92.38333879896838
 20
-23.71792585920632
 30
0.0
 10
92.37905947566833
 20
-23.72152056521619
 30
0.0
 10
92.37788290377212
 20
-23.72189629358079
 30
0.0
 10
92.37781812871219
 20
-23.72191697895277
 30
0.0
 11
92.35428977777885
 21
-23.70566370641943
 31
0.0
 11
92.37375965297886
 21
-23.71348642215276
 31
0.0
 11
92.38068344497888
 21
-23.71956845948609
 31
0.0
 11
92.37801261724554
 21
-23.72185292881944
 31
0.0
 11
92.37781812871219
 21
-23.72191697895277
 31
0.0
  0
SPLINE
  5
253
100
AcDbEntity
  8
0
  6
HIDDEN
 62
     8
 48
0.5
100
AcDbSpline
210
0.0
220
0.0
230
1.0
 70
     8
 71
     3
 72
     9
 73
     5
 74
     3
 42
0.0000001
 43
0.0000001
 44
0.0000000001
 40
0.0
 40
0.0
 40
0.0
 40
0.0
 40
0.1206387693237621
 40
0.3083044933625519
 40
0.3083044933625519
 40
0.3083044933625519
 40
0.3083044933625519
 10
92.68053108657886
 20
-24.37694046055276
 30
0.0
 10
92.71320502070357
 20
-24.35251747359501
 30
0.0
 10
92.7967065415078
 20
-24.29010207709668
 30
0.0
 10
92.83812685183475
 20
-24.19332163191599
 30
0.0
 10
92.86333949937887
 20
-24.13441113041943
 30
0.0
 11
92.68053108657886
 21
-24.37694046055276
 31
0.0
 11
92.77210967857886
 21
-24.29840973948609
 31
0.0
 11
92.86333949937887
 21
-24.13441113041943
 31
0.0
  0
SPLINE
  5
254
100
AcDbEntity
  8
0
  6
HIDDEN
 62
     8
 48
0.5
100
AcDbSpline
210
-0.9215985472469471
220
0.3881444546973678
230
0.0
 70
    24
 71
     3
 72
     8
 73
     4
 74
     2
 42
0.0000001
 43
0.0000001
 44
0.0000000001
 40
0.0
 40
0.0
 40
0.0
 40
0.0
 40
0.0288152375521732
 40
0.0288152375521732
 40
0.0288152375521732
 40
0.0288152375521732
 10
92.86333949937887
 20
-24.13441113041943
 30
0.0
 10
92.8670676576011
 20
-24.12555910339721
 30
0.0
 10
92.87079581582331
 20
-24.11670707637499
 30
0.0
 10
92.87452397404553
 20
-24.10785504935277
 30
0.0
 11
92.86333949937887
 21
-24.13441113041943
 31
0.0
 11
92.87452397404553
 21
-24.10785504935277
 31
0.0
  0
LWPOLYLINE
  5
255
100
AcDbEntity
  8
0
  6
HIDDEN
 62
     8
 48
0.5
100
AcDbPolyline
 90
        3
 70
     0
 43
0.0
 10
92.883763
 20
-23.945142
 10
92.907341
 20
-24.015986
 10
92.933818
 20
-24.022501
  0
LWPOLYLINE
  5
256
100
AcDbEntity
  8
0
  6
HIDDEN
 62
     8
 48
0.5
100
AcDbPolyline
 90
        3
 70
     0
 43
0.0
 10
92.938615
 20
-24.016864
 10
92.961223
 20
-23.964197
 10
92.987515
 20
-23.8454
  0
LWPOLYLINE
  5
257
100
AcDbEntity
  8
0
  6
HIDDEN
 62
     8
 48
0.5
100
AcDbPolyline
 90
        3
 70
     0
 43
0.0
 10
92.959956
 20
-23.737505
 10
92.957285
 20
-23.736666
 10
92.948464
 20
-23.721655
  0
SPLINE
  5
258
100
AcDbEntity
  8
0
  6
HIDDEN
 62
     8
 48
0.5
100
AcDbSpline
210
0.0
220
0.0
230
-1.0
 70
     8
 71
     3
 72
    18
 73
    14
 74
    12
 42
0.0000001
 43
0.0000001
 44
0.0000000001
 40
0.0
 40
0.0
 40
0.0
 40
0.0
 40
0.0041677290267124
 40
0.0076822874507793
 40
0.0152431015703289
 40
0.0272279568618042
 40
0.0438691910354743
 40
0.0654273178019872
 40
0.0926302389810209
 40
0.1294819617340976
 40
0.1758906876763127
 40
0.230020264785247
 40
0.2879122478498498
 40
0.2879122478498498
 40
0.2879122478498498
 40
0.2879122478498498
 10
92.37855672711219
 20
-23.71598418321944
 30
0.0
 10
92.37974904802706
 20
-23.71720035907238
 30
0.0
 10
92.38194682814736
 20
-23.71944211049938
 30
0.0
 10
92.37653062166204
 20
-23.72345700801472
 30
0.0
 10
92.36925223076301
 20
-23.71839997144398
 30
0.0
 10
92.36041658326106
 20
-23.71094909679293
 30
0.0
 10
92.35134194011186
 20
-23.69633070832199
 30
0.0
 10
92.34287632347808
 20
-23.67632930235143
 30
0.0
 10
92.3352067129363
 20
-23.64871774846255
 30
0.0
 10
92.32899938466735
 20
-23.61239199865433
 30
0.0
 10
92.32521488250501
 20
-23.56670080278229
 30
0.0
 10
92.32443979108939
 20
-23.51384681618157
 30
0.0
 10
92.32668318474329
 20
-23.47656303678507
 30
0.0
 10
92.32784255537888
 20
-23.4572950322861
 30
0.0
 11
92.37855672711219
 21
-23.71598418321944
 31
0.0
 11
92.38068344497888
 21
-23.71956845948609
 31
0.0
 11
92.37801261724554
 21
-23.72185292881944
 31
0.0
 11
92.37085756657888
 21
-23.71940933308609
 31
0.0
 11
92.36187133937887
 21
-23.71147935975276
 31
0.0
 11
92.3526035847122
 21
-23.6976576594861
 31
0.0
 11
92.34398684124554
 21
-23.67789647121943
 31
0.0
 11
92.33645685724553
 21
-23.65175649681944
 31
0.0
 11
92.33000369777887
 21
-23.61547418428609
 31
0.0
 11
92.32591284764552
 21
-23.5692461106861
 31
0.0
 11
92.32510996764551
 21
-23.5151224882861
 31
0.0
 11
92.32784255537888
 21
-23.4572950322861
 31
0.0
  0
LINE
  5
259
100
AcDbEntity
  8
0
  6
HIDDEN
 62
     8
 48
0.5
100
AcDbLine
 10
92.377798
 20
-23.721852
 30
0.0
 11
92.375002
 21
-23.721328
 31
0.0
  0
LINE
  5
25A
100
AcDbEntity
  8
0
  6
HIDDEN
 62
     8
 48
0.5
100
AcDbLine
 10
92.35429
 20
-23.705664
 30
0.0
 11
92.948464
 21
-23.721655
 31
0.0
  0
LINE
  5
25B
100
AcDbEntity
  8
0
  6
HIDDEN
 62
     8
 48
0.5
100
AcDbLine
 10
92.377707
 20
-23.721849
 30
0.0
 11
92.959963
 21
-23.73752
 31
0.0
  0
LINE
  5
25C
100
AcDbEntity
  8
0
  6
HIDDEN
 62
     8
 48
0.5
100
AcDbLine
 10
92.637792
 20
-24.277391
 30
0.0
 11
92.712497
 21
-24.284402
 31
0.0
  0
LINE
  5
25D
100
AcDbEntity
  8
0
  6
HIDDEN
 62
     8
 48
0.5
100
AcDbLine
 10
92.602666
 20
-24.363761
 30
0.0
 11
92.680538
 21
-24.376941
 31
0.0
  0
LINE
  5
25E
100
AcDbEntity
  8
0
  6
HIDDEN
 62
     8
 48
0.5
100
AcDbLine
 10
92.712497
 20
-24.284402
 30
0.0
 11
92.805431
 21
-24.200049
 31
0.0
  0
LINE
  5
25F
100
AcDbEntity
  8
0
  6
HIDDEN
 62
     8
 48
0.5
100
AcDbLine
 10
92.933818
 20
-24.022501
 30
0.0
 11
92.938615
 21
-24.016864
 31
0.0
  0
LINE
  5
260
100
AcDbEntity
  8
0
  6
HIDDEN
 62
     8
 48
0.5
100
AcDbLine
 10
92.805431
 20
-24.200049
 30
0.0
 11
92.938647
 21
-24.016858
 31
0.0
  0
LINE
  5
261
100
AcDbEntity
  8
0
  6
HIDDEN
 62
     8
 48
0.5
100
AcDbLine
 10
92.948464
 20
-23.721655
 30
0.0
 11
92.893241
 21
-23.561509
 31
0.0
  0
SPLINE
  5
262
100
AcDbEntity
  8
0
  6
HIDDEN
 62
     8
 48
0.5
100
AcDbSpline
210
-0.8579281046053178
220
0.5137697610100527
230
0.0
 70
    24
 71
     3
 72
     8
 73
     4
 74
     2
 42
0.0000001
 43
0.0000001
 44
0.0000000001
 40
0.0
 40
0.0
 40
0.0
 40
0.0
 40
0.2951148373710611
 40
0.2951148373710611
 40
0.2951148373710611
 40
0.2951148373710611
 10
93.94973255964552
 20
-20.96034655975277
 30
0.0
 10
93.8991921998233
 20
-21.04474233077499
 30
0.0
 10
93.84865184000108
 20
-21.1291381017972
 30
0.0
 10
93.79811148017887
 20
-21.21353387281943
 30
0.0
 11
93.94973255964552
 21
-20.96034655975277
 31
0.0
 11
93.79811148017887
 21
-21.21353387281943
 31
0.0
  0
LINE
  5
263
100
AcDbEntity
  8
0
  6
HIDDEN
 62
     8
 48
0.5
100
AcDbLine
 10
93.665074
 20
-21.303254
 30
0.0
 11
93.970826
 21
-20.903067
 31
0.0
  0
SPLINE
  5
264
100
AcDbEntity
  8
0
  6
HIDDEN
 62
     8
 48
0.5
100
AcDbSpline
210
-0.8422935000374199
220
0.5390191645894542
230
0.0
 70
    24
 71
     3
 72
     8
 73
     4
 74
     2
 42
0.0000001
 43
0.0000001
 44
0.0000000001
 40
0.0
 40
0.0
 40
0.0
 40
0.0
 40
0.0685185047699474
 40
0.0685185047699474
 40
0.0685185047699474
 40
0.0685185047699474
 10
93.98666534684554
 20
-20.90263386855276
 30
0.0
 10
93.97435441777886
 20
-20.92187143228609
 30
0.0
 10
93.9620434887122
 20
-20.94110899601943
 30
0.0
 10
93.94973255964552
 20
-20.96034655975277
 30
0.0
 11
93.98666534684554
 21
-20.90263386855276
 31
0.0
 11
93.94973255964552
 21
-20.96034655975277
 31
0.0
  0
LWPOLYLINE
  5
265
100
AcDbEntity
  8
0
  6
HIDDEN
 62
     8
 48
0.5
100
AcDbPolyline
 90
       10
 70
     0
 43
0.0
 10
91.860509
 20
-21.178794
 10
91.86218
 20
-21.179318
 10
91.867696
 20
-21.188705
 10
91.872535
 20
-21.209349
 10
91.876455
 20
-21.240214
 10
91.879258
 20
-21.279754
 10
91.880805
 20
-21.325985
 10
91.881017
 20
-21.37659
 10
91.879885
 20
-21.42903
 10
91.877464
 20
-21.480677
  0
SPLINE
  5
266
100
AcDbEntity
  8
0
  6
HIDDEN
 62
     8
 48
0.5
100
AcDbSpline
210
0.0
220
0.0
230
-1.0
 70
     8
 71
     3
 72
    14
 73
    10
 74
     8
 42
0.0000001
 43
0.0000001
 44
0.0000000001
 40
0.0
 40
0.0
 40
0.0
 40
0.0
 40
0.0012391733365993
 40
0.0378079202974099
 40
0.0754116998532601
 40
0.1756252445932531
 40
0.2831440296307977
 40
0.3982641578834853
 40
0.5211932596701744
 40
0.5211932596701744
 40
0.5211932596701744
 40
0.5211932596701744
 10
92.58135570737886
 20
-21.40413588455276
 30
0.0
 10
92.58118342731668
 20
-21.40376047002947
 30
0.0
 10
92.57592705948889
 20
-21.39230634819202
 30
0.0
 10
92.56585599648948
 20
-21.36926852338839
 30
0.0
 10
92.54428289378695
 20
-21.31528355479326
 30
0.0
 10
92.51806254965265
 20
-21.23773681735732
 30
0.0
 10
92.49034843947313
 20
-21.13369473191413
 30
0.0
 10
92.46661663513298
 20
-21.0209044068444
 30
0.0
 10
92.45486635880469
 20
-20.94241584870595
 30
0.0
 10
92.44879849244552
 20
-20.90188419921943
 30
0.0
 11
92.58135570737886
 21
-21.40413588455276
 31
0.0
 11
92.58083908977885
 21
-21.4030095378861
 31
0.0
 11
92.5661716103122
 21
-21.3695112050861
 31
0.0
 11
92.55220099484551
 21
-21.33459894161942
 31
0.0
 11
92.51986017031219
 21
-21.23974734375276
 31
0.0
 11
92.49189230897886
 21
-21.13592977361943
 31
0.0
 11
92.46822816497887
 21
-21.02326810215276
 31
0.0
 11
92.44879849244552
 21
-20.90188419921943
 31
0.0
  0
LWPOLYLINE
  5
267
100
AcDbEntity
  8
0
  6
HIDDEN
 62
     8
 48
0.5
100
AcDbPolyline
 90
       10
 70
     0
 43
0.0
 10
92.357201
 20
-21.192154
 10
92.361889
 20
-21.19625
 10
92.366753
 20
-21.210356
 10
92.370925
 20
-21.233912
 10
92.374221
 20
-21.265888
 10
92.376497
 20
-21.304887
 10
92.377655
 20
-21.349203
 10
92.377643
 20
-21.396901
 10
92.376462
 20
-21.445895
 10
92.374164
 20
-21.494045
  0
LWPOLYLINE
  5
268
100
AcDbEntity
  8
0
  6
HIDDEN
 62
     8
 48
0.5
100
AcDbPolyline
 90
        8
 70
     0
 43
0.0
 10
91.12758
 20
-21.367253
 10
91.203935
 20
-21.29148
 10
91.321307
 20
-21.222091
 10
91.477085
 20
-21.160628
 10
91.667806
 20
-21.108458
 10
91.889229
 20
-21.066741
 10
92.13643
 20
-21.036406
 10
92.403895
 20
-21.018126
  0
SPLINE
  5
269
100
AcDbEntity
  8
0
  6
HIDDEN
 62
     8
 48
0.5
100
AcDbSpline
210
0.0
220
0.0
230
-1.0
 70
     8
 71
     3
 72
    19
 73
    15
 74
    13
 42
0.0000001
 43
0.0000001
 44
0.0000000001
 40
0.0
 40
0.0
 40
0.0
 40
0.0
 40
0.0684117365863665
 40
0.1392844606339497
 40
0.2067798963798482
 40
0.2662585842786418
 40
0.3163077223327586
 40
0.3581752084398877
 40
0.3931053852569872
 40
0.4223316900037957
 40
0.4458740021231329
 40
0.4636869794820752
 40
0.4768343685325818
 40
0.4937162827522349
 40
0.4937162827522349
 40
0.4937162827522349
 40
0.4937162827522349
 10
91.5960719207122
 20
-21.33516018001943
 30
0.0
 10
91.59515014301879
 20
-21.35796427168975
 30
0.0
 10
91.59327342836048
 20
-21.40439279064042
 30
0.0
 10
91.59920565295299
 20
-21.47323484251458
 30
0.0
 10
91.61040618048756
 20
-21.53829133000161
 30
0.0
 10
91.62554342473377
 20
-21.59540243681465
 30
0.0
 10
91.64230170668451
 20
-21.64305674804989
 30
0.0
 10
91.65920409764941
 20
-21.68183986693788
 30
0.0
 10
91.67531667271354
 20
-21.71334284341902
 30
0.0
 10
91.69002719036704
 20
-21.73854341448763
 30
0.0
 10
91.70199010396855
 20
-21.75898244276879
 30
0.0
 10
91.71120880981598
 20
-21.77418220964376
 30
0.0
 10
91.71318391046838
 20
-21.79248501890327
 30
0.0
 10
91.70277925766198
 20
-21.7968604416335
 30
0.0
 10
91.69692995591219
 20
-21.7993202226861
 30
0.0
 11
91.5960719207122
 21
-21.33516018001943
 31
0.0
 11
91.59472331271221
 21
-21.40355862268609
 31
0.0
 11
91.60031620231221
 21
-21.4742103218861
 31
0.0
 11
91.61189683377887
 21
-21.54070485415275
 31
0.0
 11
91.62716312497886
 21
-21.59819098001943
 31
0.0
 11
91.6438221095122
 21
-21.64538626001943
 31
0.0
 11
91.66055579057887
 21
-21.68376425255277
 31
0.0
 11
91.67648337031222
 21
-21.71485170108609
 31
0.0
 11
91.69100896924552
 21
-21.74021277095275
 31
0.0
 11
91.70295650417887
 21
-21.76049815655276
 31
0.0
 11
91.71068757831221
 21
-21.77654598055276
 31
0.0
 11
91.71079768284554
 21
-21.78969290855275
 31
0.0
 11
91.69692995591219
 21
-21.7993202226861
 31
0.0
  0
SPLINE
  5
26A
100
AcDbEntity
  8
0
  6
HIDDEN
 62
     8
 48
0.5
100
AcDbSpline
210
0.0
220
0.0
230
1.0
 70
     8
 71
     3
 72
     9
 73
     5
 74
     3
 42
0.0000001
 43
0.0000001
 44
0.0000000001
 40
0.0
 40
0.0
 40
0.0
 40
0.0
 40
0.1693186097677825
 40
0.3607964044675953
 40
0.3607964044675953
 40
0.3607964044675953
 40
0.3607964044675953
 10
93.41195689457885
 20
-21.55905012135276
 30
0.0
 10
93.45595953427361
 20
-21.52343592147912
 30
0.0
 10
93.54972355826792
 20
-21.44754659496018
 30
0.0
 10
93.62508140109293
 20
-21.35328140303751
 30
0.0
 10
93.66507446471221
 20
-21.30325404455276
 30
0.0
 11
93.41195689457885
 21
-21.55905012135276
 31
0.0
 11
93.53991114097885
 21
-21.44816052561943
 31
0.0
 11
93.66507446471221
 21
-21.30325404455276
 31
0.0
  0
SPLINE
  5
26B
100
AcDbEntity
  8
0
  6
HIDDEN
 62
     8
 48
0.5
100
AcDbSpline
210
0.0
220
0.0
230
1.0
 70
     8
 71
     3
 72
    21
 73
    17
 74
    15
 42
0.0000001
 43
0.0000001
 44
0.0000000001
 40
0.0
 40
0.0
 40
0.0
 40
0.0
 40
0.0101851550965062
 40
0.025521052152856
 40
0.0433360651210956
 40
0.06248531882243
 40
0.0827748292693979
 40
0.1043212554465574
 40
0.1272147198827283
 40
0.1515597001026384
 40
0.177461803494518
 40
0.2050180954705564
 40
0.2343093843512237
 40
0.265394754221973
 40
0.2983102286743871
 40
0.3330591837618607
 40
0.3330591837618607
 40
0.3330591837618607
 40
0.3330591837618607
 10
92.21766297777888
 20
-21.34563842001943
 30
0.0
 10
92.21791360111273
 20
-21.34902450347968
 30
0.0
 10
92.21854159068326
 20
-21.35750904905256
 30
0.0
 10
92.21897728425394
 20
-21.37195165025756
 30
0.0
 10
92.2192851798689
 20
-21.38938144484528
 30
0.0
 10
92.21948237396636
 20
-21.40846543601895
 30
0.0
 10
92.21962754883421
 20
-21.42879322395614
 30
0.0
 10
92.21974710526287
 20
-21.45036939356879
 30
0.0
 10
92.21986434052462
 20
-21.4732973744856
 30
0.0
 10
92.21999739345665
 20
-21.49767719833423
 30
0.0
 10
92.22016385611009
 20
-21.52361112851953
 30
0.0
 10
92.22038186563773
 20
-21.55119350760015
 30
0.0
 10
92.22067027367472
 20
-21.58050309913279
 30
0.0
 10
92.22105293638442
 20
-21.61159814575313
 30
0.0
 10
92.22154389612144
 20
-21.6445111683523
 30
0.0
 10
92.22197542251713
 20
-21.66706187216863
 30
0.0
 10
92.22219703217888
 20
-21.67864274855276
 30
0.0
 11
92.21766297777888
 21
-21.34563842001943
 31
0.0
 11
92.21835569351219
 21
-21.35579999121943
 31
0.0
 11
92.21892279857886
 21
-21.37112539921943
 31
0.0
 11
92.21925635057885
 21
-21.38893728935276
 31
0.0
 11
92.21946855644551
 21
-21.40808536721943
 31
0.0
 11
92.21961930737888
 21
-21.42837431761943
 31
0.0
 11
92.21974312711219
 21
-21.44992038801942
 31
0.0
 11
92.21986313991221
 21
-21.4728135378861
 31
0.0
 11
92.21999833991219
 21
-21.49715814268609
 31
0.0
 11
92.22016652977885
 21
-21.52305970001943
 31
0.0
 11
92.22038591431219
 21
-21.5506151186861
 31
0.0
 11
92.22067606897885
 21
-21.57990497041943
 31
0.0
 11
92.22105856497888
 21
-21.61098798695275
 31
0.0
 11
92.22155728817886
 21
-21.64389968295277
 31
0.0
 11
92.22219703217888
 21
-21.67864274855276
 31
0.0
  0
LWPOLYLINE
  5
26C
100
AcDbEntity
  8
0
  6
HIDDEN
 62
     8
 48
0.5
100
AcDbPolyline
 90
        8
 70
     0
 43
0.0
 10
92.291104
 20
-21.815312
 10
92.283365
 20
-21.7823
 10
92.277097
 20
-21.732941
 10
92.272614
 20
-21.669711
 10
92.270141
 20
-21.59578
 10
92.269801
 20
-21.514856
 10
92.271612
 20
-21.430996
 10
92.275483
 20
-21.348406
  0
LWPOLYLINE
  5
26D
100
AcDbEntity
  8
0
  6
HIDDEN
 62
     8
 48
0.5
100
AcDbPolyline
 90
       10
 70
     0
 43
0.0
 10
92.34459
 20
-21.660981
 10
92.339902
 20
-21.656886
 10
92.335038
 20
-21.642779
 10
92.330866
 20
-21.619223
 10
92.32757
 20
-21.587247
 10
92.325294
 20
-21.548248
 10
92.324136
 20
-21.503932
 10
92.324148
 20
-21.456234
 10
92.325329
 20
-21.40724
 10
92.327627
 20
-21.35909
  0
LWPOLYLINE
  5
26E
100
AcDbEntity
  8
0
  6
HIDDEN
 62
     8
 48
0.5
100
AcDbPolyline
 90
       10
 70
     0
 43
0.0
 10
91.847883
 20
-21.647605
 10
91.846213
 20
-21.64708
 10
91.840697
 20
-21.637694
 10
91.835857
 20
-21.61705
 10
91.831938
 20
-21.586185
 10
91.829134
 20
-21.546645
 10
91.827588
 20
-21.500413
 10
91.827375
 20
-21.449809
 10
91.828508
 20
-21.397369
 10
91.830928
 20
-21.345722
  0
SPLINE
  5
26F
100
AcDbEntity
  8
0
  6
HIDDEN
 62
     8
 48
0.5
100
AcDbSpline
210
0.0
220
0.0
230
1.0
 70
     8
 71
     3
 72
    10
 73
     6
 74
     4
 42
0.0000001
 43
0.0000001
 44
0.0000000001
 40
0.0
 40
0.0
 40
0.0
 40
0.0
 40
0.045303284864453
 40
0.2301561722816953
 40
0.3944944134367812
 40
0.3944944134367812
 40
0.3944944134367812
 40
0.3944944134367812
 10
93.74226996657887
 20
-21.31254674001943
 30
0.0
 10
93.73480226697736
 20
-21.3256654827495
 30
0.0
 10
93.69686380045841
 20
-21.39231317995143
 30
0.0
 10
93.62417366102347
 20
-21.50305292864865
 30
0.0
 10
93.54083895378632
 20
-21.58469272757578
 30
0.0
 10
93.50161951751221
 20
-21.62311449681943
 30
0.0
 11
93.74226996657887
 21
-21.31254674001943
 31
0.0
 11
93.71969366044552
 21
-21.3518239346861
 31
0.0
 11
93.61507127111218
 21
-21.50422060668609
 31
0.0
 11
93.50161951751221
 21
-21.62311449681943
 31
0.0
  0
SPLINE
  5
270
100
AcDbEntity
  8
0
  6
HIDDEN
 62
     8
 48
0.5
100
AcDbSpline
210
0.0
220
0.0
230
-1.0
 70
     8
 71
     3
 72
    14
 73
    10
 74
     8
 42
0.0000001
 43
0.0000001
 44
0.0000000001
 40
0.0
 40
0.0
 40
0.0
 40
0.0
 40
0.0617333542356885
 40
0.372867336881346
 40
0.6579380186714522
 40
0.9124199838746184
 40
1.136349404723724
 40
1.336728554505063
 40
1.524049945624795
 40
1.524049945624795
 40
1.524049945624795
 40
1.524049945624795
 10
91.53633594737886
 20
-20.90154409255277
 30
0.0
 10
91.51723459787476
 20
-20.90919603820978
 30
0.0
 10
91.40186310367013
 20
-20.95541352686584
 30
0.0
 10
91.20282103770426
 20
-21.04863016747568
 30
0.0
 10
90.96142935349741
 20
-21.19894324896248
 30
0.0
 10
90.76840906177341
 20
-21.36729666535251
 30
0.0
 10
90.63110619712629
 20
-21.54876170948067
 30
0.0
 10
90.54407253157723
 20
-21.73636373325647
 30
0.0
 10
90.52716964438912
 20
-21.8651042368889
 30
0.0
 10
90.51900284551221
 20
-21.9273064978861
 30
0.0
 11
91.53633594737886
 21
-20.90154409255277
 31
0.0
 11
91.47910235057887
 21
-20.9246811282861
 31
0.0
 11
91.19798277404553
 21
-21.05800831548609
 31
0.0
 11
90.95741031964553
 21
-21.21094682535276
 31
0.0
 11
90.76752634097886
 21
-21.38037275388609
 31
0.0
 11
90.63343067271219
 21
-21.55971247975276
 31
0.0
 11
90.55243621511221
 21
-21.74299287015276
 31
0.0
 11
90.51900284551221
 21
-21.9273064978861
 31
0.0
  0
LWPOLYLINE
  5
271
100
AcDbEntity
  8
0
  6
HIDDEN
 62
     8
 48
0.5
100
AcDbPolyline
 90
        7
 70
     0
 43
0.0
 10
91.596072
 20
-21.33516
 10
91.2735
 20
-21.453487
 10
91.003678
 20
-21.583698
 10
90.78966
 20
-21.724321
 10
90.633869
 20
-21.873762
 10
90.538071
 20
-22.030329
 10
90.504007
 20
-22.176682
  0
LWPOLYLINE
  5
272
100
AcDbEntity
  8
0
  6
HIDDEN
 62
     8
 48
0.5
100
AcDbPolyline
 90
       15
 70
     0
 43
0.0
 10
91.754498
 20
-20.841988
 10
91.484781
 20
-20.951228
 10
91.26022
 20
-21.07002
 10
91.083078
 20
-21.197165
 10
90.955136
 20
-21.331384
 10
90.877679
 20
-21.471324
 10
90.851485
 20
-21.615578
 10
90.876817
 20
-21.762691
 10
90.953419
 20
-21.911185
 10
91.080521
 20
-22.059564
 10
91.256843
 20
-22.206335
 10
91.480614
 20
-22.35002
 10
91.749583
 20
-22.489172
 10
92.061044
 20
-22.622391
 10
92.411858
 20
-22.748331
  0
LINE
  5
273
100
AcDbEntity
  8
0
  6
HIDDEN
 62
     8
 48
0.5
100
AcDbLine
 10
92.379457
 20
-21.799391
 30
0.0
 11
92.409155
 21
-21.305525
 31
0.0
  0
LINE
  5
274
100
AcDbEntity
  8
0
  6
HIDDEN
 62
     8
 48
0.5
100
AcDbLine
 10
92.417747
 20
-21.379745
 30
0.0
 11
92.421593
 21
-21.119968
 31
0.0
  0
SPLINE
  5
275
100
AcDbEntity
  8
0
  6
HIDDEN
 62
     8
 48
0.5
100
AcDbSpline
210
0.0
220
0.0
230
-1.0
 70
     8
 71
     3
 72
    16
 73
    12
 74
    10
 42
0.0000001
 43
0.0000001
 44
0.0000000001
 40
0.0
 40
0.0
 40
0.0
 40
0.0
 40
0.0235889526932442
 40
0.2360135611769834
 40
0.4266563142591511
 40
0.59156362468456
 40
0.7274211771311954
 40
0.8319347302143377
 40
0.9045106838302084
 40
0.9465971075911125
 40
0.9606885613283516
 40
0.9606885613283516
 40
0.9606885613283516
 40
0.9606885613283516
 10
92.1447504967122
 20
-21.98851714001943
 30
0.0
 10
92.136915164054
 20
-21.98917549009687
 30
0.0
 10
92.05852063812013
 20
-21.99576245257456
 30
0.0
 10
91.91708230433212
 20
-22.01125940482487
 30
0.0
 10
91.73007744417665
 20
-22.04132567487996
 30
0.0
 10
91.57004074207645
 20
-22.07688993461773
 30
0.0
 10
91.44053346106835
 20
-22.11562043642324
 30
0.0
 10
91.34319395723805
 20
-22.15392037095882
 30
0.0
 10
91.27885279208795
 20
-22.18846298809354
 30
0.0
 10
91.24301426781876
 20
-22.21280114353016
 30
0.0
 10
91.23028914447145
 20
-22.22657316134091
 30
0.0
 10
91.22709722097885
 20
-22.23002768401943
 30
0.0
 11
92.1447504967122
 21
-21.98851714001943
 31
0.0
 11
92.12124604764554
 21
-21.99051202428609
 31
0.0
 11
91.91011404231222
 21
-22.01391054161943
 31
0.0
 11
91.72196989617885
 21
-22.04467479975276
 31
0.0
 11
91.56113333511219
 21
-22.08108938001942
 31
0.0
 11
91.43117089244555
 21
-22.12067521148609
 31
0.0
 11
91.33433834951219
 21
-22.16000130215275
 31
0.0
 11
91.27060101937885
 21
-22.19471184508609
 31
0.0
 11
91.23685620764552
 21
-22.21986248615277
 31
0.0
 11
91.22709722097885
 21
-22.23002768401943
 31
0.0
  0
LWPOLYLINE
  5
276
100
AcDbEntity
  8
0
  6
HIDDEN
 62
     8
 48
0.5
100
AcDbPolyline
 90
        8
 70
     0
 43
0.0
 10
91.26776
 20
-22.113072
 10
91.334669
 20
-22.046163
 10
91.436926
 20
-21.984715
 10
91.572365
 20
-21.930026
 10
91.738121
 20
-21.883256
 10
91.930685
 20
-21.845394
 10
92.145983
 20
-21.81724
 10
92.379457
 20
-21.799391
  0
LINE
  5
277
100
AcDbEntity
  8
0
  6
HIDDEN
 62
     8
 48
0.5
100
AcDbLine
 10
91.847887
 20
-21.647615
 30
0.0
 11
92.344586
 21
-21.660983
 31
0.0
  0
LWPOLYLINE
  5
278
100
AcDbEntity
  8
0
  6
HIDDEN
 62
     8
 48
0.5
100
AcDbPolyline
 90
        4
 70
     0
 43
0.0
 10
92.973015
 20
-22.278923
 10
92.945813
 20
-22.303036
 10
92.918671
 20
-22.390533
 10
92.893589
 20
-22.534886
  0
LINE
  5
279
100
AcDbEntity
  8
0
  6
HIDDEN
 62
     8
 48
0.5
100
AcDbLine
 10
93.006246
 20
-22.268661
 30
0.0
 11
93.029651
 21
-23.140973
 31
0.0
  0
LINE
  5
27A
100
AcDbEntity
  8
0
  6
HIDDEN
 62
     8
 48
0.5
100
AcDbLine
 10
92.411858
 20
-22.748331
 30
0.0
 11
93.006032
 21
-22.764323
 31
0.0
  0
LINE
  5
27B
100
AcDbEntity
  8
0
  6
HIDDEN
 62
     8
 48
0.5
100
AcDbLine
 10
93.006032
 20
-22.764323
 30
0.0
 11
92.950809
 21
-22.604176
 31
0.0
  0
SPLINE
  5
27C
100
AcDbEntity
  8
0
  6
HIDDEN
 62
     8
 48
0.5
100
AcDbSpline
210
-0.9996295452171189
220
-0.0272171330050781
230
0.0
 70
    24
 71
     3
 72
     8
 73
     4
 74
     2
 42
0.0000001
 43
0.0000001
 44
0.0000000001
 40
0.0
 40
0.0
 40
0.0
 40
0.0
 40
0.0900034253994157
 40
0.0900034253994157
 40
0.0900034253994157
 40
0.0900034253994157
 10
93.02965062791219
 20
-23.14097348241943
 30
0.0
 10
93.03046717297887
 20
-23.17096351015276
 30
0.0
 10
93.03128371804552
 20
-23.20095353788609
 30
0.0
 10
93.03210026311219
 20
-23.23094356561943
 30
0.0
 11
93.02965062791219
 21
-23.14097348241943
 31
0.0
 11
93.03210026311219
 21
-23.23094356561943
 31
0.0
  0
LWPOLYLINE
  5
27D
100
AcDbEntity
  8
0
  6
HIDDEN
 62
     8
 48
0.5
100
AcDbPolyline
 90
        8
 70
     0
 43
0.0
 10
93.006032
 20
-22.764323
 10
93.01377
 20
-22.797335
 10
93.020038
 20
-22.846694
 10
93.024521
 20
-22.909924
 10
93.026995
 20
-22.983855
 10
93.027335
 20
-23.064779
 10
93.025524
 20
-23.148639
 10
93.021653
 20
-23.231229
  0
SPLINE
  5
27E
100
AcDbEntity
  8
0
  6
HIDDEN
 62
     8
 48
0.5
100
AcDbSpline
210
-0.9986198621148304
220
0.0525201960178906
230
0.0
 70
    24
 71
     3
 72
     9
 73
     5
 74
     3
 42
0.0000001
 43
0.0000001
 44
0.0000000001
 40
0.0
 40
0.0
 40
0.0
 40
0.0
 40
0.0025173164468605
 40
0.0050396713889692
 40
0.0050396713889692
 40
0.0050396713889692
 40
0.0050396713889692
 10
92.34257377137884
 20
-23.21295210961943
 30
0.0
 10
92.34262255793224
 20
-23.21211441620641
 30
0.0
 10
92.34272022868697
 20
-23.21043735270826
 30
0.0
 10
92.34279901933525
 20
-23.20875929618178
 30
0.0
 10
92.34283845404553
 20
-23.20791942908609
 30
0.0
 11
92.34257377137884
 21
-23.21295210961943
 31
0.0
 11
92.34271542044552
 21
-23.21043878161944
 31
0.0
 11
92.34283845404553
 21
-23.20791942908609
 31
0.0
  0
SPLINE
  5
27F
100
AcDbEntity
  8
0
  6
HIDDEN
 62
     8
 48
0.5
100
AcDbSpline
210
0.2324587267496952
220
0.9726062617307739
230
0.0
 70
    24
 71
     3
 72
     8
 73
     4
 74
     2
 42
0.0000001
 43
0.0000001
 44
0.0000000001
 40
0.0
 40
0.0
 40
0.0
 40
0.0
 40
0.0879648421288213
 40
0.0879648421288213
 40
0.0879648421288213
 40
0.0879648421288213
 10
92.20849718044553
 20
-22.48793990695276
 30
0.0
 10
92.17997879502332
 20
-22.4811238418861
 30
0.0
 10
92.1514604096011
 20
-22.47430777681942
 30
0.0
 10
92.12294202417888
 20
-22.46749171175276
 30
0.0
 11
92.20849718044553
 21
-22.48793990695276
 31
0.0
 11
92.12294202417888
 21
-22.46749171175276
 31
0.0
  0
SPLINE
  5
280
100
AcDbEntity
  8
0
  6
HIDDEN
 62
     8
 48
0.5
100
AcDbSpline
210
0.0
220
0.0
230
-1.0
 70
     8
 71
     3
 72
    15
 73
    11
 74
     9
 42
0.0000001
 43
0.0000001
 44
0.0000000001
 40
0.0
 40
0.0
 40
0.0
 40
0.0
 40
0.0386619624356925
 40
0.074322538352488
 40
0.1058636492638334
 40
0.1324543502951442
 40
0.1535121472452709
 40
0.1687183529809283
 40
0.1780778084736008
 40
0.1821020962532624
 40
0.1821020962532624
 40
0.1821020962532624
 40
0.1821020962532624
 10
92.91767871964555
 20
-22.78024388455276
 30
0.0
 10
92.91852575170452
 20
-22.76738295802203
 30
0.0
 10
92.92015405944479
 20
-22.74265951810562
 30
0.0
 10
92.92349171820685
 20
-22.70753679109059
 30
0.0
 10
92.92725946052829
 20
-22.67645806052415
 30
0.0
 10
92.93147837818603
 20
-22.65049963115308
 30
0.0
 10
92.93571731145627
 20
-22.62969257093048
 30
0.0
 10
92.94047259377634
 20
-22.61581504078287
 30
0.0
 10
92.94411864475419
 20
-22.60589945517953
 30
0.0
 10
92.94846510375114
 20
-22.6044157333714
 30
0.0
 10
92.94977201777886
 20
-22.60396960081943
 30
0.0
 11
92.91767871964555
 21
-22.78024388455276
 31
0.0
 11
92.92041327431219
 21
-22.74167875068609
 31
0.0
 11
92.92378515377885
 21
-22.70617794641943
 31
0.0
 11
92.92768259804551
 21
-22.67487855975276
 31
0.0
 11
92.93198333297885
 21
-22.6486379602861
 31
0.0
 11
92.93656179057888
 21
-22.62808392081943
 31
0.0
 11
92.94130131164553
 21
-22.61363519655277
 31
0.0
 11
92.94608992924555
 21
-22.60559352081943
 31
0.0
 11
92.94977201777886
 21
-22.60396960081943
 31
0.0
  0
LWPOLYLINE
  5
281
100
AcDbEntity
  8
0
  6
HIDDEN
 62
     8
 48
0.5
100
AcDbPolyline
 90
       10
 70
     0
 43
0.0
 10
92.969508
 20
-23.220545
 10
92.971807
 20
-23.172395
 10
92.972988
 20
-23.123401
 10
92.972999
 20
-23.075703
 10
92.971842
 20
-23.031387
 10
92.969565
 20
-22.992388
 10
92.966269
 20
-22.960412
 10
92.962098
 20
-22.936856
 10
92.957234
 20
-22.922749
 10
92.952546
 20
-22.918654
  0
LWPOLYLINE
  5
282
100
AcDbEntity
  8
0
  6
HIDDEN
 62
     8
 48
0.5
100
AcDbPolyline
 90
       10
 70
     0
 43
0.0
 10
92.472809
 20
-23.207177
 10
92.47523
 20
-23.15553
 10
92.476362
 20
-23.10309
 10
92.47615
 20
-23.052485
 10
92.474603
 20
-23.006254
 10
92.471799
 20
-22.966714
 10
92.46788
 20
-22.935848
 10
92.463041
 20
-22.915205
 10
92.457525
 20
-22.905818
 10
92.455854
 20
-22.905293
  0
LWPOLYLINE
  5
283
100
AcDbEntity
  8
0
  6
HIDDEN
 62
     8
 48
0.5
100
AcDbPolyline
 90
        7
 70
     0
 43
0.0
 10
92.455854
 20
-22.905293
 10
92.451608
 20
-22.908159
 10
92.445588
 20
-22.922111
 10
92.439766
 20
-22.946973
 10
92.434435
 20
-22.9815
 10
92.42986
 20
-23.023959
 10
92.426273
 20
-23.072222
  0
LWPOLYLINE
  5
284
100
AcDbEntity
  8
0
  6
HIDDEN
 62
     8
 48
0.5
100
AcDbPolyline
 90
        8
 70
     0
 43
0.0
 10
92.952546
 20
-22.918654
 10
92.951889
 20
-22.918709
 10
92.946297
 20
-22.924911
 10
92.940703
 20
-22.941084
 10
92.935351
 20
-22.966523
 10
92.930475
 20
-23.000114
 10
92.926287
 20
-23.04039
 10
92.922972
 20
-23.08559
  0
SPLINE
  5
285
100
AcDbEntity
  8
0
  6
HIDDEN
 62
     8
 48
0.5
100
AcDbSpline
210
0.0
220
0.0
230
1.0
 70
     8
 71
     3
 72
    19
 73
    15
 74
    13
 42
0.0000001
 43
0.0000001
 44
0.0000000001
 40
0.0
 40
0.0
 40
0.0
 40
0.0
 40
0.068836611456665
 40
0.139923027612451
 40
0.2070019359071574
 40
0.2652778474378076
 40
0.3134624188366859
 40
0.3529525712244932
 40
0.3851493659009093
 40
0.4114359810580696
 40
0.4321637397758951
 40
0.4480217262567569
 40
0.462497654701506
 40
0.4848683754819579
 40
0.4848683754819579
 40
0.4848683754819579
 40
0.4848683754819579
 10
92.34283845831219
 20
-23.2079193490861
 30
0.0
 10
92.3442915309163
 20
-23.18501354975562
 30
0.0
 10
92.34724516727061
 20
-23.13845331495643
 30
0.0
 10
92.35662096895213
 20
-23.07003567112972
 30
0.0
 10
92.36861720056046
 20
-23.00564303736467
 30
0.0
 10
92.3820718024114
 20
-22.94935714981392
 30
0.0
 10
92.39548077248992
 20
-22.90257966349034
 30
0.0
 10
92.40801328070499
 20
-22.86462153529895
 30
0.0
 10
92.41914841408854
 20
-22.8339415522593
 30
0.0
 10
92.42859969049078
 20
-22.80922112491175
 30
0.0
 10
92.43522249875493
 20
-22.78949620331961
 30
0.0
 10
92.43930295728636
 20
-22.7724854515704
 30
0.0
 10
92.43150555419175
 20
-22.75489833233149
 30
0.0
 10
92.41928018228241
 20
-22.75081221690277
 30
0.0
 10
92.41185778737886
 20
-22.74833141201943
 30
0.0
 11
92.34283845831219
 21
-23.2079193490861
 31
0.0
 11
92.34801667484552
 21
-23.13927777895276
 31
0.0
 11
92.35737942044554
 21
-23.06881064081943
 31
0.0
 11
92.36974570631218
 21
-23.00288147495276
 31
0.0
 11
92.38331172337888
 21
-22.9462065682861
 31
0.0
 11
92.39661524124555
 21
-22.8998949138861
 31
0.0
 11
92.40897386631221
 21
-22.8623884274861
 31
0.0
 11
92.41992051057886
 21
-22.83210964668609
 31
0.0
 11
92.42905748871221
 21
-22.80746209575276
 31
0.0
 11
92.43543689244551
 21
-22.78774045308609
 31
0.0
 11
92.43752440391219
 21
-22.77202046481944
 31
0.0
 11
92.43162799537888
 21
-22.75879984188609
 31
0.0
 11
92.41185778737886
 21
-22.74833141201943
 31
0.0
  0
SPLINE
  5
286
100
AcDbEntity
  8
0
  6
HIDDEN
 62
     8
 48
0.5
100
AcDbSpline
210
0.0
220
0.0
230
1.0
 70
     8
 71
     3
 72
    10
 73
     6
 74
     4
 42
0.0000001
 43
0.0000001
 44
0.0000000001
 40
0.0
 40
0.0
 40
0.0
 40
0.0
 40
0.2612363485075264
 40
0.514017718087225
 40
0.7507524181583241
 40
0.7507524181583241
 40
0.7507524181583241
 40
0.7507524181583241
 10
92.94977270151219
 20
-22.60391195281943
 30
0.0
 10
92.86317820739263
 20
-22.59468856907192
 30
0.0
 10
92.69279187133887
 20
-22.57654031866946
 30
0.0
 10
92.44533388402706
 20
-22.53821774058783
 30
0.0
 10
92.2856984287274
 20
-22.50432888492297
 30
0.0
 10
92.20849718044553
 20
-22.48793990695276
 30
0.0
 11
92.94977270151219
 21
-22.60391195281943
 31
0.0
 11
92.69023698737886
 21
-22.57415220028609
 31
0.0
 11
92.44050215644552
 21
-22.53502503548609
 31
0.0
 11
92.20849718044553
 21
-22.48793990695276
 31
0.0
  0
LWPOLYLINE
  5
287
100
AcDbEntity
  8
0
  6
HIDDEN
 62
     8
 48
0.5
100
AcDbPolyline
 90
       10
 70
     0
 43
0.0
 10
92.922972
 20
-23.08559
 10
92.920674
 20
-23.13374
 10
92.919493
 20
-23.182734
 10
92.919481
 20
-23.230432
 10
92.920639
 20
-23.274748
 10
92.922915
 20
-23.313747
 10
92.926211
 20
-23.345723
 10
92.930382
 20
-23.369279
 10
92.935247
 20
-23.383385
 10
92.939934
 20
-23.387481
  0
LWPOLYLINE
  5
288
100
AcDbEntity
  8
0
  6
HIDDEN
 62
     8
 48
0.5
100
AcDbPolyline
 90
       10
 70
     0
 43
0.0
 10
92.426273
 20
-23.072222
 10
92.423852
 20
-23.123868
 10
92.42272
 20
-23.176309
 10
92.422932
 20
-23.226913
 10
92.424479
 20
-23.273145
 10
92.427283
 20
-23.312684
 10
92.431202
 20
-23.34355
 10
92.436041
 20
-23.364194
 10
92.441557
 20
-23.37358
 10
92.443228
 20
-23.374105
  0
LWPOLYLINE
  5
289
100
AcDbEntity
  8
0
  6
HIDDEN
 62
     8
 48
0.5
100
AcDbPolyline
 90
        7
 70
     0
 43
0.0
 10
92.443228
 20
-23.374105
 10
92.447474
 20
-23.371239
 10
92.453494
 20
-23.357287
 10
92.459316
 20
-23.332425
 10
92.464648
 20
-23.297899
 10
92.469222
 20
-23.255439
 10
92.472809
 20
-23.207177
  0
LWPOLYLINE
  5
28A
100
AcDbEntity
  8
0
  6
HIDDEN
 62
     8
 48
0.5
100
AcDbPolyline
 90
        8
 70
     0
 43
0.0
 10
92.939934
 20
-23.387481
 10
92.940592
 20
-23.387426
 10
92.946183
 20
-23.381224
 10
92.951777
 20
-23.36505
 10
92.95713
 20
-23.339612
 10
92.962006
 20
-23.306021
 10
92.966193
 20
-23.265745
 10
92.969508
 20
-23.220545
  0
LINE
  5
28B
100
AcDbEntity
  8
0
  6
HIDDEN
 62
     8
 48
0.5
100
AcDbLine
 10
92.939931
 20
-23.387483
 30
0.0
 11
92.443232
 21
-23.374114
 31
0.0
  0
LINE
  5
28C
100
AcDbEntity
  8
0
  6
HIDDEN
 62
     8
 48
0.5
100
AcDbLine
 10
92.949772
 20
-22.603919
 30
0.0
 11
92.950809
 21
-22.604176
 31
0.0
  0
LINE
  5
28D
100
AcDbEntity
  8
0
  6
HIDDEN
 62
     8
 48
0.5
100
AcDbLine
 10
92.952549
 20
-22.918652
 30
0.0
 11
92.45585
 21
-22.905284
 31
0.0
  0
LINE
  5
28E
100
AcDbEntity
  8
0
  6
HIDDEN
 62
     8
 48
0.5
100
AcDbLine
 10
92.887981
 20
-23.27411
 30
0.0
 11
92.917679
 21
-22.780244
 31
0.0
  0
SPLINE
  5
28F
100
AcDbEntity
  8
0
  6
HIDDEN
 62
     8
 48
0.5
100
AcDbSpline
210
0.0
220
0.0
230
1.0
 70
     8
 71
     3
 72
     9
 73
     5
 74
     3
 42
0.0000001
 43
0.0000001
 44
0.0000000001
 40
0.0
 40
0.0
 40
0.0
 40
0.0
 40
0.102047398666887
 40
0.2030102599705375
 40
0.2030102599705375
 40
0.2030102599705375
 40
0.2030102599705375
 10
93.18018158791222
 20
-21.77297533095277
 30
0.0
 10
93.14613258976498
 20
-21.77600466884839
 30
0.0
 10
93.07839645875224
 20
-21.78203114950115
 30
0.0
 10
93.01145535734374
 20
-21.77008065831787
 30
0.0
 10
92.97816361564555
 20
-21.76413733415277
 30
0.0
 11
93.18018158791222
 21
-21.77297533095277
 31
0.0
 11
93.07823548017887
 21
-21.77752095441943
 31
0.0
 11
92.97816361564555
 21
-21.76413733415277
 31
0.0
  0
SPLINE
  5
290
100
AcDbEntity
  8
0
  6
HIDDEN
 62
     8
 48
0.5
100
AcDbSpline
210
0.0
220
0.0
230
1.0
 70
     8
 71
     3
 72
    12
 73
     8
 74
     6
 42
0.0000001
 43
0.0000001
 44
0.0000000001
 40
0.0
 40
0.0
 40
0.0
 40
0.0
 40
0.1073647398326767
 40
0.2071427963318162
 40
0.3013642783580356
 40
0.3924810690060976
 40
0.4423487062014931
 40
0.4423487062014931
 40
0.4423487062014931
 40
0.4423487062014931
 10
92.69270700657887
 20
-21.54257241041943
 30
0.0
 10
92.72177704117559
 20
-21.56353355257733
 30
0.0
 10
92.777862942983
 20
-21.60397466581118
 30
0.0
 10
92.86869602972815
 20
-21.64815166138008
 30
0.0
 10
92.95991947537476
 20
-21.67595389453631
 30
0.0
 10
93.03833195479118
 20
-21.68569632236258
 30
0.0
 10
93.08530507137609
 20
-21.68342538404556
 30
0.0
 10
93.10191994417886
 20
-21.68262212988609
 30
0.0
 11
92.69270700657887
 21
-21.54257241041943
 31
0.0
 11
92.78162255217887
 21
-21.60274892668609
 31
0.0
 11
92.87132252764553
 21
-21.64644761041943
 31
0.0
 11
92.96155594737887
 21
-21.67356988241943
 31
0.0
 11
93.05207182364553
 21
-21.68401716348609
 31
0.0
 11
93.10191994417886
 21
-21.68262212988609
 31
0.0
  0
SPLINE
  5
291
100
AcDbEntity
  8
0
  6
HIDDEN
 62
     8
 48
0.5
100
AcDbSpline
210
0.0
220
0.0
230
1.0
 70
     8
 71
     3
 72
    15
 73
    11
 74
     9
 42
0.0000001
 43
0.0000001
 44
0.0000000001
 40
0.0
 40
0.0
 40
0.0
 40
0.0
 40
0.0170349673313128
 40
0.0259531321383834
 40
0.0297568203190906
 40
0.0343493886339051
 40
0.0397771024726963
 40
0.0456159439164339
 40
0.0515856205209267
 40
0.0578031605835659
 40
0.0578031605835659
 40
0.0578031605835659
 40
0.0578031605835659
 10
93.0062460423122
 20
-22.26866089361943
 30
0.0
 10
93.00569865193457
 20
-22.27396076937036
 30
0.0
 10
93.00486469114522
 20
-22.28203524189535
 30
0.0
 10
93.00264108930237
 20
-22.29396267781
 30
0.0
 10
92.99609491794607
 20
-22.29435364142303
 30
0.0
 10
92.99229259080433
 20
-22.29156446323554
 30
0.0
 10
92.98812138500601
 20
-22.28837360663209
 30
0.0
 10
92.98362588500348
 20
-22.28478593883788
 30
0.0
 10
92.97867076186609
 20
-22.2813415428595
 30
0.0
 10
92.97492576142071
 20
-22.2797399083072
 30
0.0
 10
92.9730151783122
 20
-22.27892280401943
 30
0.0
 11
93.0062460423122
 21
-22.26866089361943
 31
0.0
 11
93.00412763164553
 21
-22.28556362855275
 31
0.0
 11
93.0003624391122
 21
-22.2936479954861
 31
0.0
 11
92.99657069937888
 21
-22.29394924881944
 31
0.0
 11
92.99254763697888
 21
-22.2917341522861
 31
0.0
 11
92.98823526897889
 21
-22.28843816081943
 31
0.0
 11
92.98361938844553
 21
-22.28486244881943
 31
0.0
 11
92.97864414684553
 21
-22.28156335655277
 31
0.0
 11
92.9730151783122
 21
-22.27892280401943
 31
0.0
  0
SPLINE
  5
292
100
AcDbEntity
  8
0
  6
HIDDEN
 62
     8
 48
0.5
100
AcDbSpline
210
0.0
220
0.0
230
1.0
 70
     8
 71
     3
 72
     9
 73
     5
 74
     3
 42
0.0000001
 43
0.0000001
 44
0.0000000001
 40
0.0
 40
0.0
 40
0.0
 40
0.0
 40
0.0848780243214625
 40
0.1486053863571299
 40
0.1486053863571299
 40
0.1486053863571299
 40
0.1486053863571299
 10
93.00993208284552
 20
-22.2711517074861
 30
0.0
 10
93.00123815618258
 20
-22.24364485204222
 30
0.0
 10
92.98601673295747
 20
-22.19548554445482
 30
0.0
 10
92.95013517911796
 20
-22.16033956238944
 30
0.0
 10
92.93474787164553
 20
-22.1452676946861
 30
0.0
 11
93.00993208284552
 21
-22.2711517074861
 31
0.0
 11
92.97711038684553
 21
-22.19287645415275
 31
0.0
 11
92.93474787164553
 21
-22.1452676946861
 31
0.0
  0
SPLINE
  5
293
100
AcDbEntity
  8
0
  6
HIDDEN
 62
     8
 48
0.5
100
AcDbSpline
210
0.0
220
0.0
230
1.0
 70
     8
 71
     3
 72
    11
 73
     7
 74
     5
 42
0.0000001
 43
0.0000001
 44
0.0000000001
 40
0.0
 40
0.0
 40
0.0
 40
0.0
 40
0.0350670134876183
 40
0.200355237519772
 40
0.2799232815092655
 40
0.3592858199749386
 40
0.3592858199749386
 40
0.3592858199749386
 40
0.3592858199749386
 10
93.50161951751221
 20
-21.62311449681943
 30
0.0
 10
93.49267644371863
 20
-21.63063916523752
 30
0.0
 10
93.44158022833376
 20
-21.67363132733587
 30
0.0
 10
93.36062429340847
 20
-21.7225266674562
 30
0.0
 10
93.25860321225977
 20
-21.75947580099714
 30
0.0
 10
93.2062995855899
 20
-21.76847936832811
 30
0.0
 10
93.18018158791222
 20
-21.77297533095277
 30
0.0
 11
93.50161951751221
 21
-21.62311449681943
 31
0.0
 11
93.47458051697888
 21
-21.64544357841942
 31
0.0
 11
93.3329926535122
 21
-21.73072589735276
 31
0.0
 11
93.25796372337885
 21
-21.7572161458861
 31
0.0
 11
93.18018158791222
 21
-21.77297533095277
 31
0.0
  0
SPLINE
  5
294
100
AcDbEntity
  8
0
  6
HIDDEN
 62
     8
 48
0.5
100
AcDbSpline
210
0.0
220
0.0
230
1.0
 70
     8
 71
     3
 72
     9
 73
     5
 74
     3
 42
0.0000001
 43
0.0000001
 44
0.0000000001
 40
0.0
 40
0.0
 40
0.0
 40
0.0
 40
0.1086381449536982
 40
0.2232855778263332
 40
0.2232855778263332
 40
0.2232855778263332
 40
0.2232855778263332
 10
93.10191994417886
 20
-21.68262212988609
 30
0.0
 10
93.13800820655973
 20
-21.67762797335558
 30
0.0
 10
93.21218094323427
 20
-21.66736340995435
 30
0.0
 10
93.28003486106892
 20
-21.63562547154859
 30
0.0
 10
93.31487489671218
 20
-21.61932942055276
 30
0.0
 11
93.10191994417886
 21
-21.68262212988609
 31
0.0
 11
93.20868891164554
 21
-21.66255638481943
 31
0.0
 11
93.31487489671218
 21
-21.61932942055276
 31
0.0
  0
SPLINE
  5
295
100
AcDbEntity
  8
0
  6
HIDDEN
 62
     8
 48
0.5
100
AcDbSpline
210
0.0
220
0.0
230
1.0
 70
     8
 71
     3
 72
     9
 73
     5
 74
     3
 42
0.0000001
 43
0.0000001
 44
0.0000000001
 40
0.0
 40
0.0
 40
0.0
 40
0.0
 40
0.027734770367523
 40
0.1143351079683162
 40
0.1143351079683162
 40
0.1143351079683162
 40
0.1143351079683162
 10
93.31487489671218
 20
-21.61932942055276
 30
0.0
 10
93.32304159686318
 20
-21.61498875108274
 30
0.0
 10
93.35670838159348
 20
-21.59709457327152
 30
0.0
 10
93.38814556681153
 20
-21.57544674251967
 30
0.0
 10
93.41195689564552
 20
-21.55905012135276
 30
0.0
 11
93.31487489671218
 21
-21.61932942055276
 31
0.0
 11
93.33924380231218
 21
-21.60608653841942
 31
0.0
 11
93.41195689564552
 21
-21.55905012135276
 31
0.0
  0
LWPOLYLINE
  5
296
100
AcDbEntity
  8
0
  6
HIDDEN
 62
     8
 48
0.5
100
AcDbPolyline
 90
        6
 70
     0
 43
0.0
 10
92.222197
 20
-21.678643
 10
92.231445
 20
-21.902058
 10
92.248722
 20
-22.075245
 10
92.272477
 20
-22.182732
 10
92.300587
 20
-22.214948
 10
92.313635
 20
-22.204219
  0
SPLINE
  5
297
100
AcDbEntity
  8
0
  6
HIDDEN
 62
     8
 48
0.5
100
AcDbSpline
210
0.0
220
0.0
230
1.0
 70
     8
 71
     3
 72
    15
 73
    11
 74
     9
 42
0.0000001
 43
0.0000001
 44
0.0000000001
 40
0.0
 40
0.0
 40
0.0
 40
0.0
 40
0.0386619634242446
 40
0.0743225383800251
 40
0.1058636503498485
 40
0.1324543513811592
 40
0.1535121470582122
 40
0.1687183531263408
 40
0.1780778080732555
 40
0.1816888149334596
 40
0.1816888149334596
 40
0.1816888149334596
 40
0.1816888149334596
 10
92.37945706737887
 20
-21.79939113041942
 30
0.0
 10
92.37861001582382
 20
-21.81225197570693
 30
0.0
 10
92.37698167064593
 20
-21.83697525882089
 30
0.0
 10
92.37364427206184
 20
-21.87209905140125
 30
0.0
 10
92.36987570235895
 20
-21.90317442205294
 30
0.0
 10
92.36565917654337
 20
-21.9291425566199
 30
0.0
 10
92.36141394674243
 20
-21.9499240683584
 30
0.0
 10
92.35667318227902
 20
-21.96386049163007
 30
0.0
 10
92.35305333173631
 20
-21.97352523313311
 30
0.0
 10
92.34894998601205
 20
-21.97517893616609
 30
0.0
 10
92.34780760497887
 20
-21.97563933095276
 30
0.0
 11
92.37945706737887
 21
-21.79939113041942
 31
0.0
 11
92.37672251377887
 21
-21.83795626535276
 31
0.0
 11
92.37335063324554
 21
-21.87345706855277
 31
0.0
 11
92.36945318897886
 21
-21.9047564562861
 31
0.0
 11
92.36515245404552
 21
-21.93099705575276
 31
0.0
 11
92.36057399751221
 21
-21.95155109415277
 31
0.0
 11
92.35583447537885
 21
-21.96599981841942
 31
0.0
 11
92.35104585884554
 21
-21.97404149415276
 31
0.0
 11
92.34780760497887
 21
-21.97563933095276
 31
0.0
  0
SPLINE
  5
298
100
AcDbEntity
  8
0
  6
HIDDEN
 62
     8
 48
0.5
100
AcDbSpline
210
0.0
220
0.0
230
1.0
 70
     8
 71
     3
 72
    11
 73
     7
 74
     5
 42
0.0000001
 43
0.0000001
 44
0.0000000001
 40
0.0
 40
0.0
 40
0.0
 40
0.0
 40
0.1448165146334307
 40
0.2911383035646813
 40
0.3398371484468986
 40
0.3901103033043991
 40
0.3901103033043991
 40
0.3901103033043991
 40
0.3901103033043991
 10
92.97816361564555
 20
-21.76413733415277
 30
0.0
 10
92.93173720623183
 20
-21.74963735829728
 30
0.0
 10
92.83840181481238
 20
-21.72048668868627
 30
0.0
 10
92.74848057669073
 20
-21.64743780554313
 30
0.0
 10
92.6933067070321
 20
-21.58714457374788
 30
0.0
 10
92.67349602740209
 20
-21.56072719977064
 30
0.0
 10
92.66343312711219
 20
-21.54730840721942
 30
0.0
 11
92.97816361564555
 21
-21.76413733415277
 31
0.0
 11
92.84291733724552
 21
-21.71236603815277
 31
0.0
 11
92.72700470044554
 21
-21.62306695335276
 31
0.0
 11
92.6942542439122
 21
-21.58702551761943
 31
0.0
 11
92.66343312711219
 21
-21.54730840721942
 31
0.0
  0
SPLINE
  5
299
100
AcDbEntity
  8
0
  6
HIDDEN
 62
     8
 48
0.5
100
AcDbSpline
210
-0.0628234862071801
220
0.9980246537940717
230
0.0
 70
    24
 71
     3
 72
     8
 73
     4
 74
     2
 42
0.0000001
 43
0.0000001
 44
0.0000000001
 40
0.0
 40
0.0
 40
0.0
 40
0.0
 40
0.2034696210773554
 40
0.2034696210773554
 40
0.2034696210773554
 40
0.2034696210773554
 10
92.34781819484553
 20
-21.97573446908609
 30
0.0
 10
92.28012896213442
 20
-21.9799953593972
 30
0.0
 10
92.2124397294233
 20
-21.98425624970832
 30
0.0
 10
92.1447504967122
 20
-21.98851714001943
 30
0.0
 11
92.34781819484553
 21
-21.97573446908609
 31
0.0
 11
92.1447504967122
 21
-21.98851714001943
 31
0.0
  0
LWPOLYLINE
  5
29A
100
AcDbEntity
  8
0
  6
HIDDEN
 62
     8
 48
0.5
100
AcDbPolyline
 90
        3
 70
     0
 43
0.0
 10
92.313635
 20
-22.204219
 10
92.330537
 20
-22.169049
 10
92.359653
 20
-22.049167
  0
SPLINE
  5
29B
100
AcDbEntity
  8
0
  6
HIDDEN
 62
     8
 48
0.5
100
AcDbSpline
210
0.0
220
0.0
230
-1.0
 70
     8
 71
     3
 72
    10
 73
     6
 74
     4
 42
0.0000001
 43
0.0000001
 44
0.0000000001
 40
0.0
 40
0.0
 40
0.0
 40
0.0
 40
0.0552118548458517
 40
0.109657560277236
 40
0.165254396500364
 40
0.165254396500364
 40
0.165254396500364
 40
0.165254396500364
 10
92.66344513991219
 20
-21.54729977361943
 30
0.0
 10
92.65304785903902
 20
-21.53210663708604
 30
0.0
 10
92.63239757555817
 20
-21.50193119215917
 30
0.0
 10
92.60523000059114
 20
-21.453927103949
 30
0.0
 10
92.58935801711299
 20
-21.42085339758192
 30
0.0
 10
92.5813390087122
 20
-21.40414355601942
 30
0.0
 11
92.66344513991219
 21
-21.54729977361943
 31
0.0
 11
92.63291817777886
 21
-21.50129484455276
 31
0.0
 11
92.60596241137887
 21
-21.45399028348609
 31
0.0
 11
92.5813390087122
 21
-21.40414355601942
 31
0.0
  0
SPLINE
  5
29C
100
AcDbEntity
  8
0
  6
HIDDEN
 62
     8
 48
0.5
100
AcDbSpline
210
0.0
220
0.0
230
-1.0
 70
     8
 71
     3
 72
    10
 73
     6
 74
     4
 42
0.0000001
 43
0.0000001
 44
0.0000000001
 40
0.0
 40
0.0
 40
0.0
 40
0.0
 40
0.0598428657915455
 40
0.1201035310438191
 40
0.1814383702486357
 40
0.1814383702486357
 40
0.1814383702486357
 40
0.1814383702486357
 10
92.58042230791222
 20
-21.40210151015276
 30
0.0
 10
92.58959007427526
 20
-21.41985175362544
 30
0.0
 10
92.60798961275694
 20
-21.45547616582159
 30
0.0
 10
92.64610421925562
 20
-21.50311776649051
 30
0.0
 10
92.67708152635647
 20
-21.52934363605198
 30
0.0
 10
92.69270700657887
 20
-21.54257241041943
 30
0.0
 11
92.58042230791222
 21
-21.40210151015276
 31
0.0
 11
92.60962137457886
 21
-21.45433735121943
 31
0.0
 11
92.6472131335122
 21
-21.50143520081943
 31
0.0
 11
92.69270700657887
 21
-21.54257241041943
 31
0.0
  0
LWPOLYLINE
  5
29D
100
AcDbEntity
  8
0
  6
HIDDEN
 62
     8
 48
0.5
100
AcDbPolyline
 90
        3
 70
     0
 43
0.0
 10
92.385337
 20
-21.866025
 10
92.405294
 20
-21.636022
 10
92.417747
 20
-21.379745
  0
LWPOLYLINE
  5
29E
100
AcDbEntity
  8
0
  6
HIDDEN
 62
     8
 48
0.5
100
AcDbPolyline
 90
        8
 70
     0
 43
0.0
 10
92.374164
 20
-21.494045
 10
92.370848
 20
-21.539245
 10
92.366661
 20
-21.579521
 10
92.361785
 20
-21.613112
 10
92.356433
 20
-21.638551
 10
92.350838
 20
-21.654724
 10
92.345247
 20
-21.660926
 10
92.34459
 20
-21.660981
  0
LINE
  5
29F
100
AcDbEntity
  8
0
  6
HIDDEN
 62
     8
 48
0.5
100
AcDbLine
 10
92.291104
 20
-21.815312
 30
0.0
 11
92.346327
 21
-21.975459
 31
0.0
  0
LINE
  5
2A0
100
AcDbEntity
  8
0
  6
HIDDEN
 62
     8
 48
0.5
100
AcDbLine
 10
92.347818
 20
-21.975726
 30
0.0
 11
92.346327
 21
-21.975459
 31
0.0
  0
LINE
  5
2A1
100
AcDbEntity
  8
0
  6
HIDDEN
 62
     8
 48
0.5
100
AcDbLine
 10
92.359653
 20
-22.049167
 30
0.0
 11
92.385337
 21
-21.866025
 31
0.0
  0
SPLINE
  5
2A2
100
AcDbEntity
  8
0
  6
HIDDEN
 62
     8
 48
0.5
100
AcDbSpline
210
0.0
220
0.0
230
1.0
 70
     8
 71
     3
 72
    11
 73
     7
 74
     5
 42
0.0000001
 43
0.0000001
 44
0.0000000001
 40
0.0
 40
0.0
 40
0.0
 40
0.0
 40
0.1892173708628051
 40
0.3478756608432094
 40
0.4726139466649227
 40
0.5618021413681001
 40
0.5618021413681001
 40
0.5618021413681001
 40
0.5618021413681001
 10
91.99978999644555
 20
-22.43455210535277
 30
0.0
 10
91.93937287007816
 20
-22.41632101367126
 30
0.0
 10
91.82829613507507
 20
-22.3828031974281
 30
0.0
 10
91.68186630281917
 20
-22.32448683586817
 30
0.0
 10
91.56945536388425
 20
-22.27080281639881
 30
0.0
 10
91.51028344108505
 20
-22.2308758082024
 30
0.0
 10
91.4856140455122
 20
-22.21422981948609
 30
0.0
 11
91.99978999644555
 21
-22.43455210535277
 31
0.0
 11
91.81951330844555
 21
-22.37707576935276
 31
0.0
 11
91.67207848711219
 21
-22.31846325841943
 31
0.0
 11
91.56055577351219
 21
-22.2625854962861
 31
0.0
 11
91.4856140455122
 21
-22.21422981948609
 31
0.0
  0
LWPOLYLINE
  5
2A3
100
AcDbEntity
  8
0
  6
HIDDEN
 62
     8
 48
0.5
100
AcDbPolyline
 90
        7
 70
     0
 43
0.0
 10
91.12758
 20
-21.367253
 10
91.060261
 20
-21.497402
 10
91.038694
 20
-21.631302
 10
91.063079
 20
-21.767705
 10
91.133189
 20
-21.905338
 10
91.24837
 20
-22.042918
 10
91.407549
 20
-22.179164
  0
SPLINE
  5
2A4
100
AcDbEntity
  8
0
  6
HIDDEN
 62
     8
 48
0.5
100
AcDbSpline
210
0.0
220
0.0
230
-1.0
 70
     8
 71
     3
 72
    11
 73
     7
 74
     5
 42
0.0000001
 43
0.0000001
 44
0.0000000001
 40
0.0
 40
0.0
 40
0.0
 40
0.0
 40
0.0691952905128488
 40
0.1650253918674318
 40
0.2976004335582485
 40
0.4722108843191845
 40
0.4722108843191845
 40
0.4722108843191845
 40
0.4722108843191845
 10
91.21261424391219
 20
-21.84632878801944
 30
0.0
 10
91.21461181560176
 20
-21.86954540450471
 30
0.0
 10
91.21937586888362
 20
-21.92491523104814
 30
0.0
 10
91.27184319287247
 20
-22.01224310259479
 30
0.0
 10
91.35926054747898
 20
-22.11416667312446
 30
0.0
 10
91.43982154443865
 20
-22.17796535662188
 30
0.0
 10
91.4856140455122
 20
-22.21422981948609
 30
0.0
 11
91.21261424391219
 21
-21.84632878801944
 31
0.0
 11
91.22288451697887
 21
-21.91475765415277
 31
0.0
 11
91.26699768177886
 21
-21.99983078161943
 31
0.0
 11
91.35273733724554
 21
-22.10094879761943
 31
0.0
 11
91.4856140455122
 21
-22.21422981948609
 31
0.0
  0
LWPOLYLINE
  5
2A5
100
AcDbEntity
  8
0
  6
HIDDEN
 62
     8
 48
0.5
100
AcDbPolyline
 90
        7
 70
     0
 43
0.0
 10
91.877464
 20
-21.480677
 10
91.873877
 20
-21.52894
 10
91.869303
 20
-21.571399
 10
91.863971
 20
-21.605925
 10
91.858149
 20
-21.630788
 10
91.852129
 20
-21.644739
 10
91.847883
 20
-21.647605
  0
LINE
  5
2A6
100
AcDbEntity
  8
0
  6
HIDDEN
 62
     8
 48
0.5
100
AcDbLine
 10
90.504007
 20
-22.176682
 30
0.0
 11
90.519003
 21
-21.927306
 31
0.0
  0
LINE
  5
2A7
100
AcDbEntity
  8
0
  6
HIDDEN
 62
     8
 48
0.5
100
AcDbLine
 10
91.754498
 20
-20.841988
 30
0.0
 11
92.348672
 21
-20.85798
 31
0.0
  0
LINE
  5
2A8
100
AcDbEntity
  8
0
  6
HIDDEN
 62
     8
 48
0.5
100
AcDbLine
 10
91.860505
 20
-21.178784
 30
0.0
 11
92.357205
 21
-21.192153
 31
0.0
  0
LINE
  5
2A9
100
AcDbEntity
  8
0
  6
HIDDEN
 62
     8
 48
0.5
100
AcDbLine
 10
91.754879
 20
-20.826443
 30
0.0
 11
92.337173
 21
-20.842115
 31
0.0
  0
SPLINE
  5
2AA
100
AcDbEntity
  8
0
  6
HIDDEN
 62
     8
 48
0.5
100
AcDbSpline
210
-0.8709619132752276
220
0.4913505323330327
230
0.0
 70
    24
 71
     3
 72
     8
 73
     4
 74
     2
 42
0.0000001
 43
0.0000001
 44
0.0000000001
 40
0.0
 40
0.0
 40
0.0
 40
0.0
 40
0.1136677041300102
 40
0.1136677041300102
 40
0.1136677041300102
 40
0.1136677041300102
 10
93.79811148017887
 20
-21.21353387281943
 30
0.0
 10
93.77949458453443
 20
-21.24653395317499
 30
0.0
 10
93.76087768888998
 20
-21.27953403353055
 30
0.0
 10
93.74226079324552
 20
-21.3125341138861
 30
0.0
 11
93.79811148017887
 21
-21.21353387281943
 31
0.0
 11
93.74226079324552
 21
-21.3125341138861
 31
0.0
  0
LINE
  5
2AB
100
AcDbEntity
  8
0
  6
HIDDEN
 62
     8
 48
0.5
100
AcDbLine
 10
93.836309
 20
-21.119733
 30
0.0
 11
93.742263
 21
-21.312543
 31
0.0
  0
LWPOLYLINE
  5
2AC
100
AcDbEntity
  8
0
  6
HIDDEN
 62
     8
 48
0.5
100
AcDbPolyline
 90
        4
 70
     0
 43
0.0
 10
92.289875
 20
-21.109073
 10
92.295612
 20
-21.031894
 10
92.302926
 20
-20.963995
 10
92.311453
 20
-20.908782
  0
LWPOLYLINE
  5
2AD
100
AcDbEntity
  8
0
  6
HIDDEN
 62
     8
 48
0.5
100
AcDbPolyline
 90
        4
 70
     0
 43
0.0
 10
92.311453
 20
-20.908782
 10
92.320763
 20
-20.869024
 10
92.33039
 20
-20.846713
 10
92.33718
 20
-20.84213
  0
SPLINE
  5
2AE
100
AcDbEntity
  8
0
  6
HIDDEN
 62
     8
 48
0.5
100
AcDbSpline
210
0.0
220
0.0
230
1.0
 70
     8
 71
     3
 72
    15
 73
    11
 74
     9
 42
0.0000001
 43
0.0000001
 44
0.0000000001
 40
0.0
 40
0.0
 40
0.0
 40
0.0
 40
0.0246025253047294
 40
0.0541760834007271
 40
0.0879687721245853
 40
0.1251451963440742
 40
0.1647855542481734
 40
0.2058733658923954
 40
0.2473145409733255
 40
0.2878569446088098
 40
0.2878569446088098
 40
0.2878569446088098
 40
0.2878569446088098
 10
92.4038949831122
 20
-21.01812630695275
 30
0.0
 10
92.4050288217065
 20
-21.02624989894956
 30
0.0
 10
92.40752559524855
 20
-21.04413848526666
 30
0.0
 10
92.40985416819679
 20
-21.0733825154211
 30
0.0
 10
92.4116815376562
 20
-21.10684721796514
 30
0.0
 10
92.41273325123138
 20
-21.14370654772378
 30
0.0
 10
92.41304478599783
 20
-21.18300920530687
 30
0.0
 10
92.41255655705876
 20
-21.22373137870722
 30
0.0
 10
92.4113586212259
 20
-21.26474151880713
 30
0.0
 10
92.40988420808454
 20
-21.29203045455985
 30
0.0
 10
92.40915508337886
 20
-21.30552534055277
 30
0.0
 11
92.4038949831122
 21
-21.01812630695275
 31
0.0
 11
92.40707734044553
 21
-21.04252214375276
 31
0.0
 11
92.40962799111219
 21
-21.07198550268609
 31
0.0
 11
92.41148058417886
 21
-21.1057273714861
 31
0.0
 11
92.4125862887122
 21
-21.1428873490861
 31
0.0
 11
92.41291174257886
 21
-21.18252637095276
 31
0.0
 11
92.41244060657885
 21
-21.22361148135277
 31
0.0
 11
92.41117704177886
 21
-21.26503338855275
 31
0.0
 11
92.40915508337886
 21
-21.30552534055277
 31
0.0
  0
LWPOLYLINE
  5
2AF
100
AcDbEntity
  8
0
  6
HIDDEN
 62
     8
 48
0.5
100
AcDbPolyline
 90
        8
 70
     0
 43
0.0
 10
92.327627
 20
-21.35909
 10
92.330943
 20
-21.31389
 10
92.33513
 20
-21.273614
 10
92.340006
 20
-21.240023
 10
92.345358
 20
-21.214585
 10
92.350953
 20
-21.198411
 10
92.356544
 20
-21.192209
 10
92.357201
 20
-21.192154
  0
LWPOLYLINE
  5
2B0
100
AcDbEntity
  8
0
  6
HIDDEN
 62
     8
 48
0.5
100
AcDbPolyline
 90
        3
 70
     0
 43
0.0
 10
92.33718
 20
-20.84213
 10
92.339851
 20
-20.842969
 10
92.348672
 20
-20.85798
  0
LINE
  5
2B1
100
AcDbEntity
  8
0
  6
HIDDEN
 62
     8
 48
0.5
100
AcDbLine
 10
92.421593
 20
-21.119968
 30
0.0
 11
92.416981
 21
-20.903067
 31
0.0
  0
LINE
  5
2B2
100
AcDbEntity
  8
0
  6
HIDDEN
 62
     8
 48
0.5
100
AcDbLine
 10
92.348672
 20
-20.85798
 30
0.0
 11
92.403895
 21
-21.018126
 31
0.0
  0
LINE
  5
2B3
100
AcDbEntity
  8
0
  6
HIDDEN
 62
     8
 48
0.5
100
AcDbLine
 10
92.275483
 20
-21.348406
 30
0.0
 11
92.289875
 21
-21.109073
 31
0.0
  0
SPLINE
  5
2B4
100
AcDbEntity
  8
0
  6
HIDDEN
 62
     8
 48
0.5
100
AcDbSpline
210
0.0
220
0.0
230
-1.0
 70
     8
 71
     3
 72
    11
 73
     7
 74
     5
 42
0.0000001
 43
0.0000001
 44
0.0000000001
 40
0.0
 40
0.0
 40
0.0
 40
0.0
 40
0.0150171588924077
 40
0.0209590738951365
 40
0.0325438605548042
 40
0.0335498736702364
 40
0.0335498736702364
 40
0.0335498736702364
 40
0.0335498736702364
 10
91.7544979655122
 20
-20.8419879282861
 30
0.0
 10
91.76045665750342
 20
-20.84094094816692
 30
0.0
 10
91.76877305520932
 20
-20.83947970414319
 30
0.0
 10
91.76807016206367
 20
-20.82605409242466
 30
0.0
 10
91.75953059175384
 20
-20.82633276198757
 30
0.0
 10
91.7553816964223
 20
-20.82651624790804
 30
0.0
 10
91.75505019697885
 20
-20.82653090855277
 30
0.0
 11
91.7544979655122
 21
-20.8419879282861
 31
0.0
 11
91.76787225031219
 21
-20.8351583186861
 31
0.0
 11
91.76730732977887
 21
-20.82924331921943
 31
0.0
 11
91.75605524657886
 21
-20.82648688935277
 31
0.0
 11
91.75505019697885
 21
-20.82653090855277
 31
0.0
  0
SPLINE
  5
2B5
100
AcDbEntity
  8
0
  6
HIDDEN
 62
     8
 48
0.5
100
AcDbSpline
210
0.0
220
0.0
230
-1.0
 70
     8
 71
     3
 72
     9
 73
     5
 74
     3
 42
0.0000001
 43
0.0000001
 44
0.0000000001
 40
0.0
 40
0.0
 40
0.0
 40
0.0
 40
0.0157445476926538
 40
0.02388538654144
 40
0.02388538654144
 40
0.02388538654144
 40
0.02388538654144
 10
91.75505019697885
 20
-20.82653090855277
 30
0.0
 10
91.7497759278674
 20
-20.82677922641222
 30
0.0
 10
91.74177455755748
 20
-20.82715593892084
 30
0.0
 10
91.73413998751131
 20
-20.82949167474962
 30
0.0
 10
91.73153790257885
 20
-20.8302877618861
 30
0.0
 11
91.75505019697885
 21
-20.82653090855277
 31
0.0
 11
91.73938676657886
 21
-20.82812706961943
 31
0.0
 11
91.73153790257885
 21
-20.8302877618861
 31
0.0
  0
SPLINE
  5
2B6
100
AcDbEntity
  8
0
  6
HIDDEN
 62
     8
 48
0.5
100
AcDbSpline
210
-0.3426955631595019
220
0.9394465131080066
230
0.0
 70
    24
 71
     3
 72
     8
 73
     4
 74
     2
 42
0.0000001
 43
0.0000001
 44
0.0000000001
 40
0.0
 40
0.0
 40
0.0
 40
0.0
 40
0.2077787803170406
 40
0.2077787803170406
 40
0.2077787803170406
 40
0.2077787803170406
 10
91.73153299804553
 20
-20.83033922641943
 30
0.0
 10
91.66646731448997
 20
-20.85407418179721
 30
0.0
 10
91.60140163093442
 20
-20.87780913717499
 30
0.0
 10
91.53633594737886
 20
-20.90154409255277
 30
0.0
 11
91.73153299804553
 21
-20.83033922641943
 31
0.0
 11
91.53633594737886
 21
-20.90154409255277
 31
0.0
  0
SPLINE
  5
2B7
100
AcDbEntity
  8
0
  6
HIDDEN
 62
     8
 48
0.5
100
AcDbSpline
210
-0.9978305220917006
220
0.0658350148644644
230
0.0
 70
    24
 71
     3
 72
     9
 73
     5
 74
     3
 42
0.0000001
 43
0.0000001
 44
0.0000000001
 40
0.0
 40
0.0
 40
0.0
 40
0.0
 40
0.002517895752166
 40
0.0050418286788586
 40
0.0050418286788586
 40
0.0050418286788586
 40
0.0050418286788586
 10
91.59640385351218
 20
-21.33012922961943
 30
0.0
 10
91.59635224770118
 20
-21.33096694458718
 30
0.0
 10
91.59624891234361
 20
-21.33264438311714
 30
0.0
 10
91.59613096855421
 20
-21.33432085786075
 30
0.0
 10
91.59607192604553
 20
-21.33516009895276
 30
0.0
 11
91.59640385351218
 21
-21.33012922961943
 31
0.0
 11
91.5962453927122
 21
-21.33264213415277
 31
0.0
 11
91.59607192604553
 21
-21.33516009895276
 31
0.0
  0
SPLINE
  5
2B8
100
AcDbEntity
  8
0
  6
HIDDEN
 62
     8
 48
0.5
100
AcDbSpline
210
-0.9985308049593021
220
0.0541870053364106
230
0.0
 70
    24
 71
     3
 72
     9
 73
     5
 74
     3
 42
0.0000001
 43
0.0000001
 44
0.0000000001
 40
0.0
 40
0.0
 40
0.0
 40
0.0
 40
0.0025071828129219
 40
0.0050189665530069
 40
0.0050189665530069
 40
0.0050189665530069
 40
0.0050189665530069
 10
91.6110678183122
 20
-21.08578458428609
 30
0.0
 10
91.61102620169499
 20
-21.08661927954345
 30
0.0
 10
91.61094289208996
 20
-21.08829020180609
 30
0.0
 10
91.61084489844865
 20
-21.0899603272536
 30
0.0
 10
91.6107958567122
 20
-21.09079615548609
 30
0.0
 11
91.6110678183122
 21
-21.08578458428609
 31
0.0
 11
91.61093930417889
 21
-21.08828847121943
 31
0.0
 11
91.6107958567122
 21
-21.09079615548609
 31
0.0
  0
SPLINE
  5
2B9
100
AcDbEntity
  8
0
  6
HIDDEN
 62
     8
 48
0.5
100
AcDbSpline
210
0.0
220
0.0
230
-1.0
 70
     8
 71
     3
 72
    12
 73
     8
 74
     6
 42
0.0000001
 43
0.0000001
 44
0.0000000001
 40
0.0
 40
0.0
 40
0.0
 40
0.0
 40
0.0124160851427003
 40
0.0362122695234564
 40
0.0633629475835862
 40
0.0947587553966366
 40
0.1069704998476396
 40
0.1069704998476396
 40
0.1069704998476396
 40
0.1069704998476396
 10
91.73153790257885
 20
-20.8302877618861
 30
0.0
 10
91.72767912640447
 20
-20.83179819577215
 30
0.0
 10
91.71642477036138
 20
-20.83620346831583
 30
0.0
 10
91.69865458806626
 20
-20.84803691482618
 30
0.0
 10
91.6789949474276
 20
-20.86734332954397
 30
0.0
 10
91.66511710952367
 20
-20.88657855695825
 30
0.0
 10
91.65793396133841
 20
-20.89921500183726
 30
0.0
 10
91.65592241137886
 20
-20.9027536786861
 30
0.0
 11
91.73153790257885
 21
-20.8302877618861
 31
0.0
 11
91.72009072497885
 21
-20.83509622268609
 31
0.0
 11
91.7000588039122
 21
-20.84794069735276
 31
0.0
 11
91.68054516337887
 21
-20.86681865148609
 31
0.0
 11
91.66206446791221
 21
-20.8921989714861
 31
0.0
 11
91.65592241137886
 21
-20.9027536786861
 31
0.0
  0
SPLINE
  5
2BA
100
AcDbEntity
  8
0
  6
HIDDEN
 62
     8
 48
0.5
100
AcDbSpline
210
0.0
220
0.0
230
-1.0
 70
     8
 71
     3
 72
    11
 73
     7
 74
     5
 42
0.0000001
 43
0.0000001
 44
0.0000000001
 40
0.0
 40
0.0
 40
0.0
 40
0.0
 40
0.0277941639886483
 40
0.0762291995317312
 40
0.131446215002864
 40
0.1898837047622132
 40
0.1898837047622132
 40
0.1898837047622132
 40
0.1898837047622132
 10
91.65592241137886
 20
-20.9027536786861
 30
0.0
 10
91.65173326610227
 20
-20.91102587707392
 30
0.0
 10
91.64024397679364
 20
-20.93371348378621
 30
0.0
 10
91.62657702614287
 20
-20.97554002741947
 30
0.0
 10
91.61534926382506
 20
-21.02851937886375
 30
0.0
 10
91.61252167683278
 20
-21.06633891120071
 30
0.0
 10
91.61106782257887
 20
-21.0857844978861
 30
0.0
 11
91.65592241137886
 21
-20.9027536786861
 31
0.0
 11
91.6438287111122
 21
-20.92777882535276
 31
0.0
 11
91.62806764657887
 21
-20.97357775015276
 31
0.0
 11
91.61676316017887
 21
-21.0276252050861
 31
0.0
 11
91.61106782257887
 21
-21.0857844978861
 31
0.0
  0
LWPOLYLINE
  5
2BB
100
AcDbEntity
  8
0
  6
HIDDEN
 62
     8
 48
0.5
100
AcDbPolyline
 90
        7
 70
     0
 43
0.0
 10
91.830928
 20
-21.345722
 10
91.834516
 20
-21.297459
 10
91.83909
 20
-21.255
 10
91.844422
 20
-21.220473
 10
91.850243
 20
-21.195611
 10
91.856263
 20
-21.18166
 10
91.860509
 20
-21.178794
  0
LINE
  5
2BC
100
AcDbEntity
  8
0
  6
HIDDEN
 62
     8
 48
0.5
100
AcDbLine
 10
91.596404
 20
-21.330129
 30
0.0
 11
91.610796
 21
-21.090796
 31
0.0
  0
LINE
  5
2BE
100
AcDbEntity
  8
0
100
AcDbLine
 10
64.779432
 20
-19.403067
 30
0.0
 11
96.745122
 21
-19.403067
 31
0.0
  0
ARC
  5
2C0
100
AcDbEntity
  8
0
100
AcDbCircle
 10
64.779432
 20
-19.653067
 30
0.0
 40
0.25
100
AcDbArc
 50
90.0
 51
170.84585
  0
ARC
  5
2C1
100
AcDbEntity
  8
0
100
AcDbCircle
 10
96.745122
 20
-19.653067
 30
0.0
 40
0.25
100
AcDbArc
 50
9.15415
 51
90.0
  0
ENDSEC
  0
SECTION
  2
OBJECTS
  0
DICTIONARY
  5
7
102
{ACAD_XDICTIONARY
360
211
102
}
100
AcDbDictionary
  3
ACAD_GROUP
350
26
  3
ACAD_LAYOUT
350
B
  3
ACAD_MLINESTYLE
350
27
  3
ACAD_PLOTSETTINGS
350
28
  3
ACAD_PLOTSTYLENAME
350
6
  3
ACDBHEADERROUNDTRIPXREC
350
1EE
  3
ACDBVARIABLEDICTIONARY
350
199
  0
DICTIONARY
  5
11
100
AcDbDictionary
280
     1
  3
ACAD_LAYERFILTERS
360
12
  0
DICTIONARY
  5
217
100
AcDbDictionary
280
     1
  3
ACAD_XREC_ROUNDTRIP
360
218
  0
DICTIONARY
  5
20F
100
AcDbDictionary
280
     1
  3
ACAD_LAYOUTSELFREF
360
210
  0
DICTIONARY
  5
1EA
100
AcDbDictionary
280
     1
  3
ACAD_LAYOUTSELFREF
360
219
  3
ACAD_XREC_ROUNDTRIP
360
1EB
  0
DICTIONARY
  5
211
100
AcDbDictionary
280
     1
  3
ACAD_XREC_ROUNDTRIP
360
212
  0
DICTIONARY
  5
26
102
{ACAD_REACTORS
330
7
102
}
100
AcDbDictionary
  0
DICTIONARY
  5
B
102
{ACAD_XDICTIONARY
360
213
102
}
102
{ACAD_REACTORS
330
7
102
}
100
AcDbDictionary
  3
LAYOUT1
350
1B0
  3
MODEL
350
A
  0
DICTIONARY
  5
27
102
{ACAD_REACTORS
330
7
102
}
100
AcDbDictionary
  3
STANDARD
350
2A
  0
DICTIONARY
  5
28
102
{ACAD_REACTORS
330
7
102
}
100
AcDbDictionary
  0
ACAD_PROXY_OBJECT
  5
6
102
{ACAD_REACTORS
330
7
102
}
100
AcDbProxyObject
 90
      499
 91
      517
 93
       86
310
405010041939BDC9B585B0
350
5
340
5
 94
        0
  0
DICTIONARY
  5
1EE
102
{ACAD_REACTORS
330
7
102
}
100
AcDbDictionary
  3
CEPSNTYPE
350
1F8
  3
DIMSTYLEDATA
350
1FC
  3
FINGERPRINTGUID
350
1F9
  3
HYPERLINKBASE
350
1F1
  3
INSUNITS
350
1F7
  3
LAYOUTDICT
350
1F3
  3
LWETCUNION
350
1F6
  3
PLOTSETDICT
350
1F4
  3
PLOTSTYLNAMDICT
350
1F5
  3
PSVPSCALE
350
1FB
  3
PUCSBASE
350
1FF
  3
PUCSORGBACK
350
205
  3
PUCSORGBOTTOM
350
201
  3
PUCSORGFRONT
350
204
  3
PUCSORGLEFT
350
202
  3
PUCSORGRIGHT
350
203
  3
PUCSORGTOP
350
200
  3
PUCSORTHOREF
350
1FD
  3
PUCSORTHOVIEW
350
1FE
  3
STYLESHEET
350
1F2
  3
TSTACKALIGN
350
1EF
  3
TSTACKSIZE
350
1F0
  3
UCSBASE
350
208
  3
UCSORGBACK
350
20E
  3
UCSORGBOTTOM
350
20A
  3
UCSORGFRONT
350
20D
  3
UCSORGLEFT
350
20B
  3
UCSORGRIGHT
350
20C
  3
UCSORGTOP
350
209
  3
UCSORTHOREF
350
206
  3
UCSORTHOVIEW
350
207
  3
VERSIONGUID
350
1FA
  0
DICTIONARY
  5
199
102
{ACAD_REACTORS
330
7
102
}
100
AcDbDictionary
  3
DIMASSOC
350
19B
  3
HIDETEXT
350
19A
  0
DICTIONARY
  5
12
102
{ACAD_XDICTIONARY
360
215
102
}
102
{ACAD_REACTORS
330
11
102
}
100
AcDbDictionary
280
     1
  3
DIM-1_12
360
13
  3
DIM-1_16
360
14
  0
XRECORD
  5
218
102
{ACAD_REACTORS
330
217
102
}
100
AcDbXrecord
102
ACADR14ROUNDTRIP
1000
DSTYLE
1002
{
1070
    79
 70
     1
1070
   276
 70
     1
1070
   277
 70
     5
1070
   289
 70
     0
1002
}
  0
XRECORD
  5
210
102
{ACAD_REACTORS
330
20F
102
}
100
AcDbXrecord
340
2
  0
XRECORD
  5
219
102
{ACAD_REACTORS
330
1EA
102
}
100
AcDbXrecord
340
1AF
  0
XRECORD
  5
1EB
102
{ACAD_REACTORS
330
1EA
102
}
100
AcDbXrecord
102
EXTNAMES
  1
*PAPER_SPACE
  2
*Paper_Space
  0
XRECORD
  5
212
102
{ACAD_REACTORS
330
211
102
}
100
AcDbXrecord
102
EXTNAMES
  1
ACDBVARIABLEDICTIONARY
  2
AcDbVariableDictionary
  0
DICTIONARY
  5
213
100
AcDbDictionary
280
     1
  3
ACAD_XREC_ROUNDTRIP
360
214
  0
ACAD_PROXY_OBJECT
  5
1B0
102
{ACAD_REACTORS
330
B
102
}
100
AcDbProxyObject
 90
      499
 91
      515
 93
      604
310
9104850204465736B4A65742031313230432C00AAAAAA416AA591069074C61796F75743140501A800000000000000000000000000000000000000000000A1000000000000008902A6A6AAAA0
330
1AF
330
0
340
0
340
0
 94
        0
  0
ACAD_PROXY_OBJECT
  5
A
102
{ACAD_REACTORS
330
B
102
}
100
AcDbProxyObject
 90
      499
 91
      515
 93
      468
310
9044E6F6E652C01AAAAAAAAA5A69054D6F64656C901A800000000000000000000000000000000000000000000A1000000000000008902A6A6AAAA1
330
2
330
0
340
0
340
0
 94
        0
  0
MLINESTYLE
  5
2A
102
{ACAD_REACTORS
330
27
102
}
100
AcDbMlineStyle
  2
STANDARD
 70
     0
  3

 62
     0
 51
90.0
 52
90.0
 71
     2
 49
0.5
 62
   256
  6
BYLAYER
 49
-0.5
 62
   256
  6
BYLAYER
  0
ACAD_PROXY_OBJECT
  5
5
102
{ACAD_REACTORS
330
6
102
}
100
AcDbProxyObject
 90
      499
 91
      518
 93
        0
 94
        0
  0
XRECORD
  5
1F8
102
{ACAD_REACTORS
330
1EE
102
}
100
AcDbXrecord
 90
        0
  0
XRECORD
  5
1FC
102
{ACAD_REACTORS
330
1EE
102
}
100
AcDbXrecord
1000
DSTYLE
1002
{
1070
    79
 70
     1
1070
   276
 70
     1
1070
   277
 70
     5
1070
   289
 70
     0
1002
}
  0
XRECORD
  5
1F9
102
{ACAD_REACTORS
330
1EE
102
}
100
AcDbXrecord
  1
{0ED6B1DE-3704-495B-8F00-8F897C248CCA}
  0
XRECORD
  5
1F1
102
{ACAD_REACTORS
330
1EE
102
}
100
AcDbXrecord
  1

  0
XRECORD
  5
1F7
102
{ACAD_REACTORS
330
1EE
102
}
100
AcDbXrecord
 90
        0
  0
XRECORD
  5
1F3
102
{ACAD_REACTORS
330
1EE
102
}
100
AcDbXrecord
340
B
  0
XRECORD
  5
1F6
102
{ACAD_REACTORS
330
1EE
102
}
100
AcDbXrecord
 90
    10781
  0
XRECORD
  5
1F4
102
{ACAD_REACTORS
330
1EE
102
}
100
AcDbXrecord
340
28
  0
XRECORD
  5
1F5
102
{ACAD_REACTORS
330
1EE
102
}
100
AcDbXrecord
340
6
  0
XRECORD
  5
1FB
102
{ACAD_REACTORS
330
1EE
102
}
100
AcDbXrecord
 40
0.0
  0
XRECORD
  5
1FF
102
{ACAD_REACTORS
330
1EE
102
}
100
AcDbXrecord
340
0
  0
XRECORD
  5
205
102
{ACAD_REACTORS
330
1EE
102
}
100
AcDbXrecord
 10
0.0
 20
0.0
 30
0.0
  0
XRECORD
  5
201
102
{ACAD_REACTORS
330
1EE
102
}
100
AcDbXrecord
 10
0.0
 20
0.0
 30
0.0
  0
XRECORD
  5
204
102
{ACAD_REACTORS
330
1EE
102
}
100
AcDbXrecord
 10
0.0
 20
0.0
 30
0.0
  0
XRECORD
  5
202
102
{ACAD_REACTORS
330
1EE
102
}
100
AcDbXrecord
 10
0.0
 20
0.0
 30
0.0
  0
XRECORD
  5
203
102
{ACAD_REACTORS
330
1EE
102
}
100
AcDbXrecord
 10
0.0
 20
0.0
 30
0.0
  0
XRECORD
  5
200
102
{ACAD_REACTORS
330
1EE
102
}
100
AcDbXrecord
 10
0.0
 20
0.0
 30
0.0
  0
XRECORD
  5
1FD
102
{ACAD_REACTORS
330
1EE
102
}
100
AcDbXrecord
340
0
  0
XRECORD
  5
1FE
102
{ACAD_REACTORS
330
1EE
102
}
100
AcDbXrecord
 70
     0
  0
XRECORD
  5
1F2
102
{ACAD_REACTORS
330
1EE
102
}
100
AcDbXrecord
  1

  0
XRECORD
  5
1EF
102
{ACAD_REACTORS
330
1EE
102
}
100
AcDbXrecord
 90
        1
  0
XRECORD
  5
1F0
102
{ACAD_REACTORS
330
1EE
102
}
100
AcDbXrecord
 90
       70
  0
XRECORD
  5
208
102
{ACAD_REACTORS
330
1EE
102
}
100
AcDbXrecord
340
0
  0
XRECORD
  5
20E
102
{ACAD_REACTORS
330
1EE
102
}
100
AcDbXrecord
 10
0.0
 20
0.0
 30
0.0
  0
XRECORD
  5
20A
102
{ACAD_REACTORS
330
1EE
102
}
100
AcDbXrecord
 10
0.0
 20
0.0
 30
0.0
  0
XRECORD
  5
20D
102
{ACAD_REACTORS
330
1EE
102
}
100
AcDbXrecord
 10
0.0
 20
0.0
 30
0.0
  0
XRECORD
  5
20B
102
{ACAD_REACTORS
330
1EE
102
}
100
AcDbXrecord
 10
0.0
 20
0.0
 30
0.0
  0
XRECORD
  5
20C
102
{ACAD_REACTORS
330
1EE
102
}
100
AcDbXrecord
 10
0.0
 20
0.0
 30
0.0
  0
XRECORD
  5
209
102
{ACAD_REACTORS
330
1EE
102
}
100
AcDbXrecord
 10
0.0
 20
0.0
 30
0.0
  0
XRECORD
  5
206
102
{ACAD_REACTORS
330
1EE
102
}
100
AcDbXrecord
340
0
  0
XRECORD
  5
207
102
{ACAD_REACTORS
330
1EE
102
}
100
AcDbXrecord
 70
     0
  0
XRECORD
  5
1FA
102
{ACAD_REACTORS
330
1EE
102
}
100
AcDbXrecord
  1
{58B1388F-D8E4-4672-B8D2-833FF34682FD}
  0
DICTIONARYVAR
  5
19B
102
{ACAD_REACTORS
330
199
102
}
100
DictionaryVariables
280
     0
  1
1
  0
DICTIONARYVAR
  5
19A
102
{ACAD_REACTORS
330
199
102
}
100
DictionaryVariables
280
     0
  1
1
  0
DICTIONARY
  5
215
100
AcDbDictionary
280
     1
  3
ACAD_XREC_ROUNDTRIP
360
216
  0
XRECORD
  5
13
102
{ACAD_REACTORS
330
12
102
}
100
AcDbXrecord
  1
DIM-1_12
  1
DIM-1_12
  1
*
  1
*
 70
     0
  1
*
  1
*
  0
XRECORD
  5
14
102
{ACAD_REACTORS
330
12
102
}
100
AcDbXrecord
  1
dim-1_16
  1
*
  1
*
  1
*
 70
     0
  1
*
  1
*
  0
XRECORD
  5
214
102
{ACAD_REACTORS
330
213
102
}
100
AcDbXrecord
102
EXTNAMES
  1
LAYOUT1
  2
Layout1
  1
MODEL
  2
Model
  0
XRECORD
  5
216
102
{ACAD_REACTORS
330
215
102
}
100
AcDbXrecord
102
EXTNAMES
  1
DIM-1_16
  2
dim-1_16
  0
ENDSEC
  0
EOF
