  0
SECTION
  2
HEADER
  9
$ACADVER
  1
AC1014
  9
$ACADMAINTVER
 70
     9
  9
$DWGCODEPAGE
  3
ANSI_1252
  9
$INSBASE
 10
84.99325029895635
 20
76.62507208983669
 30
0.0
  9
$EXTMIN
 10
49.11162832601667
 20
66.24111164812439
 30
-0.0000000349181948
  9
$EXTMAX
 10
120.8798278586011
 20
102.2537461276298
 30
0.0000000814935746
  9
$LIMMIN
 10
0.0
 20
0.0
  9
$LIMMAX
 10
187.3118571637889
 20
134.3269220688476
  9
$ORTHOMODE
 70
     1
  9
$REGENMODE
 70
     1
  9
$FILLMODE
 70
     1
  9
$QTEXTMODE
 70
     0
  9
$MIRRTEXT
 70
     1
  9
$DRAGMODE
 70
     2
  9
$LTSCALE
 40
2.0
  9
$OSMODE
 70
    55
  9
$ATTMODE
 70
     1
  9
$TEXTSIZE
 40
2.0
  9
$TRACEWID
 40
1.0
  9
$TEXTSTYLE
  7
CARTOUCHE
  9
$CLAYER
  8
0
  9
$CELTYPE
  6
BYLAYER
  9
$CECOLOR
 62
   256
  9
$CELTSCALE
 40
0.1
  9
$DELOBJ
 70
     1
  9
$DISPSILH
 70
     0
  9
$DIMSCALE
 40
16.0
  9
$DIMASZ
 40
0.1
  9
$DIMEXO
 40
0.0625
  9
$DIMDLI
 40
0.25
  9
$DIMRND
 40
0.0
  9
$DIMDLE
 40
0.0
  9
$DIMEXE
 40
0.1
  9
$DIMTP
 40
0.0
  9
$DIMTM
 40
0.0
  9
$DIMTXT
 40
0.1
  9
$DIMCEN
 40
0.09
  9
$DIMTSZ
 40
0.0
  9
$DIMTOL
 70
     0
  9
$DIMLIM
 70
     0
  9
$DIMTIH
 70
     1
  9
$DIMTOH
 70
     1
  9
$DIMSE1
 70
     0
  9
$DIMSE2
 70
     0
  9
$DIMTAD
 70
     0
  9
$DIMZIN
 70
     4
  9
$DIMBLK
  1

  9
$DIMASO
 70
     1
  9
$DIMSHO
 70
     1
  9
$DIMPOST
  1
\X
  9
$DIMAPOST
  1
cm
  9
$DIMALT
 70
     1
  9
$DIMALTD
 70
     1
  9
$DIMALTF
 40
2.54
  9
$DIMLFAC
 40
1.0
  9
$DIMTOFL
 70
     0
  9
$DIMTVP
 40
0.0
  9
$DIMTIX
 70
     0
  9
$DIMSOXD
 70
     0
  9
$DIMSAH
 70
     0
  9
$DIMBLK1
  1

  9
$DIMBLK2
  1

  9
$DIMSTYLE
  2
STANDARD
  9
$DIMCLRD
 70
     0
  9
$DIMCLRE
 70
     0
  9
$DIMCLRT
 70
     0
  9
$DIMTFAC
 40
1.0
  9
$DIMGAP
 40
0.08
  9
$DIMJUST
 70
     0
  9
$DIMSD1
 70
     0
  9
$DIMSD2
 70
     0
  9
$DIMTOLJ
 70
     1
  9
$DIMTZIN
 70
     4
  9
$DIMALTZ
 70
     4
  9
$DIMALTTZ
 70
     4
  9
$DIMFIT
 70
     1
  9
$DIMUPT
 70
     0
  9
$DIMUNIT
 70
     5
  9
$DIMDEC
 70
     3
  9
$DIMTDEC
 70
     3
  9
$DIMALTU
 70
     2
  9
$DIMALTTD
 70
     1
  9
$DIMTXSTY
  7
ROMANS
  9
$DIMAUNIT
 70
     0
  9
$LUNITS
 70
     2
  9
$LUPREC
 70
     2
  9
$SKETCHINC
 40
1.0
  9
$FILLETRAD
 40
0.5
  9
$AUNITS
 70
     0
  9
$AUPREC
 70
     0
  9
$MENU
  1
.
  9
$ELEVATION
 40
0.0
  9
$PELEVATION
 40
0.0
  9
$THICKNESS
 40
0.0
  9
$LIMCHECK
 70
     0
  9
$BLIPMODE
 70
     0
  9
$CHAMFERA
 40
0.0
  9
$CHAMFERB
 40
0.0
  9
$CHAMFERC
 40
20.0
  9
$CHAMFERD
 40
0.0
  9
$SKPOLY
 70
     0
  9
$TDCREATE
 40
2452072.673626736
  9
$TDUPDATE
 40
2453690.431939768
  9
$TDINDWG
 40
2.2557083912
  9
$TDUSRTIMER
 40
2.2556989005
  9
$USRTIMER
 70
     1
  9
$ANGBASE
 50
0.0
  9
$ANGDIR
 70
     0
  9
$PDMODE
 70
    33
  9
$PDSIZE
 40
0.25
  9
$PLINEWID
 40
0.0
  9
$COORDS
 70
     1
  9
$SPLFRAME
 70
     0
  9
$SPLINETYPE
 70
     6
  9
$SPLINESEGS
 70
     8
  9
$ATTDIA
 70
     0
  9
$ATTREQ
 70
     1
  9
$HANDLING
 70
 22529
  9
$HANDSEED
  5
337
  9
$SURFTAB1
 70
     6
  9
$SURFTAB2
 70
     6
  9
$SURFTYPE
 70
     6
  9
$SURFU
 70
     6
  9
$SURFV
 70
     6
  9
$UCSNAME
  2

  9
$UCSORG
 10
0.0
 20
0.0
 30
0.0
  9
$UCSXDIR
 10
1.0
 20
0.0
 30
0.0
  9
$UCSYDIR
 10
0.0
 20
1.0
 30
0.0
  9
$PUCSNAME
  2

  9
$PUCSORG
 10
0.0
 20
0.0
 30
0.0
  9
$PUCSXDIR
 10
1.0
 20
0.0
 30
0.0
  9
$PUCSYDIR
 10
0.0
 20
1.0
 30
0.0
  9
$USERI1
 70
     0
  9
$USERI2
 70
     0
  9
$USERI3
 70
     0
  9
$USERI4
 70
     0
  9
$USERI5
 70
     0
  9
$USERR1
 40
0.0
  9
$USERR2
 40
0.0
  9
$USERR3
 40
0.0
  9
$USERR4
 40
0.0
  9
$USERR5
 40
0.0
  9
$WORLDVIEW
 70
     1
  9
$SHADEDGE
 70
     3
  9
$SHADEDIF
 70
    70
  9
$TILEMODE
 70
     1
  9
$MAXACTVP
 70
    48
  9
$PINSBASE
 10
0.0
 20
0.0
 30
0.0
  9
$PLIMCHECK
 70
     0
  9
$PEXTMIN
 10
0.0
 20
0.0
 30
0.0
  9
$PEXTMAX
 10
0.0
 20
0.0
 30
0.0
  9
$PLIMMIN
 10
0.0
 20
0.0
  9
$PLIMMAX
 10
12.0
 20
9.0
  9
$UNITMODE
 70
     0
  9
$VISRETAIN
 70
     1
  9
$PLINEGEN
 70
     0
  9
$PSLTSCALE
 70
     1
  9
$TREEDEPTH
 70
  3020
  9
$PICKSTYLE
 70
     1
  9
$CMLSTYLE
  2
STANDARD
  9
$CMLJUST
 70
     0
  9
$CMLSCALE
 40
20.0
  9
$PROXYGRAPHICS
 70
     1
  9
$MEASUREMENT
 70
     0
  0
ENDSEC
  0
SECTION
  2
CLASSES
  0
CLASS
  1
ACDBDICTIONARYWDFLT
  2
AcDbDictionaryWithDefault
  3
AutoCAD 2000
 90
        0
280
     0
281
     0
  0
CLASS
  1
ACDBPLACEHOLDER
  2
AcDbPlaceHolder
  3
AutoCAD 2000
 90
        0
280
     0
281
     0
  0
CLASS
  1
LAYOUT
  2
AcDbLayout
  3
AutoCAD 2000
 90
        0
280
     0
281
     0
  0
CLASS
  1
DICTIONARYVAR
  2
AcDbDictionaryVar
  3
AutoCAD 2000
 90
        0
280
     0
281
     0
  0
CLASS
  1
IMAGEDEF
  2
AcDbRasterImageDef
  3
ISM
 90
        0
280
     0
281
     0
  0
CLASS
  1
LONG_TRANSACTION
  2
AcDbLongTransaction
  3
AutoCAD 2000
 90
        0
280
     0
281
     0
  0
CLASS
  1
LWPOLYLINE
  2
AcDbPolyline
  3
AutoCAD 2000
 90
        0
280
     0
281
     1
  0
CLASS
  1
HATCH
  2
AcDbHatch
  3
AutoCAD 2000
 90
        0
280
     0
281
     1
  0
CLASS
  1
XRECORD
  2
AcDbXrecord
  3
AutoCAD 2000
 90
        0
280
     0
281
     0
  0
CLASS
  1
LONG_TRANSACTION
  2
AcDbLongTransaction
  3
AutoCAD 2000
 90
        0
280
     0
281
     0
  0
CLASS
  1
LWPOLYLINE
  2
AcDbPolyline
  3
AutoCAD 2000
 90
        0
280
     0
281
     1
  0
CLASS
  1
HATCH
  2
AcDbHatch
  3
AutoCAD 2000
 90
        0
280
     0
281
     1
  0
CLASS
  1
XRECORD
  2
AcDbXrecord
  3
AutoCAD 2000
 90
        0
280
     0
281
     0
  0
CLASS
  1
LONG_TRANSACTION
  2
AcDbLongTransaction
  3
AutoCAD 2000
 90
        0
280
     0
281
     0
  0
CLASS
  1
LWPOLYLINE
  2
AcDbPolyline
  3
AutoCAD 2000
 90
        0
280
     0
281
     1
  0
CLASS
  1
HATCH
  2
AcDbHatch
  3
AutoCAD 2000
 90
        0
280
     0
281
     1
  0
CLASS
  1
XRECORD
  2
AcDbXrecord
  3
AutoCAD 2000
 90
        0
280
     0
281
     0
  0
ENDSEC
  0
SECTION
  2
TABLES
  0
TABLE
  2
VPORT
  5
1D
330
0
100
AcDbSymbolTable
 70
     3
  0
VPORT
  5
313
330
1D
100
AcDbSymbolTableRecord
100
AcDbViewportTableRecord
  2
*ACTIVE
 70
     0
 10
0.0
 20
0.0
 11
1.0
 21
1.0
 12
84.99572794616069
 22
84.24742882543581
 13
0.0
 23
0.0
 14
10.0
 24
10.0
 15
10.0
 25
10.0
 16
0.0
 26
0.0
 36
1.0
 17
0.0
 27
0.0
 37
0.0
 40
48.09973408234307
 41
1.786792452830188
 42
50.0
 43
0.0
 44
0.0
 50
0.0
 51
0.0
 71
     0
 72
   100
 73
     1
 74
     3
 75
     0
 76
     0
 77
     0
 78
     2
  0
ENDTAB
  0
TABLE
  2
LTYPE
  5
18
330
0
100
AcDbSymbolTable
 70
     2
  0
LTYPE
  5
19
330
18
100
AcDbSymbolTableRecord
100
AcDbLinetypeTableRecord
  2
BYBLOCK
 70
     0
  3

 72
    65
 73
     0
 40
0.0
  0
LTYPE
  5
1A
330
18
100
AcDbSymbolTableRecord
100
AcDbLinetypeTableRecord
  2
BYLAYER
 70
     0
  3

 72
    65
 73
     0
 40
0.0
  0
LTYPE
  5
8
330
18
100
AcDbSymbolTableRecord
100
AcDbLinetypeTableRecord
  2
CONTINUOUS
 70
     0
  3
Solid line
 72
    65
 73
     0
 40
0.0
  0
LTYPE
  5
4D
330
18
100
AcDbSymbolTableRecord
100
AcDbLinetypeTableRecord
  2
CENTER
 70
     0
  3
Center ____ _ ____ _ ____ _ ____ _ ____ _ ____
 72
    65
 73
     4
 40
50.8
 49
31.75
 74
     0
 49
-6.349999999999999
 74
     0
 49
6.349999999999999
 74
     0
 49
-6.349999999999999
 74
     0
  0
ENDTAB
  0
TABLE
  2
LAYER
  5
10
102
{ACAD_XDICTIONARY
360
11
102
}
330
0
100
AcDbSymbolTable
 70
     2
  0
LAYER
  5
4
330
10
100
AcDbSymbolTableRecord
100
AcDbLayerTableRecord
  2
0
 70
     0
 62
     7
  6
CONTINUOUS
  0
LAYER
  5
4C
330
10
100
AcDbSymbolTableRecord
100
AcDbLayerTableRecord
  2
CENTER
 70
     0
 62
     1
  6
CENTER
  0
ENDTAB
  0
TABLE
  2
STYLE
  5
15
330
0
100
AcDbSymbolTable
 70
     3
  0
STYLE
  5
16
330
15
100
AcDbSymbolTableRecord
100
AcDbTextStyleTableRecord
  2
STANDARD
 70
     0
 40
0.0
 41
1.0
 50
0.0
 71
     0
 42
0.125
  3
txt
  4

  0
STYLE
  5
2B
330
15
100
AcDbSymbolTableRecord
100
AcDbTextStyleTableRecord
  2
CARTOUCHE
 70
     0
 40
0.0
 41
1.0
 50
0.0
 71
     0
 42
2.0
  3
romans.shx
  4

  0
STYLE
  5
23
330
15
100
AcDbSymbolTableRecord
100
AcDbTextStyleTableRecord
  2
ROMANS
 70
     0
 40
0.0
 41
1.0
 50
0.0
 71
     0
 42
1.0
  3
romans.shx
  4

  0
ENDTAB
  0
TABLE
  2
VIEW
  5
1B
330
0
100
AcDbSymbolTable
 70
     0
  0
ENDTAB
  0
TABLE
  2
UCS
  5
1C
330
0
100
AcDbSymbolTable
 70
     0
  0
ENDTAB
  0
TABLE
  2
APPID
  5
1F
330
0
100
AcDbSymbolTable
 70
     1
  0
APPID
  5
20
330
1F
100
AcDbSymbolTableRecord
100
AcDbRegAppTableRecord
  2
ACAD
 70
     0
  0
ENDTAB
  0
TABLE
  2
DIMSTYLE
  5
21
330
0
100
AcDbSymbolTable
 70
     1
  0
DIMSTYLE
105
22
330
21
100
AcDbSymbolTableRecord
100
AcDbDimStyleTableRecord
  2
STANDARD
 70
     0
  3
\X
  4
cm
  5

  6

  7

 40
16.0
 41
0.1
 42
0.0625
 43
0.25
 44
0.1
 45
0.0
 46
0.0
 47
0.0
 48
0.0
140
0.1
141
0.09
142
0.0
143
2.54
144
1.0
145
0.0
146
1.0
147
0.08
 71
     0
 72
     0
 73
     1
 74
     1
 75
     0
 76
     0
 77
     0
 78
     4
170
     1
171
     1
172
     0
173
     0
174
     0
175
     0
176
     0
177
     0
178
     0
270
     5
271
     3
272
     3
273
     2
274
     1
340
23
275
     0
280
     0
281
     0
282
     0
283
     1
284
     4
285
     4
286
     4
287
     1
288
     0
  0
ENDTAB
  0
TABLE
  2
BLOCK_RECORD
  5
1
330
0
100
AcDbSymbolTable
 70
     0
  0
BLOCK_RECORD
  5
2
102
{ACAD_XDICTIONARY
360
1FD
102
}
330
1
100
AcDbSymbolTableRecord
100
AcDbBlockTableRecord
  2
*MODEL_SPACE
  0
BLOCK_RECORD
  5
1F2
102
{ACAD_XDICTIONARY
360
1FF
102
}
330
1
100
AcDbSymbolTableRecord
100
AcDbBlockTableRecord
  2
*PAPER_SPACE
  0
ENDTAB
  0
ENDSEC
  0
SECTION
  2
BLOCKS
  0
BLOCK
  5
3
330
2
100
AcDbEntity
  8
0
100
AcDbBlockBegin
  2
*MODEL_SPACE
 70
     0
 10
0.0
 20
0.0
 30
0.0
  3
*MODEL_SPACE
  1

  0
ENDBLK
  5
9
330
2
100
AcDbEntity
  8
0
100
AcDbBlockEnd
  0
BLOCK
  5
1F4
330
1F2
100
AcDbEntity
 67
     1
  8
0
 48
0.1
100
AcDbBlockBegin
  2
*PAPER_SPACE
 70
     0
 10
0.0
 20
0.0
 30
0.0
  3
*PAPER_SPACE
  1

  0
ENDBLK
  5
1F5
330
1F2
100
AcDbEntity
 67
     1
  8
0
 48
0.1
100
AcDbBlockEnd
  0
ENDSEC
  0
SECTION
  2
ENTITIES
  0
SPLINE
  5
2D
330
2
100
AcDbEntity
  8
0
 48
0.1
100
AcDbSpline
210
0.0
220
0.0
230
1.0
 70
     8
 71
     3
 72
    13
 73
     9
 74
     7
 42
0.0000000001
 43
0.0000000001
 44
0.0000000001
 40
0.0
 40
0.0
 40
0.0
 40
0.0
 40
0.2418366659293838
 40
5.303284208316217
 40
11.45546948808071
 40
17.47854821247693
 40
22.66343820505959
 40
23.04946332957739
 40
23.04946332957739
 40
23.04946332957739
 40
23.04946332957739
 10
119.1182502989563
 20
84.2500720898367
 30
0.0
 10
119.1184295047503
 20
84.33067677144956
 30
0.0
 10
119.1223593441472
 20
86.09827282009291
 30
0.0
 10
118.5723948509777
 20
89.93990326421359
 30
0.0
 10
115.611270230682
 20
95.11181399213127
 30
0.0
 10
110.549477810548
 20
98.32258275550731
 30
0.0
 10
106.6620238537747
 20
99.00828357614626
 30
0.0
 10
104.8053110540051
 20
99.00050834325327
 30
0.0
 10
104.676653952854
 20
98.99996957445452
 30
0.0
 11
119.1182502989563
 21
84.2500720898367
 31
0.0
 11
119.1182502989563
 21
84.49190875576608
 31
0.0
 11
118.3419702747812
 21
89.49347256605586
 31
0.0
 11
115.2167181916484
 21
94.79273507450216
 31
0.0
 11
110.1635598697148
 21
98.07039709090169
 31
0.0
 11
105.06267907736
 21
98.99996654896787
 31
0.0
 11
104.676653952854
 21
98.99996957445452
 31
0.0
  0
SPLINE
  5
2E
330
2
100
AcDbEntity
  8
0
 48
0.1
100
AcDbSpline
210
0.0
220
0.0
230
1.0
 70
     8
 71
     3
 72
    13
 73
     9
 74
     0
 42
0.0000000001
 43
0.0000000001
 40
0.0
 40
0.0
 40
0.0
 40
0.0
 40
0.3307334096703869
 40
2.898573574059241
 40
10.70458291618026
 40
15.42993306510672
 40
19.08959108087722
 40
20.31880829410857
 40
20.31880829410857
 40
20.31880829410857
 40
20.31880829410857
 10
117.1182502989563
 20
84.2500720898367
 30
0.0
 10
117.1182716517398
 20
84.3794616309395
 30
0.0
 10
117.0190105067163
 20
86.45160918240106
 30
0.0
 10
116.6924588867607
 20
90.01129955696072
 30
0.0
 10
114.4103756464697
 20
94.56034516435407
 30
0.0
 10
111.0167721668183
 20
97.15577411794118
 30
0.0
 10
107.575545725979
 20
98.68673221171878
 30
0.0
 10
105.4723063397548
 20
98.9773544232816
 30
0.0
 10
105.0628411790472
 20
98.99996473680428
 30
0.0
  0
SPLINE
  5
2F
330
2
100
AcDbEntity
  8
0
 48
0.1
100
AcDbSpline
210
0.0
220
0.0
230
1.0
 70
     8
 71
     3
 72
    11
 73
     7
 74
     0
 42
0.0000000001
 43
0.0000000001
 40
1.159984128284664
 40
1.159984128284664
 40
1.159984128284664
 40
1.159984128284664
 40
4.204175713420602
 40
6.286926439648645
 40
8.866450054358811
 40
10.03786712379333
 40
10.03786712379333
 40
10.03786712379333
 40
10.03786712379333
 10
109.6767552903577
 20
92.21061601406084
 30
0.0
 10
108.3007320813521
 20
94.09648027130675
 30
0.0
 10
106.2864806648535
 20
95.62909616407369
 30
0.0
 10
102.4995089652124
 20
97.39345034493023
 30
0.0
 10
99.50142728774574
 20
98.13101636425654
 30
0.0
 10
97.55481672989938
 20
98.1689297863404
 30
0.0
 10
96.73359450931611
 20
98.1689298537103
 30
0.0
  0
SPLINE
  5
30
330
2
100
AcDbEntity
  8
0
 48
0.1
100
AcDbSpline
210
0.0
220
0.0
230
1.0
 70
     8
 71
     3
 72
    12
 73
     8
 74
     6
 42
0.0000000001
 43
0.0000000001
 44
0.0000000001
 40
0.0
 40
0.0
 40
0.0
 40
0.0
 40
0.4567468253667996
 40
8.091268574605816
 40
9.376312675631265
 40
19.08815302532811
 40
19.45318944309902
 40
19.45318944309902
 40
19.45318944309902
 40
19.45318944309902
 10
99.35775356833836
 20
95.94617887123
 30
0.0
 10
99.50983317840925
 20
95.95079273123454
 30
0.0
 10
102.2039229924253
 20
96.0325272467012
 30
0.0
 10
105.4560310156995
 20
95.35182507208043
 30
0.0
 10
110.7441865312495
 20
92.06334283646439
 30
0.0
 10
112.2221852882112
 20
87.72451461413584
 30
0.0
 10
112.2061634148488
 20
84.37153431905864
 30
0.0
 10
112.2055830200109
 20
84.2500720898367
 30
0.0
 11
99.35775356833836
 21
95.94617887123
 31
0.0
 11
99.81435027667741
 21
95.95788820155224
 31
0.0
 11
107.246538475445
 21
94.21189252065767
 31
0.0
 11
108.3293201279172
 21
93.51985044487776
 31
0.0
 11
112.2055830200109
 21
84.6151085076076
 31
0.0
 11
112.2055830200109
 21
84.2500720898367
 31
0.0
  0
SPLINE
  5
31
330
2
100
AcDbEntity
  8
0
 48
0.1
100
AcDbSpline
210
0.0
220
0.0
230
1.0
 70
     8
 71
     3
 72
    12
 73
     8
 74
     6
 42
0.0000000001
 43
0.0000000001
 44
0.0000000001
 40
0.0
 40
0.0
 40
0.0
 40
0.0
 40
0.197470787324702
 40
6.982697285321893
 40
13.74616242895638
 40
16.56333134497572
 40
16.80187234765745
 40
16.80187234765745
 40
16.80187234765745
 40
16.80187234765745
 10
109.0065003297208
 20
84.2500720898367
 30
0.0
 10
109.0072173868376
 20
84.3158722088992
 30
0.0
 10
109.0325729994383
 20
86.642607818638
 30
0.0
 10
107.6229748645838
 20
91.38125770446432
 30
0.0
 10
102.6773015950236
 20
94.7203702014757
 30
0.0
 10
99.38555738438356
 20
94.98618612720202
 30
0.0
 10
98.36714276831333
 20
94.98397609633997
 30
0.0
 10
98.28764122853156
 20
94.98380357244476
 30
0.0
 11
109.0065003297208
 21
84.2500720898367
 31
0.0
 11
109.0080585633486
 21
84.44753672908786
 31
0.0
 11
106.9423213425848
 21
90.91066510193286
 31
0.0
 11
101.3269884301677
 21
94.68061165750691
 31
0.0
 11
98.52618223121329
 21
94.98380357244476
 31
0.0
 11
98.28764122853156
 21
94.98380357244476
 31
0.0
  0
SPLINE
  5
32
330
2
100
AcDbEntity
  8
0
 48
0.1
100
AcDbSpline
210
0.0
220
0.0
230
1.0
 70
     8
 71
     3
 72
    12
 73
     8
 74
     0
 42
0.0000000001
 43
0.0000000001
 40
0.4860320147789506
 40
0.4860320147789506
 40
0.4860320147789506
 40
0.4860320147789506
 40
5.303284208316217
 40
11.45546948808071
 40
17.47854821247693
 40
22.66343820505959
 40
23.04946332957739
 40
23.04946332957739
 40
23.04946332957739
 40
23.04946332957739
 10
50.87098579872486
 20
84.36096336958366
 30
0.0
 10
50.89985691348267
 20
86.34296931281992
 30
0.0
 10
51.45605649013146
 20
90.01317458055558
 30
0.0
 10
54.37523036723061
 20
95.11181399213127
 30
0.0
 10
59.43702278736463
 20
98.32258275550731
 30
0.0
 10
63.32447674413794
 20
99.00828357614626
 30
0.0
 10
65.18118954390755
 20
99.00050834325327
 30
0.0
 10
65.30984664505862
 20
98.99996957445452
 30
0.0
  0
SPLINE
  5
33
330
2
100
AcDbEntity
  8
0
 48
0.1
100
AcDbSpline
210
0.0
220
0.0
230
1.0
 70
     8
 71
     3
 72
    13
 73
     9
 74
     0
 42
0.0000000001
 43
0.0000000001
 40
0.2805171752297312
 40
0.2805171752297312
 40
0.2805171752297312
 40
0.2805171752297312
 40
0.3307334096703869
 40
2.898573574059241
 40
10.70458291618026
 40
15.42993306510672
 40
19.08959108087722
 40
20.31880829410857
 40
20.31880829410857
 40
20.31880829410857
 40
20.31880829410857
 10
52.89349451328344
 20
84.01935284294784
 30
0.0
 10
52.89349451328344
 20
84.01935284294784
 30
0.0
 10
52.9760474856053
 20
86.5448920591262
 30
0.0
 10
53.29404171115197
 20
90.01129955696072
 30
0.0
 10
55.57612495144297
 20
94.56034516435407
 30
0.0
 10
58.96972843109438
 20
97.15577411794118
 30
0.0
 10
62.41095487193366
 20
98.68673221171878
 30
0.0
 10
64.51419425815783
 20
98.9773544232816
 30
0.0
 10
64.92365941886541
 20
98.99996473680428
 30
0.0
  0
SPLINE
  5
34
330
2
100
AcDbEntity
  8
0
 48
0.1
100
AcDbSpline
210
0.0
220
0.0
230
1.0
 70
     8
 71
     3
 72
    11
 73
     7
 74
     0
 42
0.0000000001
 43
0.0000000001
 40
1.159984128284664
 40
1.159984128284664
 40
1.159984128284664
 40
1.159984128284664
 40
4.204175713420602
 40
6.286926439648645
 40
8.866450054358811
 40
10.03786712379333
 40
10.03786712379333
 40
10.03786712379333
 40
10.03786712379333
 10
60.30974530755492
 20
92.21061601406084
 30
0.0
 10
61.68576851656053
 20
94.09648027130675
 30
0.0
 10
63.70001993305919
 20
95.62909616407369
 30
0.0
 10
67.48699163270029
 20
97.39345034493023
 30
0.0
 10
70.48507331016697
 20
98.13101636425654
 30
0.0
 10
72.43168386801333
 20
98.1689297863404
 30
0.0
 10
73.2529060885966
 20
98.1689298537103
 30
0.0
  0
SPLINE
  5
35
330
2
100
AcDbEntity
  8
0
 48
0.1
100
AcDbSpline
210
0.0
220
0.0
230
1.0
 70
     8
 71
     3
 72
    12
 73
     8
 74
     6
 42
0.0000000001
 43
0.0000000001
 44
0.0000000001
 40
0.0
 40
0.0
 40
0.0
 40
0.0
 40
0.4567468253667996
 40
8.091268574605816
 40
9.376312675631265
 40
19.08815302532811
 40
19.45318944309902
 40
19.45318944309902
 40
19.45318944309902
 40
19.45318944309902
 10
70.62874702957436
 20
95.94617887123
 30
0.0
 10
70.47666741950347
 20
95.95079273123454
 30
0.0
 10
67.78257760548733
 20
96.0325272467012
 30
0.0
 10
64.5304695822131
 20
95.35182507208043
 30
0.0
 10
59.24231406666321
 20
92.06334283646439
 30
0.0
 10
57.76431530970126
 20
87.72451461413584
 30
0.0
 10
57.78033718306386
 20
84.37153431905864
 30
0.0
 10
57.78091757790178
 20
84.2500720898367
 30
0.0
 11
70.62874702957436
 21
95.94617887123
 31
0.0
 11
70.1721503212353
 21
95.95788820155224
 31
0.0
 11
62.73996212246766
 21
94.21189252065767
 31
0.0
 11
61.65718046999541
 21
93.51985044487776
 31
0.0
 11
57.78091757790178
 21
84.6151085076076
 31
0.0
 11
57.78091757790178
 21
84.2500720898367
 31
0.0
  0
SPLINE
  5
36
330
2
100
AcDbEntity
  8
0
 48
0.1
100
AcDbSpline
210
0.0
220
0.0
230
1.0
 70
     8
 71
     3
 72
    12
 73
     8
 74
     6
 42
0.0000000001
 43
0.0000000001
 44
0.0000000001
 40
0.0
 40
0.0
 40
0.0
 40
0.0
 40
0.197470787324702
 40
6.982697285321893
 40
13.74616242895638
 40
16.56333134497572
 40
16.80187234765745
 40
16.80187234765745
 40
16.80187234765745
 40
16.80187234765745
 10
60.98000026819187
 20
84.2500720898367
 30
0.0
 10
60.97928321107501
 20
84.3158722088992
 30
0.0
 10
60.95392759847441
 20
86.642607818638
 30
0.0
 10
62.36352573332898
 20
91.38125770446432
 30
0.0
 10
67.30919900288899
 20
94.7203702014757
 30
0.0
 10
70.6009432135292
 20
94.98618612720202
 30
0.0
 10
71.6193578295994
 20
94.98397609633997
 30
0.0
 10
71.69885936938115
 20
94.98380357244476
 30
0.0
 11
60.98000026819187
 21
84.2500720898367
 31
0.0
 11
60.97844203456401
 21
84.44753672908786
 31
0.0
 11
63.04417925532789
 21
90.91066510193286
 31
0.0
 11
68.65951216774494
 21
94.68061165750691
 31
0.0
 11
71.46031836669942
 21
94.98380357244476
 31
0.0
 11
71.69885936938115
 21
94.98380357244476
 31
0.0
  0
LINE
  5
37
330
2
100
AcDbEntity
  8
0
 48
0.1
100
AcDbLine
 10
49.11825029895635
 20
102.2500720898366
 30
0.0
 11
49.11825029895635
 21
66.25007208983669
 31
0.0
  0
LINE
  5
38
330
2
100
AcDbEntity
  8
0
 48
0.1
100
AcDbLine
 10
120.8682502989563
 20
66.25007208983669
 30
0.0
 11
120.8682502989563
 21
102.2500720898366
 31
0.0
  0
SPLINE
  5
39
330
2
100
AcDbEntity
  8
0
 48
0.1
100
AcDbSpline
210
0.0
220
0.0
230
1.0
 70
     8
 71
     3
 72
    12
 73
     8
 74
     0
 42
0.0000000001
 43
0.0000000001
 40
0.3579141602160201
 40
0.3579141602160201
 40
0.3579141602160201
 40
0.3579141602160201
 40
2.898573574059241
 40
10.70458291618026
 40
15.42993306510672
 40
19.08959108087722
 40
20.31880829410857
 40
20.31880829410857
 40
20.31880829410857
 40
20.31880829410857
 10
52.89349451328344
 20
84.01935284294784
 30
0.0
 10
52.97924630183765
 20
81.92047818033312
 30
0.0
 10
53.29814979215588
 20
78.48065568047089
 30
0.0
 10
55.57612495144297
 20
73.93979901531931
 30
0.0
 10
58.96972843109438
 20
71.34437006173221
 30
0.0
 10
62.41095487193366
 20
69.81341196795461
 30
0.0
 10
64.51419425815783
 20
69.52278975639178
 30
0.0
 10
64.92365941886541
 20
69.50017944286911
 30
0.0
  0
SPLINE
  5
3A
330
2
100
AcDbEntity
  8
0
 48
0.1
100
AcDbSpline
210
0.0
220
0.0
230
1.0
 70
     8
 71
     3
 72
    12
 73
     8
 74
     0
 42
0.0000000001
 43
0.0000000001
 40
0.6420623057352968
 40
0.6420623057352968
 40
0.6420623057352968
 40
0.6420623057352968
 40
5.303284208316217
 40
11.45546948808071
 40
17.47854821247693
 40
22.66343820505959
 40
23.04946332957739
 40
23.04946332957739
 40
23.04946332957739
 40
23.04946332957739
 10
50.87447046643236
 20
84.36096336958367
 30
0.0
 10
50.91594852146641
 20
82.05284083121576
 30
0.0
 10
51.48286120487156
 20
78.44015238961141
 30
0.0
 10
54.37523036723061
 20
73.38833018754209
 30
0.0
 10
59.43702278736463
 20
70.17756142416601
 30
0.0
 10
63.32447674413794
 20
69.49186060352719
 30
0.0
 10
65.18118954390755
 20
69.49963583642011
 30
0.0
 10
65.30984664505862
 20
69.50017460521888
 30
0.0
  0
LINE
  5
3B
330
2
100
AcDbEntity
  8
0
 48
0.1
100
AcDbLine
 10
49.11825029895635
 20
66.25007208983669
 30
0.0
 11
120.8682502989563
 21
66.25007208983669
 31
0.0
  0
LWPOLYLINE
  5
3C
330
2
100
AcDbEntity
  8
0
 48
0.1
100
AcDbPolyline
 90
        2
 70
     0
 43
0.0
 10
105.062679080755
 20
69.50017763070555
 10
90.45354081931382
 20
69.50006313102654
  0
SPLINE
  5
3D
330
2
100
AcDbEntity
  8
0
 48
0.1
100
AcDbSpline
210
0.0
220
0.0
230
1.0
 70
     8
 71
     3
 72
    11
 73
     7
 74
     0
 42
0.0000000001
 43
0.0000000001
 40
1.159984128284664
 40
1.159984128284664
 40
1.159984128284664
 40
1.159984128284664
 40
4.204175713420602
 40
6.286926439648645
 40
8.866450054358811
 40
10.03786712379333
 40
10.03786712379333
 40
10.03786712379333
 40
10.03786712379333
 10
109.6767552903577
 20
76.28952816561254
 30
0.0
 10
108.3007320813521
 20
74.40366390836664
 30
0.0
 10
106.2864806648535
 20
72.87104801559969
 30
0.0
 10
102.4995089652124
 20
71.10669383474315
 30
0.0
 10
99.50142728774574
 20
70.36912781541684
 30
0.0
 10
97.55481672989938
 20
70.33121439333299
 30
0.0
 10
96.73359450931611
 20
70.33121432596309
 30
0.0
  0
SPLINE
  5
3E
330
2
100
AcDbEntity
  8
0
 48
0.1
100
AcDbSpline
210
0.0
220
0.0
230
1.0
 70
     8
 71
     3
 72
    12
 73
     8
 74
     6
 42
0.0000000001
 43
0.0000000001
 44
0.0000000001
 40
0.0
 40
0.0
 40
0.0
 40
0.0
 40
0.4567468253667996
 40
8.091268574605816
 40
9.376312675631265
 40
19.08815302532811
 40
19.45318944309902
 40
19.45318944309902
 40
19.45318944309902
 40
19.45318944309902
 10
99.35775356833836
 20
72.55396530844338
 30
0.0
 10
99.50983317840925
 20
72.54935144843885
 30
0.0
 10
102.2039229924253
 20
72.46761693297215
 30
0.0
 10
105.4560310156995
 20
73.14831910759292
 30
0.0
 10
110.7441865312495
 20
76.43680134320904
 30
0.0
 10
112.2221852882112
 20
80.7756295655372
 30
0.0
 10
112.2061634148488
 20
84.12860986061476
 30
0.0
 10
112.2055830200109
 20
84.2500720898367
 30
0.0
 11
99.35775356833836
 21
72.55396530844338
 31
0.0
 11
99.81435027667741
 21
72.54225597812115
 31
0.0
 11
107.246538475445
 21
74.28825165901571
 31
0.0
 11
108.3293201279172
 21
74.98029373479562
 31
0.0
 11
112.2055830200109
 21
83.88503567206578
 31
0.0
 11
112.2055830200109
 21
84.2500720898367
 31
0.0
  0
SPLINE
  5
3F
330
2
100
AcDbEntity
  8
0
 48
0.1
100
AcDbSpline
210
0.0
220
0.0
230
1.0
 70
     8
 71
     3
 72
    12
 73
     8
 74
     6
 42
0.0000000001
 43
0.0000000001
 44
0.0000000001
 40
0.0
 40
0.0
 40
0.0
 40
0.0
 40
0.197470787324702
 40
6.982697285321893
 40
13.74616242895638
 40
16.56333134497572
 40
16.80187234765745
 40
16.80187234765745
 40
16.80187234765745
 40
16.80187234765745
 10
109.0065003297208
 20
84.2500720898367
 30
0.0
 10
109.0072173868376
 20
84.1842719707742
 30
0.0
 10
109.0325729994383
 20
81.85753636103541
 30
0.0
 10
107.6229748645838
 20
77.11888647520911
 30
0.0
 10
102.6773015950236
 20
73.77977397819761
 30
0.0
 10
99.38555738438356
 20
73.51395805247142
 30
0.0
 10
98.36714276831333
 20
73.51616808333341
 30
0.0
 10
98.28764122853156
 20
73.51634060722862
 30
0.0
 11
109.0065003297208
 21
84.2500720898367
 31
0.0
 11
109.0080585633486
 21
84.05260745058551
 31
0.0
 11
106.9423213425848
 21
77.58947907774052
 31
0.0
 11
101.3269884301677
 21
73.81953252216646
 31
0.0
 11
98.52618223121329
 21
73.51634060722862
 31
0.0
 11
98.28764122853156
 21
73.51634060722862
 31
0.0
  0
ARC
  5
40
330
2
100
AcDbEntity
  8
0
 48
0.1
100
AcDbCircle
 10
84.99325029895635
 20
56.81308340137156
 30
0.0
 40
13.81210437360585
100
AcDbArc
 50
90.0
 51
129.3089917598469
  0
LINE
  5
41
330
2
100
AcDbEntity
  8
0
 48
0.1
100
AcDbLine
 10
71.69885936938115
 20
73.51634060722862
 30
0.0
 11
81.16749414529493
 21
73.51634060722862
 31
0.0
  0
LINE
  5
42
330
2
100
AcDbEntity
  8
0
 48
0.1
100
AcDbLine
 10
70.62874702957436
 20
72.55396530844336
 30
0.0
 11
81.00889569716335
 21
72.55396530844342
 31
0.0
  0
LWPOLYLINE
  5
43
330
2
100
AcDbEntity
  8
0
 48
0.1
100
AcDbPolyline
 90
        2
 70
     0
 43
0.0
 10
72.24325029895613
 20
66.25007208983669
 10
84.99325029895635
 20
66.25007208983669
  0
ARC
  5
44
330
2
100
AcDbEntity
  8
0
 48
0.1
100
AcDbCircle
 10
84.83414956935645
 20
58.26247552872172
 30
0.0
 40
13.22118897277582
100
AcDbArc
 50
89.31049920178208
 51
114.1015019299267
  0
SPLINE
  5
45
330
2
100
AcDbEntity
  8
0
 48
0.1
100
AcDbSpline
210
0.0
220
0.0
230
1.0
 70
     8
 71
     3
 72
    11
 73
     7
 74
     0
 42
0.0000000001
 43
0.0000000001
 40
1.159984128284664
 40
1.159984128284664
 40
1.159984128284664
 40
1.159984128284664
 40
4.204175713420602
 40
6.286926439648645
 40
8.866450054358811
 40
10.03786712379333
 40
10.03786712379333
 40
10.03786712379333
 40
10.03786712379333
 10
60.30974530755492
 20
76.28952816561254
 30
0.0
 10
61.68576851656053
 20
74.40366390836664
 30
0.0
 10
63.70001993305919
 20
72.87104801559969
 30
0.0
 10
67.48699163270029
 20
71.10669383474315
 30
0.0
 10
70.48507331016697
 20
70.36912781541684
 30
0.0
 10
72.43168386801333
 20
70.33121439333299
 30
0.0
 10
73.2529060885966
 20
70.33121432596309
 30
0.0
  0
SPLINE
  5
46
330
2
100
AcDbEntity
  8
0
 48
0.1
100
AcDbSpline
210
0.0
220
0.0
230
1.0
 70
     8
 71
     3
 72
    12
 73
     8
 74
     6
 42
0.0000000001
 43
0.0000000001
 44
0.0000000001
 40
0.0
 40
0.0
 40
0.0
 40
0.0
 40
0.197470787324702
 40
6.982697285321893
 40
13.74616242895638
 40
16.56333134497572
 40
16.80187234765745
 40
16.80187234765745
 40
16.80187234765745
 40
16.80187234765745
 10
60.98000026819187
 20
84.2500720898367
 30
0.0
 10
60.97928321107501
 20
84.1842719707742
 30
0.0
 10
60.95392759847441
 20
81.85753636103541
 30
0.0
 10
62.36352573332898
 20
77.11888647520911
 30
0.0
 10
67.30919900288899
 20
73.77977397819761
 30
0.0
 10
70.6009432135292
 20
73.51395805247142
 30
0.0
 10
71.6193578295994
 20
73.51616808333341
 30
0.0
 10
71.69885936938115
 20
73.51634060722862
 30
0.0
 11
60.98000026819187
 21
84.2500720898367
 31
0.0
 11
60.97844203456401
 21
84.05260745058551
 31
0.0
 11
63.04417925532789
 21
77.58947907774052
 31
0.0
 11
68.65951216774494
 21
73.81953252216646
 31
0.0
 11
71.46031836669942
 21
73.51634060722862
 31
0.0
 11
71.69885936938115
 21
73.51634060722862
 31
0.0
  0
SPLINE
  5
47
330
2
100
AcDbEntity
  8
0
 48
0.1
100
AcDbSpline
210
0.0
220
0.0
230
1.0
 70
     8
 71
     3
 72
    12
 73
     8
 74
     6
 42
0.0000000001
 43
0.0000000001
 44
0.0000000001
 40
0.0
 40
0.0
 40
0.0
 40
0.0
 40
0.4567468253667996
 40
8.091268574605816
 40
9.376312675631265
 40
19.08815302532811
 40
19.45318944309902
 40
19.45318944309902
 40
19.45318944309902
 40
19.45318944309902
 10
70.62874702957436
 20
72.55396530844338
 30
0.0
 10
70.47666741950347
 20
72.54935144843885
 30
0.0
 10
67.78257760548733
 20
72.46761693297215
 30
0.0
 10
64.5304695822131
 20
73.14831910759292
 30
0.0
 10
59.24231406666321
 20
76.43680134320904
 30
0.0
 10
57.76431530970126
 20
80.7756295655372
 30
0.0
 10
57.78033718306386
 20
84.12860986061476
 30
0.0
 10
57.78091757790178
 20
84.2500720898367
 30
0.0
 11
70.62874702957436
 21
72.55396530844338
 31
0.0
 11
70.1721503212353
 21
72.54225597812115
 31
0.0
 11
62.73996212246766
 21
74.28825165901571
 31
0.0
 11
61.65718046999541
 21
74.98029373479562
 31
0.0
 11
57.78091757790178
 21
83.88503567206578
 31
0.0
 11
57.78091757790178
 21
84.2500720898367
 31
0.0
  0
LWPOLYLINE
  5
48
330
2
100
AcDbEntity
  8
0
 48
0.1
100
AcDbPolyline
 90
        2
 70
     0
 43
0.0
 10
64.92382151715768
 20
69.50017763070555
 10
79.53295977859889
 20
69.50006313102654
  0
LWPOLYLINE
  5
49
330
2
100
AcDbEntity
  8
0
 48
0.1
100
AcDbPolyline
 90
        2
 70
     0
 43
0.0
 10
73.24963068979156
 20
70.33121439333297
 10
79.43521902543088
 20
70.33108716534823
  0
CIRCLE
  5
4A
330
2
100
AcDbEntity
  8
0
 48
0.1
100
AcDbCircle
 10
84.99325029895635
 20
76.62507208983669
 30
0.0
 40
1.89014635623478
  0
LINE
  5
4B
330
2
100
AcDbEntity
  8
CENTER
 48
0.05
100
AcDbLine
 10
84.99325029895635
 20
80.57810953435028
 30
0.0
 11
84.99325029895635
 21
72.67203464532311
 31
0.0
  0
LWPOLYLINE
  5
4E
330
2
100
AcDbEntity
  8
0
 48
0.1
100
AcDbPolyline
 90
        2
 70
     0
 43
0.0
 10
97.74325029895658
 20
66.25007208983669
 10
84.99325029895635
 20
66.25007208983669
  0
ARC
  5
4F
330
2
100
AcDbEntity
  8
0
 48
0.1
100
AcDbCircle
 10
84.99325029895635
 20
56.81308340137156
 30
0.0
 40
13.81210437360585
100
AcDbArc
 50
50.69100824015302
 51
90.0
  0
LINE
  5
50
330
2
100
AcDbEntity
  8
0
 48
0.1
100
AcDbLine
 10
98.28764122853156
 20
73.51634060722862
 30
0.0
 11
88.81900645261778
 21
73.51634060722862
 31
0.0
  0
LWPOLYLINE
  5
51
330
2
100
AcDbEntity
  8
0
 48
0.1
100
AcDbPolyline
 90
        2
 70
     0
 43
0.0
 10
96.73686990812115
 20
70.33121439333297
 10
90.55128157248182
 20
70.33108716534823
  0
LINE
  5
52
330
2
100
AcDbEntity
  8
0
 48
0.1
100
AcDbLine
 10
99.35775356833836
 20
72.55396530844336
 30
0.0
 11
88.97760490074935
 21
72.55396530844342
 31
0.0
  0
ARC
  5
53
330
2
100
AcDbEntity
  8
0
 48
0.1
100
AcDbCircle
 10
85.15235102855626
 20
58.26247552872172
 30
0.0
 40
13.22118897277582
100
AcDbArc
 50
65.89849807007327
 51
90.68950079821791
  0
ARC
  5
54
330
2
100
AcDbEntity
  8
0
 48
0.1
100
AcDbCircle
 10
84.99325029895635
 20
86.73638448638952
 30
0.0
 40
14.7314661636852
100
AcDbArc
 50
270.0
 51
285.6919736928965
  0
ARC
  5
55
330
2
100
AcDbEntity
  8
0
 48
0.1
100
AcDbCircle
 10
84.99325029895635
 20
86.57074025522257
 30
0.0
 40
13.60344663373306
100
AcDbArc
 50
270.0
 51
286.3338869903276
  0
ARC
  5
56
330
2
100
AcDbEntity
  8
0
 48
0.1
100
AcDbCircle
 10
84.99325029895635
 20
86.73638448638952
 30
0.0
 40
14.7314661636852
100
AcDbArc
 50
254.3080263071034
 51
270.0
  0
ARC
  5
57
330
2
100
AcDbEntity
  8
0
 48
0.1
100
AcDbCircle
 10
84.99325029895635
 20
86.57074025522257
 30
0.0
 40
13.60344663373306
100
AcDbArc
 50
253.6661130096723
 51
270.0
  0
CIRCLE
  5
58
330
2
100
AcDbEntity
  8
0
 48
0.1
100
AcDbCircle
 10
84.99325029895635
 20
76.62507208983669
 30
0.0
 40
1.25
  0
LINE
  5
59
330
2
100
AcDbEntity
  8
CENTER
 48
0.05
100
AcDbLine
 10
88.94628774346992
 20
76.62507208983669
 30
0.0
 11
81.04021285444275
 21
76.62507208983669
 31
0.0
  0
SPLINE
  5
5A
330
2
100
AcDbEntity
  8
0
 48
0.1
100
AcDbSpline
210
0.0
220
0.0
230
1.0
 70
     8
 71
     3
 72
    13
 73
     9
 74
     7
 42
0.0000000001
 43
0.0000000001
 44
0.0000000001
 40
0.0
 40
0.0
 40
0.0
 40
0.0
 40
0.2418366659293838
 40
5.303284208316217
 40
11.45546948808071
 40
17.47854821247693
 40
22.66343820505959
 40
23.04946332957739
 40
23.04946332957739
 40
23.04946332957739
 40
23.04946332957739
 10
119.1182502989563
 20
84.2500720898367
 30
0.0
 10
119.1184295047503
 20
84.16946740822382
 30
0.0
 10
119.1223593441472
 20
82.40187135958032
 30
0.0
 10
118.5723948509777
 20
78.56024091545987
 30
0.0
 10
115.611270230682
 20
73.38833018754209
 30
0.0
 10
110.549477810548
 20
70.17756142416601
 30
0.0
 10
106.6620238537747
 20
69.49186060352719
 30
0.0
 10
104.8053110540051
 20
69.49963583642011
 30
0.0
 10
104.676653952854
 20
69.50017460521888
 30
0.0
 11
119.1182502989563
 21
84.2500720898367
 31
0.0
 11
119.1182502989563
 21
84.0082354239073
 31
0.0
 11
118.3419702747812
 21
79.00667161361752
 31
0.0
 11
115.2167181916484
 21
73.70740910517122
 31
0.0
 11
110.1635598697148
 21
70.42974708877171
 31
0.0
 11
105.06267907736
 21
69.50017763070552
 31
0.0
 11
104.676653952854
 21
69.50017460521888
 31
0.0
  0
SPLINE
  5
5B
330
2
100
AcDbEntity
  8
0
 48
0.1
100
AcDbSpline
210
0.0
220
0.0
230
1.0
 70
     8
 71
     3
 72
    13
 73
     9
 74
     0
 42
0.0000000001
 43
0.0000000001
 40
0.0
 40
0.0
 40
0.0
 40
0.0
 40
0.3307334096703869
 40
2.898573574059241
 40
10.70458291618026
 40
15.42993306510672
 40
19.08959108087722
 40
20.31880829410857
 40
20.31880829410857
 40
20.31880829410857
 40
20.31880829410857
 10
117.1182502989563
 20
84.2500720898367
 30
0.0
 10
117.1182716517398
 20
84.12068254873387
 30
0.0
 10
117.0190105067163
 20
82.04853499727231
 30
0.0
 10
116.6924588867607
 20
78.48884462271266
 30
0.0
 10
114.4103756464697
 20
73.93979901531931
 30
0.0
 10
111.0167721668183
 20
71.34437006173221
 30
0.0
 10
107.575545725979
 20
69.81341196795461
 30
0.0
 10
105.4723063397548
 20
69.52278975639178
 30
0.0
 10
105.0628411790472
 20
69.50017944286911
 30
0.0
  0
LINE
  5
1D0
330
2
100
AcDbEntity
  8
0
 48
0.1
100
AcDbLine
 10
120.8682502989563
 20
102.2500720898366
 30
0.0
 11
49.11825029895635
 21
102.2500720898366
 31
0.0
  0
LWPOLYLINE
  5
1D1
330
2
100
AcDbEntity
  8
0
 48
0.1
100
AcDbPolyline
 90
        2
 70
     0
 43
0.0
 10
105.062679080755
 20
98.99996654896783
 10
90.45354081931382
 20
99.00008104864685
  0
ARC
  5
1D2
330
2
100
AcDbEntity
  8
0
 48
0.1
100
AcDbCircle
 10
84.99325029895635
 20
110.1875720898366
 30
0.0
 40
13.8125
100
AcDbArc
 50
234.0917666202841
 51
270.0
  0
ARC
  5
1D3
330
2
100
AcDbEntity
  8
0
 48
0.1
100
AcDbCircle
 10
84.99325029895635
 20
110.1875720898366
 30
0.0
 40
15.0
100
AcDbArc
 50
228.2311188062869
 51
270.0
  0
ARC
  5
1D4
330
2
100
AcDbEntity
  8
0
 48
0.1
100
AcDbCircle
 10
84.99325029895635
 20
111.6870607783018
 30
0.0
 40
13.81210437360585
100
AcDbArc
 50
230.691008240153
 51
270.0
  0
LINE
  5
1D5
330
2
100
AcDbEntity
  8
0
 48
0.1
100
AcDbLine
 10
71.69885936938115
 20
94.98380357244476
 30
0.0
 11
81.16749414529493
 21
94.98380357244476
 31
0.0
  0
ARC
  5
1D6
330
2
100
AcDbEntity
  8
0
 48
0.1
100
AcDbCircle
 10
84.83414956935645
 20
110.2376686509516
 30
0.0
 40
13.22118897277582
100
AcDbArc
 50
245.8984980700732
 51
270.6895007982179
  0
LINE
  5
1D7
330
2
100
AcDbEntity
  8
0
 48
0.1
100
AcDbLine
 10
70.62874702957436
 20
95.94617887123002
 30
0.0
 11
80.28339688371906
 21
95.94617887122996
 31
0.0
  0
LWPOLYLINE
  5
1D8
330
2
100
AcDbEntity
  8
0
 48
0.1
100
AcDbPolyline
 90
        2
 70
     0
 43
0.0
 10
64.92382151715768
 20
98.99996654896783
 10
79.53295977859889
 20
99.00008104864685
  0
LWPOLYLINE
  5
1D9
330
2
100
AcDbEntity
  8
0
 48
0.1
100
AcDbPolyline
 90
        2
 70
     0
 43
0.0
 10
73.24963068979156
 20
98.16892978634042
 10
76.01808423208971
 20
98.16898672914778
  0
LWPOLYLINE
  5
1DA
330
2
100
AcDbEntity
  8
0
 48
0.1
100
AcDbPolyline
 90
        2
 70
     0
 43
0.0
 10
78.18591352406852
 20
98.1690313180433
 10
79.43521902543088
 20
98.16905701432515
  0
ARC
  5
1DB
330
2
100
AcDbEntity
  8
0
 48
0.1
100
AcDbCircle
 10
84.99325029895636
 20
110.1875720898366
 30
0.0
 40
13.8125
100
AcDbArc
 50
270.0
 51
305.9082333797158
  0
ARC
  5
1DC
330
2
100
AcDbEntity
  8
0
 48
0.1
100
AcDbCircle
 10
84.99325029895636
 20
110.1875720898366
 30
0.0
 40
15.0
100
AcDbArc
 50
270.0
 51
311.768881193713
  0
ARC
  5
1DD
330
2
100
AcDbEntity
  8
0
 48
0.1
100
AcDbCircle
 10
84.99325029895635
 20
111.6870607783018
 30
0.0
 40
13.81210437360585
100
AcDbArc
 50
270.0
 51
309.308991759847
  0
LINE
  5
1DE
330
2
100
AcDbEntity
  8
0
 48
0.1
100
AcDbLine
 10
98.28764122853156
 20
94.98380357244476
 30
0.0
 11
88.81900645261778
 21
94.98380357244476
 31
0.0
  0
LINE
  5
1DF
330
2
100
AcDbEntity
  8
0
 48
0.1
100
AcDbLine
 10
99.35775356833836
 20
95.94617887123002
 30
0.0
 11
89.70310371419364
 21
95.94617887122996
 31
0.0
  0
ARC
  5
1E1
330
2
100
AcDbEntity
  8
0
 48
0.1
100
AcDbCircle
 10
85.15235102855626
 20
110.2376686509516
 30
0.0
 40
13.22118897277582
100
AcDbArc
 50
269.310499201782
 51
294.1015019299267
  0
ARC
  5
1E2
330
2
100
AcDbEntity
  8
0
 48
0.1
100
AcDbCircle
 10
84.99325029895635
 20
81.76375969328388
 30
0.0
 40
14.7314661636852
100
AcDbArc
 50
84.90816041793809
 51
89.99999999999998
  0
ARC
  5
1E3
330
2
100
AcDbEntity
  8
0
 48
0.1
100
AcDbCircle
 10
84.99325029895635
 20
81.9294039244508
 30
0.0
 40
13.60344663373306
100
AcDbArc
 50
99.36140429506535
 51
106.3338869903276
  0
ARC
  5
1E4
330
2
100
AcDbEntity
  8
0
 48
0.1
100
AcDbCircle
 10
84.99325029895635
 20
81.76375969328388
 30
0.0
 40
14.7314661636852
100
AcDbArc
 50
90.00000000000003
 51
95.09183958206191
  0
ARC
  5
1E6
330
2
100
AcDbEntity
  8
0
 48
0.1
100
AcDbCircle
 10
84.99325029895635
 20
81.9294039244508
 30
0.0
 40
13.60344663373306
100
AcDbArc
 50
73.66611300967234
 51
80.63859570493466
  0
LWPOLYLINE
  5
1E7
330
2
100
AcDbEntity
  8
0
 48
0.1
100
AcDbPolyline
 90
        2
 70
     0
 43
0.0
 10
91.80058707384418
 20
98.1690313180433
 10
90.55128157248182
 20
98.16905701432515
  0
LWPOLYLINE
  5
1E8
330
2
100
AcDbEntity
  8
0
 48
0.1
100
AcDbPolyline
 90
        2
 70
     0
 43
0.0
 10
96.73686990812115
 20
98.16892978634042
 10
93.96841636582299
 20
98.16898672914778
  0
ENDSEC
  0
SECTION
  2
OBJECTS
  0
DICTIONARY
  5
7
330
0
100
AcDbDictionary
  3
ACAD_GROUP
350
28
  3
ACAD_LAYOUT
350
B
  3
ACAD_MLINESTYLE
350
29
  3
ACAD_PLOTSETTINGS
350
2A
  3
ACAD_PLOTSTYLENAME
350
6
  3
ACDBHEADERROUNDTRIPXREC
350
314
  3
ACDBVARIABLEDICTIONARY
350
1EB
  0
DICTIONARY
  5
11
330
10
100
AcDbDictionary
280
     1
  3
ACAD_LAYERFILTERS
360
12
  0
DICTIONARY
  5
1FD
330
2
100
AcDbDictionary
280
     1
  3
ACAD_LAYOUTSELFREF
360
335
  0
DICTIONARY
  5
1FF
330
1F2
100
AcDbDictionary
280
     1
  3
ACAD_LAYOUTSELFREF
360
336
  0
DICTIONARY
  5
28
102
{ACAD_REACTORS
330
7
102
}
330
7
100
AcDbDictionary
  0
DICTIONARY
  5
B
102
{ACAD_REACTORS
330
7
102
}
330
7
100
AcDbDictionary
  0
DICTIONARY
  5
29
102
{ACAD_REACTORS
330
7
102
}
330
7
100
AcDbDictionary
  3
STANDARD
350
2C
  0
DICTIONARY
  5
2A
102
{ACAD_REACTORS
330
7
102
}
330
7
100
AcDbDictionary
  0
ACDBDICTIONARYWDFLT
  5
6
102
{ACAD_REACTORS
330
7
102
}
330
7
100
AcDbDictionary
281
     1
  3
Normal
350
5
100
AcDbDictionaryWithDefault
340
5
  0
DICTIONARY
  5
314
102
{ACAD_REACTORS
330
7
102
}
330
7
100
AcDbDictionary
  3
CEPSNTYPE
350
31E
  3
DIMSTYLEDATA
350
322
  3
FINGERPRINTGUID
350
31F
  3
HYPERLINKBASE
350
317
  3
INSUNITS
350
31D
  3
LAYOUTDICT
350
319
  3
LWETCUNION
350
31C
  3
PLOTSETDICT
350
31A
  3
PLOTSTYLNAMDICT
350
31B
  3
PSVPSCALE
350
321
  3
PUCSBASE
350
325
  3
PUCSORGBACK
350
32B
  3
PUCSORGBOTTOM
350
327
  3
PUCSORGFRONT
350
32A
  3
PUCSORGLEFT
350
328
  3
PUCSORGRIGHT
350
329
  3
PUCSORGTOP
350
326
  3
PUCSORTHOREF
350
323
  3
PUCSORTHOVIEW
350
324
  3
STYLESHEET
350
318
  3
TSTACKALIGN
350
315
  3
TSTACKSIZE
350
316
  3
UCSBASE
350
32E
  3
UCSORGBACK
350
334
  3
UCSORGBOTTOM
350
330
  3
UCSORGFRONT
350
333
  3
UCSORGLEFT
350
331
  3
UCSORGRIGHT
350
332
  3
UCSORGTOP
350
32F
  3
UCSORTHOREF
350
32C
  3
UCSORTHOVIEW
350
32D
  3
VERSIONGUID
350
320
  0
DICTIONARY
  5
1EB
102
{ACAD_REACTORS
330
7
102
}
330
7
100
AcDbDictionary
  3
DIMASSOC
350
1ED
  3
HIDETEXT
350
1EC
  0
DICTIONARY
  5
12
102
{ACAD_REACTORS
330
11
102
}
330
11
100
AcDbDictionary
280
     1
  3
DIM-1_12
360
13
  3
DIM-1_16
360
14
  0
XRECORD
  5
335
102
{ACAD_REACTORS
330
1FD
102
}
330
1FD
100
AcDbXrecord
340
2
  0
XRECORD
  5
336
102
{ACAD_REACTORS
330
1FF
102
}
330
1FF
100
AcDbXrecord
340
1F2
  0
MLINESTYLE
  5
2C
102
{ACAD_REACTORS
330
29
102
}
330
29
100
AcDbMlineStyle
  2
STANDARD
 70
     0
  3

 62
   256
 51
90.0
 52
90.0
 71
     2
 49
0.5
 62
   256
  6
BYLAYER
 49
-0.5
 62
   256
  6
BYLAYER
  0
ACDBPLACEHOLDER
  5
5
102
{ACAD_REACTORS
330
6
102
}
330
6
100
AcDbPlaceHolder
280
     0
  0
XRECORD
  5
31E
102
{ACAD_REACTORS
330
314
102
}
330
314
100
AcDbXrecord
 90
        0
  0
XRECORD
  5
322
102
{ACAD_REACTORS
330
314
102
}
330
314
100
AcDbXrecord
1000
DSTYLE
1002
{
1070
    79
 70
     1
1070
   276
 70
     1
1070
   277
 70
     5
1070
   289
 70
     1
1002
}
  0
XRECORD
  5
31F
102
{ACAD_REACTORS
330
314
102
}
330
314
100
AcDbXrecord
  1
{6A4AC8E0-4F58-11D5-8420-0003476D26AB}
  0
XRECORD
  5
317
102
{ACAD_REACTORS
330
314
102
}
330
314
100
AcDbXrecord
  1

  0
XRECORD
  5
31D
102
{ACAD_REACTORS
330
314
102
}
330
314
100
AcDbXrecord
 90
        1
  0
XRECORD
  5
319
102
{ACAD_REACTORS
330
314
102
}
330
314
100
AcDbXrecord
340
B
  0
XRECORD
  5
31C
102
{ACAD_REACTORS
330
314
102
}
330
314
100
AcDbXrecord
 90
    10781
  0
XRECORD
  5
31A
102
{ACAD_REACTORS
330
314
102
}
330
314
100
AcDbXrecord
340
2A
  0
XRECORD
  5
31B
102
{ACAD_REACTORS
330
314
102
}
330
314
100
AcDbXrecord
340
6
  0
XRECORD
  5
321
102
{ACAD_REACTORS
330
314
102
}
330
314
100
AcDbXrecord
 40
0.0
  0
XRECORD
  5
325
102
{ACAD_REACTORS
330
314
102
}
330
314
100
AcDbXrecord
340
0
  0
XRECORD
  5
32B
102
{ACAD_REACTORS
330
314
102
}
330
314
100
AcDbXrecord
 10
0.0
 20
0.0
 30
0.0
  0
XRECORD
  5
327
102
{ACAD_REACTORS
330
314
102
}
330
314
100
AcDbXrecord
 10
0.0
 20
0.0
 30
0.0
  0
XRECORD
  5
32A
102
{ACAD_REACTORS
330
314
102
}
330
314
100
AcDbXrecord
 10
0.0
 20
0.0
 30
0.0
  0
XRECORD
  5
328
102
{ACAD_REACTORS
330
314
102
}
330
314
100
AcDbXrecord
 10
0.0
 20
0.0
 30
0.0
  0
XRECORD
  5
329
102
{ACAD_REACTORS
330
314
102
}
330
314
100
AcDbXrecord
 10
0.0
 20
0.0
 30
0.0
  0
XRECORD
  5
326
102
{ACAD_REACTORS
330
314
102
}
330
314
100
AcDbXrecord
 10
0.0
 20
0.0
 30
0.0
  0
XRECORD
  5
323
102
{ACAD_REACTORS
330
314
102
}
330
314
100
AcDbXrecord
340
0
  0
XRECORD
  5
324
102
{ACAD_REACTORS
330
314
102
}
330
314
100
AcDbXrecord
 70
     0
  0
XRECORD
  5
318
102
{ACAD_REACTORS
330
314
102
}
330
314
100
AcDbXrecord
  1

  0
XRECORD
  5
315
102
{ACAD_REACTORS
330
314
102
}
330
314
100
AcDbXrecord
 90
        1
  0
XRECORD
  5
316
102
{ACAD_REACTORS
330
314
102
}
330
314
100
AcDbXrecord
 90
       70
  0
XRECORD
  5
32E
102
{ACAD_REACTORS
330
314
102
}
330
314
100
AcDbXrecord
340
0
  0
XRECORD
  5
334
102
{ACAD_REACTORS
330
314
102
}
330
314
100
AcDbXrecord
 10
0.0
 20
0.0
 30
0.0
  0
XRECORD
  5
330
102
{ACAD_REACTORS
330
314
102
}
330
314
100
AcDbXrecord
 10
0.0
 20
0.0
 30
0.0
  0
XRECORD
  5
333
102
{ACAD_REACTORS
330
314
102
}
330
314
100
AcDbXrecord
 10
0.0
 20
0.0
 30
0.0
  0
XRECORD
  5
331
102
{ACAD_REACTORS
330
314
102
}
330
314
100
AcDbXrecord
 10
0.0
 20
0.0
 30
0.0
  0
XRECORD
  5
332
102
{ACAD_REACTORS
330
314
102
}
330
314
100
AcDbXrecord
 10
0.0
 20
0.0
 30
0.0
  0
XRECORD
  5
32F
102
{ACAD_REACTORS
330
314
102
}
330
314
100
AcDbXrecord
 10
0.0
 20
0.0
 30
0.0
  0
XRECORD
  5
32C
102
{ACAD_REACTORS
330
314
102
}
330
314
100
AcDbXrecord
340
0
  0
XRECORD
  5
32D
102
{ACAD_REACTORS
330
314
102
}
330
314
100
AcDbXrecord
 70
     1
  0
XRECORD
  5
320
102
{ACAD_REACTORS
330
314
102
}
330
314
100
AcDbXrecord
  1
{7D63F290-3C2D-493B-BFE7-DBCC01D9939E}
  0
DICTIONARYVAR
  5
1ED
102
{ACAD_REACTORS
330
1EB
102
}
330
1EB
100
DictionaryVariables
280
     0
  1
1
  0
DICTIONARYVAR
  5
1EC
102
{ACAD_REACTORS
330
1EB
102
}
330
1EB
100
DictionaryVariables
280
     0
  1
1
  0
XRECORD
  5
13
102
{ACAD_REACTORS
330
12
102
}
330
12
100
AcDbXrecord
  1
DIM-1_12
  1
DIM-1_12
  1
*
  1
*
 70
     0
  1
*
  1
*
  0
XRECORD
  5
14
102
{ACAD_REACTORS
330
12
102
}
330
12
100
AcDbXrecord
  1
dim-1_16
  1
*
  1
*
  1
*
 70
     0
  1
*
  1
*
  0
ENDSEC
  0
EOF
