  0
SECTION
  2
HEADER
  9
$ACADVER
  1
AC1014
  9
$ACADMAINTVER
 70
     0
  9
$DWGCODEPAGE
  3
ANSI_1252
  9
$INSBASE
 10
20.391167
 20
-191.202762
 30
0.0
  9
$EXTMIN
 10
-6.835914
 20
-193.356357
 30
0.0
  9
$EXTMAX
 10
69.366712
 20
-167.355992
 30
0.0
  9
$LIMMIN
 10
0.0
 20
0.0
  9
$LIMMAX
 10
100.502416
 20
51.698548
  9
$ORTHOMODE
 70
     0
  9
$REGENMODE
 70
     1
  9
$FILLMODE
 70
     1
  9
$QTEXTMODE
 70
     0
  9
$MIRRTEXT
 70
     1
  9
$DRAGMODE
 70
     2
  9
$LTSCALE
 40
2.0
  9
$OSMODE
 70
    53
  9
$ATTMODE
 70
     1
  9
$TEXTSIZE
 40
0.1
  9
$TRACEWID
 40
1.0
  9
$TEXTSTYLE
  7
CARTOUCHE
  9
$CLAYER
  8
0
  9
$CELTYPE
  6
BYLAYER
  9
$CECOLOR
 62
   256
  9
$CELTSCALE
 40
1.0
  9
$DELOBJ
 70
     1
  9
$DISPSILH
 70
     0
  9
$DIMSCALE
 40
16.0
  9
$DIMASZ
 40
0.1
  9
$DIMEXO
 40
0.0625
  9
$DIMDLI
 40
0.25
  9
$DIMRND
 40
0.0
  9
$DIMDLE
 40
0.0
  9
$DIMEXE
 40
0.1
  9
$DIMTP
 40
0.0
  9
$DIMTM
 40
0.0
  9
$DIMTXT
 40
0.1
  9
$DIMCEN
 40
0.09
  9
$DIMTSZ
 40
0.0
  9
$DIMTOL
 70
     0
  9
$DIMLIM
 70
     0
  9
$DIMTIH
 70
     1
  9
$DIMTOH
 70
     1
  9
$DIMSE1
 70
     0
  9
$DIMSE2
 70
     0
  9
$DIMTAD
 70
     0
  9
$DIMZIN
 70
     4
  9
$DIMBLK
  1

  9
$DIMASO
 70
     1
  9
$DIMSHO
 70
     1
  9
$DIMPOST
  1
\X
  9
$DIMAPOST
  1
cm
  9
$DIMALT
 70
     1
  9
$DIMALTD
 70
     1
  9
$DIMALTF
 40
2.54
  9
$DIMLFAC
 40
1.0
  9
$DIMTOFL
 70
     0
  9
$DIMTVP
 40
0.0
  9
$DIMTIX
 70
     0
  9
$DIMSOXD
 70
     0
  9
$DIMSAH
 70
     0
  9
$DIMBLK1
  1

  9
$DIMBLK2
  1

  9
$DIMSTYLE
  2
STANDARD
  9
$DIMCLRD
 70
     0
  9
$DIMCLRE
 70
     0
  9
$DIMCLRT
 70
     0
  9
$DIMTFAC
 40
1.0
  9
$DIMGAP
 40
0.08
  9
$DIMJUST
 70
     0
  9
$DIMSD1
 70
     0
  9
$DIMSD2
 70
     0
  9
$DIMTOLJ
 70
     1
  9
$DIMTZIN
 70
     4
  9
$DIMALTZ
 70
     4
  9
$DIMALTTZ
 70
     4
  9
$DIMFIT
 70
     1
  9
$DIMUPT
 70
     0
  9
$DIMUNIT
 70
     2
  9
$DIMDEC
 70
     3
  9
$DIMTDEC
 70
     3
  9
$DIMALTU
 70
     2
  9
$DIMALTTD
 70
     1
  9
$DIMTXSTY
  7
ROMANS
  9
$DIMAUNIT
 70
     0
  9
$LUNITS
 70
     2
  9
$LUPREC
 70
     2
  9
$SKETCHINC
 40
1.0
  9
$FILLETRAD
 40
0.5
  9
$AUNITS
 70
     0
  9
$AUPREC
 70
     0
  9
$MENU
  1
.
  9
$ELEVATION
 40
0.0
  9
$PELEVATION
 40
0.0
  9
$THICKNESS
 40
0.0
  9
$LIMCHECK
 70
     0
  9
$BLIPMODE
 70
     0
  9
$CHAMFERA
 40
0.0
  9
$CHAMFERB
 40
0.0
  9
$CHAMFERC
 40
20.0
  9
$CHAMFERD
 40
0.0
  9
$SKPOLY
 70
     0
  9
$TDCREATE
 40
2452062.343093519
  9
$TDUPDATE
 40
2453689.493999016
  9
$TDINDWG
 40
4.4732372222
  9
$TDUSRTIMER
 40
4.4732372222
  9
$USRTIMER
 70
     1
  9
$ANGBASE
 50
0.0
  9
$ANGDIR
 70
     0
  9
$PDMODE
 70
    34
  9
$PDSIZE
 40
-5.0
  9
$PLINEWID
 40
0.0
  9
$COORDS
 70
     1
  9
$SPLFRAME
 70
     0
  9
$SPLINETYPE
 70
     6
  9
$SPLINESEGS
 70
     8
  9
$ATTDIA
 70
     0
  9
$ATTREQ
 70
     1
  9
$HANDLING
 70
     1
  9
$HANDSEED
  5
496
  9
$SURFTAB1
 70
     6
  9
$SURFTAB2
 70
     6
  9
$SURFTYPE
 70
     6
  9
$SURFU
 70
     6
  9
$SURFV
 70
     6
  9
$UCSNAME
  2

  9
$UCSORG
 10
0.0
 20
0.0
 30
0.0
  9
$UCSXDIR
 10
1.0
 20
0.0
 30
0.0
  9
$UCSYDIR
 10
0.0
 20
1.0
 30
0.0
  9
$PUCSNAME
  2

  9
$PUCSORG
 10
0.0
 20
0.0
 30
0.0
  9
$PUCSXDIR
 10
1.0
 20
0.0
 30
0.0
  9
$PUCSYDIR
 10
0.0
 20
1.0
 30
0.0
  9
$USERI1
 70
     0
  9
$USERI2
 70
     0
  9
$USERI3
 70
     0
  9
$USERI4
 70
     0
  9
$USERI5
 70
     0
  9
$USERR1
 40
0.0
  9
$USERR2
 40
0.0
  9
$USERR3
 40
0.0
  9
$USERR4
 40
0.0
  9
$USERR5
 40
0.0
  9
$WORLDVIEW
 70
     1
  9
$SHADEDGE
 70
     3
  9
$SHADEDIF
 70
    70
  9
$TILEMODE
 70
     1
  9
$MAXACTVP
 70
    48
  9
$PINSBASE
 10
0.0
 20
0.0
 30
0.0
  9
$PLIMCHECK
 70
     0
  9
$PEXTMIN
 10
0.0
 20
0.0
 30
0.0
  9
$PEXTMAX
 10
0.0
 20
0.0
 30
0.0
  9
$PLIMMIN
 10
0.0
 20
0.0
  9
$PLIMMAX
 10
12.0
 20
9.0
  9
$UNITMODE
 70
     0
  9
$VISRETAIN
 70
     1
  9
$PLINEGEN
 70
     0
  9
$PSLTSCALE
 70
     1
  9
$TREEDEPTH
 70
  3020
  9
$PICKSTYLE
 70
     1
  9
$CMLSTYLE
  2
STANDARD
  9
$CMLJUST
 70
     0
  9
$CMLSCALE
 40
20.0
  9
$PROXYGRAPHICS
 70
     1
  9
$MEASUREMENT
 70
     0
  0
ENDSEC
  0
SECTION
  2
CLASSES
  0
CLASS
  1
ACDBDICTIONARYWDFLT
  2
AcDbDictionaryWithDefault
  3
AutoCAD 2000
 90
        0
280
     0
281
     0
  0
CLASS
  1
ACDBPLACEHOLDER
  2
AcDbPlaceHolder
  3
AutoCAD 2000
 90
        0
280
     0
281
     0
  0
CLASS
  1
LAYOUT
  2
AcDbLayout
  3
AutoCAD 2000
 90
        0
280
     0
281
     0
  0
CLASS
  1
DICTIONARYVAR
  2
AcDbDictionaryVar
  3
"AutoCAD"
 90
        0
280
     0
281
     0
  0
CLASS
  1
IMAGEDEF
  2
AcDbRasterImageDef
  3
ISM
 90
        0
280
     0
281
     0
  0
CLASS
  1
LONG_TRANSACTION
  2
AcDbLongTransaction
  3
AutoCAD 2000
 90
        0
280
     0
281
     0
  0
CLASS
  1
LWPOLYLINE
  2
AcDbPolyline
  3
"AutoCAD"
 90
        0
280
     0
281
     1
  0
CLASS
  1
HATCH
  2
AcDbHatch
  3
"ACAD_SEDONA"
 90
        0
280
     0
281
     1
  0
CLASS
  1
XRECORD
  2
AcDbXrecord
  3
"<Built In>"
 90
        0
280
     0
281
     0
  0
ENDSEC
  0
SECTION
  2
TABLES
  0
TABLE
  2
VPORT
  5
1D
100
AcDbSymbolTable
 70
     5
  0
VPORT
  5
495
100
AcDbSymbolTableRecord
100
AcDbViewportTableRecord
  2
*ACTIVE
 70
     0
 10
0.0
 20
0.0
 11
1.0
 21
1.0
 12
31.265399
 22
-180.356175
 13
0.0
 23
0.0
 14
10.0
 24
10.0
 15
10.0
 25
10.0
 16
0.0
 26
0.0
 36
1.0
 17
0.0
 27
0.0
 37
0.0
 40
55.577743
 41
1.487748
 42
50.0
 43
0.0
 44
0.0
 50
0.0
 51
0.0
 71
     0
 72
   100
 73
     1
 74
     3
 75
     0
 76
     0
 77
     0
 78
     2
  0
ENDTAB
  0
TABLE
  2
LTYPE
  5
18
100
AcDbSymbolTable
 70
     3
  0
LTYPE
  5
19
102
{ACAD_XDICTIONARY
360
9F
102
}
100
AcDbSymbolTableRecord
100
AcDbLinetypeTableRecord
  2
BYBLOCK
 70
     0
  3

 72
    65
 73
     0
 40
0.0
  0
LTYPE
  5
1A
102
{ACAD_XDICTIONARY
360
A1
102
}
100
AcDbSymbolTableRecord
100
AcDbLinetypeTableRecord
  2
BYLAYER
 70
     0
  3

 72
    65
 73
     0
 40
0.0
  0
LTYPE
  5
8
102
{ACAD_XDICTIONARY
360
A3
102
}
100
AcDbSymbolTableRecord
100
AcDbLinetypeTableRecord
  2
CONTINUOUS
 70
     0
  3
Solid line
 72
    65
 73
     0
 40
0.0
  0
LTYPE
  5
4F
100
AcDbSymbolTableRecord
100
AcDbLinetypeTableRecord
  2
CENTER
 70
     0
  3
Center ____ _ ____ _ ____ _ ____ _ ____ _ ____
 72
    65
 73
     4
 40
50.8
 49
31.75
 74
     0
 49
-6.35
 74
     0
 49
6.35
 74
     0
 49
-6.35
 74
     0
  0
LTYPE
  5
34
100
AcDbSymbolTableRecord
100
AcDbLinetypeTableRecord
  2
HIDDEN
 70
     0
  3
Hidden __ __ __ __ __ __ __ __ __ __ __ __ __ _
 72
    65
 73
     2
 40
9.525
 49
6.35
 74
     0
 49
-3.175
 74
     0
  0
ENDTAB
  0
TABLE
  2
LAYER
  5
10
102
{ACAD_XDICTIONARY
360
11
102
}
100
AcDbSymbolTable
 70
     3
  0
LAYER
  5
4
100
AcDbSymbolTableRecord
100
AcDbLayerTableRecord
  2
0
 70
     0
 62
     7
  6
CONTINUOUS
  0
LAYER
  5
4E
102
{ACAD_XDICTIONARY
360
D7
102
}
100
AcDbSymbolTableRecord
100
AcDbLayerTableRecord
  2
CENTER
 70
     0
 62
     1
  6
CENTER
  0
ENDTAB
  0
TABLE
  2
STYLE
  5
15
100
AcDbSymbolTable
 70
     3
  0
STYLE
  5
16
102
{ACAD_XDICTIONARY
360
A5
102
}
100
AcDbSymbolTableRecord
100
AcDbTextStyleTableRecord
  2
STANDARD
 70
     0
 40
0.0
 41
1.0
 50
0.0
 71
     0
 42
0.125
  3
txt
  4

  0
STYLE
  5
29
100
AcDbSymbolTableRecord
100
AcDbTextStyleTableRecord
  2
CARTOUCHE
 70
     0
 40
0.0
 41
1.0
 50
0.0
 71
     0
 42
0.1
  3
romans.shx
  4

  0
STYLE
  5
23
102
{ACAD_XDICTIONARY
360
A7
102
}
100
AcDbSymbolTableRecord
100
AcDbTextStyleTableRecord
  2
ROMANS
 70
     0
 40
0.0
 41
1.0
 50
0.0
 71
     0
 42
1.0
  3
romans.shx
  4

  0
ENDTAB
  0
TABLE
  2
VIEW
  5
1B
100
AcDbSymbolTable
 70
     0
  0
ENDTAB
  0
TABLE
  2
UCS
  5
1C
100
AcDbSymbolTable
 70
     0
  0
ENDTAB
  0
TABLE
  2
APPID
  5
1F
100
AcDbSymbolTable
 70
     1
  0
APPID
  5
20
100
AcDbSymbolTableRecord
100
AcDbRegAppTableRecord
  2
ACAD
 70
     0
  0
ENDTAB
  0
TABLE
  2
DIMSTYLE
  5
21
100
AcDbSymbolTable
 70
     1
  0
DIMSTYLE
105
22
102
{ACAD_XDICTIONARY
360
D3
102
}
100
AcDbSymbolTableRecord
100
AcDbDimStyleTableRecord
  2
STANDARD
 70
     0
  3
\X
  4
cm
  5

  6

  7

 40
16.0
 41
0.1
 42
0.0625
 43
0.25
 44
0.1
 45
0.0
 46
0.0
 47
0.0
 48
0.0
140
0.1
141
0.09
142
0.0
143
2.54
144
1.0
145
0.0
146
1.0
147
0.08
 71
     0
 72
     0
 73
     1
 74
     1
 75
     0
 76
     0
 77
     0
 78
     4
170
     1
171
     1
172
     0
173
     0
174
     0
175
     0
176
     0
177
     0
178
     0
270
     5
271
     3
272
     3
273
     2
274
     1
340
23
275
     0
280
     0
281
     0
282
     0
283
     1
284
     4
285
     4
286
     4
287
     1
288
     0
  0
ENDTAB
  0
TABLE
  2
BLOCK_RECORD
  5
1
100
AcDbSymbolTable
 70
    10
  0
BLOCK_RECORD
  5
2
102
{ACAD_XDICTIONARY
360
9B
102
}
100
AcDbSymbolTableRecord
100
AcDbBlockTableRecord
  2
*MODEL_SPACE
  0
BLOCK_RECORD
  5
95
102
{ACAD_XDICTIONARY
360
9D
102
}
100
AcDbSymbolTableRecord
100
AcDbBlockTableRecord
  2
*PAPER_SPACE
  0
ENDTAB
  0
ENDSEC
  0
SECTION
  2
BLOCKS
  0
BLOCK
  5
3
100
AcDbEntity
  8
0
100
AcDbBlockBegin
  2
*MODEL_SPACE
 70
     0
 10
0.0
 20
0.0
 30
0.0
  3
*MODEL_SPACE
  1

  0
ENDBLK
  5
9
100
AcDbEntity
  8
0
100
AcDbBlockEnd
  0
BLOCK
  5
97
100
AcDbEntity
 67
     1
  8
0
100
AcDbBlockBegin
  2
*PAPER_SPACE
 70
     0
 10
0.0
 20
0.0
 30
0.0
  3
*PAPER_SPACE
  1

  0
ENDBLK
  5
98
100
AcDbEntity
 67
     1
  8
0
100
AcDbBlockEnd
  0
ENDSEC
  0
SECTION
  2
ENTITIES
  0
LINE
  5
2B
100
AcDbEntity
  8
0
100
AcDbLine
 10
-6.832444
 20
-171.702762
 30
0.0
 11
69.358312
 21
-171.702762
 31
0.0
  0
ELLIPSE
  5
2C
100
AcDbEntity
  8
0
100
AcDbEllipse
 10
46.734345
 20
-170.202762
 30
0.0
 11
0.0
 21
2.499999999992382
 31
0.0
210
0.0
220
0.0
230
1.0
 40
0.707107
 41
4.712388980384689
 42
7.853981633974482
  0
LINE
  5
2D
100
AcDbEntity
  8
0
100
AcDbLine
 10
68.699927
 20
-170.202762
 30
0.0
 11
23.338298
 21
-170.202762
 31
0.0
  0
LINE
  5
2E
100
AcDbEntity
  8
0
100
AcDbLine
 10
69.199927
 20
-170.702762
 30
0.0
 11
23.338298
 21
-170.702762
 31
0.0
  0
LINE
  5
2F
100
AcDbEntity
  8
0
100
AcDbLine
 10
59.407118
 20
-171.702762
 30
0.0
 11
23.338298
 21
-171.702762
 31
0.0
  0
LINE
  5
30
100
AcDbEntity
  8
0
100
AcDbLine
 10
50.503624
 20
-181.067929
 30
0.0
 11
28.200102
 21
-176.123357
 31
0.0
  0
ARC
  5
31
100
AcDbEntity
  8
0
100
AcDbCircle
 10
44.938479
 20
-187.379542
 30
0.0
 40
2.5
100
AcDbArc
 50
273.712053
 51
353.096952
  0
LINE
  5
32
100
AcDbEntity
  8
0
100
AcDbLine
 10
46.734345
 20
-167.702762
 30
0.0
 11
36.183746
 21
-167.702762
 31
0.0
  0
LINE
  5
33
100
AcDbEntity
  8
0
  6
HIDDEN
 62
     8
 48
0.04
100
AcDbLine
 10
47.238748
 20
-188.358707
 30
0.0
 11
17.299042
 21
-188.884579
 31
0.0
  0
LINE
  5
35
100
AcDbEntity
  8
0
100
AcDbLine
 10
6.571362
 20
-189.957967
 30
0.0
 11
18.523404
 21
-190.276268
 31
0.0
  0
LINE
  5
36
100
AcDbEntity
  8
0
100
AcDbLine
 10
0.401946
 20
-173.702762
 30
0.0
 11
15.07133
 21
-173.702762
 31
0.0
  0
LINE
  5
37
100
AcDbEntity
  8
0
100
AcDbLine
 10
8.257612
 20
-191.202762
 30
0.0
 11
14.418536
 21
-191.202762
 31
0.0
  0
LINE
  5
38
100
AcDbEntity
  8
0
100
AcDbLine
 10
-6.17406
 20
-170.202762
 30
0.0
 11
33.202236
 21
-170.202762
 31
0.0
  0
LINE
  5
39
100
AcDbEntity
  8
0
100
AcDbLine
 10
-6.67406
 20
-170.702762
 30
0.0
 11
33.202236
 21
-170.702762
 31
0.0
  0
LINE
  5
3A
100
AcDbEntity
  8
0
100
AcDbLine
 10
-2.679084
 20
-171.702762
 30
0.0
 11
33.202236
 21
-171.702762
 31
0.0
  0
LINE
  5
3B
100
AcDbEntity
  8
0
100
AcDbLine
 10
-6.67406
 20
-170.702762
 30
0.0
 11
-6.17406
 21
-170.202762
 31
0.0
  0
LINE
  5
3C
100
AcDbEntity
  8
0
100
AcDbLine
 10
-6.67406
 20
-170.702762
 30
0.0
 11
-6.832444
 21
-171.702762
 31
0.0
  0
LINE
  5
3D
100
AcDbEntity
  8
0
100
AcDbLine
 10
2.157202
 20
-173.702762
 30
0.0
 11
4.139323
 21
-187.80628
 31
0.0
  0
LINE
  5
3E
100
AcDbEntity
  8
0
 48
0.1
100
AcDbLine
 10
6.599336
 20
-189.9587
 30
0.0
 11
7.550505
 21
-190.909869
 31
0.0
  0
ARC
  5
3F
100
AcDbEntity
  8
0
 48
0.1
100
AcDbCircle
 10
8.257612
 20
-190.202762
 30
0.0
 40
1.0
100
AcDbArc
 50
225.0
 51
270.0
  0
ARC
  5
40
100
AcDbEntity
  8
0
100
AcDbCircle
 10
6.614993
 20
-187.458347
 30
0.0
 40
2.5
100
AcDbArc
 50
188.0
 51
269.0
  0
LINE
  5
41
100
AcDbEntity
  8
0
  6
HIDDEN
 62
     8
 48
0.04
100
AcDbLine
 10
0.262093
 20
-171.702762
 30
0.0
 11
0.157202
 21
-170.202762
 31
0.0
  0
LINE
  5
43
100
AcDbEntity
  8
0
100
AcDbLine
 10
0.262093
 20
-171.702762
 30
0.0
 11
0.401946
 21
-173.702762
 31
0.0
  0
ELLIPSE
  5
44
100
AcDbEntity
  8
0
100
AcDbEllipse
 10
36.183746
 20
-170.202762
 30
0.0
 11
0.0000000000000011
 21
2.499999999992382
 31
0.0
210
0.0
220
0.0
230
1.0
 40
0.707107
 41
0.0000000000000004
 42
1.570796326794897
  0
LINE
  5
45
100
AcDbEntity
  8
0
100
AcDbLine
 10
45.100335
 20
-189.874297
 30
0.0
 11
22.25893
 21
-190.276268
 31
0.0
  0
ARC
  5
46
100
AcDbEntity
  8
0
 48
0.1
100
AcDbCircle
 10
27.934331
 20
-190.702762
 30
0.0
 40
0.5
100
AcDbArc
 50
270.0
 51
334.837227
  0
LINE
  5
47
100
AcDbEntity
  8
0
100
AcDbLine
 10
19.016167
 20
-190.769032
 30
0.0
 11
20.391167
 21
-190.769032
 31
0.0
  0
LINE
  5
48
100
AcDbEntity
  8
0
 48
0.1
100
AcDbLine
 10
15.834659
 20
-190.200852
 30
0.0
 11
15.125643
 21
-190.909869
 31
0.0
  0
ARC
  5
49
100
AcDbEntity
  8
0
 48
0.1
100
AcDbCircle
 10
14.418536
 20
-190.202762
 30
0.0
 40
1.0
100
AcDbArc
 50
270.0
 51
315.0
  0
LINE
  5
4A
100
AcDbEntity
  8
0
  6
HIDDEN
 62
     8
 48
0.04
100
AcDbLine
 10
17.299042
 20
-188.884579
 30
0.0
 11
17.299042
 21
-190.244165
 31
0.0
  0
LINE
  5
4B
100
AcDbEntity
  8
0
100
AcDbLine
 10
19.016167
 20
-190.769032
 30
0.0
 11
18.523404
 21
-190.276268
 31
0.0
  0
LINE
  5
4C
100
AcDbEntity
  8
0
 48
0.1
100
AcDbLine
 10
25.686683
 20
-190.213164
 30
0.0
 11
26.016553
 21
-190.915358
 31
0.0
  0
LINE
  5
4D
100
AcDbEntity
  8
CENTER
 48
0.05
100
AcDbLine
 10
20.391167
 20
-187.926477
 30
0.0
 11
20.391167
 21
-193.352108
 31
0.0
  0
LINE
  5
50
100
AcDbEntity
  8
0
 48
0.1
100
AcDbLine
 10
27.934331
 20
-191.202762
 30
0.0
 11
26.469105
 21
-191.202762
 31
0.0
  0
LINE
  5
51
100
AcDbEntity
  8
0
 48
0.1
100
AcDbLine
 10
26.469105
 20
-191.202762
 30
0.0
 11
27.408444
 21
-191.202762
 31
0.0
  0
LINE
  5
52
100
AcDbEntity
  8
0
 48
0.1
100
AcDbLine
 10
27.408444
 20
-191.202762
 30
0.0
 11
26.469105
 21
-191.202762
 31
0.0
  0
ARC
  5
53
100
AcDbEntity
  8
0
 48
0.1
100
AcDbCircle
 10
26.469105
 20
-190.702762
 30
0.0
 40
0.5
100
AcDbArc
 50
205.162773
 51
270.0
  0
LINE
  5
54
100
AcDbEntity
  8
0
100
AcDbLine
 10
21.766167
 20
-190.769032
 30
0.0
 11
22.25893
 21
-190.276268
 31
0.0
  0
LINE
  5
55
100
AcDbEntity
  8
0
100
AcDbLine
 10
21.766167
 20
-190.769032
 30
0.0
 11
20.391167
 21
-190.769032
 31
0.0
  0
LINE
  5
56
100
AcDbEntity
  8
CENTER
 48
0.05
100
AcDbLine
 10
17.678351
 20
-173.769032
 30
0.0
 11
23.103983
 21
-173.769032
 31
0.0
  0
CIRCLE
  5
57
100
AcDbEntity
  8
0
100
AcDbCircle
 10
20.391167
 20
-173.769032
 30
0.0
 40
1.3125
  0
LINE
  5
58
100
AcDbEntity
  8
0
  6
HIDDEN
 62
     8
 48
0.04
100
AcDbLine
 10
13.635127
 20
-171.702762
 30
0.0
 11
13.635127
 21
-170.202762
 31
0.0
  0
LINE
  5
59
100
AcDbEntity
  8
0
  6
HIDDEN
 62
     8
 48
0.04
100
AcDbLine
 10
15.07133
 20
-171.702762
 30
0.0
 11
15.07133
 21
-170.202762
 31
0.0
  0
LINE
  5
5A
100
AcDbEntity
  8
0
100
AcDbLine
 10
15.07133
 20
-171.702762
 30
0.0
 11
15.07133
 21
-173.702762
 31
0.0
  0
LINE
  5
5B
100
AcDbEntity
  8
0
100
AcDbLine
 10
13.635127
 20
-171.702762
 30
0.0
 11
13.635127
 21
-173.702762
 31
0.0
  0
LINE
  5
5C
100
AcDbEntity
  8
CENTER
 48
0.05
100
AcDbLine
 10
20.391167
 20
-171.056216
 30
0.0
 11
20.391167
 21
-176.481847
 31
0.0
  0
LINE
  5
5D
100
AcDbEntity
  8
0
 48
15.0
100
AcDbLine
 10
28.200102
 20
-171.702762
 30
0.0
 11
28.200102
 21
-176.123357
 31
0.0
  0
LINE
  5
5E
100
AcDbEntity
  8
0
  6
HIDDEN
 62
     8
 48
0.04
100
AcDbLine
 10
28.200102
 20
-171.702762
 30
0.0
 11
28.200102
 21
-170.202762
 31
0.0
  0
LINE
  5
5F
100
AcDbEntity
  8
0
100
AcDbLine
 10
36.326883
 20
-191.202762
 30
0.0
 11
42.487807
 21
-191.202762
 31
0.0
  0
LINE
  5
60
100
AcDbEntity
  8
0
 48
0.1
100
AcDbLine
 10
28.741804
 20
-190.159836
 30
0.0
 11
28.386882
 21
-190.915358
 31
0.0
  0
LINE
  5
61
100
AcDbEntity
  8
0
 48
0.1
100
AcDbLine
 10
34.764615
 20
-190.054708
 30
0.0
 11
35.619776
 21
-190.909869
 31
0.0
  0
ARC
  5
62
100
AcDbEntity
  8
0
 48
0.1
100
AcDbCircle
 10
36.326883
 20
-190.202762
 30
0.0
 40
1.0
100
AcDbArc
 50
225.0
 51
270.0
  0
LINE
  5
63
100
AcDbEntity
  8
0
  6
HIDDEN
 62
     8
 48
0.04
100
AcDbLine
 10
29.383672
 20
-188.652494
 30
0.0
 11
29.383672
 21
-190.104448
 31
0.0
  0
LINE
  5
64
100
AcDbEntity
  8
0
 48
0.1
100
AcDbLine
 10
44.215032
 20
-189.88975
 30
0.0
 11
43.194914
 21
-190.909869
 31
0.0
  0
ARC
  5
65
100
AcDbEntity
  8
0
 48
0.1
100
AcDbCircle
 10
42.487807
 20
-190.202762
 30
0.0
 40
1.0
100
AcDbArc
 50
270.0
 51
315.0
  0
LINE
  5
66
100
AcDbEntity
  8
0
100
AcDbLine
 10
31.200102
 20
-171.702762
 30
0.0
 11
31.200102
 21
-176.788441
 31
0.0
  0
LINE
  5
67
100
AcDbEntity
  8
0
  6
HIDDEN
 62
     8
 48
0.04
100
AcDbLine
 10
36.533207
 20
-175.351081
 30
0.0
 11
28.442115
 21
-173.631266
 31
0.0
  0
LINE
  5
68
100
AcDbEntity
  8
0
  6
HIDDEN
 62
     8
 48
0.04
100
AcDbLine
 10
28.97103
 20
-174.063172
 30
0.0
 11
34.970446
 21
-175.338387
 31
0.0
  0
LINE
  5
69
100
AcDbEntity
  8
0
  6
HIDDEN
 62
     8
 48
0.04
100
AcDbLine
 10
28.440325
 20
-173.119715
 30
0.0
 11
36.637162
 21
-174.862007
 31
0.0
  0
LINE
  5
6A
100
AcDbEntity
  8
0
  6
HIDDEN
 62
     8
 48
0.04
100
AcDbLine
 10
35.204346
 20
-174.237971
 30
0.0
 11
28.967002
 21
-172.912182
 31
0.0
  0
ELLIPSE
  5
6B
100
AcDbEntity
  8
0
  6
HIDDEN
 62
     8
 48
0.04
100
AcDbEllipse
 10
28.967897
 20
-173.167958
 30
0.0
 11
-0.0470709163980518
 21
0.2566176122914717
 31
0.0
210
0.0
220
0.0
230
1.0
 40
0.660595
 41
4.446629211387418
 42
6.017425538182325
  0
ELLIPSE
  5
6C
100
AcDbEntity
  8
0
  6
HIDDEN
 62
     8
 48
0.04
100
AcDbEllipse
 10
28.970135
 20
-173.807396
 30
0.0
 11
-0.0470709163980378
 21
0.2566176122915004
 31
0.0
210
0.0
220
0.0
230
1.0
 40
0.660595
 41
2.875832884592636
 42
4.446629211387493
  0
LINE
  5
70
100
AcDbEntity
  8
0
  6
HIDDEN
 62
     8
 48
0.04
100
AcDbLine
 10
28.442115
 20
-173.631266
 30
0.0
 11
28.440325
 21
-173.119715
 31
0.0
  0
LINE
  5
71
100
AcDbEntity
  8
0
  6
HIDDEN
 62
     8
 48
0.04
100
AcDbLine
 10
29.143829
 20
-173.205353
 30
0.0
 11
29.146067
 21
-173.844792
 31
0.0
  0
LINE
  5
72
100
AcDbEntity
  8
0
  6
HIDDEN
 62
     8
 48
0.04
100
AcDbLine
 10
28.442115
 20
-173.631266
 30
0.0
 11
28.663149
 21
-173.99773
 31
0.0
  0
LINE
  5
75
100
AcDbEntity
  8
0
  6
HIDDEN
 62
     8
 48
0.04
100
AcDbLine
 10
28.659121
 20
-172.84674
 30
0.0
 11
28.440325
 21
-173.119715
 31
0.0
  0
LINE
  5
76
100
AcDbEntity
  8
0
  6
HIDDEN
 62
     8
 48
0.04
100
AcDbLine
 10
31.200102
 20
-171.702762
 30
0.0
 11
31.200102
 21
-170.202762
 31
0.0
  0
LINE
  5
79
100
AcDbEntity
  8
0
  6
HIDDEN
 62
     8
 48
0.04
100
AcDbLine
 10
36.637162
 20
-174.862007
 30
0.0
 11
36.533207
 21
-175.351081
 31
0.0
  0
LINE
  5
7B
100
AcDbEntity
  8
0
  6
HIDDEN
 62
     8
 48
0.04
100
AcDbLine
 10
36.162563
 20
-175.591779
 30
0.0
 11
36.533207
 21
-175.351081
 31
0.0
  0
LINE
  5
7C
100
AcDbEntity
  8
0
  6
HIDDEN
 62
     8
 48
0.04
100
AcDbLine
 10
36.637162
 20
-174.862007
 30
0.0
 11
36.396464
 21
-174.491363
 31
0.0
  0
LINE
  5
7D
100
AcDbEntity
  8
0
  6
HIDDEN
 62
     8
 48
0.04
100
AcDbLine
 10
34.777887
 20
-175.041872
 30
0.0
 11
34.907831
 21
-174.43053
 31
0.0
  0
ARC
  5
7E
100
AcDbEntity
  8
0
  6
HIDDEN
 62
     8
 48
0.04
100
AcDbCircle
 10
35.022424
 20
-175.09385
 30
0.0
 40
0.25
100
AcDbArc
 50
168.0
 51
258.0
  0
ARC
  5
7F
100
AcDbEntity
  8
0
  6
HIDDEN
 62
     8
 48
0.04
100
AcDbCircle
 10
35.152368
 20
-174.482508
 30
0.0
 40
0.25
100
AcDbArc
 50
78.0
 51
168.0
  0
ELLIPSE
  5
80
100
AcDbEntity
  8
0
100
AcDbEllipse
 10
47.031895
 20
-170.202762
 30
0.0
 11
0.0
 21
1.999999999992382
 31
0.0
210
0.0
220
0.0
230
1.0
 40
0.679105
 41
4.712388980384689
 42
7.853981633974482
  0
LINE
  5
81
100
AcDbEntity
  8
0
100
AcDbLine
 10
56.534229
 20
-169.02204
 30
0.0
 11
55.932621
 21
-170.202762
 31
0.0
  0
ARC
  5
82
100
AcDbEntity
  8
0
100
AcDbCircle
 10
58.043094
 20
-169.806333
 30
0.0
 40
1.700516
100
AcDbArc
 50
4.367644
 51
152.619048
  0
ARC
  5
83
100
AcDbEntity
  8
0
100
AcDbCircle
 10
58.043094
 20
-169.806333
 30
0.0
 40
2.075516
100
AcDbArc
 50
4.367644
 51
152.619048
  0
LINE
  5
84
100
AcDbEntity
  8
0
100
AcDbLine
 10
56.200101
 20
-168.851793
 30
0.0
 11
55.570134
 21
-170.202762
 31
0.0
  0
LINE
  5
85
100
AcDbEntity
  8
0
100
AcDbLine
 10
54.870673
 20
-171.702762
 30
0.0
 11
47.420357
 21
-187.680016
 31
0.0
  0
LINE
  5
86
100
AcDbEntity
  8
0
100
AcDbLine
 10
49.012099
 20
-187.964865
 30
0.0
 11
53.678527
 21
-174.446343
 31
0.0
  0
ARC
  5
87
100
AcDbEntity
  8
0
100
AcDbCircle
 10
48.523105
 20
-187.859012
 30
0.0
 40
0.5
100
AcDbArc
 50
272.0
 51
347.955954
  0
LINE
  5
88
100
AcDbEntity
  8
0
100
AcDbLine
 10
47.238748
 20
-188.358707
 30
0.0
 11
48.540555
 21
-188.358707
 31
0.0
  0
LINE
  5
89
100
AcDbEntity
  8
0
  6
HIDDEN
 62
     8
 48
0.04
100
AcDbLine
 10
55.570134
 20
-170.202762
 30
0.0
 11
54.870673
 21
-171.702762
 31
0.0
  0
LINE
  5
8A
100
AcDbEntity
  8
0
100
AcDbLine
 10
59.742011
 20
-169.705734
 30
0.0
 11
59.827996
 21
-170.260226
 31
0.0
  0
LINE
  5
8B
100
AcDbEntity
  8
0
100
AcDbLine
 10
60.112582
 20
-169.64827
 30
0.0
 11
60.198567
 21
-170.202762
 31
0.0
  0
LINE
  5
8C
100
AcDbEntity
  8
0
100
AcDbLine
 10
69.199927
 20
-170.702762
 30
0.0
 11
69.358312
 21
-171.702762
 31
0.0
  0
LINE
  5
8D
100
AcDbEntity
  8
0
100
AcDbLine
 10
69.199927
 20
-170.702762
 30
0.0
 11
68.699927
 21
-170.202762
 31
0.0
  0
LINE
  5
47B
100
AcDbEntity
  8
0
  6
HIDDEN
 62
     8
 48
0.04
100
AcDbLine
 10
34.970446
 20
-175.338387
 30
0.0
 11
36.162563
 21
-175.591779
 31
0.0
  0
LINE
  5
47C
100
AcDbEntity
  8
0
  6
HIDDEN
 62
     8
 48
0.04
100
AcDbLine
 10
35.152368
 20
-174.232508
 30
0.0
 11
36.396464
 21
-174.491363
 31
0.0
  0
ENDSEC
  0
SECTION
  2
OBJECTS
  0
DICTIONARY
  5
7
102
{ACAD_XDICTIONARY
360
CD
102
}
100
AcDbDictionary
  3
ACAD_GROUP
350
26
  3
ACAD_LAYOUT
350
B
  3
ACAD_MLINESTYLE
350
27
  3
ACAD_PLOTSETTINGS
350
28
  3
ACAD_PLOTSTYLENAME
350
6
  3
ACDBHEADERROUNDTRIPXREC
350
AB
  3
ACDBVARIABLEDICTIONARY
350
8E
  0
DICTIONARY
  5
9F
100
AcDbDictionary
280
     1
  3
ACAD_XREC_ROUNDTRIP
360
A0
  0
DICTIONARY
  5
A1
100
AcDbDictionary
280
     1
  3
ACAD_XREC_ROUNDTRIP
360
A2
  0
DICTIONARY
  5
A3
100
AcDbDictionary
280
     1
  3
ACAD_XREC_ROUNDTRIP
360
A4
  0
DICTIONARY
  5
11
100
AcDbDictionary
280
     1
  3
ACAD_LAYERFILTERS
360
12
  0
DICTIONARY
  5
D7
100
AcDbDictionary
280
     1
  3
ACAD_XREC_ROUNDTRIP
360
D8
  0
DICTIONARY
  5
A5
100
AcDbDictionary
280
     1
  3
ACAD_XREC_ROUNDTRIP
360
A6
  0
DICTIONARY
  5
A7
100
AcDbDictionary
280
     1
  3
ACAD_XREC_ROUNDTRIP
360
A8
  0
DICTIONARY
  5
D3
100
AcDbDictionary
280
     1
  3
ACAD_XREC_ROUNDTRIP
360
D4
  0
DICTIONARY
  5
9B
100
AcDbDictionary
280
     1
  3
ACAD_LAYOUTSELFREF
360
CC
  3
ACAD_XREC_ROUNDTRIP
360
9C
  0
DICTIONARY
  5
9D
100
AcDbDictionary
280
     1
  3
ACAD_LAYOUTSELFREF
360
D9
  3
ACAD_XREC_ROUNDTRIP
360
9E
  0
DICTIONARY
  5
CD
100
AcDbDictionary
280
     1
  3
ACAD_XREC_ROUNDTRIP
360
CE
  0
DICTIONARY
  5
26
102
{ACAD_REACTORS
330
7
102
}
100
AcDbDictionary
  0
DICTIONARY
  5
B
102
{ACAD_XDICTIONARY
360
CF
102
}
102
{ACAD_REACTORS
330
7
102
}
100
AcDbDictionary
  3
LAYOUT1
350
96
  3
MODEL
350
A
  0
DICTIONARY
  5
27
102
{ACAD_XDICTIONARY
360
D5
102
}
102
{ACAD_REACTORS
330
7
102
}
100
AcDbDictionary
  3
STANDARD
350
2A
  0
DICTIONARY
  5
28
102
{ACAD_REACTORS
330
7
102
}
100
AcDbDictionary
  0
ACAD_PROXY_OBJECT
  5
6
102
{ACAD_REACTORS
330
7
102
}
100
AcDbProxyObject
 90
      499
 91
      500
 93
       86
310
405010041939BDC9B585B2
350
5
340
5
 94
        0
  0
DICTIONARY
  5
AB
102
{ACAD_REACTORS
330
7
102
}
100
AcDbDictionary
  3
CEPSNTYPE
350
B5
  3
DIMSTYLEDATA
350
B9
  3
FINGERPRINTGUID
350
B6
  3
HYPERLINKBASE
350
AE
  3
INSUNITS
350
B4
  3
LAYOUTDICT
350
B0
  3
LWETCUNION
350
B3
  3
PLOTSETDICT
350
B1
  3
PLOTSTYLNAMDICT
350
B2
  3
PSVPSCALE
350
B8
  3
PUCSBASE
350
BC
  3
PUCSORGBACK
350
C2
  3
PUCSORGBOTTOM
350
BE
  3
PUCSORGFRONT
350
C1
  3
PUCSORGLEFT
350
BF
  3
PUCSORGRIGHT
350
C0
  3
PUCSORGTOP
350
BD
  3
PUCSORTHOREF
350
BA
  3
PUCSORTHOVIEW
350
BB
  3
STYLESHEET
350
AF
  3
TSTACKALIGN
350
AC
  3
TSTACKSIZE
350
AD
  3
UCSBASE
350
C5
  3
UCSORGBACK
350
CB
  3
UCSORGBOTTOM
350
C7
  3
UCSORGFRONT
350
CA
  3
UCSORGLEFT
350
C8
  3
UCSORGRIGHT
350
C9
  3
UCSORGTOP
350
C6
  3
UCSORTHOREF
350
C3
  3
UCSORTHOVIEW
350
C4
  3
VERSIONGUID
350
B7
  0
DICTIONARY
  5
8E
102
{ACAD_REACTORS
330
7
102
}
100
AcDbDictionary
  3
DIMASSOC
350
90
  3
HIDETEXT
350
8F
  0
XRECORD
  5
A0
102
{ACAD_REACTORS
330
9F
102
}
100
AcDbXrecord
102
EXTNAMES
  1
BYBLOCK
  2
ByBlock
  0
XRECORD
  5
A2
102
{ACAD_REACTORS
330
A1
102
}
100
AcDbXrecord
102
EXTNAMES
  1
BYLAYER
  2
ByLayer
  0
XRECORD
  5
A4
102
{ACAD_REACTORS
330
A3
102
}
100
AcDbXrecord
102
EXTNAMES
  1
CONTINUOUS
  2
Continuous
  0
DICTIONARY
  5
12
102
{ACAD_XDICTIONARY
360
D1
102
}
102
{ACAD_REACTORS
330
11
102
}
100
AcDbDictionary
280
     1
  3
DIM-1_12
360
13
  3
DIM-1_16
360
14
  0
XRECORD
  5
D8
102
{ACAD_REACTORS
330
D7
102
}
100
AcDbXrecord
102
LINEWEIGHT
280
     3
  0
XRECORD
  5
A6
102
{ACAD_REACTORS
330
A5
102
}
100
AcDbXrecord
102
EXTNAMES
  1
STANDARD
  2
Standard
  0
XRECORD
  5
A8
102
{ACAD_REACTORS
330
A7
102
}
100
AcDbXrecord
102
EXTNAMES
  1
ROMANS
  2
romans
  0
XRECORD
  5
D4
102
{ACAD_REACTORS
330
D3
102
}
100
AcDbXrecord
102
ACADR14ROUNDTRIP
1000
DSTYLE
1002
{
1070
    79
 70
     1
1070
   276
 70
     1
1070
   277
 70
     5
1070
   289
 70
     1
1002
}
  0
XRECORD
  5
CC
102
{ACAD_REACTORS
330
9B
102
}
100
AcDbXrecord
340
2
  0
XRECORD
  5
9C
102
{ACAD_REACTORS
330
9B
102
}
100
AcDbXrecord
102
EXTNAMES
  1
*MODEL_SPACE
  2
*Model_Space
  0
XRECORD
  5
D9
102
{ACAD_REACTORS
330
9D
102
}
100
AcDbXrecord
340
95
  0
XRECORD
  5
9E
102
{ACAD_REACTORS
330
9D
102
}
100
AcDbXrecord
102
EXTNAMES
  1
*PAPER_SPACE
  2
*Paper_Space
  0
XRECORD
  5
CE
102
{ACAD_REACTORS
330
CD
102
}
100
AcDbXrecord
102
EXTNAMES
  1
ACDBVARIABLEDICTIONARY
  2
AcDbVariableDictionary
  0
DICTIONARY
  5
CF
100
AcDbDictionary
280
     1
  3
ACAD_XREC_ROUNDTRIP
360
D0
  0
ACAD_PROXY_OBJECT
  5
96
102
{ACAD_REACTORS
330
B
102
}
100
AcDbProxyObject
 90
      499
 91
      502
 93
      604
310
9104850204465736B4A65742031313230432C00AAAAAA416AA591069074C61796F75743140501A800000000000000000000000000000000000000000000A1000000000000008902A6A6AAAA5
330
95
330
0
340
0
340
0
 94
        0
  0
ACAD_PROXY_OBJECT
  5
A
102
{ACAD_REACTORS
330
B
102
}
100
AcDbProxyObject
 90
      499
 91
      502
 93
      668
310
91D4850204C617365724A65742038313030205365726965732050434C20362C01AAAAAAAAA5A69054D6F64656C901A800000000000000000000000000000000000000000000A1000000000000008902A6A6AAAAF
330
2
330
0
340
0
340
0
 94
        0
  0
DICTIONARY
  5
D5
100
AcDbDictionary
280
     1
  3
ACAD_XREC_ROUNDTRIP
360
D6
  0
MLINESTYLE
  5
2A
102
{ACAD_REACTORS
330
27
102
}
100
AcDbMlineStyle
  2
STANDARD
 70
     0
  3

 62
   256
 51
90.0
 52
90.0
 71
     2
 49
0.5
 62
   256
  6
BYLAYER
 49
-0.5
 62
   256
  6
BYLAYER
  0
ACAD_PROXY_OBJECT
  5
5
102
{ACAD_REACTORS
330
6
102
}
100
AcDbProxyObject
 90
      499
 91
      501
 93
        0
 94
        0
  0
XRECORD
  5
B5
102
{ACAD_REACTORS
330
AB
102
}
100
AcDbXrecord
 90
        0
  0
XRECORD
  5
B9
102
{ACAD_REACTORS
330
AB
102
}
100
AcDbXrecord
1000
DSTYLE
1002
{
1070
    79
 70
     1
1070
   276
 70
     1
1070
   277
 70
     5
1070
   289
 70
     1
1002
}
  0
XRECORD
  5
B6
102
{ACAD_REACTORS
330
AB
102
}
100
AcDbXrecord
  1
{6A4AC8E0-4F58-11D5-8420-0003476D26AB}
  0
XRECORD
  5
AE
102
{ACAD_REACTORS
330
AB
102
}
100
AcDbXrecord
  1

  0
XRECORD
  5
B4
102
{ACAD_REACTORS
330
AB
102
}
100
AcDbXrecord
 90
        1
  0
XRECORD
  5
B0
102
{ACAD_REACTORS
330
AB
102
}
100
AcDbXrecord
340
B
  0
XRECORD
  5
B3
102
{ACAD_REACTORS
330
AB
102
}
100
AcDbXrecord
 90
    10781
  0
XRECORD
  5
B1
102
{ACAD_REACTORS
330
AB
102
}
100
AcDbXrecord
340
28
  0
XRECORD
  5
B2
102
{ACAD_REACTORS
330
AB
102
}
100
AcDbXrecord
340
6
  0
XRECORD
  5
B8
102
{ACAD_REACTORS
330
AB
102
}
100
AcDbXrecord
 40
0.0
  0
XRECORD
  5
BC
102
{ACAD_REACTORS
330
AB
102
}
100
AcDbXrecord
340
0
  0
XRECORD
  5
C2
102
{ACAD_REACTORS
330
AB
102
}
100
AcDbXrecord
 10
0.0
 20
0.0
 30
0.0
  0
XRECORD
  5
BE
102
{ACAD_REACTORS
330
AB
102
}
100
AcDbXrecord
 10
0.0
 20
0.0
 30
0.0
  0
XRECORD
  5
C1
102
{ACAD_REACTORS
330
AB
102
}
100
AcDbXrecord
 10
0.0
 20
0.0
 30
0.0
  0
XRECORD
  5
BF
102
{ACAD_REACTORS
330
AB
102
}
100
AcDbXrecord
 10
0.0
 20
0.0
 30
0.0
  0
XRECORD
  5
C0
102
{ACAD_REACTORS
330
AB
102
}
100
AcDbXrecord
 10
0.0
 20
0.0
 30
0.0
  0
XRECORD
  5
BD
102
{ACAD_REACTORS
330
AB
102
}
100
AcDbXrecord
 10
0.0
 20
0.0
 30
0.0
  0
XRECORD
  5
BA
102
{ACAD_REACTORS
330
AB
102
}
100
AcDbXrecord
340
0
  0
XRECORD
  5
BB
102
{ACAD_REACTORS
330
AB
102
}
100
AcDbXrecord
 70
     0
  0
XRECORD
  5
AF
102
{ACAD_REACTORS
330
AB
102
}
100
AcDbXrecord
  1

  0
XRECORD
  5
AC
102
{ACAD_REACTORS
330
AB
102
}
100
AcDbXrecord
 90
        1
  0
XRECORD
  5
AD
102
{ACAD_REACTORS
330
AB
102
}
100
AcDbXrecord
 90
       70
  0
XRECORD
  5
C5
102
{ACAD_REACTORS
330
AB
102
}
100
AcDbXrecord
340
0
  0
XRECORD
  5
CB
102
{ACAD_REACTORS
330
AB
102
}
100
AcDbXrecord
 10
0.0
 20
0.0
 30
0.0
  0
XRECORD
  5
C7
102
{ACAD_REACTORS
330
AB
102
}
100
AcDbXrecord
 10
0.0
 20
0.0
 30
0.0
  0
XRECORD
  5
CA
102
{ACAD_REACTORS
330
AB
102
}
100
AcDbXrecord
 10
0.0
 20
0.0
 30
0.0
  0
XRECORD
  5
C8
102
{ACAD_REACTORS
330
AB
102
}
100
AcDbXrecord
 10
0.0
 20
0.0
 30
0.0
  0
XRECORD
  5
C9
102
{ACAD_REACTORS
330
AB
102
}
100
AcDbXrecord
 10
0.0
 20
0.0
 30
0.0
  0
XRECORD
  5
C6
102
{ACAD_REACTORS
330
AB
102
}
100
AcDbXrecord
 10
0.0
 20
0.0
 30
0.0
  0
XRECORD
  5
C3
102
{ACAD_REACTORS
330
AB
102
}
100
AcDbXrecord
340
0
  0
XRECORD
  5
C4
102
{ACAD_REACTORS
330
AB
102
}
100
AcDbXrecord
 70
     1
  0
XRECORD
  5
B7
102
{ACAD_REACTORS
330
AB
102
}
100
AcDbXrecord
  1
{EFEECA73-A7C6-46AC-BCB7-5BFF2B0C30F1}
  0
DICTIONARYVAR
  5
90
102
{ACAD_REACTORS
330
8E
102
}
100
DictionaryVariables
280
     0
  1
1
  0
DICTIONARYVAR
  5
8F
102
{ACAD_REACTORS
330
8E
102
}
100
DictionaryVariables
280
     0
  1
1
  0
DICTIONARY
  5
D1
100
AcDbDictionary
280
     1
  3
ACAD_XREC_ROUNDTRIP
360
D2
  0
XRECORD
  5
13
102
{ACAD_REACTORS
330
12
102
}
100
AcDbXrecord
  1
DIM-1_12
  1
DIM-1_12
  1
*
  1
*
 70
     0
  1
*
  1
*
  0
XRECORD
  5
14
102
{ACAD_REACTORS
330
12
102
}
100
AcDbXrecord
  1
dim-1_16
  1
*
  1
*
  1
*
 70
     0
  1
*
  1
*
  0
XRECORD
  5
D0
102
{ACAD_REACTORS
330
CF
102
}
100
AcDbXrecord
102
EXTNAMES
  1
LAYOUT1
  2
Layout1
  1
MODEL
  2
Model
  0
XRECORD
  5
D6
102
{ACAD_REACTORS
330
D5
102
}
100
AcDbXrecord
102
EXTNAMES
  1
STANDARD
  2
Standard
  0
XRECORD
  5
D2
102
{ACAD_REACTORS
330
D1
102
}
100
AcDbXrecord
102
EXTNAMES
  1
DIM-1_16
  2
dim-1_16
  0
ENDSEC
  0
EOF
